  0
SECTION
  2
HEADER
  9
$ACADVER
  1
AC1032
  9
$ACADMAINTVER
 90
      232
  9
$DWGCODEPAGE
  3
ANSI_1252
  9
$LASTSAVEDBY
  1
chris.williams
  9
$REQUIREDVERSIONS
160
                 0
  9
$INSBASE
 10
0.0
 20
0.0
 30
0.0
  9
$EXTMIN
 10
41.7366432245425
 20
5580.162942564515
 30
0.0
  9
$EXTMAX
 10
15457.74814146713
 20
12774.71743391822
 30
0.0
  9
$LIMMIN
 10
0.0
 20
0.0
  9
$LIMMAX
 10
12.0
 20
9.0
  9
$ORTHOMODE
 70
     0
  9
$REGENMODE
 70
     1
  9
$FILLMODE
 70
     1
  9
$QTEXTMODE
 70
     0
  9
$MIRRTEXT
 70
     0
  9
$LTSCALE
 40
1.0
  9
$ATTMODE
 70
     1
  9
$TEXTSIZE
 40
0.2
  9
$TRACEWID
 40
0.05
  9
$TEXTSTYLE
  7
Standard
  9
$CLAYER
  8
0
  9
$CELTYPE
  6
ByLayer
  9
$CECOLOR
 62
   242
  9
$CELTSCALE
 40
1.0
  9
$DISPSILH
 70
     0
  9
$DIMSCALE
 40
1.0
  9
$DIMASZ
 40
0.18
  9
$DIMEXO
 40
0.0625
  9
$DIMDLI
 40
0.38
  9
$DIMRND
 40
0.0
  9
$DIMDLE
 40
0.0
  9
$DIMEXE
 40
0.18
  9
$DIMTP
 40
0.0
  9
$DIMTM
 40
0.0
  9
$DIMTXT
 40
0.18
  9
$DIMCEN
 40
0.09
  9
$DIMTSZ
 40
0.0
  9
$DIMTOL
 70
     0
  9
$DIMLIM
 70
     0
  9
$DIMTIH
 70
     1
  9
$DIMTOH
 70
     1
  9
$DIMSE1
 70
     0
  9
$DIMSE2
 70
     0
  9
$DIMTAD
 70
     0
  9
$DIMZIN
 70
     0
  9
$DIMBLK
  1

  9
$DIMASO
 70
     1
  9
$DIMSHO
 70
     1
  9
$DIMPOST
  1

  9
$DIMAPOST
  1

  9
$DIMALT
 70
     0
  9
$DIMALTD
 70
     2
  9
$DIMALTF
 40
25.4
  9
$DIMLFAC
 40
1.0
  9
$DIMTOFL
 70
     0
  9
$DIMTVP
 40
0.0
  9
$DIMTIX
 70
     0
  9
$DIMSOXD
 70
     0
  9
$DIMSAH
 70
     0
  9
$DIMBLK1
  1

  9
$DIMBLK2
  1

  9
$DIMSTYLE
  2
Standard
  9
$DIMCLRD
 70
     0
  9
$DIMCLRE
 70
     0
  9
$DIMCLRT
 70
     0
  9
$DIMTFAC
 40
1.0
  9
$DIMGAP
 40
0.09
  9
$DIMJUST
 70
     0
  9
$DIMSD1
 70
     0
  9
$DIMSD2
 70
     0
  9
$DIMTOLJ
 70
     1
  9
$DIMTZIN
 70
     0
  9
$DIMALTZ
 70
     0
  9
$DIMALTTZ
 70
     0
  9
$DIMUPT
 70
     0
  9
$DIMDEC
 70
     4
  9
$DIMTDEC
 70
     4
  9
$DIMALTU
 70
     2
  9
$DIMALTTD
 70
     2
  9
$DIMTXSTY
  7
Standard
  9
$DIMAUNIT
 70
     0
  9
$DIMADEC
 70
     0
  9
$DIMALTRND
 40
0.0
  9
$DIMAZIN
 70
     0
  9
$DIMDSEP
 70
    46
  9
$DIMATFIT
 70
     3
  9
$DIMFRAC
 70
     0
  9
$DIMLDRBLK
  1

  9
$DIMLUNIT
 70
     2
  9
$DIMLWD
 70
    -2
  9
$DIMLWE
 70
    -2
  9
$DIMTMOVE
 70
     0
  9
$DIMFXL
 40
1.0
  9
$DIMFXLON
 70
     0
  9
$DIMJOGANG
 40
0.7853981633974483
  9
$DIMTFILL
 70
     0
  9
$DIMTFILLCLR
 70
     0
  9
$DIMARCSYM
 70
     0
  9
$DIMLTYPE
  6

  9
$DIMLTEX1
  6

  9
$DIMLTEX2
  6

  9
$DIMTXTDIRECTION
 70
     0
  9
$LUNITS
 70
     2
  9
$LUPREC
 70
     4
  9
$SKETCHINC
 40
0.1
  9
$FILLETRAD
 40
0.0
  9
$AUNITS
 70
     0
  9
$AUPREC
 70
     0
  9
$MENU
  1
.
  9
$ELEVATION
 40
0.0
  9
$PELEVATION
 40
0.0
  9
$THICKNESS
 40
0.0
  9
$LIMCHECK
 70
     0
  9
$CHAMFERA
 40
0.0
  9
$CHAMFERB
 40
0.0
  9
$CHAMFERC
 40
0.0
  9
$CHAMFERD
 40
0.0
  9
$SKPOLY
 70
     0
  9
$TDCREATE
 40
2458590.712384260
  9
$TDUCREATE
 40
2458590.295717593
  9
$TDUPDATE
 40
2460391.446273148
  9
$TDUUPDATE
 40
2460390.987939815
  9
$TDINDWG
 40
1.8766782407
  9
$TDUSRTIMER
 40
1.8766782407
  9
$USRTIMER
 70
     1
  9
$ANGBASE
 50
0.0
  9
$ANGDIR
 70
     0
  9
$PDMODE
 70
     0
  9
$PDSIZE
 40
0.0
  9
$PLINEWID
 40
0.0
  9
$SPLFRAME
 70
     0
  9
$SPLINETYPE
 70
     6
  9
$SPLINESEGS
 70
     8
  9
$HANDSEED
  5
2C6D
  9
$SURFTAB1
 70
     6
  9
$SURFTAB2
 70
     6
  9
$SURFTYPE
 70
     6
  9
$SURFU
 70
     6
  9
$SURFV
 70
     6
  9
$UCSBASE
  2

  9
$UCSNAME
  2

  9
$UCSORG
 10
0.0
 20
0.0
 30
0.0
  9
$UCSXDIR
 10
1.0
 20
0.0
 30
0.0
  9
$UCSYDIR
 10
0.0
 20
1.0
 30
0.0
  9
$UCSORTHOREF
  2

  9
$UCSORTHOVIEW
 70
     0
  9
$UCSORGTOP
 10
0.0
 20
0.0
 30
0.0
  9
$UCSORGBOTTOM
 10
0.0
 20
0.0
 30
0.0
  9
$UCSORGLEFT
 10
0.0
 20
0.0
 30
0.0
  9
$UCSORGRIGHT
 10
0.0
 20
0.0
 30
0.0
  9
$UCSORGFRONT
 10
0.0
 20
0.0
 30
0.0
  9
$UCSORGBACK
 10
0.0
 20
0.0
 30
0.0
  9
$PUCSBASE
  2

  9
$PUCSNAME
  2

  9
$PUCSORG
 10
0.0
 20
0.0
 30
0.0
  9
$PUCSXDIR
 10
1.0
 20
0.0
 30
0.0
  9
$PUCSYDIR
 10
0.0
 20
1.0
 30
0.0
  9
$PUCSORTHOREF
  2

  9
$PUCSORTHOVIEW
 70
     0
  9
$PUCSORGTOP
 10
0.0
 20
0.0
 30
0.0
  9
$PUCSORGBOTTOM
 10
0.0
 20
0.0
 30
0.0
  9
$PUCSORGLEFT
 10
0.0
 20
0.0
 30
0.0
  9
$PUCSORGRIGHT
 10
0.0
 20
0.0
 30
0.0
  9
$PUCSORGFRONT
 10
0.0
 20
0.0
 30
0.0
  9
$PUCSORGBACK
 10
0.0
 20
0.0
 30
0.0
  9
$USERI1
 70
     0
  9
$USERI2
 70
     0
  9
$USERI3
 70
     0
  9
$USERI4
 70
     0
  9
$USERI5
 70
     0
  9
$USERR1
 40
0.0
  9
$USERR2
 40
0.0
  9
$USERR3
 40
0.0
  9
$USERR4
 40
0.0
  9
$USERR5
 40
0.0
  9
$WORLDVIEW
 70
     1
  9
$SHADEDGE
 70
     3
  9
$SHADEDIF
 70
    70
  9
$TILEMODE
 70
     1
  9
$MAXACTVP
 70
    64
  9
$PINSBASE
 10
0.0
 20
0.0
 30
0.0
  9
$PLIMCHECK
 70
     0
  9
$PEXTMIN
 10
0.0
 20
0.0
 30
0.0
  9
$PEXTMAX
 10
0.0
 20
0.0
 30
0.0
  9
$PLIMMIN
 10
0.0
 20
0.0
  9
$PLIMMAX
 10
12.0
 20
9.0
  9
$UNITMODE
 70
     0
  9
$VISRETAIN
 70
     1
  9
$PLINEGEN
 70
     0
  9
$PSLTSCALE
 70
     1
  9
$TREEDEPTH
 70
  3020
  9
$CMLSTYLE
  2
Standard
  9
$CMLJUST
 70
     0
  9
$CMLSCALE
 40
1.0
  9
$PROXYGRAPHICS
 70
     1
  9
$MEASUREMENT
 70
     0
  9
$CELWEIGHT
370
    -1
  9
$ENDCAPS
280
     0
  9
$JOINSTYLE
280
     0
  9
$LWDISPLAY
290
     0
  9
$INSUNITS
 70
     1
  9
$HYPERLINKBASE
  1

  9
$STYLESHEET
  1

  9
$XEDIT
290
     1
  9
$CEPSNTYPE
380
     0
  9
$PSTYLEMODE
290
     1
  9
$FINGERPRINTGUID
  2
{A664ACF5-0397-114E-A9DC-C2EF34141AC4}
  9
$VERSIONGUID
  2
{296B1605-6521-BD4B-9DF2-B90E67382AFD}
  9
$EXTNAMES
290
     1
  9
$PSVPSCALE
 40
0.0
  9
$OLESTARTUP
290
     0
  9
$SORTENTS
280
   127
  9
$INDEXCTL
280
     0
  9
$HIDETEXT
280
     1
  9
$XCLIPFRAME
280
     2
  9
$HALOGAP
280
     0
  9
$OBSCOLOR
 70
   257
  9
$OBSLTYPE
280
     0
  9
$INTERSECTIONDISPLAY
280
     0
  9
$INTERSECTIONCOLOR
 70
   257
  9
$DIMASSOC
280
     2
  9
$PROJECTNAME
  1

  9
$CAMERADISPLAY
290
     0
  9
$LENSLENGTH
 40
50.0
  9
$CAMERAHEIGHT
 40
0.0
  9
$STEPSPERSEC
 40
2.0
  9
$STEPSIZE
 40
6.0
  9
$3DDWFPREC
 40
2.0
  9
$PSOLWIDTH
 40
0.25
  9
$PSOLHEIGHT
 40
4.0
  9
$LOFTANG1
 40
1.570796326794896
  9
$LOFTANG2
 40
1.570796326794896
  9
$LOFTMAG1
 40
0.0
  9
$LOFTMAG2
 40
0.0
  9
$LOFTPARAM
 70
     7
  9
$LOFTNORMALS
280
     1
  9
$LATITUDE
 40
37.795
  9
$LONGITUDE
 40
-122.394
  9
$NORTHDIRECTION
 40
0.0
  9
$TIMEZONE
 70
 -8000
  9
$LIGHTGLYPHDISPLAY
280
     1
  9
$TILEMODELIGHTSYNCH
280
     1
  9
$CMATERIAL
347
96
  9
$SOLIDHIST
280
     0
  9
$SHOWHIST
280
     1
  9
$DWFFRAME
280
     2
  9
$DGNFRAME
280
     0
  9
$REALWORLDSCALE
290
     1
  9
$INTERFERECOLOR
 62
     1
  9
$INTERFEREOBJVS
345
A3
  9
$INTERFEREVPVS
346
A0
  9
$CSHADOW
280
     0
  9
$SHADOWPLANELOCATION
 40
0.0
  0
ENDSEC
  0
SECTION
  2
CLASSES
  0
CLASS
  1
ACDBDICTIONARYWDFLT
  2
AcDbDictionaryWithDefault
  3
ObjectDBX Classes
 90
        0
 91
        1
280
     0
281
     0
  0
CLASS
  1
DICTIONARYVAR
  2
AcDbDictionaryVar
  3
ObjectDBX Classes
 90
        0
 91
        9
280
     0
281
     0
  0
CLASS
  1
TABLESTYLE
  2
AcDbTableStyle
  3
ObjectDBX Classes
 90
     4095
 91
        1
280
     0
281
     0
  0
CLASS
  1
MATERIAL
  2
AcDbMaterial
  3
ObjectDBX Classes
 90
     1153
 91
        3
280
     0
281
     0
  0
CLASS
  1
VISUALSTYLE
  2
AcDbVisualStyle
  3
ObjectDBX Classes
 90
     4095
 91
       24
280
     0
281
     0
  0
CLASS
  1
SCALE
  2
AcDbScale
  3
ObjectDBX Classes
 90
     1153
 91
       33
280
     0
281
     0
  0
CLASS
  1
MLEADERSTYLE
  2
AcDbMLeaderStyle
  3
ACDB_MLEADERSTYLE_CLASS
 90
     4095
 91
        2
280
     0
281
     0
  0
CLASS
  1
CELLSTYLEMAP
  2
AcDbCellStyleMap
  3
ObjectDBX Classes
 90
     1152
 91
        1
280
     0
281
     0
  0
CLASS
  1
EXACXREFPANELOBJECT
  2
ExAcXREFPanelObject
  3
EXAC_ESW
 90
     1025
 91
        1
280
     0
281
     0
  0
CLASS
  1
NPOCOLLECTION
  2
AcDbImpNonPersistentObjectsCollection
  3
ObjectDBX Classes
 90
     1153
 91
        1
280
     0
281
     0
  0
CLASS
  1
LAYER_INDEX
  2
AcDbLayerIndex
  3
ObjectDBX Classes
 90
        0
 91
        0
280
     0
281
     0
  0
CLASS
  1
SPATIAL_INDEX
  2
AcDbSpatialIndex
  3
ObjectDBX Classes
 90
        0
 91
        0
280
     0
281
     0
  0
CLASS
  1
IDBUFFER
  2
AcDbIdBuffer
  3
ObjectDBX Classes
 90
        0
 91
        0
280
     0
281
     0
  0
CLASS
  1
ACDBSECTIONVIEWSTYLE
  2
AcDbSectionViewStyle
  3
ObjectDBX Classes
 90
     1025
 91
        2
280
     0
281
     0
  0
CLASS
  1
ACDBDETAILVIEWSTYLE
  2
AcDbDetailViewStyle
  3
ObjectDBX Classes
 90
     1025
 91
        2
280
     0
281
     0
  0
CLASS
  1
SORTENTSTABLE
  2
AcDbSortentsTable
  3
ObjectDBX Classes
 90
        0
 91
        2
280
     0
281
     0
  0
ENDSEC
  0
SECTION
  2
TABLES
  0
TABLE
  2
VPORT
  5
8
330
0
100
AcDbSymbolTable
 70
     1
  0
VPORT
  5
94
330
8
100
AcDbSymbolTableRecord
100
AcDbViewportTableRecord
  2
*Active
 70
     0
 10
0.0
 20
0.0
 11
1.0
 21
1.0
 12
14937.60672488999
 22
15033.74027038483
 13
0.0
 23
0.0
 14
0.5
 24
0.5
 15
0.5
 25
0.5
 16
0.0
 26
0.0
 36
1.0
 17
0.0
 27
0.0
 37
0.0
 40
38465.27135181193
 41
1.238665526090675
 42
50.0
 43
0.0
 44
0.0
 50
0.0
 51
0.0
 71
     0
 72
  1000
 73
     1
 74
     3
 75
     0
 76
     1
 77
     0
 78
     0
281
     0
 65
     1
110
0.0
120
0.0
130
0.0
111
1.0
121
0.0
131
0.0
112
0.0
122
1.0
132
0.0
 79
     0
146
0.0
348
9F
 60
     3
 61
     5
292
     1
282
     1
141
0.0
142
0.0
 63
   250
421
  3355443
1001
ACAD_NAV_VCDISPLAY
1070
     3
  0
ENDTAB
  0
TABLE
  2
LTYPE
  5
5
330
0
100
AcDbSymbolTable
 70
     3
  0
LTYPE
  5
14
330
5
100
AcDbSymbolTableRecord
100
AcDbLinetypeTableRecord
  2
ByBlock
 70
     0
  3

 72
    65
 73
     0
 40
0.0
  0
LTYPE
  5
15
330
5
100
AcDbSymbolTableRecord
100
AcDbLinetypeTableRecord
  2
ByLayer
 70
     0
  3

 72
    65
 73
     0
 40
0.0
  0
LTYPE
  5
16
330
5
100
AcDbSymbolTableRecord
100
AcDbLinetypeTableRecord
  2
Continuous
 70
     0
  3
Solid line
 72
    65
 73
     0
 40
0.0
  0
LTYPE
  5
A08
330
5
100
AcDbSymbolTableRecord
100
AcDbLinetypeTableRecord
  2
DOUBLE_DASH_CHAIN
 70
     0
  3
Double-Dash Chain ______  __  __  ______  __  _
 72
    65
 73
     6
 40
1.240299999999998
 49
0.6614
 74
     0
 49
-0.0827
 74
     0
 49
0.1654
 74
     0
 49
-0.0827
 74
     0
 49
0.1654
 74
     0
 49
-0.0827
 74
     0
  0
LTYPE
  5
C91
330
5
100
AcDbSymbolTableRecord
100
AcDbLinetypeTableRecord
  2
CHAIN
 70
     0
  3
Chain ____ _ ____ _ ____ _ ____ _ ____ _ ____
 72
    65
 73
     4
 40
0.7087
 49
0.4724000000000001
 74
     0
 49
-0.0591
 74
     0
 49
0.1181
 74
     0
 49
-0.0591
 74
     0
  0
ENDTAB
  0
TABLE
  2
LAYER
  5
2
102
{ACAD_XDICTIONARY
360
18E
102
}
330
0
100
AcDbSymbolTable
 70
    19
  0
LAYER
  5
10
102
{ACAD_XDICTIONARY
360
E6
102
}
330
2
100
AcDbSymbolTableRecord
100
AcDbLayerTableRecord
  2
0
 70
     0
 62
     7
  6
Continuous
370
    -3
390
F
347
98
348
0
  0
LAYER
  5
219
330
2
100
AcDbSymbolTableRecord
100
AcDbLayerTableRecord
  2
Visible (ANSI)
 70
     0
 62
     7
  6
Continuous
370
    50
390
F
347
98
348
0
  0
LAYER
  5
3A0
330
2
100
AcDbSymbolTableRecord
100
AcDbLayerTableRecord
  2
LINE
 70
     0
 62
     7
  6
Continuous
370
     5
390
F
347
98
348
0
1001
AcAecLayerStandard
1000

1000

1001
AcCmTransparency
1071
        0
  0
LAYER
  5
834
330
2
100
AcDbSymbolTableRecord
100
AcDbLayerTableRecord
  2
Dimensions
 70
     0
 62
     7
  6
Continuous
370
    -3
390
F
347
98
348
0
1001
AcAecLayerStandard
1000

1000

1001
AcCmTransparency
1071
        0
  0
LAYER
  5
835
330
2
100
AcDbSymbolTableRecord
100
AcDbLayerTableRecord
  2
Text
 70
     0
 62
     7
  6
Continuous
370
    -3
390
F
347
98
348
0
1001
AcAecLayerStandard
1000

1000

1001
AcCmTransparency
1071
        0
  0
LAYER
  5
836
330
2
100
AcDbSymbolTableRecord
100
AcDbLayerTableRecord
  2
Furniture
 70
     0
 62
     7
  6
Continuous
370
    -3
390
F
347
98
348
0
1001
AcAecLayerStandard
1000

1000

1001
AcCmTransparency
1071
        0
  0
LAYER
  5
A09
330
2
100
AcDbSymbolTableRecord
100
AcDbLayerTableRecord
  2
Detail Boundary (ANSI)
 70
     0
 62
     7
  6
DOUBLE_DASH_CHAIN
370
    50
390
F
347
98
348
0
  0
LAYER
  5
A0A
330
2
100
AcDbSymbolTableRecord
100
AcDbLayerTableRecord
  2
Dimension (ANSI)
 70
     0
 62
     7
  6
Continuous
370
    25
390
F
347
98
348
0
  0
LAYER
  5
A0B
330
2
100
AcDbSymbolTableRecord
100
AcDbLayerTableRecord
  2
Defpoints
 70
     0
 62
     7
  6
Continuous
290
     0
370
    -3
390
F
347
98
348
0
  0
LAYER
  5
C92
330
2
100
AcDbSymbolTableRecord
100
AcDbLayerTableRecord
  2
Border (ANSI)
 70
     0
 62
     7
  6
Continuous
370
    70
390
F
347
98
348
0
  0
LAYER
  5
C93
330
2
100
AcDbSymbolTableRecord
100
AcDbLayerTableRecord
  2
Dimension (ISO)
 70
     0
 62
     7
  6
Continuous
370
     5
390
F
347
98
348
0
  0
LAYER
  5
C94
330
2
100
AcDbSymbolTableRecord
100
AcDbLayerTableRecord
  2
Hatch (ISO)
 70
     0
 62
     7
  6
Continuous
370
     5
390
F
347
98
348
0
  0
LAYER
  5
C95
330
2
100
AcDbSymbolTableRecord
100
AcDbLayerTableRecord
  2
Layer 1
 70
     0
 62
     7
  6
Continuous
370
     5
390
F
347
98
348
0
  0
LAYER
  5
C96
330
2
100
AcDbSymbolTableRecord
100
AcDbLayerTableRecord
  2
Section Line (ISO)
 70
     0
 62
     7
  6
CHAIN
370
     9
390
F
347
98
348
0
  0
LAYER
  5
C97
330
2
100
AcDbSymbolTableRecord
100
AcDbLayerTableRecord
  2
Symbol (ISO)
 70
     0
 62
     7
  6
Continuous
370
     5
390
F
347
98
348
0
  0
LAYER
  5
C98
330
2
100
AcDbSymbolTableRecord
100
AcDbLayerTableRecord
  2
Title (ANSI)
 70
     0
 62
     7
  6
Continuous
370
    50
390
F
347
98
348
0
  0
LAYER
  5
C99
330
2
100
AcDbSymbolTableRecord
100
AcDbLayerTableRecord
  2
Title (ISO)
 70
     0
 62
     7
  6
Continuous
370
     5
390
F
347
98
348
0
  0
LAYER
  5
C9A
330
2
100
AcDbSymbolTableRecord
100
AcDbLayerTableRecord
  2
Visible (ISO)
 70
     0
 62
     7
  6
Continuous
370
     5
390
F
347
98
348
0
  0
LAYER
  5
C9B
330
2
100
AcDbSymbolTableRecord
100
AcDbLayerTableRecord
  2
Visible Narrow (ISO)
 70
     0
 62
     7
  6
Continuous
370
     5
390
F
347
98
348
0
  0
ENDTAB
  0
TABLE
  2
STYLE
  5
3
330
0
100
AcDbSymbolTable
 70
    11
  0
STYLE
  5
11
330
3
100
AcDbSymbolTableRecord
100
AcDbTextStyleTableRecord
  2
Standard
 70
     0
 40
0.0
 41
1.0
 50
0.0
 71
     0
 42
0.2
  3
arial.ttf
  4

1001
ACAD
1000
Arial
1071
       34
  0
STYLE
  5
DC
330
3
100
AcDbSymbolTableRecord
100
AcDbTextStyleTableRecord
  2
Annotative
 70
     0
 40
0.0
 41
1.0
 50
0.0
 71
     0
 42
0.2
  3
arial.ttf
  4

1001
AcadAnnotative
1000
AnnotativeData
1002
{
1070
     1
1070
     1
1002
}
1001
ACAD
1000
Arial
1071
       34
  0
STYLE
  5
21A
330
3
100
AcDbSymbolTableRecord
100
AcDbTextStyleTableRecord
  2
Note Text (ANSI)
 70
     0
 40
0.0
 41
1.0
 50
0.0
 71
     0
 42
0.2
  3
apercu_regular-webfont.ttf
  4

1001
ACAD
1000
Apercu
1071
      256
  0
STYLE
  5
A0C
330
3
100
AcDbSymbolTableRecord
100
AcDbTextStyleTableRecord
  2
Label Text (ANSI)
 70
     0
 40
0.0
 41
1.0
 50
0.0
 71
     0
 42
0.2
  3
apercu_regular-webfont.ttf
  4

1001
ACAD
1000
Apercu
1071
      256
  0
STYLE
  5
C9C
330
3
100
AcDbSymbolTableRecord
100
AcDbTextStyleTableRecord
  2
Jardan Text - 3.05mm
 70
     0
 40
0.0
 41
1.0
 50
0.0
 71
     0
 42
0.2
  3
apercu_regular-webfont.ttf
  4

1001
ACAD
1000
Apercu
1071
      256
  0
STYLE
  5
C9D
330
3
100
AcDbSymbolTableRecord
100
AcDbTextStyleTableRecord
  2
Text Style74
 70
     0
 40
0.0
 41
1.0
 50
0.0
 71
     0
 42
0.2
  3
apercu_regular-webfont.ttf
  4

1001
ACAD
1000
Apercu
1071
      256
  0
STYLE
  5
C9E
330
3
100
AcDbSymbolTableRecord
100
AcDbTextStyleTableRecord
  2
Text Style75
 70
     0
 40
0.0
 41
1.0
 50
0.0
 71
     0
 42
0.2
  3
apercu_regular-webfont.ttf
  4

1001
ACAD
1000
Apercu
1071
      256
  0
STYLE
  5
C9F
330
3
100
AcDbSymbolTableRecord
100
AcDbTextStyleTableRecord
  2
Text Style81
 70
     0
 40
0.0
 41
1.0
 50
0.0
 71
     0
 42
0.2
  3
apercu_regular-webfont.ttf
  4

1001
ACAD
1000
Apercu
1071
      256
  0
STYLE
  5
CA0
330
3
100
AcDbSymbolTableRecord
100
AcDbTextStyleTableRecord
  2
Text Style66
 70
     0
 40
0.0
 41
1.0
 50
0.0
 71
     0
 42
0.2
  3
Font Bureau - MillerDisplay-Roman.ttf
  4

1001
ACAD
1000
MillerDisplay-Roman
1071
      256
  0
STYLE
  5
CA1
330
3
100
AcDbSymbolTableRecord
100
AcDbTextStyleTableRecord
  2
Text Style76
 70
     0
 40
0.0
 41
1.0
 50
0.0
 71
     0
 42
0.2
  3
apercu_regular-webfont.ttf
  4

1001
ACAD
1000
Apercu
1071
      256
  0
STYLE
  5
CA2
330
3
100
AcDbSymbolTableRecord
100
AcDbTextStyleTableRecord
  2
Text Style83
 70
     0
 40
0.0
 41
1.0
 50
0.0
 71
     0
 42
0.2
  3
apercu_regular-webfont.ttf
  4

1001
ACAD
1000
Apercu
1071
      256
  0
ENDTAB
  0
TABLE
  2
VIEW
  5
6
330
0
100
AcDbSymbolTable
 70
     0
  0
ENDTAB
  0
TABLE
  2
UCS
  5
7
330
0
100
AcDbSymbolTable
 70
     0
  0
ENDTAB
  0
TABLE
  2
APPID
  5
9
330
0
100
AcDbSymbolTable
 70
    12
  0
APPID
  5
12
330
9
100
AcDbSymbolTableRecord
100
AcDbRegAppTableRecord
  2
ACAD
 70
     0
  0
APPID
  5
DD
330
9
100
AcDbSymbolTableRecord
100
AcDbRegAppTableRecord
  2
AcadAnnoPO
 70
     0
  0
APPID
  5
DE
330
9
100
AcDbSymbolTableRecord
100
AcDbRegAppTableRecord
  2
AcadAnnotative
 70
     0
  0
APPID
  5
DF
330
9
100
AcDbSymbolTableRecord
100
AcDbRegAppTableRecord
  2
ACAD_DSTYLE_DIMJAG
 70
     0
  0
APPID
  5
E0
330
9
100
AcDbSymbolTableRecord
100
AcDbRegAppTableRecord
  2
ACAD_DSTYLE_DIMTALN
 70
     0
  0
APPID
  5
107
330
9
100
AcDbSymbolTableRecord
100
AcDbRegAppTableRecord
  2
ACAD_MLEADERVER
 70
     0
  0
APPID
  5
1A6
330
9
100
AcDbSymbolTableRecord
100
AcDbRegAppTableRecord
  2
ACAD_NAV_VCDISPLAY
 70
     0
  0
APPID
  5
20D
330
9
100
AcDbSymbolTableRecord
100
AcDbRegAppTableRecord
  2
ACAD_EXEMPT_FROM_CAD_STANDARDS
 70
     0
  0
APPID
  5
3A2
330
9
100
AcDbSymbolTableRecord
100
AcDbRegAppTableRecord
  2
ACAD_PSEXT
 70
     0
  0
APPID
  5
3A3
330
9
100
AcDbSymbolTableRecord
100
AcDbRegAppTableRecord
  2
AcAecLayerStandard
 70
     0
  0
APPID
  5
3A4
330
9
100
AcDbSymbolTableRecord
100
AcDbRegAppTableRecord
  2
AcCmTransparency
 70
     0
  0
APPID
  5
CA4
330
9
100
AcDbSymbolTableRecord
100
AcDbRegAppTableRecord
  2
ACAD_DSTYLE_DIMRADIAL_EXTENSION
 70
     0
  0
ENDTAB
  0
TABLE
  2
DIMSTYLE
  5
A
330
0
100
AcDbSymbolTable
 70
     5
100
AcDbDimStyleTable
 71
     2
340
27
340
E1
  0
DIMSTYLE
105
27
330
A
100
AcDbSymbolTableRecord
100
AcDbDimStyleTableRecord
  2
Standard
 70
     0
340
11
  0
DIMSTYLE
105
E1
330
A
100
AcDbSymbolTableRecord
100
AcDbDimStyleTableRecord
  2
Annotative
 70
     0
 40
0.0
340
11
1001
AcadAnnotative
1000
AnnotativeData
1002
{
1070
     1
1070
     1
1002
}
1001
ACAD_DSTYLE_DIMJAG
1070
   388
1040
1.5
1001
ACAD_DSTYLE_DIMTALN
1070
   392
1070
     0
  0
DIMSTYLE
105
21B
330
A
100
AcDbSymbolTableRecord
100
AcDbDimStyleTableRecord
  2
Default - mm (ANSI)
 70
     0
 40
8.0
 41
2.5
 42
1.600199999999999
 43
5.999999999999999
 44
3.174999999999998
 45
0.00000001
 73
     0
 78
    12
 79
     1
140
3.048000097274779
143
1.0
147
0.8
171
     0
176
   256
177
   256
178
   256
271
     1
272
     2
274
     1
284
     4
285
     4
340
21A
342
215
371
    -1
372
    -1
  0
DIMSTYLE
105
3A1
330
A
100
AcDbSymbolTableRecord
100
AcDbDimStyleTableRecord
  2
ISO-25
 70
     0
 41
2.5
 42
0.625
 43
3.75
 44
1.25
 73
     0
 74
     0
 77
     1
 78
     8
140
2.5
141
2.5
143
0.03937007874016
147
0.625
171
     3
172
     1
271
     2
272
     2
274
     3
278
    44
283
     0
284
     8
340
11
  0
DIMSTYLE
105
CA3
330
A
100
AcDbSymbolTableRecord
100
AcDbDimStyleTableRecord
  2
Jardan Dimension Style
 70
     0
 40
6.0
 41
2.5
 42
1.587499999999999
 43
5.999999999999999
 44
3.174999999999998
 45
0.00000001
 73
     0
 78
    12
 79
     3
140
3.050000190734863
143
1.0
146
0.9993442296981811
147
0.8
171
     1
176
   256
177
   256
178
   256
271
     1
272
     2
274
     1
284
     4
285
    12
340
C9C
342
215
371
    -1
372
    -1
  0
ENDTAB
  0
TABLE
  2
BLOCK_RECORD
  5
1
330
0
100
AcDbSymbolTable
 70
     7
  0
BLOCK_RECORD
  5
1F
102
{ACAD_XDICTIONARY
360
15D
102
}
330
1
100
AcDbSymbolTableRecord
100
AcDbBlockTableRecord
  2
*Model_Space
340
22
 70
     0
280
     1
281
     0
  0
BLOCK_RECORD
  5
58
330
1
100
AcDbSymbolTableRecord
100
AcDbBlockTableRecord
  2
*Paper_Space
340
59
 70
     0
280
     1
281
     0
  0
BLOCK_RECORD
  5
5D
330
1
100
AcDbSymbolTableRecord
100
AcDbBlockTableRecord
  2
*Paper_Space0
340
5E
 70
     0
280
     1
281
     0
  0
BLOCK_RECORD
  5
215
330
1
100
AcDbSymbolTableRecord
100
AcDbBlockTableRecord
  2
_Oblique
340
0
 70
     0
280
     1
281
     0
  0
BLOCK_RECORD
  5
9E0
330
1
100
AcDbSymbolTableRecord
100
AcDbBlockTableRecord
  2
2dDetail0
340
0
 70
     0
280
     1
281
     0
  0
BLOCK_RECORD
  5
AAC
102
{ACAD_XDICTIONARY
360
AAE
102
}
330
1
100
AcDbSymbolTableRecord
100
AcDbBlockTableRecord
  2
A$Cf8f4d3a2
340
0
 70
     1
280
     1
281
     0
  0
BLOCK_RECORD
  5
AB4
330
1
100
AcDbSymbolTableRecord
100
AcDbBlockTableRecord
  2
Borders Default Border
340
0
 70
     0
280
     1
281
     0
  0
BLOCK_RECORD
  5
AFA
330
1
100
AcDbSymbolTableRecord
100
AcDbBlockTableRecord
  2
Title Blocks ANSI - Large
340
0
 70
     0
280
     1
281
     0
  0
BLOCK_RECORD
  5
C3F
330
1
100
AcDbSymbolTableRecord
100
AcDbBlockTableRecord
  2
2dTransSection0
340
0
 70
     0
280
     1
281
     0
  0
ENDTAB
  0
ENDSEC
  0
SECTION
  2
BLOCKS
  0
BLOCK
  5
20
330
1F
100
AcDbEntity
  8
0
100
AcDbBlockBegin
  2
*Model_Space
 70
     0
 10
0.0
 20
0.0
 30
0.0
  3
*Model_Space
  1

  0
ENDBLK
  5
21
330
1F
100
AcDbEntity
  8
0
100
AcDbBlockEnd
  0
BLOCK
  5
5A
330
58
100
AcDbEntity
 67
     1
  8
0
100
AcDbBlockBegin
  2
*Paper_Space
 70
     0
 10
0.0
 20
0.0
 30
0.0
  3
*Paper_Space
  1

  0
ENDBLK
  5
5B
330
58
100
AcDbEntity
 67
     1
  8
0
100
AcDbBlockEnd
  0
BLOCK
  5
5F
330
5D
100
AcDbEntity
 67
     1
  8
0
100
AcDbBlockBegin
  2
*Paper_Space0
 70
     0
 10
0.0
 20
0.0
 30
0.0
  3
*Paper_Space0
  1

  0
ENDBLK
  5
60
330
5D
100
AcDbEntity
 67
     1
  8
0
100
AcDbBlockEnd
  0
BLOCK
  5
216
330
215
100
AcDbEntity
  8
0
100
AcDbBlockBegin
  2
_Oblique
 70
     0
 10
0.0
 20
0.0
 30
0.0
  3
_Oblique
  1

  0
LINE
  5
217
330
215
100
AcDbEntity
  8
0
  6
ByBlock
 62
     0
370
    -2
100
AcDbLine
 10
-0.5
 20
-0.5
 30
0.0
 11
0.5
 21
0.5
 31
0.0
  0
ENDBLK
  5
218
330
215
100
AcDbEntity
  8
0
100
AcDbBlockEnd
  0
BLOCK
  5
9E1
330
9E0
100
AcDbEntity
  8
0
100
AcDbBlockBegin
  2
2dDetail0
 70
     0
 10
0.0
 20
0.0
 30
0.0
  3
2dDetail0
  1

  0
MTEXT
  5
9E2
330
9E0
100
AcDbEntity
  8
Detail Boundary (ANSI)
100
AcDbMText
 10
155.6428435204584
 20
245.5465072017415
 30
0.0
 40
3.050000071525573
 41
0.0
 46
0.0
 71
     7
 72
     1
  1
G
  7
Label Text (ANSI)
 73
     1
 44
1.0
  0
LINE
  5
9E3
330
9E0
100
AcDbEntity
  8
Detail Boundary (ANSI)
  6
Continuous
100
AcDbLine
 10
157.9246621124158
 20
245.5591878211596
 30
0.0
 11
158.7910248773636
 21
250.4835573807593
 31
0.0
  0
POLYLINE
  5
9E4
330
9E0
100
AcDbEntity
  8
Detail Boundary (ANSI)
  6
Continuous
100
AcDb2dPolyline
 66
     1
 10
0.0
 20
0.0
 30
0.0
 70
   128
  0
VERTEX
  5
9E5
330
9E4
100
AcDbEntity
  8
Detail Boundary (ANSI)
  6
Continuous
100
AcDbVertex
100
AcDb2dVertex
 10
158.9095401763916
 20
245.385913848877
 30
0.0
  0
VERTEX
  5
9E6
330
9E4
100
AcDbEntity
  8
Detail Boundary (ANSI)
  6
Continuous
100
AcDbVertex
100
AcDb2dVertex
 10
158.7910270690918
 20
250.4835510253907
 30
0.0
  0
VERTEX
  5
9E7
330
9E4
100
AcDbEntity
  8
Detail Boundary (ANSI)
  6
Continuous
100
AcDbVertex
100
AcDb2dVertex
 10
156.9397926330566
 20
245.7324600219727
 30
0.0
  0
VERTEX
  5
9E8
330
9E4
100
AcDbEntity
  8
Detail Boundary (ANSI)
  6
Continuous
100
AcDbVertex
100
AcDb2dVertex
 10
158.9095401763916
 20
245.385913848877
 30
0.0
  0
SEQEND
  5
9E9
330
9E4
100
AcDbEntity
  8
Detail Boundary (ANSI)
  6
Continuous
  0
SOLID
  5
9EA
330
9E0
100
AcDbEntity
  8
Detail Boundary (ANSI)
100
AcDbTrace
 10
158.9095401763916
 20
245.385913848877
 30
0.0
 11
158.7910270690918
 21
250.4835510253907
 31
0.0
 12
156.9397926330566
 22
245.7324600219727
 32
0.0
 13
158.9095401763916
 23
245.385913848877
 33
0.0
  0
LINE
  5
9EB
330
9E0
100
AcDbEntity
  8
Detail Boundary (ANSI)
  6
Continuous
100
AcDbLine
 10
158.9095360243357
 20
245.38591526817
 30
0.0
 11
158.7910248773636
 21
250.4835573807593
 31
0.0
  0
LINE
  5
9EC
330
9E0
100
AcDbEntity
  8
Detail Boundary (ANSI)
  6
Continuous
100
AcDbLine
 10
158.7910248773636
 20
250.4835573807593
 30
0.0
 11
156.9397882004959
 21
245.7324603741492
 31
0.0
  0
LINE
  5
9ED
330
9E0
100
AcDbEntity
  8
Detail Boundary (ANSI)
  6
Continuous
100
AcDbLine
 10
156.9397882004959
 20
245.7324603741492
 30
0.0
 11
158.9095360243357
 21
245.38591526817
 31
0.0
  0
LINE
  5
9EE
330
9E0
100
AcDbEntity
  8
Detail Boundary (ANSI)
  6
Continuous
100
AcDbLine
 10
155.3242423779327
 20
246.3223544465907
 30
0.0
 11
157.2564680834942
 21
250.9339164187176
 31
0.0
  0
POLYLINE
  5
9EF
330
9E0
100
AcDbEntity
  8
Detail Boundary (ANSI)
  6
Continuous
100
AcDb2dPolyline
 66
     1
 10
0.0
 20
0.0
 30
0.0
 70
   128
  0
VERTEX
  5
9F0
330
9EF
100
AcDbEntity
  8
Detail Boundary (ANSI)
  6
Continuous
100
AcDbVertex
100
AcDb2dVertex
 10
156.2465572357178
 20
245.9359169006348
 30
0.0
  0
VERTEX
  5
9F1
330
9EF
100
AcDbEntity
  8
Detail Boundary (ANSI)
  6
Continuous
100
AcDbVertex
100
AcDb2dVertex
 10
157.2564697265625
 20
250.9339141845703
 30
0.0
  0
VERTEX
  5
9F2
330
9EF
100
AcDbEntity
  8
Detail Boundary (ANSI)
  6
Continuous
100
AcDbVertex
100
AcDb2dVertex
 10
154.4019317626953
 20
246.7087936401367
 30
0.0
  0
VERTEX
  5
9F3
330
9EF
100
AcDbEntity
  8
Detail Boundary (ANSI)
  6
Continuous
100
AcDbVertex
100
AcDb2dVertex
 10
156.2465572357178
 20
245.9359169006348
 30
0.0
  0
SEQEND
  5
9F4
330
9EF
100
AcDbEntity
  8
Detail Boundary (ANSI)
  6
Continuous
  0
SOLID
  5
9F5
330
9E0
100
AcDbEntity
  8
Detail Boundary (ANSI)
100
AcDbTrace
 10
156.2465572357178
 20
245.9359169006348
 30
0.0
 11
157.2564697265625
 21
250.9339141845703
 31
0.0
 12
154.4019317626953
 22
246.7087936401367
 32
0.0
 13
156.2465572357178
 23
245.9359169006348
 33
0.0
  0
LINE
  5
9F6
330
9E0
100
AcDbEntity
  8
Detail Boundary (ANSI)
  6
Continuous
100
AcDbLine
 10
156.2465547723581
 20
245.9359093054783
 30
0.0
 11
157.2564680834942
 21
250.9339164187176
 31
0.0
  0
LINE
  5
9F7
330
9E0
100
AcDbEntity
  8
Detail Boundary (ANSI)
  6
Continuous
100
AcDbLine
 10
157.2564680834942
 20
250.9339164187176
 30
0.0
 11
154.4019299835073
 21
246.708799587703
 31
0.0
  0
LINE
  5
9F8
330
9E0
100
AcDbEntity
  8
Detail Boundary (ANSI)
  6
Continuous
100
AcDbLine
 10
154.4019299835073
 20
246.708799587703
 30
0.0
 11
156.2465547723581
 21
245.9359093054783
 31
0.0
  0
ARC
  5
9F9
330
9E0
100
AcDbEntity
  8
Detail Boundary (ANSI)
 48
1.455941200256346
100
AcDbCircle
 10
156.5818014028913
 20
245.7954423311355
 30
0.0
 40
1.363484902251759
100
AcDbArc
 50
157.2665142680308
 51
350.02185298144
  0
ENDBLK
  5
9FA
330
9E0
100
AcDbEntity
  8
0
100
AcDbBlockEnd
  0
BLOCK
  5
AB0
330
AAC
100
AcDbEntity
  8
0
 62
   242
420
 13443111
100
AcDbBlockBegin
  2
A$Cf8f4d3a2
 70
     0
 10
0.0
 20
0.0
 30
0.0
  3
A$Cf8f4d3a2
  1

  0
TEXT
  5
AAD
330
AAC
100
AcDbEntity
  8
LINE
100
AcDbText
 10
0.3944771342121385
 20
3.285995053749502
 30
0.0
 40
192.6907499518273
  1
AI45
 41
1.000399999999999
100
AcDbText
  0
ENDBLK
  5
AB1
330
AAC
100
AcDbEntity
  8
0
 62
   242
420
 13443111
100
AcDbBlockEnd
  0
BLOCK
  5
AB5
330
AB4
100
AcDbEntity
  8
0
100
AcDbBlockBegin
  2
Borders Default Border
 70
     0
 10
0.0
 20
0.0
 30
0.0
  3
Borders Default Border
  1

  0
POLYLINE
  5
AB6
330
AB4
100
AcDbEntity
  8
Border (ANSI)
100
AcDb2dPolyline
 66
     1
 10
0.0
 20
0.0
 30
0.0
 70
   128
  0
VERTEX
  5
AB7
330
AB6
100
AcDbEntity
  8
Border (ANSI)
100
AcDbVertex
100
AcDb2dVertex
 10
10.0
 20
10.0
 30
0.0
  0
VERTEX
  5
AB8
330
AB6
100
AcDbEntity
  8
Border (ANSI)
100
AcDbVertex
100
AcDb2dVertex
 10
10.0
 20
287.0000076293946
 30
0.0
  0
VERTEX
  5
AB9
330
AB6
100
AcDbEntity
  8
Border (ANSI)
100
AcDbVertex
100
AcDb2dVertex
 10
410.0
 20
287.0000076293946
 30
0.0
  0
VERTEX
  5
ABA
330
AB6
100
AcDbEntity
  8
Border (ANSI)
100
AcDbVertex
100
AcDb2dVertex
 10
410.0
 20
10.0
 30
0.0
  0
VERTEX
  5
ABB
330
AB6
100
AcDbEntity
  8
Border (ANSI)
100
AcDbVertex
100
AcDb2dVertex
 10
10.0
 20
10.0
 30
0.0
  0
SEQEND
  5
ABC
330
AB6
100
AcDbEntity
  8
Border (ANSI)
  0
POLYLINE
  5
ABD
330
AB4
100
AcDbEntity
  8
Border (ANSI)
100
AcDb2dPolyline
 66
     1
 10
0.0
 20
0.0
 30
0.0
 70
   128
  0
VERTEX
  5
ABE
330
ABD
100
AcDbEntity
  8
Border (ANSI)
100
AcDbVertex
100
AcDb2dVertex
 10
210.0
 20
0.0
 30
0.0
  0
VERTEX
  5
ABF
330
ABD
100
AcDbEntity
  8
Border (ANSI)
100
AcDbVertex
100
AcDb2dVertex
 10
210.0
 20
10.0
 30
0.0
  0
VERTEX
  5
AC0
330
ABD
100
AcDbEntity
  8
Border (ANSI)
100
AcDbVertex
100
AcDb2dVertex
 10
207.1132469177246
 20
5.0
 30
0.0
  0
VERTEX
  5
AC1
330
ABD
100
AcDbEntity
  8
Border (ANSI)
100
AcDbVertex
100
AcDb2dVertex
 10
212.8867530822754
 20
5.0
 30
0.0
  0
VERTEX
  5
AC2
330
ABD
100
AcDbEntity
  8
Border (ANSI)
100
AcDbVertex
100
AcDb2dVertex
 10
210.0
 20
10.0
 30
0.0
  0
SEQEND
  5
AC3
330
ABD
100
AcDbEntity
  8
Border (ANSI)
  0
POLYLINE
  5
AC4
330
AB4
100
AcDbEntity
  8
Border (ANSI)
100
AcDb2dPolyline
 66
     1
 10
0.0
 20
0.0
 30
0.0
 70
   128
  0
VERTEX
  5
AC5
330
AC4
100
AcDbEntity
  8
Border (ANSI)
100
AcDbVertex
100
AcDb2dVertex
 10
210.0
 20
297.0000076293946
 30
0.0
  0
VERTEX
  5
AC6
330
AC4
100
AcDbEntity
  8
Border (ANSI)
100
AcDbVertex
100
AcDb2dVertex
 10
210.0
 20
287.0000076293946
 30
0.0
  0
VERTEX
  5
AC7
330
AC4
100
AcDbEntity
  8
Border (ANSI)
100
AcDbVertex
100
AcDb2dVertex
 10
207.1132469177246
 20
292.0000076293945
 30
0.0
  0
VERTEX
  5
AC8
330
AC4
100
AcDbEntity
  8
Border (ANSI)
100
AcDbVertex
100
AcDb2dVertex
 10
212.8867530822754
 20
292.0000076293945
 30
0.0
  0
VERTEX
  5
AC9
330
AC4
100
AcDbEntity
  8
Border (ANSI)
100
AcDbVertex
100
AcDb2dVertex
 10
210.0
 20
287.0000076293946
 30
0.0
  0
SEQEND
  5
ACA
330
AC4
100
AcDbEntity
  8
Border (ANSI)
  0
POLYLINE
  5
ACB
330
AB4
100
AcDbEntity
  8
Border (ANSI)
100
AcDb2dPolyline
 66
     1
 10
0.0
 20
0.0
 30
0.0
 70
   128
  0
VERTEX
  5
ACC
330
ACB
100
AcDbEntity
  8
Border (ANSI)
100
AcDbVertex
100
AcDb2dVertex
 10
0.0
 20
148.5000038146973
 30
0.0
  0
VERTEX
  5
ACD
330
ACB
100
AcDbEntity
  8
Border (ANSI)
100
AcDbVertex
100
AcDb2dVertex
 10
10.0
 20
148.5000038146973
 30
0.0
  0
VERTEX
  5
ACE
330
ACB
100
AcDbEntity
  8
Border (ANSI)
100
AcDbVertex
100
AcDb2dVertex
 10
5.0
 20
151.3867473602295
 30
0.0
  0
VERTEX
  5
ACF
330
ACB
100
AcDbEntity
  8
Border (ANSI)
100
AcDbVertex
100
AcDb2dVertex
 10
5.0
 20
145.6132507324219
 30
0.0
  0
VERTEX
  5
AD0
330
ACB
100
AcDbEntity
  8
Border (ANSI)
100
AcDbVertex
100
AcDb2dVertex
 10
10.0
 20
148.5000038146973
 30
0.0
  0
SEQEND
  5
AD1
330
ACB
100
AcDbEntity
  8
Border (ANSI)
  0
POLYLINE
  5
AD2
330
AB4
100
AcDbEntity
  8
Border (ANSI)
100
AcDb2dPolyline
 66
     1
 10
0.0
 20
0.0
 30
0.0
 70
   128
  0
VERTEX
  5
AD3
330
AD2
100
AcDbEntity
  8
Border (ANSI)
100
AcDbVertex
100
AcDb2dVertex
 10
420.0
 20
148.5000038146973
 30
0.0
  0
VERTEX
  5
AD4
330
AD2
100
AcDbEntity
  8
Border (ANSI)
100
AcDbVertex
100
AcDb2dVertex
 10
410.0
 20
148.5000038146973
 30
0.0
  0
VERTEX
  5
AD5
330
AD2
100
AcDbEntity
  8
Border (ANSI)
100
AcDbVertex
100
AcDb2dVertex
 10
415.0
 20
151.3867473602295
 30
0.0
  0
VERTEX
  5
AD6
330
AD2
100
AcDbEntity
  8
Border (ANSI)
100
AcDbVertex
100
AcDb2dVertex
 10
415.0
 20
145.6132507324219
 30
0.0
  0
VERTEX
  5
AD7
330
AD2
100
AcDbEntity
  8
Border (ANSI)
100
AcDbVertex
100
AcDb2dVertex
 10
410.0
 20
148.5000038146973
 30
0.0
  0
SEQEND
  5
AD8
330
AD2
100
AcDbEntity
  8
Border (ANSI)
  0
LINE
  5
AD9
330
AB4
100
AcDbEntity
  8
Border (ANSI)
100
AcDbLine
 10
70.0
 20
10.0
 30
0.0
 11
70.0
 21
6.549999713897705
 31
0.0
  0
LINE
  5
ADA
330
AB4
100
AcDbEntity
  8
Border (ANSI)
100
AcDbLine
 10
70.0
 20
287.0000076293946
 30
0.0
 11
70.0
 21
290.4500007629394
 31
0.0
  0
LINE
  5
ADB
330
AB4
100
AcDbEntity
  8
Border (ANSI)
100
AcDbLine
 10
140.0
 20
10.0
 30
0.0
 11
140.0
 21
6.549999713897705
 31
0.0
  0
LINE
  5
ADC
330
AB4
100
AcDbEntity
  8
Border (ANSI)
100
AcDbLine
 10
140.0
 20
287.0000076293946
 30
0.0
 11
140.0
 21
290.4500007629394
 31
0.0
  0
LINE
  5
ADD
330
AB4
100
AcDbEntity
  8
Border (ANSI)
100
AcDbLine
 10
280.0
 20
10.0
 30
0.0
 11
280.0
 21
6.549999713897705
 31
0.0
  0
LINE
  5
ADE
330
AB4
100
AcDbEntity
  8
Border (ANSI)
100
AcDbLine
 10
280.0
 20
287.0000076293946
 30
0.0
 11
280.0
 21
290.4500007629394
 31
0.0
  0
LINE
  5
ADF
330
AB4
100
AcDbEntity
  8
Border (ANSI)
100
AcDbLine
 10
350.0
 20
10.0
 30
0.0
 11
350.0
 21
6.549999713897705
 31
0.0
  0
LINE
  5
AE0
330
AB4
100
AcDbEntity
  8
Border (ANSI)
100
AcDbLine
 10
350.0
 20
287.0000076293946
 30
0.0
 11
350.0
 21
290.4500007629394
 31
0.0
  0
MTEXT
  5
AE1
330
AB4
100
AcDbEntity
  8
Border (ANSI)
100
AcDbMText
 10
384.4889840936555
 20
287.4
 30
0.0
 40
3.050000071525573
 41
0.0
 46
0.0
 71
     7
 72
     1
  1
1
  7
Jardan Text - 3.05mm
 73
     1
 44
1.0
  0
MTEXT
  5
AE2
330
AB4
100
AcDbEntity
  8
Border (ANSI)
100
AcDbMText
 10
384.4889840936555
 20
6.549999928474425
 30
0.0
 40
3.050000071525573
 41
0.0
 46
0.0
 71
     7
 72
     1
  1
1
  7
Jardan Text - 3.05mm
 73
     1
 44
1.0
  0
MTEXT
  5
AE3
330
AB4
100
AcDbEntity
  8
Border (ANSI)
100
AcDbMText
 10
314.0525595443679
 20
287.4
 30
0.0
 40
3.050000071525573
 41
0.0
 46
0.0
 71
     7
 72
     1
  1
2
  7
Jardan Text - 3.05mm
 73
     1
 44
1.0
  0
MTEXT
  5
AE4
330
AB4
100
AcDbEntity
  8
Border (ANSI)
100
AcDbMText
 10
314.0525595443679
 20
6.549999928474425
 30
0.0
 40
3.050000071525573
 41
0.0
 46
0.0
 71
     7
 72
     1
  1
2
  7
Jardan Text - 3.05mm
 73
     1
 44
1.0
  0
MTEXT
  5
AE5
330
AB4
100
AcDbEntity
  8
Border (ANSI)
100
AcDbMText
 10
243.9980841009492
 20
287.3667583871633
 30
0.0
 40
3.050000071525573
 41
0.0
 46
0.0
 71
     7
 72
     1
  1
3
  7
Jardan Text - 3.05mm
 73
     1
 44
1.0
  0
MTEXT
  5
AE6
330
AB4
100
AcDbEntity
  8
Border (ANSI)
100
AcDbMText
 10
243.9980841009492
 20
6.516758315637706
 30
0.0
 40
3.050000071525573
 41
0.0
 46
0.0
 71
     7
 72
     1
  1
3
  7
Jardan Text - 3.05mm
 73
     1
 44
1.0
  0
MTEXT
  5
AE7
330
AB4
100
AcDbEntity
  8
Border (ANSI)
100
AcDbMText
 10
173.969363355126
 20
287.4
 30
0.0
 40
3.050000071525573
 41
0.0
 46
0.0
 71
     7
 72
     1
  1
4
  7
Jardan Text - 3.05mm
 73
     1
 44
1.0
  0
MTEXT
  5
AE8
330
AB4
100
AcDbEntity
  8
Border (ANSI)
100
AcDbMText
 10
173.969363355126
 20
6.549999928474425
 30
0.0
 40
3.050000071525573
 41
0.0
 46
0.0
 71
     7
 72
     1
  1
4
  7
Jardan Text - 3.05mm
 73
     1
 44
1.0
  0
MTEXT
  5
AE9
330
AB4
100
AcDbEntity
  8
Border (ANSI)
100
AcDbMText
 10
104.0649623239591
 20
287.3667583871633
 30
0.0
 40
3.050000071525573
 41
0.0
 46
0.0
 71
     7
 72
     1
  1
5
  7
Jardan Text - 3.05mm
 73
     1
 44
1.0
  0
MTEXT
  5
AEA
330
AB4
100
AcDbEntity
  8
Border (ANSI)
100
AcDbMText
 10
104.0649623239591
 20
6.516758315637706
 30
0.0
 40
3.050000071525573
 41
0.0
 46
0.0
 71
     7
 72
     1
  1
5
  7
Jardan Text - 3.05mm
 73
     1
 44
1.0
  0
MTEXT
  5
AEB
330
AB4
100
AcDbEntity
  8
Border (ANSI)
100
AcDbMText
 10
34.06276118366348
 20
287.3667583871633
 30
0.0
 40
3.050000071525573
 41
0.0
 46
0.0
 71
     7
 72
     1
  1
6
  7
Jardan Text - 3.05mm
 73
     1
 44
1.0
  0
MTEXT
  5
AEC
330
AB4
100
AcDbEntity
  8
Border (ANSI)
100
AcDbMText
 10
34.06276118366348
 20
6.516758315637706
 30
0.0
 40
3.050000071525573
 41
0.0
 46
0.0
 71
     7
 72
     1
  1
6
  7
Jardan Text - 3.05mm
 73
     1
 44
1.0
  0
LINE
  5
AED
330
AB4
100
AcDbEntity
  8
Border (ANSI)
100
AcDbLine
 10
10.0
 20
74.25000190734862
 30
0.0
 11
6.549999713897705
 21
74.25000190734862
 31
0.0
  0
LINE
  5
AEE
330
AB4
100
AcDbEntity
  8
Border (ANSI)
100
AcDbLine
 10
410.0
 20
74.25000190734862
 30
0.0
 11
413.4500122070312
 21
74.25000190734862
 31
0.0
  0
LINE
  5
AEF
330
AB4
100
AcDbEntity
  8
Border (ANSI)
100
AcDbLine
 10
10.0
 20
222.7499961853027
 30
0.0
 11
6.549999713897705
 21
222.7499961853027
 31
0.0
  0
LINE
  5
AF0
330
AB4
100
AcDbEntity
  8
Border (ANSI)
100
AcDbLine
 10
410.0
 20
222.7499961853027
 30
0.0
 11
413.4500122070312
 21
222.7499961853027
 31
0.0
  0
MTEXT
  5
AF1
330
AB4
100
AcDbEntity
  8
Border (ANSI)
100
AcDbMText
 10
6.838733204800115
 20
35.59999996423722
 30
0.0
 40
3.050000071525573
 41
0.0
 46
0.0
 71
     7
 72
     1
  1
A
  7
Jardan Text - 3.05mm
 73
     1
 44
1.0
  0
MTEXT
  5
AF2
330
AB4
100
AcDbEntity
  8
Border (ANSI)
100
AcDbMText
 10
410.6887332763255
 20
35.59999996423722
 30
0.0
 40
3.050000071525573
 41
0.0
 46
0.0
 71
     7
 72
     1
  1
A
  7
Jardan Text - 3.05mm
 73
     1
 44
1.0
  0
MTEXT
  5
AF3
330
AB4
100
AcDbEntity
  8
Border (ANSI)
100
AcDbMText
 10
7.133608695283178
 20
109.8499999642372
 30
0.0
 40
3.050000071525573
 41
0.0
 46
0.0
 71
     7
 72
     1
  1
B
  7
Jardan Text - 3.05mm
 73
     1
 44
1.0
  0
MTEXT
  5
AF4
330
AB4
100
AcDbEntity
  8
Border (ANSI)
100
AcDbMText
 10
410.9836087668086
 20
109.8499999642372
 30
0.0
 40
3.050000071525573
 41
0.0
 46
0.0
 71
     7
 72
     1
  1
B
  7
Jardan Text - 3.05mm
 73
     1
 44
1.0
  0
MTEXT
  5
AF5
330
AB4
100
AcDbEntity
  8
Border (ANSI)
100
AcDbMText
 10
6.807059047252097
 20
184.0667583514005
 30
0.0
 40
3.050000071525573
 41
0.0
 46
0.0
 71
     7
 72
     1
  1
C
  7
Jardan Text - 3.05mm
 73
     1
 44
1.0
  0
MTEXT
  5
AF6
330
AB4
100
AcDbEntity
  8
Border (ANSI)
100
AcDbMText
 10
410.6570591187776
 20
184.0667583514005
 30
0.0
 40
3.050000071525573
 41
0.0
 46
0.0
 71
     7
 72
     1
  1
C
  7
Jardan Text - 3.05mm
 73
     1
 44
1.0
  0
MTEXT
  5
AF7
330
AB4
100
AcDbEntity
  8
Border (ANSI)
100
AcDbMText
 10
7.028769787564517
 20
258.3499999642372
 30
0.0
 40
3.050000071525573
 41
0.0
 46
0.0
 71
     7
 72
     1
  1
D
  7
Jardan Text - 3.05mm
 73
     1
 44
1.0
  0
MTEXT
  5
AF8
330
AB4
100
AcDbEntity
  8
Border (ANSI)
100
AcDbMText
 10
410.8787698590901
 20
258.3499999642372
 30
0.0
 40
3.050000071525573
 41
0.0
 46
0.0
 71
     7
 72
     1
  1
D
  7
Jardan Text - 3.05mm
 73
     1
 44
1.0
  0
ENDBLK
  5
AF9
330
AB4
100
AcDbEntity
  8
0
100
AcDbBlockEnd
  0
BLOCK
  5
AFB
330
AFA
100
AcDbEntity
  8
0
100
AcDbBlockBegin
  2
Title Blocks ANSI - Large
 70
     2
 10
0.0
 20
0.0
 30
0.0
  3
Title Blocks ANSI - Large
  1

  0
LINE
  5
AFC
330
AFA
100
AcDbEntity
  8
Title (ANSI)
100
AcDbLine
 10
420.0000000000002
 20
0.0
 30
0.0
 11
220.0000000000003
 21
0.0
 31
0.0
  0
LINE
  5
AFD
330
AFA
100
AcDbEntity
  8
Title (ANSI)
100
AcDbLine
 10
220.0000000000003
 20
0.0
 30
0.0
 11
220.0000000000003
 21
58.00000000000154
 31
0.0
  0
LINE
  5
AFE
330
AFA
100
AcDbEntity
  8
Title (ANSI)
100
AcDbLine
 10
220.0000000000003
 20
58.00000000000154
 30
0.0
 11
420.0000000000002
 21
58.0000000000016
 31
0.0
  0
LINE
  5
AFF
330
AFA
100
AcDbEntity
  8
Title (ANSI)
100
AcDbLine
 10
420.0000000000002
 20
58.0000000000016
 30
0.0
 11
420.0000000000002
 21
0.0
 31
0.0
  0
LINE
  5
B00
330
AFA
100
AcDbEntity
  8
Title (ANSI)
100
AcDbLine
 10
310.0000000000004
 20
58.00000000000157
 30
0.0
 11
310.0000000000004
 21
0.0
 31
0.0
  0
LINE
  5
B01
330
AFA
100
AcDbEntity
  8
Title (ANSI)
100
AcDbLine
 10
220.0000000000003
 20
47.00000000000154
 30
0.0
 11
310.0000000000004
 21
47.00000000000156
 31
0.0
  0
LINE
  5
B02
330
AFA
100
AcDbEntity
  8
Title (ANSI)
100
AcDbLine
 10
220.0000000000003
 20
32.60000000000156
 30
0.0
 11
310.0000000000004
 21
32.60000000000157
 31
0.0
  0
LINE
  5
B03
330
AFA
100
AcDbEntity
  8
Title (ANSI)
100
AcDbLine
 10
310.0000000000004
 20
18.20000000000157
 30
0.0
 11
420.0000000000002
 21
18.20000000000158
 31
0.0
  0
LINE
  5
B04
330
AFA
100
AcDbEntity
  8
Title (ANSI)
100
AcDbLine
 10
310.0000000000004
 20
6.00000000000158
 30
0.0
 11
420.0000000000002
 21
6.00000000000158
 31
0.0
  0
LINE
  5
B05
330
AFA
100
AcDbEntity
  8
Title (ANSI)
100
AcDbLine
 10
323.0000000000003
 20
18.20000000000157
 30
0.0
 11
323.0000000000003
 21
6.00000000000158
 31
0.0
  0
LINE
  5
B06
330
AFA
100
AcDbEntity
  8
Title (ANSI)
100
AcDbLine
 10
220.0000000000003
 20
39.80000000000157
 30
0.0
 11
310.0000000000004
 21
39.80000000000158
 31
0.0
  0
LINE
  5
B07
330
AFA
100
AcDbEntity
  8
Title (ANSI)
100
AcDbLine
 10
283.0000000000003
 20
47.00000000000156
 30
0.0
 11
283.0000000000004
 21
58.00000000000157
 31
0.0
  0
LINE
  5
B08
330
AFA
100
AcDbEntity
  8
Title (ANSI)
100
AcDbLine
 10
336.0000000000003
 20
6.00000000000158
 30
0.0
 11
336.0000000000003
 21
0.0
 31
0.0
  0
LINE
  5
B09
330
AFA
100
AcDbEntity
  8
Title (ANSI)
100
AcDbLine
 10
407.0000000000002
 20
18.20000000000158
 30
0.0
 11
407.0000000000002
 21
6.00000000000158
 31
0.0
  0
LINE
  5
B0A
330
AFA
100
AcDbEntity
  8
Title (ANSI)
100
AcDbLine
 10
346.8415624000004
 20
18.20000000000157
 30
0.0
 11
346.8415624000004
 21
6.000000000001579
 31
0.0
  0
LINE
  5
B0B
330
AFA
100
AcDbEntity
  8
Title (ANSI)
100
AcDbLine
 10
260.0000000000004
 20
47.00000000000157
 30
0.0
 11
260.0000000000004
 21
18.20000000000156
 31
0.0
  0
LINE
  5
B0C
330
AFA
100
AcDbEntity
  8
Title (ANSI)
100
AcDbLine
 10
283.0000000000003
 20
47.00000000000156
 30
0.0
 11
283.0000000000003
 21
18.20000000000156
 31
0.0
  0
LINE
  5
B0D
330
AFA
100
AcDbEntity
  8
Title (ANSI)
100
AcDbLine
 10
220.0000000000003
 20
18.20000000000156
 30
0.0
 11
310.0000000000004
 21
18.20000000000157
 31
0.0
  0
LINE
  5
B0E
330
AFA
100
AcDbEntity
  8
Layer 1
370
    18
100
AcDbLine
 10
415.004319238331
 20
52.18087153298713
 30
0.0
 11
415.0000002478714
 21
44.99917566979796
 31
0.0
  0
LINE
  5
B0F
330
AFA
100
AcDbEntity
  8
Layer 1
370
    18
100
AcDbLine
 10
413.6292887523068
 20
44.99917566979799
 30
0.0
 11
410.2439894300557
 21
49.67974129148175
 31
0.0
  0
LINE
  5
B10
330
AFA
100
AcDbEntity
  8
Layer 1
370
    18
100
AcDbLine
 10
410.2439894300557
 20
49.67974129148175
 30
0.0
 11
410.2439894300557
 21
45.0
 31
0.0
  0
LINE
  5
B11
330
AFA
100
AcDbEntity
  8
Layer 1
370
    18
100
AcDbLine
 10
410.2439894300557
 20
45.0
 30
0.0
 11
408.8742523907844
 21
45.0
 31
0.0
  0
LINE
  5
B12
330
AFA
100
AcDbEntity
  8
Layer 1
370
    18
100
AcDbLine
 10
408.8742523907844
 20
45.0
 30
0.0
 11
408.8742523907844
 21
52.18087153298713
 31
0.0
  0
LINE
  5
B13
330
AFA
100
AcDbEntity
  8
Layer 1
370
    18
100
AcDbLine
 10
408.8742523907844
 20
52.18087153298713
 30
0.0
 11
410.2439894300557
 21
52.18087153298713
 31
0.0
  0
LINE
  5
B14
330
AFA
100
AcDbEntity
  8
Layer 1
370
    18
100
AcDbLine
 10
410.2439894300557
 20
52.18087153298713
 30
0.0
 11
413.6303378998366
 21
47.58942724700499
 31
0.0
  0
LINE
  5
B15
330
AFA
100
AcDbEntity
  8
Layer 1
370
    18
100
AcDbLine
 10
413.6303378998366
 20
47.58942724700499
 30
0.0
 11
413.6303378998366
 21
52.18087153298713
 31
0.0
  0
LINE
  5
B16
330
AFA
100
AcDbEntity
  8
Layer 1
370
    18
100
AcDbLine
 10
413.6303378998366
 20
52.18087153298713
 30
0.0
 11
415.004319238331
 21
52.18087153298713
 31
0.0
  0
SPLINE
  5
B17
330
AFA
100
AcDbEntity
  8
Layer 1
370
    18
100
AcDbSpline
210
0.0
220
0.0
230
1.0
 70
  1080
 71
     3
 72
    29
 73
    25
 74
    23
 42
0.000000001
 43
0.0000000001
 44
0.0000000001
 40
0.0
 40
0.0
 40
0.0
 40
0.0
 40
0.012800211854568
 40
0.0501114676845447
 40
0.1102996978927422
 40
0.1917308328795286
 40
0.2927708030479934
 40
0.4117855387977869
 40
0.5471409705323112
 40
0.69720302865273
 40
1.034910745656475
 40
1.411836133022241
 40
2.231049691689499
 40
3.050263250357041
 40
3.427188637721592
 40
3.764896354726133
 40
3.914958412845948
 40
4.0503138445805
 40
4.169328580331551
 40
4.270368550499419
 40
4.351799685485985
 40
4.411987915694531
 40
4.449299171524415
 40
4.462099383378749
 40
4.462099383378749
 40
4.462099383378749
 40
4.462099383378749
 10
379.7079510621478
 20
52.18087153298713
 30
0.0
 10
379.7079510621468
 20
52.17660479570228
 30
0.0
 10
379.707951062143
 20
52.15990097314079
 30
0.0
 10
379.7079510621478
 20
52.12313440717649
 30
0.0
 10
379.7079510621472
 20
52.06349086683487
 30
0.0
 10
379.7079510621437
 20
51.9826044217137
 30
0.0
 10
379.7079510621474
 20
51.88210914141205
 30
0.0
 10
379.7079510621451
 20
51.76363909552775
 30
0.0
 10
379.7079510621505
 20
51.62882835365953
 30
0.0
 10
379.7079510621437
 20
51.4211199513733
 30
0.0
 10
379.7079510621469
 20
51.13288823054331
 30
0.0
 10
379.7079510621456
 20
50.62160600953105
 30
0.0
 10
379.7079510621474
 20
49.94982184129754
 30
0.0
 10
379.7079510621505
 20
49.27803767306444
 30
0.0
 10
379.707951062144
 20
48.7667554520522
 30
0.0
 10
379.7079510621521
 20
48.47852373122258
 30
0.0
 10
379.7079510621447
 20
48.27081532893626
 30
0.0
 10
379.7079510621494
 20
48.1360045870678
 30
0.0
 10
379.7079510621421
 20
48.01753454118331
 30
0.0
 10
379.707951062157
 20
47.91703926088148
 30
0.0
 10
379.7079510621375
 20
47.83615281576048
 30
0.0
 10
379.7079510621572
 20
47.77650927541883
 30
0.0
 10
379.7079510621417
 20
47.73974270945456
 30
0.0
 10
379.7079510621466
 20
47.72303888689316
 30
0.0
 10
379.7079510621478
 20
47.71877214960838
 30
0.0
 11
379.7079510621478
 21
52.18087153298713
 31
0.0
 11
379.7079510621452
 21
52.16807132113256
 31
0.0
 11
379.7079510621462
 21
52.13076006530259
 31
0.0
 11
379.707951062147
 21
52.07057183509439
 31
0.0
 11
379.707951062145
 21
51.98914070010761
 31
0.0
 11
379.7079510621463
 21
51.88810072993914
 31
0.0
 11
379.7079510621464
 21
51.76908599418934
 31
0.0
 11
379.7079510621488
 21
51.63373056245482
 31
0.0
 11
379.7079510621464
 21
51.4836685043344
 31
0.0
 11
379.707951062146
 21
51.14596078733065
 31
0.0
 11
379.7079510621462
 21
50.76903539996489
 31
0.0
 11
379.7079510621477
 21
49.94982184129764
 31
0.0
 11
379.7079510621479
 21
49.13060828263009
 31
0.0
 11
379.7079510621466
 21
48.75368289526554
 31
0.0
 11
379.7079510621489
 21
48.415975178261
 31
0.0
 11
379.7079510621464
 21
48.26591312014119
 31
0.0
 11
379.7079510621473
 21
48.13055768840663
 31
0.0
 11
379.7079510621462
 21
48.01154295265558
 31
0.0
 11
379.7079510621506
 21
47.91050298248771
 31
0.0
 11
379.7079510621446
 21
47.82907184750114
 31
0.0
 11
379.7079510621504
 21
47.7688836172926
 31
0.0
 11
379.7079510621448
 21
47.73157236146271
 31
0.0
 11
379.7079510621478
 21
47.71877214960838
 31
0.0
  0
SPLINE
  5
B18
330
AFA
100
AcDbEntity
  8
Layer 1
370
    18
100
AcDbSpline
210
0.0
220
0.0
230
1.0
 70
  1064
 71
     3
 72
    31
 73
    27
 74
    25
 42
0.000000001
 43
0.0000000001
 44
0.0000000001
 40
0.0
 40
0.0
 40
0.0
 40
0.0
 40
0.2885728716068077
 40
0.5716662441139598
 40
0.8505028873336526
 40
1.126147319320103
 40
1.399524379186803
 40
1.67144404731825
 40
1.942631029627667
 40
2.213757596879031
 40
2.48547824644013
 40
2.758464845485712
 40
3.033440964628552
 40
3.311214098483775
 40
3.592704417213159
 40
3.878968656824681
 40
4.171217815387796
 40
4.470827555933952
 40
4.936826393733858
 40
5.385436208787565
 40
5.821025069136021
 40
6.247431478360259
 40
6.668128433429358
 40
7.086438151679971
 40
7.505774019467509
 40
7.929881850567047
 40
7.929881850567047
 40
7.929881850567047
 40
7.929881850567047
 10
379.7079510621478
 20
47.71877214960838
 30
0.0
 10
379.7052118046863
 20
47.6225396512177
 30
0.0
 10
379.6997853035187
 20
47.43190194293144
 30
0.0
 10
379.6559754447059
 20
47.15108730200245
 30
0.0
 10
379.5874771032732
 20
46.88005898356649
 30
0.0
 10
379.493070612543
 20
46.62023954783215
 30
0.0
 10
379.3746938176584
 20
46.37304739413872
 30
0.0
 10
379.2334484138408
 20
46.13989633727969
 30
0.0
 10
379.0706489350264
 20
45.92219891786117
 30
0.0
 10
378.8875457072153
 20
45.72136865382306
 30
0.0
 10
378.685399475635
 20
45.5388221592197
 30
0.0
 10
378.4654634032011
 20
45.37598091850584
 30
0.0
 10
378.2289901758968
 20
45.23427185702413
 30
0.0
 10
377.9772336059815
 20
45.11512971687682
 30
0.0
 10
377.7114490052065
 20
45.01998913004887
 30
0.0
 10
377.4329049675285
 20
44.95031181443445
 30
0.0
 10
377.142848590683
 20
44.90747466210932
 30
0.0
 10
376.7901386752189
 20
44.8906907543432
 30
0.0
 10
376.384889965284
 20
44.91986307130499
 30
0.0
 10
375.9440859880266
 20
45.0185690127165
 30
0.0
 10
375.5354420355867
 20
45.17781363048082
 30
0.0
 10
375.1639147884871
 20
45.3926842297151
 30
0.0
 10
374.8338730888378
 20
45.65825926478193
 30
0.0
 10
374.5516256211869
 20
45.97031814594849
 30
0.0
 10
374.3163802833242
 20
46.32212276819367
 30
0.0
 10
374.2093204250396
 20
46.58272528798888
 30
0.0
 10
374.1554876388621
 20
46.71376375516253
 30
0.0
 11
379.7079510621478
 21
47.71877214960838
 31
0.0
 11
379.6936125357212
 21
47.43055572244415
 31
0.0
 11
379.6514389236631
 21
47.15062136584704
 31
0.0
 11
379.582693176836
 21
46.88039202640512
 31
0.0
 11
379.4886382460962
 21
46.621290650707
 31
0.0
 11
379.3705370823046
 21
46.37474018534049
 31
0.0
 11
379.2296526363226
 21
46.14216357689274
 31
0.0
 11
379.0672478589923
 21
45.92498377195136
 31
0.0
 11
378.8845857011938
 21
45.72462371710529
 31
0.0
 11
378.6829291137647
 21
45.54250635894208
 31
0.0
 11
378.4635410475743
 21
45.38005464404895
 31
0.0
 11
378.2276844534772
 21
45.23869151901361
 31
0.0
 11
377.9766222823291
 21
45.11983993042446
 31
0.0
 11
377.7116174849928
 21
45.02492282486853
 31
0.0
 11
377.4339330123187
 21
44.95536314893449
 31
0.0
 11
377.1448318151647
 21
44.91258384920914
 31
0.0
 11
376.8455768444011
 21
44.8980078722815
 31
0.0
 11
376.3808145879164
 21
44.93193369987842
 31
0.0
 11
375.943175312556
 21
45.03053710156682
 31
0.0
 11
375.5374548285943
 21
45.18905695569727
 31
0.0
 11
375.1684489462871
 21
45.40273214061643
 31
0.0
 11
374.8409534758966
 21
45.66680153467429
 31
0.0
 11
374.5597642276881
 21
45.97650401621891
 31
0.0
 11
374.3296770119254
 21
46.3270784635987
 31
0.0
 11
374.1554876388621
 21
46.71376375516253
 31
0.0
  0
SPLINE
  5
B19
330
AFA
100
AcDbEntity
  8
Layer 1
370
    18
100
AcDbSpline
210
0.0
220
0.0
230
1.0
 70
  1064
 71
     3
 72
    15
 73
    11
 74
     9
 42
0.000000001
 43
0.0000000001
 44
0.0000000001
 40
0.0
 40
0.0
 40
0.0
 40
0.0
 40
0.1157302115848902
 40
0.231801710102541
 40
0.3484831232713064
 40
0.4660586700561929
 40
0.5848264195585403
 40
0.7050962803542158
 40
0.8271877941980928
 40
0.9514278199213734
 40
0.9514278199213734
 40
0.9514278199213734
 40
0.9514278199213734
 10
374.1554876388621
 20
46.71376375516253
 30
0.0
 10
374.1430449753293
 20
46.7502843435097
 30
0.0
 10
374.1181229550057
 20
46.82343321895799
 30
0.0
 10
374.0863840708548
 20
46.93522585989952
 30
0.0
 10
374.0589052920141
 20
47.04875179202731
 30
0.0
 10
374.0362222824431
 20
47.16425862227747
 30
0.0
 10
374.0183229506333
 20
47.28181404656093
 30
0.0
 10
374.0054846588803
 20
47.40153407462802
 30
0.0
 10
373.9973659623932
 20
47.52352164245522
 30
0.0
 10
373.9963697744677
 20
47.60563875278616
 30
0.0
 10
373.9958673361128
 20
47.6470554220351
 30
0.0
 11
374.1554876388621
 21
46.71376375516253
 31
0.0
 11
374.119109385007
 21
46.82362778257793
 31
0.0
 11
374.087171273371
 21
46.93521877591189
 31
0.0
 11
374.0597997637105
 21
47.04864431376807
 31
0.0
 11
374.037121315768
 21
47.16401197475106
 31
0.0
 11
374.0192623892887
 21
47.28142933746569
 31
0.0
 11
374.0063494440221
 21
47.40100398051493
 31
0.0
 11
373.9985089397143
 21
47.52284348250377
 31
0.0
 11
373.9958673361128
 21
47.6470554220351
 31
0.0
  0
SPLINE
  5
B1A
330
AFA
100
AcDbEntity
  8
Layer 1
370
    18
100
AcDbSpline
210
0.0
220
0.0
230
1.0
 70
  1080
 71
     3
 72
    29
 73
    25
 74
    23
 42
0.000000001
 43
0.0000000001
 44
0.0000000001
 40
0.0
 40
0.0
 40
0.0
 40
0.0
 40
0.0004793925796918
 40
0.0018767709536931
 40
0.0041309360674688
 40
0.0071806888675496
 40
0.0109648303027896
 40
0.0154221613191439
 40
0.0204914828647134
 40
0.0261115958865759
 40
0.0387594001434337
 40
0.0528759816699207
 40
0.0835571068373469
 40
0.1142382320044888
 40
0.1283548135300165
 40
0.1410026177890771
 40
0.1466227308093053
 40
0.1516920523548038
 40
0.1561493833709235
 40
0.1599335248078191
 40
0.1629832776071254
 40
0.1652374427209935
 40
0.1666348210945898
 40
0.1671142136765269
 40
0.1671142136765269
 40
0.1671142136765269
 40
0.1671142136765269
 10
373.9958673361128
 20
47.6470554220351
 30
0.0
 10
373.9958673361142
 20
47.64721521956166
 30
0.0
 10
373.9958673361195
 20
47.64784080987957
 30
0.0
 10
373.9958673361087
 20
47.6492177885687
 30
0.0
 10
373.9958673361168
 20
47.651451553998
 30
0.0
 10
373.9958673361156
 20
47.65448090711437
 30
0.0
 10
373.9958673361129
 20
47.65824464886492
 30
0.0
 10
373.9958673361154
 20
47.66268158019733
 30
0.0
 10
373.9958673361168
 20
47.66773050205857
 30
0.0
 10
373.9958673361098
 20
47.67550958166667
 30
0.0
 10
373.9958673361175
 20
47.68630441460175
 30
0.0
 10
373.995867336114
 20
47.70545291825199
 30
0.0
 10
373.9958673361141
 20
47.73061252887237
 30
0.0
 10
373.9958673361191
 20
47.75577213949238
 30
0.0
 10
373.9958673361119
 20
47.77492064314297
 30
0.0
 10
373.9958673361143
 20
47.78571547607788
 30
0.0
 10
373.9958673361142
 20
47.79349455568617
 30
0.0
 10
373.9958673361166
 20
47.79854347754677
 30
0.0
 10
373.995867336116
 20
47.80298040887962
 30
0.0
 10
373.9958673361144
 20
47.80674415063038
 30
0.0
 10
373.9958673361134
 20
47.80977350374707
 30
0.0
 10
373.9958673361177
 20
47.81200726917599
 30
0.0
 10
373.9958673361149
 20
47.81338424786581
 30
0.0
 10
373.9958673361132
 20
47.81400983818431
 30
0.0
 10
373.9958673361128
 20
47.81416963571163
 30
0.0
 11
373.9958673361128
 21
47.6470554220351
 31
0.0
 11
373.9958673361162
 21
47.64753481461479
 31
0.0
 11
373.995867336113
 21
47.64893219298879
 31
0.0
 11
373.9958673361145
 21
47.65118635810257
 31
0.0
 11
373.9958673361155
 21
47.65423611090265
 31
0.0
 11
373.9958673361138
 21
47.65802025233789
 31
0.0
 11
373.995867336115
 21
47.66247758335424
 31
0.0
 11
373.9958673361158
 21
47.66754690489981
 31
0.0
 11
373.9958673361128
 21
47.67316701792167
 31
0.0
 11
373.9958673361154
 21
47.68581482217853
 31
0.0
 11
373.9958673361154
 21
47.69993140370502
 31
0.0
 11
373.995867336115
 21
47.73061252887244
 31
0.0
 11
373.9958673361162
 21
47.76129365403959
 31
0.0
 11
373.9958673361133
 21
47.77541023556511
 31
0.0
 11
373.9958673361142
 21
47.78805803982417
 31
0.0
 11
373.9958673361146
 21
47.7936781528444
 31
0.0
 11
373.9958673361162
 21
47.79874747438991
 31
0.0
 11
373.9958673361158
 21
47.80320480540602
 31
0.0
 11
373.9958673361144
 21
47.80698894684292
 31
0.0
 11
373.9958673361146
 21
47.81003869964222
 31
0.0
 11
373.9958673361164
 21
47.8122928647561
 31
0.0
 11
373.9958673361142
 21
47.81369024312969
 31
0.0
 11
373.9958673361128
 21
47.81416963571163
 31
0.0
  0
SPLINE
  5
B1B
330
AFA
100
AcDbEntity
  8
Layer 1
370
    18
100
AcDbSpline
210
0.0
220
0.0
230
1.0
 70
  1080
 71
     3
 72
    29
 73
    25
 74
    23
 42
0.000000001
 43
0.0000000001
 44
0.0000000001
 40
0.0
 40
0.0
 40
0.0
 40
0.0
 40
0.0039015676829877
 40
0.0152742224382792
 40
0.0336198917891579
 40
0.0584405032607833
 40
0.0892379843840559
 40
0.1255142626915813
 40
0.1667712657040283
 40
0.2125109209572997
 40
0.3154458983015047
 40
0.430334614948265
 40
0.6800349470813103
 40
0.9297352792168567
 40
1.044623995860661
 40
1.147558973204183
 40
1.19329862846115
 40
1.234555631476041
 40
1.270831909781009
 40
1.301629390905816
 40
1.326450002375793
 40
1.344795671724
 40
1.356168326480485
 40
1.360069894176547
 40
1.360069894176547
 40
1.360069894176547
 40
1.360069894176547
 10
373.9958673361128
 20
47.81416963571163
 30
0.0
 10
373.9971678586738
 20
47.81416963571158
 30
0.0
 10
374.0022592661532
 20
47.81416963571142
 30
0.0
 10
374.0134658967497
 20
47.81416963571151
 30
0.0
 10
374.0316455419423
 20
47.81416963571207
 30
0.0
 10
374.0563001292574
 20
47.81416963571127
 30
0.0
 10
374.086931586225
 20
47.8141696357115
 30
0.0
 10
374.1230418403727
 20
47.81416963571207
 30
0.0
 10
374.1641328192304
 20
47.81416963571079
 30
0.0
 10
374.2274433644338
 20
47.81416963571204
 30
0.0
 10
374.3152978141818
 20
47.81416963571126
 30
0.0
 10
374.4711391562232
 20
47.81416963571165
 30
0.0
 10
374.675902283195
 20
47.81416963571153
 30
0.0
 10
374.8806654101659
 20
47.81416963571137
 30
0.0
 10
375.0365067522067
 20
47.81416963571172
 30
0.0
 10
375.124361201955
 20
47.81416963571106
 30
0.0
 10
375.1876717471599
 20
47.81416963571214
 30
0.0
 10
375.2287627260189
 20
47.81416963571135
 30
0.0
 10
375.2648729801672
 20
47.81416963571151
 30
0.0
 10
375.2955044371337
 20
47.8141696357117
 30
0.0
 10
375.320159024448
 20
47.81416963571093
 30
0.0
 10
375.3383386696395
 20
47.8141696357129
 30
0.0
 10
375.3495453002399
 20
47.81416963571136
 30
0.0
 10
375.354636707724
 20
47.81416963571158
 30
0.0
 10
375.3559372302894
 20
47.81416963571163
 30
0.0
 11
373.9958673361128
 21
47.81416963571163
 31
0.0
 11
373.9997689037958
 21
47.81416963571152
 31
0.0
 11
374.0111415585511
 21
47.81416963571152
 31
0.0
 11
374.029487227902
 21
47.81416963571183
 31
0.0
 11
374.0543078393736
 21
47.8141696357115
 31
0.0
 11
374.0851053204969
 21
47.81416963571152
 31
0.0
 11
374.1213815988044
 21
47.81416963571178
 31
0.0
 11
374.1626386018169
 21
47.81416963571118
 31
0.0
 11
374.2083782570702
 21
47.81416963571152
 31
0.0
 11
374.3113132344143
 21
47.81416963571148
 31
0.0
 11
374.4262019510611
 21
47.8141696357115
 31
0.0
 11
374.6759022831942
 21
47.81416963571152
 31
0.0
 11
374.9256026153297
 21
47.8141696357115
 31
0.0
 11
375.0404913319735
 21
47.81416963571152
 31
0.0
 11
375.143426309317
 21
47.8141696357115
 31
0.0
 11
375.189165964574
 21
47.81416963571188
 31
0.0
 11
375.2304229675889
 21
47.8141696357115
 31
0.0
 11
375.2666992458939
 21
47.81416963571152
 31
0.0
 11
375.2974967270187
 21
47.8141696357115
 31
0.0
 11
375.3223173384886
 21
47.81416963571152
 31
0.0
 11
375.3406630078369
 21
47.81416963571222
 31
0.0
 11
375.3520356625933
 21
47.81416963571152
 31
0.0
 11
375.3559372302894
 21
47.81416963571163
 31
0.0
  0
SPLINE
  5
B1C
330
AFA
100
AcDbEntity
  8
Layer 1
370
    18
100
AcDbSpline
210
0.0
220
0.0
230
1.0
 70
  1080
 71
     3
 72
    29
 73
    25
 74
    23
 42
0.000000001
 43
0.0000000001
 44
0.0000000001
 40
0.0
 40
0.0
 40
0.0
 40
0.0
 40
0.0004688588432629
 40
0.0018355324905173
 40
0.0040401666221968
 40
0.0070229069170367
 40
0.0107238990561385
 40
0.015083288718472
 40
0.0200412215843855
 40
0.0255378433325149
 40
0.0379077361961748
 40
0.0517141327470583
 40
0.0817210986620225
 40
0.1117280645764822
 40
0.1255344611275078
 40
0.1379043539914093
 40
0.1434009757397447
 40
0.1483589086054593
 40
0.1527182982680841
 40
0.156419290406653
 40
0.1594020307022035
 40
0.161606664833549
 40
0.1629733384804624
 40
0.1634421973220697
 40
0.1634421973220697
 40
0.1634421973220697
 40
0.1634421973220697
 10
375.3559372302894
 20
47.81416963571163
 30
0.0
 10
375.3559372302894
 20
47.81401334943054
 30
0.0
 10
375.35593723029
 20
47.81340150526702
 30
0.0
 10
375.3559372302884
 20
47.81205478305964
 30
0.0
 10
375.3559372302883
 20
47.80987010036837
 30
0.0
 10
375.3559372302894
 20
47.80690731151316
 30
0.0
 10
375.355937230289
 20
47.80322627081443
 30
0.0
 10
375.3559372302894
 20
47.79888683259194
 30
0.0
 10
375.3559372302868
 20
47.79394885116651
 30
0.0
 10
375.3559372302914
 20
47.78634070200726
 30
0.0
 10
375.3559372302892
 20
47.77578306495305
 30
0.0
 10
375.3559372302885
 20
47.75705531317655
 30
0.0
 10
375.3559372302913
 20
47.73244853704979
 30
0.0
 10
375.355937230288
 20
47.70784176092294
 30
0.0
 10
375.3559372302906
 20
47.68911400914649
 30
0.0
 10
375.3559372302896
 20
47.67855637209208
 30
0.0
 10
375.3559372302896
 20
47.67094822293276
 30
0.0
 10
375.3559372302897
 20
47.6660102415072
 30
0.0
 10
375.3559372302896
 20
47.66167080328488
 30
0.0
 10
375.3559372302881
 20
47.657989762586
 30
0.0
 10
375.3559372302897
 20
47.65502697373082
 30
0.0
 10
375.3559372302901
 20
47.65284229103954
 30
0.0
 10
375.355937230288
 20
47.65149556883294
 30
0.0
 10
375.3559372302891
 20
47.65088372467009
 30
0.0
 10
375.3559372302894
 20
47.65072743838955
 30
0.0
 11
375.3559372302894
 21
47.81416963571163
 31
0.0
 11
375.3559372302897
 21
47.81370077686836
 31
0.0
 11
375.355937230289
 21
47.81233410322111
 31
0.0
 11
375.3559372302885
 21
47.81012946908943
 31
0.0
 11
375.3559372302892
 21
47.80714672879459
 31
0.0
 11
375.3559372302892
 21
47.80344573665549
 31
0.0
 11
375.355937230289
 21
47.79908634699316
 31
0.0
 11
375.3559372302878
 21
47.79412841412724
 31
0.0
 11
375.3559372302896
 21
47.78863179237911
 31
0.0
 11
375.3559372302897
 21
47.77626189951545
 31
0.0
 11
375.3559372302889
 21
47.76245550296457
 31
0.0
 11
375.35593723029
 21
47.7324485370496
 31
0.0
 11
375.3559372302892
 21
47.70244157113515
 31
0.0
 11
375.3559372302901
 21
47.68863517458412
 31
0.0
 11
375.3559372302896
 21
47.67626528172022
 31
0.0
 11
375.3559372302896
 21
47.67076865997188
 31
0.0
 11
375.3559372302897
 21
47.66581072710617
 31
0.0
 11
375.3559372302893
 21
47.66145133744355
 31
0.0
 11
375.3559372302886
 21
47.65775034530498
 31
0.0
 11
375.3559372302896
 21
47.65476760500942
 31
0.0
 11
375.3559372302893
 21
47.65256297087808
 31
0.0
 11
375.3559372302886
 21
47.65119629723116
 31
0.0
 11
375.3559372302894
 21
47.65072743838955
 31
0.0
  0
SPLINE
  5
B1D
330
AFA
100
AcDbEntity
  8
Layer 1
370
    18
100
AcDbSpline
210
0.0
220
0.0
230
1.0
 70
  1080
 71
     3
 72
    29
 73
    25
 74
    23
 42
0.000000001
 43
0.0000000001
 44
0.0000000001
 40
0.0
 40
0.0
 40
0.0
 40
0.0
 40
0.0000105337388163
 40
0.0000412384651653
 40
0.0000907694476524
 40
0.0001577819534404
 40
0.0002409312490954
 40
0.0003388726032441
 40
0.0004502612829782
 40
0.0005737525557024
 40
0.0008516639490992
 40
0.0011618489251717
 40
0.0018360081772073
 40
0.0025101674297687
 40
0.0028203524056352
 40
0.003098263799302
 40
0.0032217550719267
 40
0.0033331437520516
 40
0.0034310851061079
 40
0.0035142344015995
 40
0.0035812469079133
 40
0.0036307778898816
 40
0.0036614826164794
 40
0.0036720163544572
 40
0.0036720163544572
 40
0.0036720163544572
 40
0.0036720163544572
 10
375.3559372302894
 20
47.65072743838955
 30
0.0
 10
375.3559372302897
 20
47.65072392714329
 30
0.0
 10
375.355937230291
 20
47.65071018098823
 30
0.0
 10
375.3559372302916
 20
47.65067992450568
 30
0.0
 10
375.3559372302893
 20
47.65063084176746
 30
0.0
 10
375.3559372302915
 20
47.65056427750616
 30
0.0
 10
375.3559372302894
 20
47.6504815764543
 30
0.0
 10
375.3559372302913
 20
47.65038408334445
 30
0.0
 10
375.3559372302896
 20
47.65027314290892
 30
0.0
 10
375.3559372302912
 20
47.65010221246029
 30
0.0
 10
375.3559372302912
 20
47.64986501657955
 30
0.0
 10
375.3559372302892
 20
47.64944426470573
 30
0.0
 10
375.3559372302925
 20
47.64889143021217
 30
0.0
 10
375.355937230289
 20
47.64833859571868
 30
0.0
 10
375.3559372302913
 20
47.64791784384466
 30
0.0
 10
375.3559372302905
 20
47.64768064796394
 30
0.0
 10
375.3559372302909
 20
47.64750971751513
 30
0.0
 10
375.35593723029
 20
47.64739877707953
 30
0.0
 10
375.3559372302906
 20
47.64730128396965
 30
0.0
 10
375.3559372302915
 20
47.64721858291767
 30
0.0
 10
375.3559372302906
 20
47.64715201865644
 30
0.0
 10
375.3559372302892
 20
47.64710293591811
 30
0.0
 10
375.3559372302917
 20
47.64707267943596
 30
0.0
 10
375.3559372302898
 20
47.64705893328109
 30
0.0
 10
375.3559372302894
 20
47.6470554220351
 30
0.0
 11
375.3559372302894
 21
47.65072743838955
 31
0.0
 11
375.3559372302903
 21
47.65071690465074
 31
0.0
 11
375.3559372302912
 21
47.65068619992439
 31
0.0
 11
375.3559372302901
 21
47.65063666894191
 31
0.0
 11
375.3559372302907
 21
47.65056965643611
 31
0.0
 11
375.3559372302901
 21
47.65048650714046
 31
0.0
 11
375.3559372302907
 21
47.65038856578631
 31
0.0
 11
375.35593723029
 21
47.65027717710657
 31
0.0
 11
375.3559372302906
 21
47.65015368583386
 31
0.0
 11
375.355937230291
 21
47.64987577444045
 31
0.0
 11
375.3559372302901
 21
47.64956558946439
 31
0.0
 11
375.3559372302912
 21
47.64889143021235
 31
0.0
 11
375.35593723029
 21
47.64821727095979
 31
0.0
 11
375.3559372302908
 21
47.64790708598392
 31
0.0
 11
375.3559372302907
 21
47.64762917459026
 31
0.0
 11
375.3559372302907
 21
47.64750568331763
 31
0.0
 11
375.3559372302902
 21
47.64739429463751
 31
0.0
 11
375.3559372302907
 21
47.64729635328345
 31
0.0
 11
375.3559372302912
 21
47.64721320398796
 31
0.0
 11
375.3559372302902
 21
47.64714619148164
 31
0.0
 11
375.3559372302901
 21
47.64709666049967
 31
0.0
 11
375.3559372302906
 21
47.64706595577307
 31
0.0
 11
375.3559372302894
 21
47.6470554220351
 31
0.0
  0
SPLINE
  5
B1E
330
AFA
100
AcDbEntity
  8
Layer 1
370
    18
100
AcDbSpline
210
0.0
220
0.0
230
1.0
 70
  1064
 71
     3
 72
    39
 73
    35
 74
    33
 42
0.000000001
 43
0.0000000001
 44
0.0000000001
 40
0.0
 40
0.0
 40
0.0
 40
0.0
 40
0.1599049693334234
 40
0.3129588046778469
 40
0.4601447643746269
 40
0.6024960129572349
 40
0.7410867001771395
 40
0.8770182901306014
 40
1.011401780522217
 40
1.145337375769632
 40
1.279893869513896
 40
1.416090165501173
 40
1.554880930878207
 40
1.697147499609375
 40
1.843694152187744
 40
1.995249097574977
 40
2.15246903142399
 40
2.315946035157817
 40
2.479912727459214
 40
2.638229198502775
 40
2.791916442852642
 40
2.941941995828616
 40
3.089210810333751
 40
3.234558996061647
 40
3.378751101656936
 40
3.522481193223007
 40
3.666377551098541
 40
3.811010459730942
 40
3.956902350932185
 40
4.104539481451529
 40
4.254384351634215
 40
4.406888162155942
 40
4.562502723350045
 40
4.721691352429145
 40
4.721691352429145
 40
4.721691352429145
 40
4.721691352429145
 10
375.3559372302894
 20
47.6470554220351
 30
0.0
 10
375.3572245795857
 20
47.59373367035822
 30
0.0
 10
375.3597441216527
 20
47.48937473931505
 30
0.0
 10
375.380863663229
 20
47.33712691175719
 30
0.0
 10
375.4143292449314
 20
47.19323810698145
 30
0.0
 10
375.4608241888726
 20
47.05803104726991
 30
0.0
 10
375.5196180076
 20
46.93183825201501
 30
0.0
 10
375.5903288011402
 20
46.81499450516164
 30
0.0
 10
375.6724730966961
 20
46.70783420749159
 30
0.0
 10
375.7655819436251
 20
46.61068671122433
 30
0.0
 10
375.8691739601145
 20
46.52387307406186
 30
0.0
 10
375.9827673405593
 20
46.44770435088254
 30
0.0
 10
376.1058818713764
 20
46.38248327839813
 30
0.0
 10
376.2380422265191
 20
46.32850298747121
 30
0.0
 10
376.3787797098751
 20
46.28606395159008
 30
0.0
 10
376.527629832788
 20
46.25542191787613
 30
0.0
 10
376.6841405685508
 20
46.23700498321496
 30
0.0
 10
376.8457329992125
 20
46.23064840760943
 30
0.0
 10
377.0077333627492
 20
46.23796411084474
 30
0.0
 10
377.1649533862488
 20
46.2612581631035
 30
0.0
 10
377.3145077027209
 20
46.29912483055135
 30
0.0
 10
377.4559101824872
 20
46.35094255617055
 30
0.0
 10
377.5886793267944
 20
46.41591161623061
 30
0.0
 10
377.7123379318342
 20
46.4932743834961
 30
0.0
 10
377.8264138347888
 20
46.58226093277377
 30
0.0
 10
377.9304391241318
 20
46.68210545192549
 30
0.0
 10
378.0239497146053
 20
46.79204365892866
 30
0.0
 10
378.10648157701
 20
46.91131443199497
 30
0.0
 10
378.1775785346259
 20
47.03915957609789
 30
0.0
 10
378.2367567858774
 20
47.17482344317867
 30
0.0
 10
378.2836351162085
 20
47.31755237561425
 30
0.0
 10
378.3174344051667
 20
47.46659340516726
 30
0.0
 10
378.3388959905774
 20
47.62119554479179
 30
0.0
 10
378.3415288646535
 20
47.72616659807919
 30
0.0
 10
378.3428602476499
 20
47.77924801079078
 30
0.0
 11
375.3559372302894
 21
47.6470554220351
 31
0.0
 11
375.3628914735141
 21
47.48730174377167
 31
0.0
 11
375.383451446259
 21
47.33563512241296
 31
0.0
 11
375.4171630131398
 21
47.19236182765675
 31
0.0
 11
375.4635720387526
 21
47.05778812920605
 31
0.0
 11
375.5222243877083
 21
46.93222029675653
 31
0.0
 11
375.5926659246116
 21
46.81596460001021
 31
0.0
 11
375.6744425140768
 21
46.70932730866581
 31
0.0
 11
375.7671000207005
 21
46.61261469242286
 31
0.0
 11
375.8701843090924
 21
46.52613302098034
 31
0.0
 11
375.9832412438671
 21
46.45018856403974
 31
0.0
 11
376.105816689622
 21
46.38508759129788
 31
0.0
 11
376.2374565109679
 21
46.3311363724557
 31
0.0
 11
376.3777065725122
 21
46.28864117721263
 31
0.0
 11
376.5261127388579
 21
46.2579082752686
 31
0.0
 11
376.6822208746203
 21
46.23924393632296
 31
0.0
 11
376.8455768443947
 21
46.23295443007369
 31
0.0
 11
377.0093520962938
 21
46.24087548111694
 31
0.0
 11
377.1659503184623
 21
46.26413707644814
 31
0.0
 11
377.3149038732862
 21
46.30198687936945
 31
0.0
 11
377.4557451231673
 21
46.35367255318402
 31
0.0
 11
377.588006430508
 21
46.41844176119444
 31
0.0
 11
377.7112201576847
 21
46.49554216670324
 31
0.0
 11
377.8249186670973
 21
46.58422143301354
 31
0.0
 11
377.9286343211508
 21
46.68372722342723
 31
0.0
 11
378.0218994822274
 21
46.79330720124799
 31
0.0
 11
378.1042465127257
 21
46.91220902977717
 31
0.0
 11
378.1752077750395
 21
47.03968037231779
 31
0.0
 11
378.2343156315658
 21
47.17496889217386
 31
0.0
 11
378.2811024446908
 21
47.31732225264589
 31
0.0
 11
378.3151005768203
 21
47.46598811703766
 31
0.0
 11
378.3358423903444
 21
47.62021414865154
 31
0.0
 11
378.3428602476499
 21
47.77924801079078
 31
0.0
  0
SPLINE
  5
B1F
330
AFA
100
AcDbEntity
  8
Layer 1
370
    18
100
AcDbSpline
210
0.0
220
0.0
230
1.0
 70
  1080
 71
     3
 72
    29
 73
    25
 74
    23
 42
0.000000001
 43
0.0000000001
 44
0.0000000001
 40
0.0
 40
0.0
 40
0.0
 40
0.0
 40
0.0126267276338723
 40
0.0494322954149666
 40
0.1088047806697929
 40
0.1891322607196741
 40
0.2888028128887399
 40
0.4062045144997484
 40
0.5397254428770922
 40
0.6877536753431741
 40
1.020884361837964
 40
1.392701192570399
 40
2.200811761098115
 40
3.008922329626763
 40
3.380739160359176
 40
3.713869846853739
 40
3.861898079319828
 40
3.995419007696902
 40
4.112820709308479
 40
4.212491261476685
 40
4.292818741527256
 40
4.352191226780888
 40
4.388996794563468
 40
4.401623522196352
 40
4.401623522196352
 40
4.401623522196352
 40
4.401623522196352
 10
378.3428602476499
 20
47.77924801079078
 30
0.0
 10
378.3428602476519
 20
47.78345692000207
 30
0.0
 10
378.34286024766
 20
47.79993435180706
 30
0.0
 10
378.3428602476517
 20
47.83620261203032
 30
0.0
 10
378.3428602476495
 20
47.89503778972559
 30
0.0
 10
378.3428602476559
 20
47.97482796221685
 30
0.0
 10
378.3428602476458
 20
48.07396120682684
 30
0.0
 10
378.3428602476547
 20
48.19082560087931
 30
0.0
 10
378.3428602476512
 20
48.32380922169745
 30
0.0
 10
378.3428602476521
 20
48.52870250414351
 30
0.0
 10
378.3428602476624
 20
48.8130277540413
 30
0.0
 10
378.3428602476448
 20
49.31738044929295
 30
0.0
 10
378.3428602476564
 20
49.9800597718892
 30
0.0
 10
378.3428602476546
 20
50.64273909448547
 30
0.0
 10
378.3428602476584
 20
51.14709178973734
 30
0.0
 10
378.3428602476516
 20
51.43141703963502
 30
0.0
 10
378.3428602476547
 20
51.63631032208094
 30
0.0
 10
378.3428602476511
 20
51.76929394289918
 30
0.0
 10
378.3428602476532
 20
51.88615833695147
 30
0.0
 10
378.342860247654
 20
51.98529158156159
 30
0.0
 10
378.3428602476512
 20
52.0650817540524
 30
0.0
 10
378.342860247653
 20
52.12391693174799
 30
0.0
 10
378.3428602476529
 20
52.16018519197101
 30
0.0
 10
378.3428602476505
 20
52.17666262377618
 30
0.0
 10
378.3428602476499
 20
52.18087153298713
 30
0.0
 11
378.3428602476499
 21
47.77924801079078
 31
0.0
 11
378.3428602476553
 21
47.79187473842465
 31
0.0
 11
378.3428602476544
 21
47.82868030620575
 31
0.0
 11
378.3428602476508
 21
47.88805279146057
 31
0.0
 11
378.3428602476533
 21
47.96838027151046
 31
0.0
 11
378.3428602476491
 21
48.06805082367952
 31
0.0
 11
378.3428602476524
 21
48.18545252529053
 31
0.0
 11
378.342860247652
 21
48.31897345366787
 31
0.0
 11
378.3428602476524
 21
48.46700168613395
 31
0.0
 11
378.3428602476582
 21
48.80013237262875
 31
0.0
 11
378.3428602476519
 21
49.17194920336118
 31
0.0
 11
378.3428602476537
 21
49.98005977188889
 31
0.0
 11
378.3428602476561
 21
50.78817034041755
 31
0.0
 11
378.3428602476565
 21
51.15998717114996
 31
0.0
 11
378.3428602476531
 21
51.49311785764452
 31
0.0
 11
378.3428602476537
 21
51.64114609011061
 31
0.0
 11
378.342860247652
 21
51.77466701848768
 31
0.0
 11
378.3428602476531
 21
51.89206872009926
 31
0.0
 11
378.3428602476532
 21
51.99173927226746
 31
0.0
 11
378.3428602476519
 21
52.07206675231804
 31
0.0
 11
378.3428602476528
 21
52.13143923757167
 31
0.0
 11
378.3428602476516
 21
52.16824480535425
 31
0.0
 11
378.3428602476499
 21
52.18087153298713
 31
0.0
  0
SPLINE
  5
B20
330
AFA
100
AcDbEntity
  8
Layer 1
370
    18
100
AcDbSpline
210
0.0
220
0.0
230
1.0
 70
  1080
 71
     3
 72
    29
 73
    25
 74
    23
 42
0.000000001
 43
0.0000000001
 44
0.0000000001
 40
0.0
 40
0.0
 40
0.0
 40
0.0
 40
0.0039159709660339
 40
0.015330609732473
 40
0.0337440051185354
 40
0.058656245935822
 40
0.0895674209962749
 40
0.1259776191114383
 40
0.167386929094846
 40
0.2132954397644653
 40
0.3166104184030019
 40
0.431923265524631
 40
0.6825454072476873
 40
0.9331675489707436
 40
1.048480396094021
 40
1.151795374730738
 40
1.197703885402518
 40
1.239113195384959
 40
1.275523393504329
 40
1.306434568560973
 40
1.331346809377976
 40
1.349760204763185
 40
1.361174843531557
 40
1.365090814497932
 40
1.365090814497932
 40
1.365090814497932
 40
1.365090814497932
 10
378.3428602476499
 20
52.18087153298713
 30
0.0
 10
378.3441655713052
 20
52.18087153298714
 30
0.0
 10
378.3492757745493
 20
52.1808715329872
 30
0.0
 10
378.3605237762556
 20
52.1808715329859
 30
0.0
 10
378.3787705345787
 20
52.18087153298741
 30
0.0
 10
378.4035161383335
 20
52.18087153298711
 30
0.0
 10
378.4342606763309
 20
52.18087153298624
 30
0.0
 10
378.470504237384
 20
52.18087153298668
 30
0.0
 10
378.5117469103068
 20
52.1808715329871
 30
0.0
 10
378.5752911767374
 20
52.18087153298725
 30
0.0
 10
378.6634699555472
 20
52.18087153298603
 30
0.0
 10
378.819886611375
 20
52.1808715329879
 30
0.0
 10
379.0254056548976
 20
52.18087153298647
 30
0.0
 10
379.2309246984205
 20
52.18087153298593
 30
0.0
 10
379.3873413542485
 20
52.18087153298728
 30
0.0
 10
379.4755201330589
 20
52.18087153298754
 30
0.0
 10
379.5390643994893
 20
52.18087153298596
 30
0.0
 10
379.5803070724137
 20
52.18087153298665
 30
0.0
 10
379.6165506334667
 20
52.1808715329866
 30
0.0
 10
379.6472951714644
 20
52.18087153298625
 30
0.0
 10
379.6720407752172
 20
52.18087153298673
 30
0.0
 10
379.6902875335407
 20
52.18087153298838
 30
0.0
 10
379.7015355352475
 20
52.18087153298546
 30
0.0
 10
379.7066457384924
 20
52.18087153298679
 30
0.0
 10
379.7079510621478
 20
52.18087153298713
 30
0.0
 11
378.3428602476499
 21
52.18087153298713
 31
0.0
 11
378.3467762186159
 21
52.18087153298713
 31
0.0
 11
378.3581908573824
 21
52.18087153298646
 31
0.0
 11
378.3766042527684
 21
52.18087153298697
 31
0.0
 11
378.4015164935857
 21
52.18087153298707
 31
0.0
 11
378.4324276686461
 21
52.18087153298649
 31
0.0
 11
378.4688378667613
 21
52.18087153298665
 31
0.0
 11
378.5102471767447
 21
52.18087153298704
 31
0.0
 11
378.5561556874143
 21
52.18087153298712
 31
0.0
 11
378.6594706660529
 21
52.1808715329865
 31
0.0
 11
378.7747835131745
 21
52.18087153298713
 31
0.0
 11
379.0254056548976
 21
52.18087153298665
 31
0.0
 11
379.2760277966206
 21
52.18087153298646
 31
0.0
 11
379.3913406437439
 21
52.1808715329872
 31
0.0
 11
379.4946556223806
 21
52.18087153298693
 31
0.0
 11
379.5405641330524
 21
52.18087153298626
 31
0.0
 11
379.5819734430348
 21
52.18087153298654
 31
0.0
 11
379.6183836411542
 21
52.18087153298654
 31
0.0
 11
379.6492948162109
 21
52.1808715329864
 31
0.0
 11
379.6742070570279
 21
52.18087153298712
 31
0.0
 11
379.692620452413
 21
52.18087153298727
 31
0.0
 11
379.7040350911814
 21
52.18087153298629
 31
0.0
 11
379.7079510621478
 21
52.18087153298713
 31
0.0
  0
CIRCLE
  5
B21
330
AFA
100
AcDbEntity
  8
Layer 1
370
    18
100
AcDbCircle
 10
320.9665784649217
 20
48.74549639051996
 30
0.0
 40
5.909760940971747
  0
CIRCLE
  5
B22
330
AFA
100
AcDbEntity
  8
Layer 1
370
    18
100
AcDbCircle
 10
320.9665784649217
 20
48.74549639051996
 30
0.0
 40
6.805799999999622
  0
LINE
  5
B23
330
AFA
100
AcDbEntity
  8
Layer 1
370
    18
100
AcDbLine
 10
383.878687188677
 20
52.27994103544457
 30
0.0
 11
383.5311945389829
 21
52.27994103544457
 31
0.0
  0
LINE
  5
B24
330
AFA
100
AcDbEntity
  8
Layer 1
370
    18
100
AcDbLine
 10
383.5311945389829
 20
52.27994103544457
 30
0.0
 11
380.1733229307263
 21
45.0
 31
0.0
  0
LINE
  5
B25
330
AFA
100
AcDbEntity
  8
Layer 1
370
    18
100
AcDbLine
 10
380.1733229307263
 20
45.0
 30
0.0
 11
381.5721363443961
 21
45.0
 31
0.0
  0
LINE
  5
B26
330
AFA
100
AcDbEntity
  8
Layer 1
370
    18
100
AcDbLine
 10
381.5721363443961
 20
45.0
 30
0.0
 11
382.3694135279402
 21
46.71376375516253
 31
0.0
  0
LINE
  5
B27
330
AFA
100
AcDbEntity
  8
Layer 1
370
    18
100
AcDbLine
 10
382.3694135279402
 20
46.71376375516253
 30
0.0
 11
385.0141645723653
 21
46.71376375516253
 31
0.0
  0
LINE
  5
B28
330
AFA
100
AcDbEntity
  8
Layer 1
370
    18
100
AcDbLine
 10
385.0141645723653
 20
46.71376375516253
 30
0.0
 11
385.808219374211
 21
45.0
 31
0.0
  0
LINE
  5
B29
330
AFA
100
AcDbEntity
  8
Layer 1
370
    18
100
AcDbLine
 10
385.808219374211
 20
45.0
 30
0.0
 11
387.2114541953278
 21
45.0
 31
0.0
  0
LINE
  5
B2A
330
AFA
100
AcDbEntity
  8
Layer 1
370
    18
100
AcDbLine
 10
387.2114541953278
 20
45.0
 30
0.0
 11
383.878687188677
 21
52.27994103544457
 31
0.0
  0
LINE
  5
B2B
330
AFA
100
AcDbEntity
  8
Layer 1
370
    18
100
AcDbLine
 10
384.5550875889659
 20
47.81416963571163
 30
0.0
 11
382.8132778721575
 21
47.81416963571163
 31
0.0
  0
LINE
  5
B2C
330
AFA
100
AcDbEntity
  8
Layer 1
370
    18
100
AcDbLine
 10
382.8132778721575
 20
47.81416963571163
 30
0.0
 11
383.6594153549478
 21
49.70600744928152
 31
0.0
  0
LINE
  5
B2D
330
AFA
100
AcDbEntity
  8
Layer 1
370
    18
100
AcDbLine
 10
383.6594153549478
 20
49.70600744928152
 30
0.0
 11
383.6889413640003
 21
49.70600744928152
 31
0.0
  0
LINE
  5
B2E
330
AFA
100
AcDbEntity
  8
Layer 1
370
    18
100
AcDbLine
 10
383.6889413640003
 20
49.70600744928152
 30
0.0
 11
384.5550875889659
 21
47.81416963571163
 31
0.0
  0
SPLINE
  5
B2F
330
AFA
100
AcDbEntity
  8
Layer 1
370
    18
100
AcDbSpline
210
0.0
220
0.0
230
1.0
 70
  1064
 71
     3
 72
    31
 73
    27
 74
    25
 42
0.000000001
 43
0.0000000001
 44
0.0000000001
 40
0.0
 40
0.0
 40
0.0
 40
0.0
 40
0.3549077815501231
 40
0.7016884764302887
 40
1.041329569093361
 40
1.375379226233946
 40
1.706185528098645
 40
2.037105929913753
 40
2.372637886277522
 40
2.718417647843211
 40
2.94527743638447
 40
3.167638118620689
 40
3.386569809410357
 40
3.602977885705332
 40
3.817616463451535
 40
4.031108597704975
 40
4.243971624250484
 40
4.456646081674509
 40
4.66952684075948
 40
4.882995298266818
 40
5.097451669845579
 40
5.313346488686582
 40
5.531210371215774
 40
5.751680975748927
 40
5.975525917709244
 40
6.203660307871085
 40
6.203660307871085
 40
6.203660307871085
 40
6.203660307871085
 10
391.9388380255293
 20
47.90668196610782
 30
0.0
 10
392.0468039026914
 20
47.95542206187671
 30
0.0
 10
392.2602633301559
 20
48.0517861466307
 30
0.0
 10
392.5511464263747
 20
48.24379424552622
 30
0.0
 10
392.8101288812441
 20
48.46566507942058
 30
0.0
 10
393.0315771319156
 20
48.71846699421966
 30
0.0
 10
393.2115396989578
 20
48.99889621942135
 30
0.0
 10
393.3454421197886
 20
49.30473535636092
 30
0.0
 10
393.428866850179
 20
49.6332675076281
 30
0.0
 10
393.4532773244218
 20
49.93648129912333
 30
0.0
 10
393.4396679785497
 20
50.20153923546503
 30
0.0
 10
393.4057257311306
 20
50.42205437459383
 30
0.0
 10
393.3504246198809
 20
50.63458322425358
 30
0.0
 10
393.2749875240946
 20
50.83806999063153
 30
0.0
 10
393.1805517710758
 20
51.03143667420219
 30
0.0
 10
393.0682701790036
 20
51.21361797291779
 30
0.0
 10
392.9392832965446
 20
51.3835488831059
 30
0.0
 10
392.7947267231886
 20
51.54016457717549
 30
0.0
 10
392.6357300154272
 20
51.68239877302529
 30
0.0
 10
392.4634184231982
 20
51.80917818853105
 30
0.0
 10
392.2789142933043
 20
51.91943668064036
 30
0.0
 10
392.0833389686355
 20
52.01205650857432
 30
0.0
 10
391.8778147489303
 20
52.08608674185587
 30
0.0
 10
391.6634676272262
 20
52.13991508647096
 30
0.0
 10
391.4414277657678
 20
52.17442209150018
 30
0.0
 10
391.2907037129605
 20
52.17870816037414
 30
0.0
 10
391.2146264735247
 20
52.18087153298713
 30
0.0
 11
391.9388380255293
 21
47.90668196610782
 31
0.0
 11
392.2582712479595
 21
48.06134918892087
 31
0.0
 11
392.5486643946202
 21
48.25089778615664
 31
0.0
 11
392.8058407810981
 21
48.47274543221934
 31
0.0
 11
393.025623722969
 21
48.72430980151339
 31
0.0
 11
393.2038365358216
 21
49.00300856844388
 31
0.0
 11
393.3363025352345
 21
49.30625940741549
 31
0.0
 11
393.4188450367888
 21
49.63147999283171
 31
0.0
 11
393.4472873560665
 21
49.97608799909756
 31
0.0
 11
393.435732206469
 21
50.2026533145692
 31
0.0
 11
393.4018224424785
 21
50.42241318558907
 31
0.0
 11
393.3466915913117
 21
50.63428974040731
 31
0.0
 11
393.271473180174
 21
50.83720510727641
 31
0.0
 11
393.1773007362775
 21
51.0300814144462
 31
0.0
 11
393.0653077868326
 21
51.21184079016789
 31
0.0
 11
392.9366278590482
 21
51.38140536269261
 31
0.0
 11
392.7923944801392
 21
51.53769726027241
 31
0.0
 11
392.6337411773123
 21
51.6796386111563
 31
0.0
 11
392.4618014777792
 21
51.80615154359799
 31
0.0
 11
392.2777089087492
 21
51.91615818584594
 31
0.0
 11
392.0825969974361
 21
52.00858066615335
 31
0.0
 11
391.8775992710447
 21
52.08234111276956
 31
0.0
 11
391.6638492567894
 21
52.13636165394667
 31
0.0
 11
391.4424804818803
 21
52.16956441793548
 31
0.0
 11
391.2146264735247
 21
52.18087153298713
 31
0.0
  0
SPLINE
  5
B30
330
AFA
100
AcDbEntity
  8
Layer 1
370
    18
100
AcDbSpline
210
0.0
220
0.0
230
1.0
 70
  1080
 71
     3
 72
    29
 73
    25
 74
    23
 42
0.000000001
 43
0.0000000001
 44
0.0000000001
 40
0.0
 40
0.0
 40
0.0
 40
0.0
 40
0.0089730252558411
 40
0.0351284392993421
 40
0.0773207495425936
 40
0.1344044634025749
 40
0.2052340882912063
 40
0.2886641316256941
 40
0.3835491008168219
 40
0.4887435032827057
 40
0.7254786376846028
 40
0.9897055941460735
 40
1.563979210503646
 40
2.138252826861048
 40
2.402479783324906
 40
2.639214917728509
 40
2.744409320192573
 40
2.839294289381484
 40
2.92272433271836
 40
2.993553957608128
 40
3.050637671468734
 40
3.092829981708575
 40
3.118985395755032
 40
3.127958421010362
 40
3.127958421010362
 40
3.127958421010362
 40
3.127958421010362
 10
391.2146264735247
 20
52.18087153298713
 30
0.0
 10
391.2116354651061
 20
52.18087153298728
 30
0.0
 10
391.1999259853396
 20
52.18087153298786
 30
0.0
 10
391.1741524021589
 20
52.18087153298586
 30
0.0
 10
391.1323419227765
 20
52.18087153298805
 30
0.0
 10
391.0756400397793
 20
52.18087153298655
 30
0.0
 10
391.0051922457515
 20
52.18087153298775
 30
0.0
 10
390.9221440332802
 20
52.18087153298641
 30
0.0
 10
390.8276408949495
 20
52.18087153298737
 30
0.0
 10
390.6820360595967
 20
52.18087153298717
 30
0.0
 10
390.4799838951537
 20
52.18087153298632
 30
0.0
 10
390.1215719927465
 20
52.18087153298789
 30
0.0
 10
389.6506472630211
 20
52.18087153298679
 30
0.0
 10
389.1797225332949
 20
52.18087153298696
 30
0.0
 10
388.8213106308866
 20
52.18087153298665
 30
0.0
 10
388.6192584664427
 20
52.18087153298646
 30
0.0
 10
388.4736536310906
 20
52.18087153298744
 30
0.0
 10
388.3791504927605
 20
52.18087153298658
 30
0.0
 10
388.2961022802888
 20
52.1808715329871
 30
0.0
 10
388.2256544862597
 20
52.18087153298634
 30
0.0
 10
388.1689526032628
 20
52.18087153298798
 30
0.0
 10
388.1271421238807
 20
52.18087153298641
 30
0.0
 10
388.1013685407
 20
52.18087153298738
 30
0.0
 10
388.0896590609329
 20
52.1808715329872
 30
0.0
 10
388.0866680525144
 20
52.18087153298713
 30
0.0
 11
391.2146264735247
 21
52.18087153298713
 31
0.0
 11
391.2056534482689
 21
52.18087153298748
 31
0.0
 11
391.1794980342254
 21
52.18087153298671
 31
0.0
 11
391.1373057239821
 21
52.18087153298732
 31
0.0
 11
391.0802220101222
 21
52.18087153298704
 31
0.0
 11
391.0093923852335
 21
52.18087153298732
 31
0.0
 11
390.925962341899
 21
52.18087153298682
 31
0.0
 11
390.8310773727079
 21
52.18087153298718
 31
0.0
 11
390.725882970242
 21
52.1808715329872
 31
0.0
 11
390.4891478358401
 21
52.18087153298667
 31
0.0
 11
390.2249208793787
 21
52.18087153298725
 31
0.0
 11
389.6506472630211
 21
52.18087153298704
 31
0.0
 11
389.0763736466637
 21
52.18087153298684
 31
0.0
 11
388.8121466901998
 21
52.18087153298665
 31
0.0
 11
388.5754115557962
 21
52.18087153298684
 31
0.0
 11
388.4702171533322
 21
52.18087153298718
 31
0.0
 11
388.3753321841433
 21
52.18087153298681
 31
0.0
 11
388.2919021408064
 21
52.18087153298686
 31
0.0
 11
388.2210725159166
 21
52.18087153298681
 31
0.0
 11
388.163988802056
 21
52.18087153298739
 31
0.0
 11
388.1217964918162
 21
52.18087153298686
 31
0.0
 11
388.0956410777697
 21
52.18087153298725
 31
0.0
 11
388.0866680525144
 21
52.18087153298713
 31
0.0
  0
SPLINE
  5
B31
330
AFA
100
AcDbEntity
  8
Layer 1
370
    18
100
AcDbSpline
210
0.0
220
0.0
230
1.0
 70
  1080
 71
     3
 72
    29
 73
    25
 74
    23
 42
0.000000001
 43
0.0000000001
 44
0.0000000001
 40
0.0
 40
0.0
 40
0.0
 40
0.0
 40
0.0205994239536054
 40
0.0806445533492308
 40
0.177505674491286
 40
0.3085530736832851
 40
0.4711570372294176
 40
0.662687851432672
 40
0.8805158025986088
 40
1.122011177029733
 40
1.665485340903167
 40
2.272072633484569
 40
3.590435766493698
 40
4.908798899503246
 40
5.515386192085088
 40
6.058860355958351
 40
6.300355730389355
 40
6.518183681554731
 40
6.709714495758412
 40
6.872318459304374
 40
7.003365858496806
 40
7.100226979638669
 40
7.160272109034345
 40
7.180871532987133
 40
7.180871532987133
 40
7.180871532987133
 40
7.180871532987133
 10
388.0866680525144
 20
52.18087153298713
 30
0.0
 10
388.0866680525139
 20
52.17400505833594
 30
0.0
 10
388.0866680525119
 20
52.14712354055286
 30
0.0
 10
388.0866680525084
 20
52.08795498238909
 30
0.0
 10
388.0866680525171
 20
51.9919704324792
 30
0.0
 10
388.0866680525128
 20
51.86179960451912
 30
0.0
 10
388.0866680525123
 20
51.70007221220535
 30
0.0
 10
388.0866680525151
 20
51.50941796923357
 30
0.0
 10
388.086668052514
 20
51.29246658930012
 30
0.0
 10
388.0866680525102
 20
50.95820075947662
 30
0.0
 10
388.0866680525158
 20
50.49434848251465
 30
0.0
 10
388.086668052511
 20
49.67154028602665
 30
0.0
 10
388.086668052513
 20
48.59043576649329
 30
0.0
 10
388.0866680525109
 20
47.50933124695977
 30
0.0
 10
388.0866680525119
 20
46.68652305047158
 30
0.0
 10
388.0866680525147
 20
46.22267077350953
 30
0.0
 10
388.0866680525121
 20
45.88840494368631
 30
0.0
 10
388.0866680525135
 20
45.67145356375297
 30
0.0
 10
388.0866680525163
 20
45.4807993207813
 30
0.0
 10
388.0866680525092
 20
45.31907192846727
 30
0.0
 10
388.086668052513
 20
45.18890110050718
 30
0.0
 10
388.0866680525159
 20
45.09291655059719
 30
0.0
 10
388.0866680525105
 20
45.03374799243374
 30
0.0
 10
388.0866680525136
 20
45.00686647465093
 30
0.0
 10
388.0866680525144
 20
45.0
 30
0.0
 11
388.0866680525144
 21
52.18087153298713
 31
0.0
 11
388.0866680525128
 21
52.16027210903352
 31
0.0
 11
388.0866680525102
 21
52.1002269796379
 31
0.0
 11
388.0866680525144
 21
52.00336585849584
 31
0.0
 11
388.0866680525138
 21
51.87231845930384
 31
0.0
 11
388.0866680525128
 21
51.70971449575771
 31
0.0
 11
388.0866680525144
 21
51.51818368155446
 31
0.0
 11
388.0866680525138
 21
51.30035573038853
 31
0.0
 11
388.086668052512
 21
51.0588603559574
 31
0.0
 11
388.086668052514
 21
50.51538619208397
 31
0.0
 11
388.0866680525128
 21
49.90879889950257
 31
0.0
 11
388.0866680525122
 21
48.59043576649344
 31
0.0
 11
388.0866680525114
 21
47.27207263348389
 31
0.0
 11
388.0866680525124
 21
46.66548534090204
 31
0.0
 11
388.0866680525136
 21
46.12201117702878
 31
0.0
 11
388.0866680525127
 21
45.88051580259778
 31
0.0
 11
388.0866680525139
 21
45.6626878514324
 31
0.0
 11
388.0866680525144
 21
45.47115703722872
 31
0.0
 11
388.086668052511
 21
45.30855307368276
 31
0.0
 11
388.0866680525133
 21
45.17750567449033
 31
0.0
 11
388.0866680525139
 21
45.08064455334846
 31
0.0
 11
388.0866680525124
 21
45.02059942395279
 31
0.0
 11
388.0866680525144
 21
45.0
 31
0.0
  0
SPLINE
  5
B32
330
AFA
100
AcDbEntity
  8
Layer 1
370
    18
100
AcDbSpline
210
0.0
220
0.0
230
1.0
 70
  1080
 71
     3
 72
    29
 73
    25
 74
    23
 42
0.000000001
 43
0.0000000001
 44
0.0000000001
 40
0.0
 40
0.0
 40
0.0
 40
0.0
 40
0.0038185876280181
 40
0.014949364334143
 40
0.0329048508412484
 40
0.057197567881758
 40
0.0873400361836048
 40
0.1228447764760858
 40
0.1632243094840078
 40
0.2079911559383163
 40
0.3087368720949826
 40
0.4211820907717652
 40
0.6655716989972689
 40
0.9099613072256147
 40
1.022406525902283
 40
1.123152242059745
 40
1.167919088513599
 40
1.208298621522828
 40
1.243803361814457
 40
1.27394583011528
 40
1.298238547156017
 40
1.316194033664146
 40
1.327324810368622
 40
1.331143397997664
 40
1.331143397997664
 40
1.331143397997664
 40
1.331143397997664
 10
388.0866680525144
 20
45.0
 30
0.0
 10
388.087940915057
 20
44.99999999999988
 30
0.0
 10
388.0929240365017
 20
44.99999999999943
 30
0.0
 10
388.1038923201156
 20
44.99999999999992
 30
0.0
 10
388.1216853135334
 20
44.99999999999955
 30
0.0
 10
388.1458155374833
 20
44.99999999999974
 30
0.0
 10
388.1757955126948
 20
44.99999999999968
 30
0.0
 10
388.2111377598956
 20
44.99999999999976
 30
0.0
 10
388.251354799814
 20
44.99999999999938
 30
0.0
 10
388.3133188316867
 20
45.00000000000077
 30
0.0
 10
388.3993047587828
 20
44.99999999999912
 30
0.0
 10
388.551831606469
 20
45.00000000000049
 30
0.0
 10
388.7522397515125
 20
44.99999999999933
 30
0.0
 10
388.9526478965561
 20
44.99999999999974
 30
0.0
 10
389.1051747442435
 20
44.99999999999974
 30
0.0
 10
389.1911606713394
 20
44.99999999999967
 30
0.0
 10
389.2531247032131
 20
44.99999999999944
 30
0.0
 10
389.2933417431313
 20
45.00000000000007
 30
0.0
 10
389.3286839903319
 20
44.99999999999976
 30
0.0
 10
389.3586639655431
 20
44.99999999999929
 30
0.0
 10
389.3827941894929
 20
45.00000000000052
 30
0.0
 10
389.4005871829108
 20
44.99999999999959
 30
0.0
 10
389.4115554665246
 20
44.99999999999976
 30
0.0
 10
389.416538587969
 20
44.99999999999995
 30
0.0
 10
389.4178114505121
 20
45.0
 30
0.0
 11
388.0866680525144
 21
45.0
 31
0.0
 11
388.0904866401424
 21
44.9999999999997
 31
0.0
 11
388.1016174168485
 21
44.99999999999972
 31
0.0
 11
388.1195729033556
 21
44.99999999999967
 31
0.0
 11
388.1438656203961
 21
44.9999999999997
 31
0.0
 11
388.174008088698
 21
44.99999999999971
 31
0.0
 11
388.2095128289904
 21
44.9999999999997
 31
0.0
 11
388.2498923619984
 21
44.9999999999996
 31
0.0
 11
388.2946592084527
 21
45.00000000000016
 31
0.0
 11
388.3954049246094
 21
44.99999999999963
 31
0.0
 11
388.5078501432861
 21
44.99999999999992
 31
0.0
 11
388.7522397515116
 21
44.99999999999966
 31
0.0
 11
388.99662935974
 21
44.99999999999971
 31
0.0
 11
389.1090745784167
 21
44.99999999999972
 31
0.0
 11
389.2098202945741
 21
44.99999999999959
 31
0.0
 11
389.254587141028
 21
44.99999999999959
 31
0.0
 11
389.2949666740372
 21
44.99999999999992
 31
0.0
 11
389.3304714143288
 21
44.9999999999997
 31
0.0
 11
389.3606138826297
 21
44.99999999999963
 31
0.0
 11
389.3849065996704
 21
45.00000000000015
 31
0.0
 11
389.4028620861785
 21
44.99999999999971
 31
0.0
 11
389.413992862883
 21
44.99999999999986
 31
0.0
 11
389.4178114505121
 21
45.0
 31
0.0
  0
SPLINE
  5
B33
330
AFA
100
AcDbEntity
  8
Layer 1
370
    18
100
AcDbSpline
210
0.0
220
0.0
230
1.0
 70
  1080
 71
     3
 72
    29
 73
    25
 74
    23
 42
0.000000001
 43
0.0000000001
 44
0.0000000001
 40
0.0
 40
0.0
 40
0.0
 40
0.0
 40
0.0032542802194939
 40
0.0127401608552873
 40
0.0280422018831246
 40
0.048744963273009
 40
0.0744330049980135
 40
0.104690887029335
 40
0.1391031693378295
 40
0.1772544119004351
 40
0.2631120176626496
 40
0.3589401840974915
 40
0.5672141180773452
 40
0.7754880520616894
 40
0.8713162184948259
 40
0.9571738242578362
 40
0.9953250668191344
 40
1.029737349129675
 40
1.059995231161337
 40
1.085683272886456
 40
1.106386034276567
 40
1.12168807530179
 40
1.131173955942131
 40
1.134428236158953
 40
1.134428236158953
 40
1.134428236158953
 40
1.134428236158953
 10
389.4178114505121
 20
47.81416963571163
 30
0.0
 10
389.4188962105852
 20
47.81416963571062
 30
0.0
 10
389.4231429308704
 20
47.81416963570666
 30
0.0
 10
389.4324903314979
 20
47.81416963571188
 30
0.0
 10
389.4476538925159
 20
47.814169635709
 30
0.0
 10
389.4682181738967
 20
47.81416963570755
 30
0.0
 10
389.4937677356122
 20
47.81416963571351
 30
0.0
 10
389.5238871376338
 20
47.81416963570779
 30
0.0
 10
389.5581609399345
 20
47.81416963570953
 30
0.0
 10
389.6109679834791
 20
47.81416963570833
 30
0.0
 10
389.6842469883988
 20
47.81416963571039
 30
0.0
 10
389.8142335571247
 20
47.81416963570875
 30
0.0
 10
389.9850255685909
 20
47.81416963571071
 30
0.0
 10
390.1558175800566
 20
47.81416963570481
 30
0.0
 10
390.2858041487835
 20
47.81416963571408
 30
0.0
 10
390.3590831537026
 20
47.81416963570827
 30
0.0
 10
390.4118901972476
 20
47.81416963570949
 30
0.0
 10
390.4461639995487
 20
47.81416963570862
 30
0.0
 10
390.4762834015713
 20
47.81416963570869
 30
0.0
 10
390.5018329632867
 20
47.81416963570921
 30
0.0
 10
390.522397244667
 20
47.81416963570906
 30
0.0
 10
390.5375608056854
 20
47.81416963570809
 30
0.0
 10
390.546908206313
 20
47.81416963570949
 30
0.0
 10
390.5511549265987
 20
47.81416963571119
 30
0.0
 10
390.552239686671
 20
47.81416963571163
 30
0.0
 11
389.4178114505121
 21
47.81416963571163
 31
0.0
 11
389.4210657307315
 21
47.814169635709
 31
0.0
 11
389.4305516113673
 21
47.81416963570989
 31
0.0
 11
389.4458536523952
 21
47.8141696357096
 31
0.0
 11
389.466556413785
 21
47.81416963570861
 31
0.0
 11
389.4922444555101
 21
47.8141696357115
 31
0.0
 11
389.5225023375414
 21
47.81416963570919
 31
0.0
 11
389.5569146198499
 21
47.81416963570907
 31
0.0
 11
389.5950658624125
 21
47.81416963570889
 31
0.0
 11
389.6809234681747
 21
47.81416963570976
 31
0.0
 11
389.7767516346095
 21
47.81416963570946
 31
0.0
 11
389.9850255685894
 21
47.81416963570911
 31
0.0
 11
390.1932995025737
 21
47.81416963570855
 31
0.0
 11
390.2891276690068
 21
47.81416963571178
 31
0.0
 11
390.3749852747699
 21
47.81416963570904
 31
0.0
 11
390.4131365173311
 21
47.81416963570919
 31
0.0
 11
390.4475487996417
 21
47.81416963570875
 31
0.0
 11
390.4778066816734
 21
47.8141696357088
 31
0.0
 11
390.5034947233985
 21
47.81416963570911
 31
0.0
 11
390.5241974847886
 21
47.81416963570882
 31
0.0
 11
390.5394995258138
 21
47.81416963570864
 31
0.0
 11
390.5489854064541
 21
47.81416963571039
 31
0.0
 11
390.552239686671
 21
47.81416963571163
 31
0.0
  0
SPLINE
  5
B34
330
AFA
100
AcDbEntity
  8
Layer 1
370
    18
100
AcDbSpline
210
0.0
220
0.0
230
1.0
 70
  1080
 71
     3
 72
    29
 73
    25
 74
    23
 42
0.000000001
 43
0.0000000001
 44
0.0000000001
 40
0.0
 40
0.0
 40
0.0
 40
0.0
 40
0.0000184877874858
 40
0.0000723777149005
 40
0.000159309643891
 40
0.0002769234278617
 40
0.0004228589284025
 40
0.0005947559986339
 40
0.0007902544979856
 40
0.0010069942829318
 40
0.0014947571375501
 40
0.0020391634207044
 40
0.0032223817001977
 40
0.0044055999815669
 40
0.0049500062629022
 40
0.0054377691182026
 40
0.0056545089040583
 40
0.0058500074018752
 40
0.0060219044721066
 40
0.0061678399720222
 40
0.0062854537568455
 40
0.0063723856853244
 40
0.006426275614615
 40
0.0064447633975533
 40
0.0064447633975533
 40
0.0064447633975533
 40
0.0064447633975533
 10
390.552239686671
 20
47.81416963571163
 30
0.0
 10
390.5522458492668
 20
47.81416963571169
 30
0.0
 10
390.5522699751717
 20
47.81416963571191
 30
0.0
 10
390.5523230783864
 20
47.81416963571263
 30
0.0
 10
390.5524092235999
 20
47.81416963571234
 30
0.0
 10
390.552526050671
 20
47.81416963571199
 30
0.0
 10
390.552671199456
 20
47.814169635712
 30
0.0
 10
390.5528423098127
 20
47.81416963571243
 30
0.0
 10
390.5530370215976
 20
47.81416963571196
 30
0.0
 10
390.5533370219771
 20
47.81416963571239
 30
0.0
 10
390.5537533249514
 20
47.81416963571223
 30
0.0
 10
390.5544917874238
 20
47.81416963571202
 30
0.0
 10
390.5554620683719
 20
47.81416963571188
 30
0.0
 10
390.5564323493193
 20
47.81416963571222
 30
0.0
 10
390.5571708117918
 20
47.81416963571245
 30
0.0
 10
390.5575871147661
 20
47.81416963571224
 30
0.0
 10
390.5578871151456
 20
47.81416963571269
 30
0.0
 10
390.5580818269303
 20
47.81416963571174
 30
0.0
 10
390.5582529372864
 20
47.81416963571146
 30
0.0
 10
390.5583980860713
 20
47.81416963571282
 30
0.0
 10
390.5585149131423
 20
47.8141696357124
 30
0.0
 10
390.5586010583567
 20
47.81416963571227
 30
0.0
 10
390.5586541615701
 20
47.81416963571277
 30
0.0
 10
390.5586782874743
 20
47.81416963571187
 30
0.0
 10
390.5586844500685
 20
47.81416963571163
 30
0.0
 11
390.552239686671
 21
47.81416963571163
 31
0.0
 11
390.5522581744585
 21
47.81416963571182
 31
0.0
 11
390.5523120643859
 21
47.81416963571238
 31
0.0
 11
390.5523989963149
 21
47.81416963571238
 31
0.0
 11
390.5525166100988
 21
47.81416963571209
 31
0.0
 11
390.5526625455994
 21
47.81416963571206
 31
0.0
 11
390.5528344426696
 21
47.81416963571228
 31
0.0
 11
390.553029941169
 21
47.81416963571209
 31
0.0
 11
390.5532466809539
 21
47.81416963571222
 31
0.0
 11
390.5537344438085
 21
47.81416963571225
 31
0.0
 11
390.5542788500917
 21
47.81416963571209
 31
0.0
 11
390.5554620683712
 21
47.81416963571198
 31
0.0
 11
390.5566452866525
 21
47.81416963571228
 31
0.0
 11
390.5571896929339
 21
47.81416963571238
 31
0.0
 11
390.5576774557892
 21
47.81416963571242
 31
0.0
 11
390.557894195575
 21
47.81416963571245
 31
0.0
 11
390.5580896940729
 21
47.81416963571181
 31
0.0
 11
390.5582615911431
 21
47.81416963571178
 31
0.0
 11
390.558407526643
 21
47.81416963571256
 31
0.0
 11
390.5585251404279
 21
47.81416963571242
 31
0.0
 11
390.5586120723563
 21
47.81416963571245
 31
0.0
 11
390.5586659622856
 21
47.81416963571226
 31
0.0
 11
390.5586844500685
 21
47.81416963571163
 31
0.0
  0
SPLINE
  5
B35
330
AFA
100
AcDbEntity
  8
Layer 1
370
    18
100
AcDbSpline
210
0.0
220
0.0
230
1.0
 70
  1080
 71
     3
 72
    29
 73
    25
 74
    23
 42
0.000000001
 43
0.0000000001
 44
0.0000000001
 40
0.0
 40
0.0
 40
0.0
 40
0.0
 40
0.0090362151592457
 40
0.0353758210497085
 40
0.077865258288932
 40
0.1353509674950869
 40
0.2066793892852847
 40
0.2906969642790069
 40
0.3862501330945498
 40
0.4921853363455947
 40
0.7305876086386704
 40
0.9966753061006944
 40
1.574993076306052
 40
2.153310846513273
 40
2.419398543975389
 40
2.657800816266739
 40
2.763736019520232
 40
2.859289188335645
 40
2.943306763328047
 40
3.014635185119752
 40
3.072120894324577
 40
3.114610331565089
 40
3.140949937454696
 40
3.149986152613973
 40
3.149986152613973
 40
3.149986152613973
 40
3.149986152613973
 10
390.5586844500685
 20
47.81416963571163
 30
0.0
 10
390.5600377129814
 20
47.81147867760461
 30
0.0
 10
390.565335593321
 20
47.80094386288758
 30
0.0
 10
390.576996688634
 20
47.77775581962457
 30
0.0
 10
390.5959135765859
 20
47.7401396605531
 30
0.0
 10
390.6215679862782
 20
47.68912596537628
 30
0.0
 10
390.6534416467975
 20
47.62574531378906
 30
0.0
 10
390.6910162872512
 20
47.55102828549687
 30
0.0
 10
390.7337736367388
 20
47.46600546020202
 30
0.0
 10
390.7996516270419
 20
47.33500732936814
 30
0.0
 10
390.8910688557389
 20
47.15322452107584
 30
0.0
 10
391.0532300626577
 20
46.83076758364861
 30
0.0
 10
391.2662969893673
 20
46.4070848178556
 30
0.0
 10
391.4793639160763
 20
45.98340205206203
 30
0.0
 10
391.6415251230034
 20
45.66094511463896
 30
0.0
 10
391.7329423516869
 20
45.47916230633956
 30
0.0
 10
391.7988203420033
 20
45.34816417551212
 30
0.0
 10
391.8415776914883
 20
45.26314135021568
 30
0.0
 10
391.8791523319378
 20
45.18842432192126
 30
0.0
 10
391.9110259924647
 20
45.12504367033829
 30
0.0
 10
391.9366804021486
 20
45.07402997515677
 30
0.0
 10
391.9555972901067
 20
45.03641381608877
 30
0.0
 10
391.967258385416
 20
45.01322577282373
 30
0.0
 10
391.9725562657557
 20
45.002690958107
 30
0.0
 10
391.9739095286686
 20
45.0
 30
0.0
 11
390.5586844500685
 21
47.81416963571163
 31
0.0
 11
390.562744238807
 21
47.80609676139059
 31
0.0
 11
390.5745780910876
 21
47.78256519156057
 31
0.0
 11
390.5936677360076
 21
47.74460550592258
 31
0.0
 11
390.6194949026659
 21
47.6932482841778
 31
0.0
 11
390.6515413201544
 21
47.62952410602514
 31
0.0
 11
390.6892887175758
 21
47.5544635511662
 31
0.0
 11
390.7322188240287
 21
47.46909719930179
 31
0.0
 11
390.7798133685992
 21
47.37445563013173
 31
0.0
 11
390.8869226885144
 21
47.16146915867923
 31
0.0
 11
391.0064705100948
 21
46.9237487744123
 31
0.0
 11
391.2662969893669
 21
46.40708481785604
 31
0.0
 11
391.5261234686424
 21
45.89042086129938
 31
0.0
 11
391.6456712902241
 21
45.65270047703302
 31
0.0
 11
391.7527806101347
 21
45.43971400558006
 31
0.0
 11
391.8003751547118
 21
45.34507243641065
 31
0.0
 11
391.8433052611634
 21
45.25970608454572
 31
0.0
 11
391.8810526585827
 21
45.18464552968715
 31
0.0
 11
391.9130990760745
 21
45.12092135153448
 31
0.0
 11
391.9389262427291
 21
45.06956412978937
 31
0.0
 11
391.9580158876517
 21
45.03160444415125
 31
0.0
 11
391.9698497399301
 21
45.00807287432107
 31
0.0
 11
391.9739095286686
 21
45.0
 31
0.0
  0
SPLINE
  5
B36
330
AFA
100
AcDbEntity
  8
Layer 1
370
    18
100
AcDbSpline
210
0.0
220
0.0
230
1.0
 70
  1080
 71
     3
 72
    29
 73
    25
 74
    23
 42
0.000000001
 43
0.0000000001
 44
0.0000000001
 40
0.0
 40
0.0
 40
0.0
 40
0.0
 40
0.0043790255027147
 40
0.0171434189881552
 40
0.0377341559216689
 40
0.0655922117782666
 40
0.1001585620162473
 40
0.1408741821096555
 40
0.187180047524464
 40
0.2385171337305678
 40
0.3540488703806659
 40
0.4829971958007491
 40
0.7632548279362937
 40
1.043512460067404
 40
1.1724607854905
 40
1.287992522139632
 40
1.339329608344883
 40
1.385635473760771
 40
1.426351093854066
 40
1.460917444092274
 40
1.488775499947166
 40
1.509366236882783
 40
1.522130630367939
 40
1.526509655868778
 40
1.526509655868778
 40
1.526509655868778
 40
1.526509655868778
 10
391.9739095286686
 20
45.0
 30
0.0
 10
391.9753692038362
 20
45.0
 30
0.0
 10
391.9810836768322
 20
44.99999999999999
 30
0.0
 10
391.9936617288061
 20
45.00000000000039
 30
0.0
 10
392.0140661242312
 20
45.00000000000009
 30
0.0
 10
392.0417378385739
 20
45.00000000000037
 30
0.0
 10
392.0761178473033
 20
45.00000000000084
 30
0.0
 10
392.1166471258854
 20
44.99999999999983
 30
0.0
 10
392.1627666497902
 20
45.00000000000008
 30
0.0
 10
392.2338248792137
 20
44.99999999999949
 30
0.0
 10
392.3324305953059
 20
45.00000000000078
 30
0.0
 10
392.5073431600412
 20
44.99999999999977
 30
0.0
 10
392.7371643566034
 20
44.99999999999985
 30
0.0
 10
392.9669855531665
 20
45.00000000000024
 30
0.0
 10
393.1418981179011
 20
44.99999999999952
 30
0.0
 10
393.2405038339936
 20
45.00000000000096
 30
0.0
 10
393.311562063417
 20
44.99999999999969
 30
0.0
 10
393.3576815873217
 20
45.00000000000002
 30
0.0
 10
393.3982108659044
 20
44.99999999999989
 30
0.0
 10
393.4325908746331
 20
45.00000000000063
 30
0.0
 10
393.4602625889759
 20
44.99999999999987
 30
0.0
 10
393.4806669844014
 20
45.00000000000004
 30
0.0
 10
393.4932450363749
 20
44.99999999999997
 30
0.0
 10
393.4989595093704
 20
44.99999999999999
 30
0.0
 10
393.5004191845374
 20
45.0
 30
0.0
 11
391.9739095286686
 21
45.0
 31
0.0
 11
391.9782885541713
 21
45.0
 31
0.0
 11
391.9910529476567
 21
45.00000000000023
 31
0.0
 11
392.0116436845902
 21
45.0000000000002
 31
0.0
 11
392.0395017404469
 21
45.00000000000037
 31
0.0
 11
392.0740680906848
 21
45.0000000000006
 31
0.0
 11
392.1147837107782
 21
45.00000000000006
 31
0.0
 11
392.161089576193
 21
44.99999999999997
 31
0.0
 11
392.2124266623992
 21
44.99999999999978
 31
0.0
 11
392.3279583990492
 21
45.00000000000038
 31
0.0
 11
392.4569067244693
 21
45.00000000000015
 31
0.0
 11
392.7371643566049
 21
44.99999999999992
 31
0.0
 11
393.017421988736
 21
44.99999999999996
 31
0.0
 11
393.1463703141591
 21
44.99999999999993
 31
0.0
 11
393.2619020508082
 21
45.00000000000041
 31
0.0
 11
393.3132391370135
 21
44.99999999999989
 31
0.0
 11
393.3595450024293
 21
44.99999999999995
 31
0.0
 11
393.4002606225226
 21
45.00000000000006
 31
0.0
 11
393.4348269727609
 21
45.00000000000037
 31
0.0
 11
393.4626850286158
 21
44.99999999999999
 31
0.0
 11
393.4832757655513
 21
45.0
 31
0.0
 11
393.4960401590365
 21
44.99999999999999
 31
0.0
 11
393.5004191845374
 21
45.0
 31
0.0
  0
SPLINE
  5
B37
330
AFA
100
AcDbEntity
  8
Layer 1
370
    18
100
AcDbSpline
210
0.0
220
0.0
230
1.0
 70
  1080
 71
     3
 72
    29
 73
    25
 74
    23
 42
0.000000001
 43
0.0000000001
 44
0.0000000001
 40
0.0
 40
0.0
 40
0.0
 40
0.0
 40
0.00946539466925
 40
0.0370560131769167
 40
0.0815635072653008
 40
0.1417795286802411
 40
0.2164957291629348
 40
0.3045037604593699
 40
0.4045952743153435
 40
0.5155619224730073
 40
0.765287228671385
 40
1.044012893008332
 40
1.64979815191445
 40
2.255583410821594
 40
2.534309075159162
 40
2.784034381357438
 40
2.895001029514789
 40
2.995092543371303
 40
3.083100574667911
 40
3.157816775151596
 40
3.218032796564866
 40
3.262540290653983
 40
3.290130909161096
 40
3.299596303832526
 40
3.299596303832526
 40
3.299596303832526
 40
3.299596303832526
 10
393.5004191845374
 20
45.0
 30
0.0
 10
393.498925973388
 20
45.00277942001171
 30
0.0
 10
393.4930802105895
 20
45.01366055367568
 30
0.0
 10
393.4802131783315
 20
45.03761087504954
 30
0.0
 10
393.4593399926761
 20
45.07646361861705
 30
0.0
 10
393.4310325217119
 20
45.1291543256426
 30
0.0
 10
393.3958626335498
 20
45.19461853740421
 30
0.0
 10
393.3544021962834
 20
45.27179179517096
 30
0.0
 10
393.3072230780151
 20
45.35960964021632
 30
0.0
 10
393.2345322883849
 20
45.49491417184114
 30
0.0
 10
393.1336611095972
 20
45.6826728641107
 30
0.0
 10
392.9547299351285
 20
46.01573017272735
 30
0.0
 10
392.7196286050376
 20
46.45334098305457
 30
0.0
 10
392.4845272749451
 20
46.8909517933812
 30
0.0
 10
392.3055961004757
 20
47.22400910199794
 30
0.0
 10
392.2047249216836
 20
47.41176779426516
 30
0.0
 10
392.1320341320591
 20
47.54707232589312
 30
0.0
 10
392.0848550137864
 20
47.63489017093632
 30
0.0
 10
392.0433945765223
 20
47.71206342870492
 30
0.0
 10
392.0082246883577
 20
47.77752764046499
 30
0.0
 10
391.9799172173994
 20
47.83021834749384
 30
0.0
 10
391.9590440317366
 20
47.86907109105659
 30
0.0
 10
391.9461769994878
 20
47.89302141243642
 30
0.0
 10
391.9403312366812
 20
47.90390254609657
 30
0.0
 10
391.9388380255293
 20
47.90668196610782
 30
0.0
 11
393.5004191845374
 21
45.0
 31
0.0
 11
393.4959395510887
 21
45.00833826003495
 31
0.0
 11
393.4828818961337
 21
45.03264340098724
 31
0.0
 11
393.4618180877761
 21
45.07185096412886
 31
0.0
 11
393.4333199941134
 21
45.12489649073232
 31
0.0
 11
393.3979594832502
 21
45.19071552206869
 31
0.0
 11
393.3563084232845
 21
45.26824359941111
 31
0.0
 11
393.3089386823155
 21
45.35641626403291
 31
0.0
 11
393.2564221284441
 21
45.45416905720435
 31
0.0
 11
393.1382360543986
 21
45.67415719428814
 31
0.0
 11
393.0063251459483
 21
45.91969234083927
 31
0.0
 11
392.7196286050375
 21
46.4533409830541
 31
0.0
 11
392.4329320641253
 21
46.98698962526932
 31
0.0
 11
392.3010211556732
 21
47.23252477182021
 31
0.0
 11
392.1828350816267
 21
47.45251290890329
 31
0.0
 11
392.1303185277574
 21
47.55026570207552
 31
0.0
 11
392.0829487867863
 21
47.63843836669686
 31
0.0
 11
392.0412977268211
 21
47.71596644403971
 31
0.0
 11
392.0059372159574
 21
47.78178547537698
 31
0.0
 11
391.9774391222972
 21
47.83483100197985
 31
0.0
 11
391.9563753139379
 21
47.87403856512137
 31
0.0
 11
391.9433176589843
 21
47.8983437060738
 31
0.0
 11
391.9388380255293
 21
47.90668196610782
 31
0.0
  0
SPLINE
  5
B38
330
AFA
100
AcDbEntity
  8
Layer 1
370
    18
100
AcDbSpline
210
0.0
220
0.0
230
1.0
 70
  1080
 71
     3
 72
    29
 73
    25
 74
    23
 42
0.000000001
 43
0.0000000001
 44
0.0000000001
 40
0.0
 40
0.0
 40
0.0
 40
0.0
 40
0.0047945707397616
 40
0.0187702343565093
 40
0.0413149180037067
 40
0.0718165488146951
 40
0.1096630539407215
 40
0.1542423605147292
 40
0.2049423956844976
 40
0.2611510865828563
 40
0.38764614414373
 40
0.5288309503279152
 40
0.835683477051532
 40
1.142536003782595
 40
1.283720809963597
 40
1.410215867521685
 40
1.466424558423511
 40
1.517124593591745
 40
1.561703900167003
 40
1.599550405288709
 40
1.630052036108111
 40
1.652596719753432
 40
1.666572383367224
 40
1.671366954092718
 40
1.671366954092718
 40
1.671366954092718
 40
1.671366954092718
 10
391.0992951843564
 20
48.91255216031027
 30
0.0
 10
391.0976969941098
 20
48.91255216031035
 30
0.0
 10
391.0914402493243
 20
48.91255216031067
 30
0.0
 10
391.0776686099898
 20
48.91255216030967
 30
0.0
 10
391.0553279506314
 20
48.91255216031009
 30
0.0
 10
391.0250303441034
 20
48.91255216030984
 30
0.0
 10
390.9873878632664
 20
48.91255216030991
 30
0.0
 10
390.9430125809764
 20
48.91255216030988
 30
0.0
 10
390.8925165700957
 20
48.91255216030993
 30
0.0
 10
390.814715308886
 20
48.91255216031067
 30
0.0
 10
390.7067524573383
 20
48.91255216030977
 30
0.0
 10
390.5152416605151
 20
48.91255216031041
 30
0.0
 10
390.2636117073025
 20
48.91255216031055
 30
0.0
 10
390.0119817540905
 20
48.91255216030997
 30
0.0
 10
389.8204709572672
 20
48.91255216031064
 30
0.0
 10
389.7125081057201
 20
48.91255216030878
 30
0.0
 10
389.6347068445107
 20
48.91255216031104
 30
0.0
 10
389.584210833629
 20
48.91255216030969
 30
0.0
 10
389.5398355513405
 20
48.91255216031028
 30
0.0
 10
389.5021930705018
 20
48.9125521603096
 30
0.0
 10
389.471895463973
 20
48.91255216031026
 30
0.0
 10
389.4495548046135
 20
48.91255216030941
 30
0.0
 10
389.4357831652851
 20
48.91255216031062
 30
0.0
 10
389.4295264205055
 20
48.91255216031034
 30
0.0
 10
389.4279282302637
 20
48.91255216031027
 30
0.0
 11
391.0992951843564
 21
48.91255216031027
 31
0.0
 11
391.0945006136166
 21
48.91255216031047
 31
0.0
 11
391.0805249499999
 21
48.91255216031005
 31
0.0
 11
391.0579802663527
 21
48.91255216030995
 31
0.0
 11
391.0274786355417
 21
48.91255216030991
 31
0.0
 11
390.9896321304157
 21
48.91255216030989
 31
0.0
 11
390.9450528238417
 21
48.91255216030988
 31
0.0
 11
390.8943527886719
 21
48.91255216031
 31
0.0
 11
390.8381440977735
 21
48.91255216031034
 31
0.0
 11
390.7116490402127
 21
48.91255216031004
 31
0.0
 11
390.5704642340285
 21
48.91255216031019
 31
0.0
 11
390.2636117073048
 21
48.91255216031041
 31
0.0
 11
389.9567591805738
 21
48.91255216031026
 31
0.0
 11
389.8155743743928
 21
48.91255216031014
 31
0.0
 11
389.6890793168347
 21
48.91255216030972
 31
0.0
 11
389.6328706259329
 21
48.91255216031055
 31
0.0
 11
389.5821705907646
 21
48.91255216031
 31
0.0
 11
389.5375912841894
 21
48.91255216031007
 31
0.0
 11
389.4997447790677
 21
48.91255216030984
 31
0.0
 11
389.4692431482483
 21
48.91255216030997
 31
0.0
 11
389.446698464603
 21
48.91255216030988
 31
0.0
 11
389.4327228009892
 21
48.91255216031044
 31
0.0
 11
389.4279282302637
 21
48.91255216031027
 31
0.0
  0
SPLINE
  5
B39
330
AFA
100
AcDbEntity
  8
Layer 1
370
    18
100
AcDbSpline
210
0.0
220
0.0
230
1.0
 70
  1080
 71
     3
 72
    29
 73
    25
 74
    23
 42
0.000000001
 43
0.0000000001
 44
0.0000000001
 40
0.0
 40
0.0
 40
0.0
 40
0.0
 40
0.0058374108247676
 40
0.0228528423751584
 40
0.0503010932703703
 40
0.0874369621290896
 40
0.1335152475688375
 40
0.1877907482081866
 40
0.2495182626656671
 40
0.3179525895585513
 40
0.4719608751252978
 40
0.6438539938550676
 40
1.017448286585825
 40
1.391042579315943
 40
1.562935698045656
 40
1.716943983613184
 40
1.785378310506288
 40
1.847105824963463
 40
1.901381325602706
 40
1.947459611042198
 40
1.984595479900683
 40
2.012043730796051
 40
2.029059162346634
 40
2.034896573170072
 40
2.034896573170072
 40
2.034896573170072
 40
2.034896573170072
 10
389.4279282302637
 20
48.91255216031027
 30
0.0
 10
389.4279282302638
 20
48.91449796391853
 30
0.0
 10
389.4279282302641
 20
48.92211557804359
 30
0.0
 10
389.4279282302634
 20
48.9388826091337
 30
0.0
 10
389.4279282302653
 20
48.9660824595685
 30
0.0
 10
389.4279282302568
 20
49.00296992796636
 30
0.0
 10
389.4279282302644
 20
49.04879981294565
 30
0.0
 10
389.4279282302601
 20
49.10282691312451
 30
0.0
 10
389.4279282302594
 20
49.16430602712106
 30
0.0
 10
389.427928230268
 20
49.25902940276013
 30
0.0
 10
389.4279282302633
 20
49.3904746464899
 30
0.0
 10
389.4279282302608
 20
49.62363987883236
 30
0.0
 10
389.4279282302603
 20
49.93000044689589
 30
0.0
 10
389.4279282302641
 20
50.23636101495942
 30
0.0
 10
389.4279282302593
 20
50.46952624730187
 30
0.0
 10
389.427928230267
 20
50.60097149103199
 30
0.0
 10
389.4279282302596
 20
50.69569486667124
 30
0.0
 10
389.4279282302645
 20
50.75717398066777
 30
0.0
 10
389.4279282302646
 20
50.81120108084639
 30
0.0
 10
389.4279282302599
 20
50.85703096582546
 30
0.0
 10
389.4279282302616
 20
50.89391843422325
 30
0.0
 10
389.4279282302657
 20
50.92111828465807
 30
0.0
 10
389.4279282302645
 20
50.93788531574786
 30
0.0
 10
389.4279282302638
 20
50.94550292987253
 30
0.0
 10
389.4279282302637
 20
50.94744873348035
 30
0.0
 11
389.4279282302637
 21
48.91255216031027
 31
0.0
 11
389.4279282302639
 21
48.91838957113504
 31
0.0
 11
389.4279282302638
 21
48.93540500268543
 31
0.0
 11
389.4279282302639
 21
48.96285325358064
 31
0.0
 11
389.4279282302597
 21
48.99998912243937
 31
0.0
 11
389.4279282302623
 21
49.04606740787912
 31
0.0
 11
389.4279282302609
 21
49.10034290851847
 31
0.0
 11
389.4279282302605
 21
49.16207042297594
 31
0.0
 11
389.4279282302645
 21
49.23050474986883
 31
0.0
 11
389.4279282302641
 21
49.38451303543557
 31
0.0
 11
389.4279282302616
 21
49.55640615416534
 31
0.0
 11
389.4279282302612
 21
49.9300004468961
 31
0.0
 11
389.4279282302621
 21
50.30359473962622
 31
0.0
 11
389.4279282302616
 21
50.47548785835593
 31
0.0
 11
389.4279282302638
 21
50.62949614392346
 31
0.0
 11
389.4279282302613
 21
50.69793047081656
 31
0.0
 11
389.4279282302639
 21
50.75965798527374
 31
0.0
 11
389.4279282302636
 21
50.81393348591298
 31
0.0
 11
389.4279282302609
 21
50.86001177135248
 31
0.0
 11
389.4279282302625
 21
50.89714764021096
 31
0.0
 11
389.427928230265
 21
50.92459589110633
 31
0.0
 11
389.4279282302641
 21
50.94161132265691
 31
0.0
 11
389.4279282302637
 21
50.94744873348035
 31
0.0
  0
SPLINE
  5
B3A
330
AFA
100
AcDbEntity
  8
Layer 1
370
    18
100
AcDbSpline
210
0.0
220
0.0
230
1.0
 70
  1080
 71
     3
 72
    29
 73
    25
 74
    23
 42
0.000000001
 43
0.0000000001
 44
0.0000000001
 40
0.0
 40
0.0
 40
0.0
 40
0.0
 40
0.0047945707288477
 40
0.0187702343481533
 40
0.0413149179934749
 40
0.071816548803497
 40
0.1096630539319676
 40
0.1542423605039289
 40
0.2049423956731289
 40
0.2611510865758646
 40
0.3876461441374204
 40
0.5288309503127949
 40
0.8356834770443128
 40
1.142536003768555
 40
1.28372080995075
 40
1.410215867512818
 40
1.466424558413962
 40
1.517124593577193
 40
1.561703900156715
 40
1.599550405276829
 40
1.630052036093672
 40
1.652596719738539
 40
1.6665723833583
 40
1.671366954092718
 40
1.671366954092718
 40
1.671366954092718
 40
1.671366954092718
 10
389.4279282302637
 20
50.94744873348035
 30
0.0
 10
389.4295264205066
 20
50.94744873348033
 30
0.0
 10
389.4357831652894
 20
50.94744873348024
 30
0.0
 10
389.4495548046204
 20
50.94744873347988
 30
0.0
 10
389.4718954639787
 20
50.94744873348026
 30
0.0
 10
389.5021930705066
 20
50.94744873348027
 30
0.0
 10
389.5398355513435
 20
50.94744873347974
 30
0.0
 10
389.5842108336333
 20
50.94744873348018
 30
0.0
 10
389.6347068445146
 20
50.94744873347996
 30
0.0
 10
389.7125081057258
 20
50.9474487334803
 30
0.0
 10
389.8204709572724
 20
50.94744873348003
 30
0.0
 10
390.0119817540952
 20
50.94744873348034
 30
0.0
 10
390.2636117073055
 20
50.94744873348
 30
0.0
 10
390.5152416605182
 20
50.94744873348025
 30
0.0
 10
390.706752457341
 20
50.94744873348016
 30
0.0
 10
390.8147153088894
 20
50.94744873348102
 30
0.0
 10
390.8925165700983
 20
50.94744873348015
 30
0.0
 10
390.9430125809796
 20
50.94744873348
 30
0.0
 10
390.9873878632674
 20
50.94744873348047
 30
0.0
 10
391.025030344106
 20
50.94744873348021
 30
0.0
 10
391.0553279506335
 20
50.94744873348009
 30
0.0
 10
391.0776686099938
 20
50.94744873348014
 30
0.0
 10
391.0914402493269
 20
50.94744873348012
 30
0.0
 10
391.0976969941115
 20
50.9474487334803
 30
0.0
 10
391.0992951843564
 20
50.94744873348035
 30
0.0
 11
389.4279282302637
 21
50.94744873348035
 31
0.0
 11
389.4327228009925
 21
50.94744873348028
 31
0.0
 11
389.4466984646118
 21
50.94744873348004
 31
0.0
 11
389.4692431482571
 21
50.94744873348016
 31
0.0
 11
389.4997447790672
 21
50.9474487334802
 31
0.0
 11
389.5375912841956
 21
50.94744873347991
 31
0.0
 11
389.5821705907676
 21
50.94744873348006
 31
0.0
 11
389.6328706259368
 21
50.94744873348004
 31
0.0
 11
389.6890793168395
 21
50.94744873348016
 31
0.0
 11
389.8155743744011
 21
50.94744873348012
 31
0.0
 11
389.9567591805764
 21
50.9474487334802
 31
0.0
 11
390.263611707308
 21
50.94744873348012
 31
0.0
 11
390.5704642340322
 21
50.9474487334802
 31
0.0
 11
390.7116490402144
 21
50.94744873348037
 31
0.0
 11
390.8381440977765
 21
50.94744873348066
 31
0.0
 11
390.8943527886776
 21
50.9474487334802
 31
0.0
 11
390.9450528238409
 21
50.94744873348012
 31
0.0
 11
390.9896321304204
 21
50.94744873348036
 31
0.0
 11
391.0274786355405
 21
50.9474487334802
 31
0.0
 11
391.0579802663574
 21
50.94744873348012
 31
0.0
 11
391.0805249500022
 21
50.94744873348012
 31
0.0
 11
391.094500613622
 21
50.94744873348022
 31
0.0
 11
391.0992951843564
 21
50.94744873348035
 31
0.0
  0
SPLINE
  5
B3B
330
AFA
100
AcDbEntity
  8
Layer 1
370
    18
100
AcDbSpline
210
0.0
220
0.0
230
1.0
 70
  1064
 71
     3
 72
    32
 73
    28
 74
    26
 42
0.000000001
 43
0.0000000001
 44
0.0000000001
 40
0.0
 40
0.0
 40
0.0
 40
0.0
 40
0.1011892076670471
 40
0.2011336125194667
 40
0.3001790463018994
 40
0.3985815134407089
 40
0.59390356768679
 40
0.788149988890993
 40
0.9817561484788184
 40
1.1753749064992
 40
1.272725582118326
 40
1.370733838857443
 40
1.469801370282388
 40
1.570440002839242
 40
1.677269312337072
 40
1.782101095854168
 40
1.885393892623295
 40
1.987512206380043
 40
2.08873581449826
 40
2.189272374941122
 40
2.388627586930517
 40
2.586619356467233
 40
2.783985261953757
 40
2.882912077861599
 40
2.98223224920886
 40
3.082277819940304
 40
3.183478443482222
 40
3.183478443482222
 40
3.183478443482222
 40
3.183478443482222
 10
391.0992951843564
 20
50.94744873348035
 30
0.0
 10
391.1330397360503
 20
50.94645084877532
 30
0.0
 10
391.2001137229064
 20
50.94446735507842
 30
0.0
 10
391.2991751579082
 20
50.92865808117598
 30
0.0
 10
391.3953411435157
 20
50.90407390814147
 30
0.0
 10
391.5185425308852
 20
50.85923322784362
 30
0.0
 10
391.6629034755301
 20
50.78207927356966
 30
0.0
 10
391.8153535006858
 20
50.65972500889209
 30
0.0
 10
391.942359874051
 20
50.5118501626339
 30
0.0
 10
392.0230234461115
 20
50.37061505215318
 30
0.0
 10
392.0698950570812
 20
50.2495223766351
 30
0.0
 10
392.0958057182876
 20
50.15467452788902
 30
0.0
 10
392.1118256347855
 20
50.05654430195735
 30
0.0
 10
392.1172086030493
 20
49.95431288313406
 30
0.0
 10
392.1117834181694
 20
49.85016866249043
 30
0.0
 10
392.0958618195653
 20
49.74622293079696
 30
0.0
 10
392.0699658770201
 20
49.64592466171011
 30
0.0
 10
392.0347577327374
 20
49.54979817693534
 30
0.0
 10
391.9908099098503
 20
49.45835472092547
 30
0.0
 10
391.9216098830164
 20
49.34375851586326
 30
0.0
 10
391.8160597959884
 20
49.21431570923036
 30
0.0
 10
391.6636281325594
 20
49.08585310180594
 30
0.0
 10
391.5189047954739
 20
49.00479839439639
 30
0.0
 10
391.3954619098362
 20
48.9578424175173
 30
0.0
 10
391.2992613746529
 20
48.9321616079304
 30
0.0
 10
391.2001589239783
 20
48.91566102549269
 30
0.0
 10
391.1330448313728
 20
48.91359240631862
 30
0.0
 10
391.0992951843564
 20
48.91255216031027
 30
0.0
 11
391.0992951843564
 21
50.94744873348035
 31
0.0
 11
391.2003520917457
 21
50.94227599559854
 31
0.0
 11
391.2991383221791
 21
50.92710481442954
 31
0.0
 11
391.3950675722452
 21
50.90245573868809
 31
0.0
 11
391.4875535385665
 21
50.86884931709015
 31
0.0
 11
391.6598504063871
 21
50.77684663118304
 31
0.0
 11
391.8113384984861
 21
50.65526114642917
 31
0.0
 11
391.9373273877361
 21
50.5082572525491
 31
0.0
 11
392.0331266469931
 21
50.33999933926367
 31
0.0
 11
392.0682394068922
 21
50.24920149713199
 31
0.0
 11
392.0940458491196
 21
50.15465179629376
 31
0.0
 11
392.1099596702757
 21
50.05687078546421
 31
0.0
 11
392.1153945669712
 21
49.95637901335912
 31
0.0
 11
392.1099596702772
 21
49.84968804248666
 31
0.0
 11
392.0940458491222
 21
49.74607118511479
 31
0.0
 11
392.0682394068935
 21
49.64605403956522
 31
0.0
 11
392.0331266469963
 21
49.55016220416236
 31
0.0
 11
391.9892938728127
 21
49.45892127722804
 31
0.0
 11
391.937327387735
 21
49.37285685708619
 31
0.0
 11
391.8113384984861
 21
49.21835993047217
 31
0.0
 11
391.6598504063832
 21
49.09087621090264
 31
0.0
 11
391.4875535385713
 21
48.99461048496269
 31
0.0
 11
391.3950675722503
 21
48.95949836541216
 31
0.0
 11
391.2991383221708
 21
48.93376753923746
 31
0.0
 11
391.2003520917501
 21
48.91794360476293
 31
0.0
 11
391.0992951843564
 21
48.91255216031027
 31
0.0
  0
LINE
  5
B3C
330
AFA
100
AcDbEntity
  8
Layer 1
370
    18
100
AcDbLine
 10
405.3210145246553
 20
47.81416963571163
 30
0.0
 11
403.5791298687383
 21
47.81416963571163
 31
0.0
  0
LINE
  5
B3D
330
AFA
100
AcDbEntity
  8
Layer 1
370
    18
100
AcDbLine
 10
403.5791298687383
 20
47.81416963571163
 30
0.0
 11
404.4269909510415
 21
49.70600744928152
 31
0.0
  0
LINE
  5
B3E
330
AFA
100
AcDbEntity
  8
Layer 1
370
    18
100
AcDbLine
 10
404.4269909510415
 20
49.70600744928152
 30
0.0
 11
404.4556926298922
 21
49.70600744928152
 31
0.0
  0
LINE
  5
B3F
330
AFA
100
AcDbEntity
  8
Layer 1
370
    18
100
AcDbLine
 10
404.4556926298922
 20
49.70600744928152
 30
0.0
 11
405.3210145246553
 21
47.81416963571163
 31
0.0
  0
SPLINE
  5
B40
330
AFA
100
AcDbEntity
  8
Layer 1
370
    18
100
AcDbSpline
210
0.0
220
0.0
230
1.0
 70
  1080
 71
     3
 72
    29
 73
    25
 74
    23
 42
0.000000001
 43
0.0000000001
 44
0.0000000001
 40
0.0
 40
0.0
 40
0.0
 40
0.0
 40
0.0074705702116944
 40
0.029246487635703
 40
0.0643740624636848
 40
0.1118996048804206
 40
0.1708694250627332
 40
0.2403298332044983
 40
0.3193271394968633
 40
0.4069076541083519
 40
0.6040035490681817
 40
0.8239879995705905
 40
1.302104493154843
 40
1.78022098673199
 40
2.000205437237866
 40
2.197301332195252
 40
2.284881846811117
 40
2.363879153097741
 40
2.433339561239336
 40
2.492309381423922
 40
2.539834923839919
 40
2.574962498671368
 40
2.596738416093842
 40
2.604208986308776
 40
2.604208986308776
 40
2.604208986308776
 40
2.604208986308776
 10
397.4381696203404
 20
52.18087153298713
 30
0.0
 10
397.4356794302698
 20
52.18087153298725
 30
0.0
 10
397.425930601058
 20
52.18087153298773
 30
0.0
 10
397.4044725802366
 20
52.18087153298796
 30
0.0
 10
397.3696629020139
 20
52.18087153298799
 30
0.0
 10
397.3224552562046
 20
52.18087153298686
 30
0.0
 10
397.2638033326246
 20
52.18087153298726
 30
0.0
 10
397.1946608210857
 20
52.18087153298698
 30
0.0
 10
397.1159814114038
 20
52.18087153298742
 30
0.0
 10
396.9947568394493
 20
52.18087153298693
 30
0.0
 10
396.826536552758
 20
52.18087153298693
 30
0.0
 10
396.5281376064091
 20
52.18087153298743
 30
0.0
 10
396.1360651271879
 20
52.18087153298752
 30
0.0
 10
395.7439926479655
 20
52.18087153298824
 30
0.0
 10
395.4455937016187
 20
52.18087153298765
 30
0.0
 10
395.2773734149257
 20
52.18087153298703
 30
0.0
 10
395.1561488429724
 20
52.18087153298705
 30
0.0
 10
395.0774694332911
 20
52.18087153298808
 30
0.0
 10
395.0083269217533
 20
52.18087153298714
 30
0.0
 10
394.9496749981727
 20
52.1808715329871
 30
0.0
 10
394.9024673523619
 20
52.18087153298767
 30
0.0
 10
394.8676576741387
 20
52.18087153298686
 30
0.0
 10
394.8461996533157
 20
52.18087153298738
 30
0.0
 10
394.8364508241032
 20
52.18087153298718
 30
0.0
 10
394.8339606340316
 20
52.18087153298713
 30
0.0
 11
397.4381696203404
 21
52.18087153298713
 31
0.0
 11
397.4306990501287
 21
52.18087153298746
 31
0.0
 11
397.4089231327047
 21
52.18087153298789
 31
0.0
 11
397.3737955578767
 21
52.18087153298785
 31
0.0
 11
397.32627001546
 21
52.18087153298718
 31
0.0
 11
397.2673001952776
 21
52.18087153298713
 31
0.0
 11
397.1978397871359
 21
52.1808715329871
 31
0.0
 11
397.1188424808435
 21
52.18087153298728
 31
0.0
 11
397.031261966232
 21
52.18087153298711
 31
0.0
 11
396.8341660712722
 21
52.18087153298697
 31
0.0
 11
396.6141816207698
 21
52.18087153298725
 31
0.0
 11
396.1360651271855
 21
52.18087153298765
 31
0.0
 11
395.6579486336084
 21
52.18087153298798
 31
0.0
 11
395.4379641831025
 21
52.18087153298757
 31
0.0
 11
395.2408682881451
 21
52.18087153298707
 31
0.0
 11
395.1532877735293
 21
52.18087153298725
 31
0.0
 11
395.0742904672426
 21
52.18087153298775
 31
0.0
 11
395.004830059101
 21
52.18087153298725
 31
0.0
 11
394.9458602389165
 21
52.18087153298724
 31
0.0
 11
394.8983346965005
 21
52.18087153298739
 31
0.0
 11
394.863207121669
 21
52.1808715329871
 31
0.0
 11
394.8414312042465
 21
52.18087153298726
 31
0.0
 11
394.8339606340316
 21
52.18087153298713
 31
0.0
  0
SPLINE
  5
B41
330
AFA
100
AcDbEntity
  8
Layer 1
370
    18
100
AcDbSpline
210
0.0
220
0.0
230
1.0
 70
  1080
 71
     3
 72
    29
 73
    25
 74
    23
 42
0.000000001
 43
0.0000000001
 44
0.0000000001
 40
0.0
 40
0.0
 40
0.0
 40
0.0
 40
0.0205994239528309
 40
0.0806445533488685
 40
0.1775056744911509
 40
0.3085530736837825
 40
0.4711570372293324
 40
0.6626878514335317
 40
0.8805158025983459
 40
1.122011177029889
 40
1.665485340902733
 40
2.272072633484128
 40
3.590435766493861
 40
4.908798899503196
 40
5.515386192084747
 40
6.058860355958174
 40
6.300355730389227
 40
6.518183681554482
 40
6.709714495758092
 40
6.872318459304111
 40
7.003365858496557
 40
7.10022697963857
 40
7.160272109034451
 40
7.180871532987133
 40
7.180871532987133
 40
7.180871532987133
 40
7.180871532987133
 10
394.8339606340316
 20
52.18087153298713
 30
0.0
 10
394.8339606340326
 20
52.17400505833619
 30
0.0
 10
394.8339606340367
 20
52.14712354055324
 30
0.0
 10
394.8339606340295
 20
52.08795498238951
 30
0.0
 10
394.8339606340348
 20
51.9919704324792
 30
0.0
 10
394.8339606340243
 20
51.86179960451902
 30
0.0
 10
394.8339606340381
 20
51.70007221220493
 30
0.0
 10
394.8339606340299
 20
51.50941796923338
 30
0.0
 10
394.8339606340267
 20
51.29246658929989
 30
0.0
 10
394.8339606340369
 20
50.95820075947678
 30
0.0
 10
394.8339606340335
 20
50.4943484825149
 30
0.0
 10
394.8339606340322
 20
49.67154028602688
 30
0.0
 10
394.8339606340293
 20
48.5904357664934
 30
0.0
 10
394.8339606340412
 20
47.50933124695986
 30
0.0
 10
394.833960634024
 20
46.68652305047176
 30
0.0
 10
394.8339606340347
 20
46.22267077350975
 30
0.0
 10
394.8339606340322
 20
45.88840494368651
 30
0.0
 10
394.8339606340317
 20
45.6714535637532
 30
0.0
 10
394.8339606340344
 20
45.48079932078156
 30
0.0
 10
394.8339606340351
 20
45.31907192846754
 30
0.0
 10
394.8339606340299
 20
45.18890110050739
 30
0.0
 10
394.8339606340335
 20
45.09291655059726
 30
0.0
 10
394.8339606340364
 20
45.03374799243374
 30
0.0
 10
394.8339606340326
 20
45.00686647465089
 30
0.0
 10
394.8339606340316
 20
45.0
 30
0.0
 11
394.8339606340316
 21
52.18087153298713
 31
0.0
 11
394.8339606340342
 21
52.1602721090343
 31
0.0
 11
394.8339606340324
 21
52.10022697963826
 31
0.0
 11
394.8339606340324
 21
52.00336585849598
 31
0.0
 11
394.8339606340284
 21
51.87231845930335
 31
0.0
 11
394.8339606340341
 21
51.7097144957578
 31
0.0
 11
394.8339606340312
 21
51.5181836815536
 31
0.0
 11
394.8339606340283
 21
51.30035573038878
 31
0.0
 11
394.8339606340329
 21
51.05886035595724
 31
0.0
 11
394.8339606340342
 21
50.51538619208439
 31
0.0
 11
394.8339606340326
 21
49.908798899503
 31
0.0
 11
394.8339606340324
 21
48.59043576649327
 31
0.0
 11
394.8339606340342
 21
47.27207263348393
 31
0.0
 11
394.8339606340283
 21
46.66548534090238
 31
0.0
 11
394.8339606340332
 21
46.12201117702896
 31
0.0
 11
394.8339606340323
 21
45.8805158025979
 31
0.0
 11
394.8339606340324
 21
45.66268785143265
 31
0.0
 11
394.8339606340342
 21
45.47115703722904
 31
0.0
 11
394.8339606340338
 21
45.30855307368302
 31
0.0
 11
394.8339606340314
 21
45.17750567449057
 31
0.0
 11
394.8339606340342
 21
45.08064455334856
 31
0.0
 11
394.8339606340342
 21
45.02059942395268
 31
0.0
 11
394.8339606340316
 21
45.0
 31
0.0
  0
SPLINE
  5
B42
330
AFA
100
AcDbEntity
  8
Layer 1
370
    18
100
AcDbSpline
210
0.0
220
0.0
230
1.0
 70
  1080
 71
     3
 72
    29
 73
    25
 74
    23
 42
0.000000001
 43
0.0000000001
 44
0.0000000001
 40
0.0
 40
0.0
 40
0.0
 40
0.0
 40
0.0074705702127744
 40
0.0292464876410463
 40
0.064374062469426
 40
0.1118996048825807
 40
0.1708694250665985
 40
0.2403298332145027
 40
0.319327139496977
 40
0.4069076541156278
 40
0.6040035490732408
 40
0.8239879995797991
 40
1.302104493158481
 40
1.780220986735059
 40
2.000205437241277
 40
2.197301332199572
 40
2.284881846818223
 40
2.363879153103539
 40
2.433339561244054
 40
2.492309381432107
 40
2.539834923845091
 40
2.574962498670913
 40
2.596738416101061
 40
2.604208986308776
 40
2.604208986308776
 40
2.604208986308776
 40
2.604208986308776
 10
394.8339606340316
 20
45.0
 30
0.0
 10
394.8364508241026
 20
44.99999999999992
 30
0.0
 10
394.8461996533163
 20
44.99999999999956
 30
0.0
 10
394.8676576741393
 20
44.99999999999976
 30
0.0
 10
394.9024673523626
 20
45.0000000000014
 30
0.0
 10
394.9496749981712
 20
44.99999999999951
 30
0.0
 10
395.0083269217529
 20
45.00000000000052
 30
0.0
 10
395.077469433291
 20
44.99999999999984
 30
0.0
 10
395.1561488429739
 20
44.99999999999974
 30
0.0
 10
395.277373414927
 20
45.0000000000006
 30
0.0
 10
395.4455937016211
 20
44.99999999999977
 30
0.0
 10
395.7439926479689
 20
45.00000000000007
 30
0.0
 10
396.1360651271893
 20
45.00000000000016
 30
0.0
 10
396.5281376064098
 20
44.99999999999997
 30
0.0
 10
396.826536552757
 20
44.99999999999986
 30
0.0
 10
396.9947568394512
 20
45.00000000000025
 30
0.0
 10
397.1159814114054
 20
45.00000000000013
 30
0.0
 10
397.1946608210869
 20
44.99999999999937
 30
0.0
 10
397.2638033326248
 20
45.00000000000079
 30
0.0
 10
397.3224552562053
 20
44.99999999999966
 30
0.0
 10
397.3696629020144
 20
45.00000000000006
 30
0.0
 10
397.4044725802374
 20
45.00000000000037
 30
0.0
 10
397.4259306010584
 20
44.99999999999999
 30
0.0
 10
397.4356794302711
 20
44.99999999999999
 30
0.0
 10
397.4381696203404
 20
45.0
 30
0.0
 11
394.8339606340316
 21
45.0
 31
0.0
 11
394.8414312042444
 21
44.99999999999976
 31
0.0
 11
394.8632071216727
 21
44.99999999999983
 31
0.0
 11
394.898334696501
 21
45.00000000000077
 31
0.0
 11
394.9458602389142
 21
45.00000000000006
 31
0.0
 11
395.0048300590982
 21
45.00000000000021
 31
0.0
 11
395.0742904672461
 21
44.99999999999997
 31
0.0
 11
395.1532877735286
 21
44.99999999999984
 31
0.0
 11
395.2408682881472
 21
45.00000000000023
 31
0.0
 11
395.4379641831049
 21
44.99999999999999
 31
0.0
 11
395.6579486336114
 21
44.99999999999996
 31
0.0
 11
396.1360651271901
 21
45.0000000000001
 31
0.0
 11
396.6141816207667
 21
44.99999999999995
 31
0.0
 11
396.8341660712729
 21
44.99999999999996
 31
0.0
 11
397.0312619662312
 21
45.0000000000002
 31
0.0
 11
397.1188424808498
 21
45.0
 31
0.0
 11
397.1978397871351
 21
44.99999999999977
 31
0.0
 11
397.2673001952756
 21
45.00000000000036
 31
0.0
 11
397.3262700154637
 21
44.99999999999989
 31
0.0
 11
397.3737955578767
 21
45.00000000000009
 31
0.0
 11
397.4089231327025
 21
45.00000000000022
 31
0.0
 11
397.4306990501327
 21
45.0
 31
0.0
 11
397.4381696203404
 21
45.0
 31
0.0
  0
SPLINE
  5
B43
330
AFA
100
AcDbEntity
  8
Layer 1
370
    18
100
AcDbSpline
210
0.0
220
0.0
230
1.0
 70
  1064
 71
     3
 72
    31
 73
    27
 74
    25
 42
0.000000001
 43
0.0000000001
 44
0.0000000001
 40
0.0
 40
0.0
 40
0.0
 40
0.0
 40
0.3670192317887178
 40
0.7274058211614416
 40
1.082730222419221
 40
1.434297186584942
 40
2.129416305850655
 40
2.820047352440631
 40
3.51098671825934
 40
4.207120126695786
 40
4.559536366208902
 40
4.915994640524274
 40
5.277851741113478
 40
5.646734253855392
 40
6.012280553236876
 40
6.371241937756605
 40
6.725235542214677
 40
7.075597608795924
 40
7.768733039642198
 40
8.457892762639122
 40
9.14762018385473
 40
9.842382423016113
 40
10.19388432701416
 40
10.54918335007039
 40
10.90956369361353
 40
11.27658253170595
 40
11.27658253170595
 40
11.27658253170595
 40
11.27658253170595
 10
397.4381696203404
 20
45.0
 30
0.0
 10
397.5605639309075
 20
45.00355587719827
 30
0.0
 10
397.8031406851272
 20
45.01060337103328
 30
0.0
 10
398.1605075586955
 20
45.06726769311597
 30
0.0
 10
398.5056185735235
 20
45.15562752300292
 30
0.0
 10
398.9450205554689
 20
45.31678384764851
 30
0.0
 10
399.45736454317
 20
45.59502491096732
 30
0.0
 10
399.9945062682439
 20
46.03820579191991
 30
0.0
 10
400.4383875300661
 20
46.57519000348971
 30
0.0
 10
400.7173983016996
 20
47.08800985069802
 30
0.0
 10
400.8788886412707
 20
47.52829422770363
 30
0.0
 10
400.9681329505676
 20
47.8745090721429
 30
0.0
 10
401.0229648920009
 20
48.23335145888736
 30
0.0
 10
401.0414425249871
 20
48.59894288714715
 30
0.0
 10
401.0229769795389
 20
48.96357231129759
 30
0.0
 10
400.9680850688765
 20
49.3194814721937
 30
0.0
 10
400.8788329804126
 20
49.66313976222687
 30
0.0
 10
400.7172378989801
 20
50.10071864016317
 30
0.0
 10
400.4380402363558
 20
50.61082691636242
 30
0.0
 10
399.9941886420086
 20
51.14533375431842
 30
0.0
 10
399.4571313301494
 20
51.58696818819294
 30
0.0
 10
398.9449381743107
 20
51.86450002077004
 30
0.0
 10
398.505599412659
 20
52.02538538748588
 30
0.0
 10
398.160498258284
 20
52.11364415964619
 30
0.0
 10
397.8031380097918
 20
52.17027007818564
 30
0.0
 10
397.5605636889891
 20
52.17731627936995
 30
0.0
 10
397.4381696203404
 20
52.18087153298713
 30
0.0
 11
397.4381696203404
 21
45.0
 31
0.0
 11
397.8047190147497
 21
45.01856496595558
 31
0.0
 11
398.1609617202332
 21
45.07305926464392
 31
0.0
 11
398.5050568253797
 21
45.16168199729974
 31
0.0
 11
398.8351634187669
 21
45.28263226515821
 31
0.0
 11
399.4460474245816
 21
45.61431181142007
 31
0.0
 11
399.9788864463228
 21
46.05369071330755
 31
0.0
 11
400.4189531926289
 21
46.58636178069675
 31
0.0
 11
400.7515203721506
 21
47.19791782346493
 31
0.0
 11
400.8728893458159
 21
47.52877546370313
 31
0.0
 11
400.9618606935241
 21
47.87395165148971
 31
0.0
 11
401.0165935038571
 21
48.23164548805931
 31
0.0
 11
401.0352468653975
 21
48.60005607464721
 31
0.0
 11
401.0165935038575
 21
48.96512613517636
 31
0.0
 11
400.9618606935259
 21
49.31989027520395
 31
0.0
 11
400.8728893458173
 21
49.66252064642656
 31
0.0
 11
400.751520372153
 21
49.99118940054042
 31
0.0
 11
400.4189531926328
 21
50.59933066422875
 31
0.0
 11
399.9788864463228
 21
51.12969127984165
 31
0.0
 11
399.446047424581
 21
51.56764846095178
 31
0.0
 11
398.8351634187669
 21
51.89857942113086
 31
0.0
 11
398.5050568253804
 21
52.01934044761308
 31
0.0
 11
398.1609617202355
 21
52.10786137395272
 31
0.0
 11
397.804719014751
 21
52.16231435184496
 31
0.0
 11
397.4381696203404
 21
52.18087153298713
 31
0.0
  0
SPLINE
  5
B44
330
AFA
100
AcDbEntity
  8
Layer 1
370
    18
100
AcDbSpline
210
0.0
220
0.0
230
1.0
 70
  1080
 71
     3
 72
    29
 73
    25
 74
    23
 42
0.000000001
 43
0.0000000001
 44
0.0000000001
 40
0.0
 40
0.0
 40
0.0
 40
0.0
 40
0.0032897509703957
 40
0.0128790250761881
 40
0.0283478541052773
 40
0.0492762698504521
 40
0.0752443041028528
 40
0.1058319886519712
 40
0.1406193552917898
 40
0.1791864358125395
 40
0.2659798656596308
 40
0.3628525325173086
 40
0.5733965945984778
 40
0.7839406566743606
 40
0.8808133235353921
 40
0.9676067533802097
 40
1.006173833899822
 40
1.040961200539413
 40
1.071548885088816
 40
1.097516919342183
 40
1.118445335087358
 40
1.133914164118095
 40
1.143503438220307
 40
1.146793189187974
 40
1.146793189187974
 40
1.146793189187974
 40
1.146793189187974
 10
397.3146699682605
 20
46.25240112892981
 30
0.0
 10
397.3135733846037
 20
46.25240112892978
 30
0.0
 10
397.3092803762449
 20
46.25240112892966
 30
0.0
 10
397.2998310915432
 20
46.25240112892991
 30
0.0
 10
397.2845022519165
 20
46.25240112892952
 30
0.0
 10
397.2637138255743
 20
46.25240112892981
 30
0.0
 10
397.2378857807255
 20
46.25240112892931
 30
0.0
 10
397.2074380855783
 20
46.2524011289301
 30
0.0
 10
397.1727907083417
 20
46.25240112892946
 30
0.0
 10
397.1194080826725
 20
46.25240112892969
 30
0.0
 10
397.0453303569306
 20
46.25240112892966
 30
0.0
 10
396.9139269706687
 20
46.25240112892959
 30
0.0
 10
396.7412733736638
 20
46.25240112892936
 30
0.0
 10
396.5686197766577
 20
46.25240112893012
 30
0.0
 10
396.4372163903972
 20
46.25240112892957
 30
0.0
 10
396.3631386646552
 20
46.25240112893027
 30
0.0
 10
396.3097560389875
 20
46.25240112892932
 30
0.0
 10
396.275108661751
 20
46.25240112892985
 30
0.0
 10
396.2446609666038
 20
46.25240112892981
 30
0.0
 10
396.2188329217543
 20
46.25240112892988
 30
0.0
 10
396.1980444954113
 20
46.25240112892926
 30
0.0
 10
396.1827156557853
 20
46.25240112893012
 30
0.0
 10
396.1732663710849
 20
46.25240112892924
 30
0.0
 10
396.1689733627284
 20
46.2524011289297
 30
0.0
 10
396.1678767790725
 20
46.25240112892981
 30
0.0
 11
397.3146699682605
 21
46.25240112892981
 31
0.0
 11
397.3113802172901
 21
46.25240112892973
 31
0.0
 11
397.3017909431843
 21
46.2524011289298
 31
0.0
 11
397.2863221141552
 21
46.25240112892965
 31
0.0
 11
397.26539369841
 21
46.25240112892969
 31
0.0
 11
397.2394256641576
 21
46.25240112892952
 31
0.0
 11
397.2088379796085
 21
46.25240112892985
 31
0.0
 11
397.1740506129687
 21
46.25240112892961
 31
0.0
 11
397.1354835324479
 21
46.2524011289296
 31
0.0
 11
397.0486901026009
 21
46.25240112892966
 31
0.0
 11
396.9518174357432
 21
46.2524011289296
 31
0.0
 11
396.741273373662
 21
46.25240112892957
 31
0.0
 11
396.5307293115861
 21
46.25240112892988
 31
0.0
 11
396.4338566447251
 21
46.2524011289298
 31
0.0
 11
396.3470632148803
 21
46.25240112892988
 31
0.0
 11
396.3084961343607
 21
46.25240112892952
 31
0.0
 11
396.2737087677211
 21
46.25240112892977
 31
0.0
 11
396.2431210831717
 21
46.25240112892982
 31
0.0
 11
396.2171530489183
 21
46.25240112892972
 31
0.0
 11
396.1962246331731
 21
46.25240112892955
 31
0.0
 11
396.1807558041424
 21
46.25240112892975
 31
0.0
 11
396.1711665300402
 21
46.25240112892952
 31
0.0
 11
396.1678767790725
 21
46.25240112892981
 31
0.0
  0
SPLINE
  5
B45
330
AFA
100
AcDbEntity
  8
Layer 1
370
    18
100
AcDbSpline
210
0.0
220
0.0
230
1.0
 70
  1080
 71
     3
 72
    29
 73
    25
 74
    23
 42
0.000000001
 43
0.0000000001
 44
0.0000000001
 40
0.0
 40
0.0
 40
0.0
 40
0.0
 40
0.0134410500978319
 40
0.0526202812337431
 40
0.1158218146719321
 40
0.2013297716770452
 40
0.3074282735124711
 40
0.4324014414428277
 40
0.5745333967322921
 40
0.7321082606436349
 40
1.086723199393155
 40
1.482519227803045
 40
2.342746434059826
 40
3.202973640315853
 40
3.598769668725715
 40
3.953384607475136
 40
4.110959471387204
 40
4.253091426676235
 40
4.378064594606442
 40
4.484163096441513
 40
4.569671053446441
 40
4.632872586885248
 40
4.672051818020896
 40
4.685492868118359
 40
4.685492868118359
 40
4.685492868118359
 40
4.685492868118359
 10
396.1678767790725
 20
46.25240112892981
 30
0.0
 10
396.1678767790711
 20
46.25688147896243
 30
0.0
 10
396.1678767790658
 20
46.27442157270702
 30
0.0
 10
396.1678767790766
 20
46.31302884426431
 30
0.0
 10
396.1678767790737
 20
46.37565841812407
 30
0.0
 10
396.1678767790766
 20
46.46059441555029
 30
0.0
 10
396.1678767790753
 20
46.56612095780727
 30
0.0
 10
396.1678767790759
 20
46.69052216615902
 30
0.0
 10
396.1678767790779
 20
46.83208216186939
 30
0.0
 10
396.167876779069
 20
47.05018941451952
 30
0.0
 10
396.1678767790793
 20
47.35285135820975
 30
0.0
 10
396.1678767790706
 20
47.8897307493485
 30
0.0
 10
396.1678767790763
 20
48.59514756298938
 30
0.0
 10
396.167876779079
 20
49.30056437663029
 30
0.0
 10
396.1678767790701
 20
49.83744376776871
 30
0.0
 10
396.1678767790778
 20
50.14010571145917
 30
0.0
 10
396.1678767790734
 20
50.35821296410933
 30
0.0
 10
396.1678767790713
 20
50.49977295981978
 30
0.0
 10
396.1678767790741
 20
50.62417416817121
 30
0.0
 10
396.1678767790759
 20
50.72970071042795
 30
0.0
 10
396.1678767790758
 20
50.81463670785423
 30
0.0
 10
396.1678767790729
 20
50.877266281714
 30
0.0
 10
396.1678767790784
 20
50.91587355327132
 30
0.0
 10
396.1678767790737
 20
50.93341364701569
 30
0.0
 10
396.1678767790725
 20
50.93789399704817
 30
0.0
 11
396.1678767790725
 21
46.25240112892981
 31
0.0
 11
396.167876779069
 21
46.26584217902765
 31
0.0
 11
396.1678767790727
 21
46.30502141016356
 31
0.0
 11
396.1678767790747
 21
46.36822294360174
 31
0.0
 11
396.1678767790758
 21
46.45373090060686
 31
0.0
 11
396.1678767790756
 21
46.55982940244228
 31
0.0
 11
396.167876779076
 21
46.68480257037264
 31
0.0
 11
396.1678767790766
 21
46.82693452566211
 31
0.0
 11
396.1678767790729
 21
46.98450938957345
 31
0.0
 11
396.167876779076
 21
47.33912432832297
 31
0.0
 11
396.1678767790741
 21
47.73492035673286
 31
0.0
 11
396.1678767790758
 21
48.59514756298964
 31
0.0
 11
396.1678767790756
 21
49.45537476924567
 31
0.0
 11
396.1678767790727
 21
49.85117079765553
 31
0.0
 11
396.1678767790758
 21
50.20578573640495
 31
0.0
 11
396.1678767790735
 21
50.36336060031702
 31
0.0
 11
396.1678767790722
 21
50.50549255560605
 31
0.0
 11
396.1678767790741
 21
50.63046572353626
 31
0.0
 11
396.1678767790756
 21
50.73656422537133
 31
0.0
 11
396.167876779075
 21
50.82207218237626
 31
0.0
 11
396.167876779075
 21
50.88527371581506
 31
0.0
 11
396.1678767790756
 21
50.92445294695071
 31
0.0
 11
396.1678767790725
 21
50.93789399704817
 31
0.0
  0
SPLINE
  5
B46
330
AFA
100
AcDbEntity
  8
Layer 1
370
    18
100
AcDbSpline
210
0.0
220
0.0
230
1.0
 70
  1080
 71
     3
 72
    29
 73
    25
 74
    23
 42
0.000000001
 43
0.0000000001
 44
0.0000000001
 40
0.0
 40
0.0
 40
0.0
 40
0.0
 40
0.003289750972499
 40
0.012879025075506
 40
0.0283478541045952
 40
0.0492762698498268
 40
0.0752443041035917
 40
0.1058319886528807
 40
0.1406193552921309
 40
0.179186435811971
 40
0.2659798656598582
 40
0.3628525325179908
 40
0.5733965945954651
 40
0.7839406566747585
 40
0.8808133235326067
 40
0.9676067533785044
 40
1.006173833899367
 40
1.040961200537992
 40
1.071548885090976
 40
1.097516919342808
 40
1.11844533508588
 40
1.133914164116504
 40
1.14350343821826
 40
1.146793189187974
 40
1.146793189187974
 40
1.146793189187974
 40
1.146793189187974
 10
396.1678767790725
 20
50.93789399704817
 30
0.0
 10
396.16897336273
 20
50.93789399704802
 30
0.0
 10
396.1732663710886
 20
50.93789399704738
 30
0.0
 10
396.18271565579
 20
50.93789399704813
 30
0.0
 10
396.1980444954158
 20
50.93789399704782
 30
0.0
 10
396.2188329217585
 20
50.93789399704776
 30
0.0
 10
396.244660966608
 20
50.93789399704775
 30
0.0
 10
396.2751086617554
 20
50.93789399704778
 30
0.0
 10
396.3097560389916
 20
50.93789399704763
 30
0.0
 10
396.3631386646604
 20
50.93789399704786
 30
0.0
 10
396.4372163904025
 20
50.9378939970478
 30
0.0
 10
396.5686197766636
 20
50.93789399704721
 30
0.0
 10
396.7412733736687
 20
50.93789399704859
 30
0.0
 10
396.9139269706735
 20
50.9378939970476
 30
0.0
 10
397.0453303569345
 20
50.93789399704795
 30
0.0
 10
397.119408082676
 20
50.93789399704782
 30
0.0
 10
397.1727907083445
 20
50.937893997048
 30
0.0
 10
397.2074380855819
 20
50.93789399704736
 30
0.0
 10
397.2378857807298
 20
50.9378939970477
 30
0.0
 10
397.263713825579
 20
50.93789399704824
 30
0.0
 10
397.284502251921
 20
50.93789399704786
 30
0.0
 10
397.299831091546
 20
50.93789399704818
 30
0.0
 10
397.3092803762469
 20
50.93789399704751
 30
0.0
 10
397.3135733846039
 20
50.93789399704804
 30
0.0
 10
397.3146699682605
 20
50.93789399704817
 30
0.0
 11
396.1678767790725
 21
50.93789399704817
 31
0.0
 11
396.171166530045
 21
50.93789399704775
 31
0.0
 11
396.180755804148
 21
50.93789399704785
 31
0.0
 11
396.1962246331771
 21
50.93789399704789
 31
0.0
 11
396.2171530489223
 21
50.93789399704778
 31
0.0
 11
396.2431210831761
 21
50.93789399704776
 31
0.0
 11
396.2737087677254
 21
50.93789399704775
 31
0.0
 11
396.3084961343647
 21
50.93789399704768
 31
0.0
 11
396.3470632148845
 21
50.93789399704778
 31
0.0
 11
396.4338566447324
 21
50.93789399704776
 31
0.0
 11
396.5307293115905
 21
50.93789399704751
 31
0.0
 11
396.741273373668
 21
50.9378939970481
 31
0.0
 11
396.9518174357473
 21
50.93789399704778
 31
0.0
 11
397.0486901026051
 21
50.93789399704788
 31
0.0
 11
397.135483532451
 21
50.9378939970479
 31
0.0
 11
397.1740506129719
 21
50.93789399704785
 31
0.0
 11
397.2088379796105
 21
50.93789399704751
 31
0.0
 11
397.2394256641635
 21
50.93789399704776
 31
0.0
 11
397.2653936984153
 21
50.93789399704808
 31
0.0
 11
397.2863221141584
 21
50.937893997048
 31
0.0
 11
397.301790943189
 21
50.93789399704792
 31
0.0
 11
397.3113802172908
 21
50.93789399704782
 31
0.0
 11
397.3146699682605
 21
50.93789399704817
 31
0.0
  0
SPLINE
  5
B47
330
AFA
100
AcDbEntity
  8
Layer 1
370
    18
100
AcDbSpline
210
0.0
220
0.0
230
1.0
 70
  1064
 71
     3
 72
    39
 73
    35
 74
    33
 42
0.000000001
 43
0.0000000001
 44
0.0000000001
 40
0.0
 40
0.0
 40
0.0
 40
0.0
 40
0.2461057133028368
 40
0.4850406922672052
 40
0.7180321846880671
 40
0.9462442998941575
 40
1.170777682626095
 40
1.392672390095507
 40
1.612913957792104
 40
1.832442352749623
 40
2.052163269614918
 40
2.27296105031667
 40
2.495712412069518
 40
2.721300147655411
 40
2.950626007248134
 40
3.184622071430704
 40
3.424260069452143
 40
3.670558274198477
 40
3.918397676789582
 40
4.159397348306153
 40
4.394576816159927
 40
4.624912554879776
 40
4.85134467241033
 40
5.074785886274112
 40
5.296132443195529
 40
5.51627646128343
 40
5.736119029319279
 40
5.956583295768398
 40
6.178626734009224
 40
6.403251791519942
 40
6.631514229484011
 40
6.864528636243868
 40
7.103470842689077
 40
7.349577251646328
 40
7.349577251646328
 40
7.349577251646328
 40
7.349577251646328
 10
397.3146699682605
 20
50.93789399704817
 30
0.0
 10
397.3967388569306
 20
50.93570389124512
 30
0.0
 10
397.5584854090113
 20
50.93138749232612
 30
0.0
 10
397.7957735998285
 20
50.89606108402527
 30
0.0
 10
398.0227865576809
 20
50.84062648174195
 30
0.0
 10
398.2386142329368
 20
50.7641157783778
 30
0.0
 10
398.4423454984818
 20
50.66803413889477
 30
0.0
 10
398.63307338653
 20
50.55324817493836
 30
0.0
 10
398.8098935458217
 20
50.42079117517508
 30
0.0
 10
398.9719039310488
 20
50.27165181158641
 30
0.0
 10
399.1182038674174
 20
50.10682901034368
 30
0.0
 10
399.2478931917789
 20
49.92731733263727
 30
0.0
 10
399.36007165222
 20
49.73411121092839
 30
0.0
 10
399.4538381686132
 20
49.52820457141331
 30
0.0
 10
399.5282921092739
 20
49.31059151487005
 30
0.0
 10
399.5825284960008
 20
49.08226787023739
 30
0.0
 10
399.6156580954462
 20
48.84422759921907
 30
0.0
 10
399.626639708898
 20
48.59954187581615
 30
0.0
 10
399.6156517680688
 20
48.35440369840922
 30
0.0
 10
399.5825452568019
 20
48.11498855238136
 30
0.0
 10
399.5283122250764
 20
47.88544632775186
 30
0.0
 10
399.453866147065
 20
47.66676133662508
 30
0.0
 10
399.3601048875068
 20
47.45992040286203
 30
0.0
 10
399.2479302599901
 20
47.26590868833538
 30
0.0
 10
399.1182425957878
 20
47.08571132530013
 30
0.0
 10
398.9719421690032
 20
46.92031399619476
 30
0.0
 10
398.8099292345217
 20
46.77070249316872
 30
0.0
 10
398.6331047960745
 20
46.63786689909128
 30
0.0
 10
398.4423713788723
 20
46.52278687407813
 30
0.0
 10
398.2386339252466
 20
46.42648659614083
 30
0.0
 10
398.022800029533
 20
46.349823083594
 30
0.0
 10
397.7957814214152
 20
46.29429258872193
 30
0.0
 10
397.5584886016807
 20
46.25891504357605
 30
0.0
 10
397.396739196138
 20
46.25459370928341
 30
0.0
 10
397.3146699682605
 20
46.25240112892981
 30
0.0
 11
397.3146699682605
 21
50.93789399704817
 31
0.0
 11
397.5605020262696
 21
50.92629135186263
 31
0.0
 11
397.7969840765195
 21
50.89214220718357
 31
0.0
 11
398.0232178376615
 21
50.83643474933413
 31
0.0
 11
398.2383050283516
 21
50.7601571646329
 31
0.0
 11
398.4413473672457
 21
50.66429763940213
 31
0.0
 11
398.6314465730002
 21
50.5498443599626
 31
0.0
 11
398.8077043642718
 21
50.41778551263502
 31
0.0
 11
398.969222459711
 21
50.26910928374036
 31
0.0
 11
399.1151025779783
 21
50.10480385959843
 31
0.0
 11
399.2444464377284
 21
49.92585742653044
 31
0.0
 11
399.3563557576135
 21
49.73325817085797
 31
0.0
 11
399.4499322562948
 21
49.52799427890099
 31
0.0
 11
399.5242776524222
 21
49.31105393698046
 31
0.0
 11
399.5784936646523
 21
49.08342533141693
 31
0.0
 11
399.6116820116462
 21
48.84609664853275
 31
0.0
 11
399.6229444120523
 21
48.60005607464633
 31
0.0
 11
399.6116820116474
 21
48.35247269916681
 31
0.0
 11
399.5784936646568
 21
48.11376916903973
 31
0.0
 11
399.5242776524241
 21
47.88492423001428
 31
0.0
 11
399.4499322562938
 21
47.66691662783983
 31
0.0
 11
399.3563557576136
 21
47.4607251082661
 31
0.0
 11
399.2444464377303
 21
47.26732841704262
 31
0.0
 11
399.1151025779783
 21
47.08770529991844
 31
0.0
 11
398.9692224597107
 21
46.92283450264336
 31
0.0
 11
398.807704364267
 21
46.77369477096591
 31
0.0
 11
398.6314465729995
 21
46.64126485063646
 31
0.0
 11
398.4413473672425
 21
46.52652348740435
 31
0.0
 11
398.2383050283505
 21
46.43044942701878
 31
0.0
 11
398.0232178376599
 21
46.35402141522912
 31
0.0
 11
397.7969840765177
 21
46.29821819778499
 31
0.0
 11
397.5605020262685
 21
46.2640185204355
 31
0.0
 11
397.3146699682605
 21
46.25240112892981
 31
0.0
  0
LINE
  5
B48
330
AFA
100
AcDbEntity
  8
Title (ANSI)
370
    18
100
AcDbLine
 10
319.9518635655323
 20
51.12561036288724
 30
0.0
 11
320.583820431377
 21
51.75763707727945
 31
0.0
  0
LINE
  5
B49
330
AFA
100
AcDbEntity
  8
Title (ANSI)
370
    18
100
AcDbLine
 10
320.5929539348559
 20
47.70936340964867
 30
0.0
 11
319.9587847138466
 21
47.07520364510081
 31
0.0
  0
LINE
  5
B4A
330
AFA
100
AcDbEntity
  8
Title (ANSI)
370
    18
100
AcDbLine
 10
320.5929539348559
 20
47.70936340964867
 30
0.0
 11
318.7090151910183
 21
49.59333024639811
 31
0.0
  0
LINE
  5
B4B
330
AFA
100
AcDbEntity
  8
Title (ANSI)
370
    18
100
AcDbLine
 10
317.8843197458093
 20
49.14969954713793
 30
0.0
 11
319.9587847138466
 21
47.07520364510081
 31
0.0
  0
ARC
  5
B4C
330
AFA
100
AcDbEntity
  8
Title (ANSI)
370
    18
100
AcDbCircle
 10
319.8615960644214
 20
50.93185202780802
 30
0.0
 40
1.766375732692075
100
AcDbArc
 50
211.6999767949663
 51
229.2687561708503
  0
ARC
  5
B4D
330
AFA
100
AcDbEntity
  8
Title (ANSI)
370
    18
100
AcDbCircle
 10
319.2187554064601
 20
50.48955091789864
 30
0.0
 40
0.9877744621194231
100
AcDbArc
 50
181.7524298310867
 51
209.4650331572451
  0
ARC
  5
B4E
330
AFA
100
AcDbEntity
  8
Title (ANSI)
370
    18
100
AcDbCircle
 10
319.1553173786699
 20
50.48381918659408
 30
0.0
 40
0.924198590391917
100
AcDbArc
 50
156.5458412859813
 51
181.5175261348817
  0
ARC
  5
B4F
330
AFA
100
AcDbEntity
  8
Title (ANSI)
370
    18
100
AcDbCircle
 10
319.2358619255466
 20
50.67301416562809
 30
0.0
 40
0.8235252331844673
100
AcDbArc
 50
76.31085867990648
 51
111.7197053650337
  0
ARC
  5
B50
330
AFA
100
AcDbEntity
  8
Title (ANSI)
370
    18
100
AcDbCircle
 10
319.2064380982761
 20
50.47179818473883
 30
0.0
 40
1.869743764657548
100
AcDbArc
 50
208.0544711204717
 51
224.9995728116831
  0
ARC
  5
B51
330
AFA
100
AcDbEntity
  8
Title (ANSI)
370
    18
100
AcDbCircle
 10
318.9254334881119
 20
50.20561046149679
 30
0.0
 40
1.378389829616996
100
AcDbArc
 50
41.87020163055712
 51
57.26860357024705
  0
ARC
  5
B52
330
AFA
100
AcDbEntity
  8
Title (ANSI)
370
    18
100
AcDbCircle
 10
319.1893238657227
 20
50.61616693283562
 30
0.0
 40
0.8903378369423325
100
AcDbArc
 50
57.2686035702685
 51
74.2663869133295
  0
ARC
  5
B53
330
AFA
100
AcDbEntity
  8
Title (ANSI)
370
    18
100
AcDbCircle
 10
319.1414068538642
 20
50.44152710381084
 30
0.0
 40
1.952614245276626
100
AcDbArc
 50
42.37844805725853
 51
59.30913757019268
  0
ARC
  5
B54
330
AFA
100
AcDbEntity
  8
Title (ANSI)
370
    18
100
AcDbCircle
 10
319.246992432861
 20
50.60654059640507
 30
0.0
 40
1.756834390172678
100
AcDbArc
 50
59.52349585422022
 51
88.09067279185674
  0
ARC
  5
B55
330
AFA
100
AcDbEntity
  8
Title (ANSI)
370
    18
100
AcDbCircle
 10
319.246992432861
 20
50.60654059640507
 30
0.0
 40
1.756834390172678
100
AcDbArc
 50
59.52349585422022
 51
88.09067279185674
  0
ARC
  5
B56
330
AFA
100
AcDbEntity
  8
Title (ANSI)
370
    18
100
AcDbCircle
 10
319.3419559378463
 20
50.37247355213974
 30
0.0
 40
1.142061038616178
100
AcDbArc
 50
111.0846540965303
 51
145.0054170839299
  0
ARC
  5
B57
330
AFA
100
AcDbEntity
  8
Title (ANSI)
370
    18
100
AcDbCircle
 10
319.0616632204615
 20
50.54306323709389
 30
0.0
 40
0.8148810981022784
100
AcDbArc
 50
143.5287439140491
 51
157.7463950656686
  0
ARC
  5
B58
330
AFA
100
AcDbEntity
  8
Title (ANSI)
370
    18
100
AcDbCircle
 10
319.2580039679464
 20
50.49163314605603
 30
0.0
 40
1.871369956784155
100
AcDbArc
 50
88.54484724364407
 51
131.0718665562401
  0
ARC
  5
B59
330
AFA
100
AcDbEntity
  8
Title (ANSI)
370
    18
100
AcDbCircle
 10
319.329511597167
 20
50.36823013682103
 30
0.0
 40
2.011566119044413
100
AcDbArc
 50
130.2980177967407
 51
149.0869769422915
  0
ARC
  5
B5A
330
AFA
100
AcDbEntity
  8
Title (ANSI)
370
    18
100
AcDbCircle
 10
319.2115852401341
 20
50.44576846527849
 30
0.0
 40
1.870566600258261
100
AcDbArc
 50
149.2689455632946
 51
166.974382946097
  0
ARC
  5
B5B
330
AFA
100
AcDbEntity
  8
Title (ANSI)
370
    18
100
AcDbCircle
 10
319.1854197232169
 20
50.45268742363954
 30
0.0
 40
1.843515090004398
100
AcDbArc
 50
167.0006008119384
 51
179.2641214768849
  0
ARC
  5
B5C
330
AFA
100
AcDbEntity
  8
Title (ANSI)
370
    18
100
AcDbCircle
 10
319.1761694358181
 20
50.4528158511043
 30
0.0
 40
1.834263916150358
100
AcDbArc
 50
179.2644217848835
 51
193.646018349728
  0
ARC
  5
B5D
330
AFA
100
AcDbEntity
  8
Title (ANSI)
370
    18
100
AcDbCircle
 10
319.1730427763695
 20
50.45230452948555
 30
0.0
 40
1.831104900040764
100
AcDbArc
 50
193.6535518581662
 51
208.0076299419298
  0
ARC
  5
B5E
330
AFA
100
AcDbEntity
  8
Title (ANSI)
370
    18
100
AcDbCircle
 10
322.5935556265414
 20
50.37011891759551
 30
0.0
 40
1.142061038616178
100
AcDbArc
 50
21.08465409652927
 51
55.00541708392329
  0
ARC
  5
B5F
330
AFA
100
AcDbEntity
  8
Title (ANSI)
370
    18
100
AcDbCircle
 10
322.8372490072376
 20
50.52275098971919
 30
0.0
 40
0.8903378369423325
100
AcDbArc
 50
327.2686035702488
 51
344.2663869133243
  0
ARC
  5
B60
330
AFA
100
AcDbEntity
  8
Title (ANSI)
370
    18
100
AcDbCircle
 10
322.89409624003
 20
50.47621292989507
 30
0.0
 40
0.8235252331844673
100
AcDbArc
 50
346.3108586799095
 51
21.7197053650399
  0
ARC
  5
B61
330
AFA
100
AcDbEntity
  8
Title (ANSI)
370
    18
100
AcDbCircle
 10
322.6668505396804
 20
50.50048961530777
 30
0.0
 40
1.870566600258261
100
AcDbArc
 50
59.26894556329035
 51
76.9743829460961
  0
LINE
  5
B62
330
AFA
100
AcDbEntity
  8
Title (ANSI)
370
    18
100
AcDbLine
 10
323.3466924372891
 20
49.76021128990943
 30
0.0
 11
323.9787191516811
 21
49.12825442406465
 31
0.0
  0
ARC
  5
B63
330
AFA
100
AcDbEntity
  8
Title (ANSI)
370
    18
100
AcDbCircle
 10
322.6626091782127
 20
50.57066800157755
 30
0.0
 40
1.952614245276626
100
AcDbArc
 50
312.3784480572552
 51
329.3091375701897
  0
ARC
  5
B64
330
AFA
100
AcDbEntity
  8
Title (ANSI)
370
    18
100
AcDbCircle
 10
322.8276226708069
 20
50.46508242258088
 30
0.0
 40
1.756834390172678
100
AcDbArc
 50
329.5234958542136
 51
358.0906727918578
  0
ARC
  5
B65
330
AFA
100
AcDbEntity
  8
Title (ANSI)
370
    18
100
AcDbCircle
 10
322.8276226708069
 20
50.46508242258088
 30
0.0
 40
1.756834390172678
100
AcDbArc
 50
329.5234958542136
 51
358.0906727918578
  0
ARC
  5
B66
330
AFA
100
AcDbEntity
  8
Title (ANSI)
370
    18
100
AcDbCircle
 10
322.712715220458
 20
50.45407088749527
 30
0.0
 40
1.871369956784155
100
AcDbArc
 50
358.5448472436498
 51
41.07186655624028
  0
ARC
  5
B67
330
AFA
100
AcDbEntity
  8
Title (ANSI)
370
    18
100
AcDbCircle
 10
322.5893122112229
 20
50.38256325827474
 30
0.0
 40
2.011566119044413
100
AcDbArc
 50
40.29801779673939
 51
59.08697694229218
  0
ARC
  5
B68
330
AFA
100
AcDbEntity
  8
Title (ANSI)
370
    18
100
AcDbCircle
 10
322.6972950042969
 20
46.81797861541182
 30
0.0
 40
0.8235252331844673
100
AcDbArc
 50
256.310858679904
 51
291.7197053650465
  0
ARC
  5
B69
330
AFA
100
AcDbEntity
  8
Title (ANSI)
370
    18
100
AcDbCircle
 10
322.6751529618972
 20
46.99935963498385
 30
0.0
 40
1.871369956784155
100
AcDbArc
 50
268.5448472436441
 51
311.0718665562357
  0
ARC
  5
B6A
330
AFA
100
AcDbEntity
  8
Title (ANSI)
370
    18
100
AcDbCircle
 10
322.5912009919973
 20
47.1185192289002
 30
0.0
 40
1.142061038616178
100
AcDbArc
 50
291.0846540965342
 51
325.0054170839222
  0
ARC
  5
B6B
330
AFA
100
AcDbEntity
  8
Title (ANSI)
370
    18
100
AcDbCircle
 10
322.8714937093822
 20
46.94792954394601
 30
0.0
 40
0.8148810981022784
100
AcDbArc
 50
323.5287439140396
 51
337.7463950656646
  0
ARC
  5
B6C
330
AFA
100
AcDbEntity
  8
Title (ANSI)
370
    18
100
AcDbCircle
 10
322.6036453326766
 20
47.12276264421888
 30
0.0
 40
2.011566119044413
100
AcDbArc
 50
310.2980177967355
 51
329.0869769422902
  0
ARC
  5
B6D
330
AFA
100
AcDbEntity
  8
Title (ANSI)
370
    18
100
AcDbCircle
 10
322.7778395511736
 20
47.00717359444587
 30
0.0
 40
0.924198590391917
100
AcDbArc
 50
336.545841285975
 51
1.517526134881688
  0
ARC
  5
B6E
330
AFA
100
AcDbEntity
  8
Title (ANSI)
370
    18
100
AcDbCircle
 10
322.7215716897095
 20
47.04522431576143
 30
0.0
 40
1.870566600258261
100
AcDbArc
 50
329.2689455632932
 51
346.9743829460962
  0
ARC
  5
B6F
330
AFA
100
AcDbEntity
  8
Title (ANSI)
370
    18
100
AcDbCircle
 10
322.7477372066268
 20
47.03830535740038
 30
0.0
 40
1.843515090004398
100
AcDbArc
 50
347.0006008119382
 51
359.264121476885
  0
ARC
  5
B70
330
AFA
100
AcDbEntity
  8
Title (ANSI)
370
    18
100
AcDbCircle
 10
322.7438330641208
 20
46.87482584820426
 30
0.0
 40
0.8903378369423325
100
AcDbArc
 50
237.2686035702499
 51
254.2663869133224
  0
ARC
  5
B71
330
AFA
100
AcDbEntity
  8
Title (ANSI)
370
    18
100
AcDbCircle
 10
323.0077234417317
 20
47.28538231954317
 30
0.0
 40
1.378389829616996
100
AcDbArc
 50
221.8702016305559
 51
237.2686035702378
  0
LINE
  5
B72
330
AFA
100
AcDbEntity
  8
Title (ANSI)
370
    18
100
AcDbLine
 10
321.9812933643112
 20
46.36538241815268
 30
0.0
 11
321.3493364984663
 21
45.73335570376045
 31
0.0
  0
ARC
  5
B73
330
AFA
100
AcDbEntity
  8
Title (ANSI)
370
    18
100
AcDbCircle
 10
322.6861644969827
 20
46.88445218463487
 30
0.0
 40
1.756834390172678
100
AcDbArc
 50
239.5234958542161
 51
268.0906727918555
  0
ARC
  5
B74
330
AFA
100
AcDbEntity
  8
Title (ANSI)
370
    18
100
AcDbCircle
 10
322.7917500759795
 20
47.04946567722908
 30
0.0
 40
1.952614245276626
100
AcDbArc
 50
222.3784480572528
 51
239.3091375701883
  0
ARC
  5
B75
330
AFA
100
AcDbEntity
  8
Title (ANSI)
370
    18
100
AcDbCircle
 10
322.6861644969827
 20
46.88445218463487
 30
0.0
 40
1.756834390172678
100
AcDbArc
 50
239.5234958542161
 51
268.0906727918555
  0
LINE
  5
B76
330
AFA
100
AcDbEntity
  8
Title (ANSI)
370
    18
100
AcDbLine
 10
321.3402029949874
 20
49.78162937139124
 30
0.0
 11
321.974372215997
 21
50.41578913593911
 31
0.0
  0
LINE
  5
B77
330
AFA
100
AcDbEntity
  8
Title (ANSI)
370
    18
100
AcDbLine
 10
321.3402029949874
 20
49.78162937139124
 30
0.0
 11
323.2241417388253
 21
47.89766253464183
 31
0.0
  0
LINE
  5
B78
330
AFA
100
AcDbEntity
  8
Title (ANSI)
370
    18
100
AcDbLine
 10
324.0488371840342
 20
48.34129323390198
 30
0.0
 11
321.974372215997
 21
50.41578913593911
 31
0.0
  0
ARC
  5
B79
330
AFA
100
AcDbEntity
  8
Title (ANSI)
370
    18
100
AcDbCircle
 10
322.0715608654223
 20
46.55914075323194
 30
0.0
 40
1.766375732692075
100
AcDbArc
 50
31.69997679497178
 51
49.26875617085292
  0
ARC
  5
B7A
330
AFA
100
AcDbEntity
  8
Title (ANSI)
370
    18
100
AcDbCircle
 10
322.7144015233835
 20
47.00144186314131
 30
0.0
 40
0.9877744621194231
100
AcDbArc
 50
1.752429831085295
 51
29.4650331572484
  0
ARC
  5
B7B
330
AFA
100
AcDbEntity
  8
Title (ANSI)
370
    18
100
AcDbCircle
 10
322.7569874940256
 20
47.03817692993559
 30
0.0
 40
1.834263916150358
100
AcDbArc
 50
359.2644217848837
 51
13.64601834972744
  0
ARC
  5
B7C
330
AFA
100
AcDbEntity
  8
Title (ANSI)
370
    18
100
AcDbCircle
 10
322.760114153474
 20
47.03868825155439
 30
0.0
 40
1.831104900040764
100
AcDbArc
 50
13.65355185816306
 51
28.00762994192858
  0
ARC
  5
B7D
330
AFA
100
AcDbEntity
  8
Title (ANSI)
370
    18
100
AcDbCircle
 10
322.7267188315676
 20
47.01919459630106
 30
0.0
 40
1.869743764657548
100
AcDbArc
 50
28.05447112047505
 51
44.99957281168554
  0
ARC
  5
B7E
330
AFA
100
AcDbEntity
  8
Title (ANSI)
370
    18
100
AcDbCircle
 10
322.4266925358989
 20
50.78664136732978
 30
0.0
 40
1.378389829616996
100
AcDbArc
 50
311.8702016305497
 51
327.2686035702399
  0
ARC
  5
B7F
330
AFA
100
AcDbEntity
  8
Title (ANSI)
370
    18
100
AcDbCircle
 10
322.7641453114959
 20
50.65041163498026
 30
0.0
 40
0.8148810981022784
100
AcDbArc
 50
53.5287439140486
 51
67.74639506567488
  0
ARC
  5
B80
330
AFA
100
AcDbEntity
  8
Title (ANSI)
370
    18
100
AcDbCircle
 10
322.6737694980414
 20
50.52665513222486
 30
0.0
 40
1.843515090004398
100
AcDbArc
 50
77.00060081194165
 51
89.20457833795699
  0
ARC
  5
B81
330
AFA
100
AcDbEntity
  8
Title (ANSI)
370
    18
100
AcDbCircle
 10
322.7049012609959
 20
50.55675747677188
 30
0.0
 40
0.924198590391917
100
AcDbArc
 50
66.54584128598632
 51
91.5175261348971
  0
ARC
  5
B82
330
AFA
100
AcDbEntity
  8
Title (ANSI)
370
    18
100
AcDbCircle
 10
322.6738979254366
 20
50.53590541460338
 30
0.0
 40
1.834263916150358
100
AcDbArc
 50
89.20457833795765
 51
103.6460183497336
  0
ARC
  5
B83
330
AFA
100
AcDbEntity
  8
Title (ANSI)
370
    18
100
AcDbCircle
 10
322.7106329923004
 20
50.49331944898163
 30
0.0
 40
0.9877744621194231
100
AcDbArc
 50
91.75242983109155
 51
119.4650331572421
  0
ARC
  5
B84
330
AFA
100
AcDbEntity
  8
Title (ANSI)
370
    18
100
AcDbCircle
 10
322.6733866038178
 20
50.53903207405202
 30
0.0
 40
1.831104900040764
100
AcDbArc
 50
103.6535518581711
 51
118.0076299419338
  0
ARC
  5
B85
330
AFA
100
AcDbEntity
  8
Title (ANSI)
370
    18
100
AcDbCircle
 10
323.1529341022098
 20
49.85047879102039
 30
0.0
 40
1.766375732692075
100
AcDbArc
 50
121.6999767949671
 51
139.268756170851
  0
ARC
  5
B86
330
AFA
100
AcDbEntity
  8
Title (ANSI)
370
    18
100
AcDbCircle
 10
322.6928802590709
 20
50.50563675214519
 30
0.0
 40
1.869743764657548
100
AcDbArc
 50
118.0544711204691
 51
134.9995728116798
  0
LINE
  5
B87
330
AFA
100
AcDbEntity
  8
Title (ANSI)
370
    18
100
AcDbLine
 10
319.9304454815055
 20
49.11912091804076
 30
0.0
 11
319.296285719433
 21
49.75329013657469
 31
0.0
  0
LINE
  5
B88
330
AFA
100
AcDbEntity
  8
Title (ANSI)
370
    18
100
AcDbLine
 10
321.3707816214701
 20
51.82775510461207
 30
0.0
 11
319.296285719433
 21
49.75329013657469
 31
0.0
  0
LINE
  5
B89
330
AFA
100
AcDbEntity
  8
Title (ANSI)
370
    18
100
AcDbLine
 10
319.9304454815055
 20
49.11912091804076
 30
0.0
 11
321.8144123207999
 21
51.00305966442356
 31
0.0
  0
LINE
  5
B8A
330
AFA
100
AcDbEntity
  8
Title (ANSI)
370
    18
100
AcDbLine
 10
318.5864644925544
 20
47.73078149113054
 30
0.0
 11
317.9544377781622
 21
48.36273835697529
 31
0.0
  0
ARC
  5
B8B
330
AFA
100
AcDbEntity
  8
Title (ANSI)
370
    18
100
AcDbCircle
 10
319.5064643939448
 20
46.70435141371014
 30
0.0
 40
1.378389829616996
100
AcDbArc
 50
131.8702016305569
 51
147.2686035702475
  0
ARC
  5
B8C
330
AFA
100
AcDbEntity
  8
Title (ANSI)
370
    18
100
AcDbCircle
 10
319.095907922606
 20
46.96824179132093
 30
0.0
 40
0.8903378369423325
100
AcDbArc
 50
147.2686035702675
 51
164.2663869133298
  0
ARC
  5
B8D
330
AFA
100
AcDbEntity
  8
Title (ANSI)
370
    18
100
AcDbCircle
 10
319.2705477516308
 20
46.92032477946238
 30
0.0
 40
1.952614245276626
100
AcDbArc
 50
132.3784480572578
 51
149.3091375701923
  0
ARC
  5
B8E
330
AFA
100
AcDbEntity
  8
Title (ANSI)
370
    18
100
AcDbCircle
 10
319.1055342590366
 20
47.02591035845919
 30
0.0
 40
1.756834390172678
100
AcDbArc
 50
149.5234958542205
 51
178.0906727918567
  0
ARC
  5
B8F
330
AFA
100
AcDbEntity
  8
Title (ANSI)
370
    18
100
AcDbCircle
 10
319.1055342590366
 20
47.02591035845919
 30
0.0
 40
1.756834390172678
100
AcDbArc
 50
149.5234958542205
 51
178.0906727918567
  0
ARC
  5
B90
330
AFA
100
AcDbEntity
  8
Title (ANSI)
370
    18
100
AcDbCircle
 10
319.2592590043373
 20
46.95508736141628
 30
0.0
 40
1.834263916150358
100
AcDbArc
 50
269.2644217848839
 51
283.6460183497278
  0
ARC
  5
B91
330
AFA
100
AcDbEntity
  8
Title (ANSI)
370
    18
100
AcDbCircle
 10
319.222523937543
 20
46.99767333205836
 30
0.0
 40
0.9877744621194231
100
AcDbArc
 50
271.7524298310875
 51
299.4650331572449
  0
ARC
  5
B92
330
AFA
100
AcDbEntity
  8
Title (ANSI)
370
    18
100
AcDbCircle
 10
319.2597703259561
 20
46.95196070196767
 30
0.0
 40
1.831104900040764
100
AcDbArc
 50
283.6535518581653
 51
298.0076299419288
  0
ARC
  5
B93
330
AFA
100
AcDbEntity
  8
Title (ANSI)
370
    18
100
AcDbCircle
 10
318.7802228276336
 20
47.64051399001967
 30
0.0
 40
1.766375732692075
100
AcDbArc
 50
301.6999767949667
 51
319.2687561708498
  0
ARC
  5
B94
330
AFA
100
AcDbEntity
  8
Title (ANSI)
370
    18
100
AcDbCircle
 10
319.2402766707028
 20
46.98535602387432
 30
0.0
 40
1.869743764657548
100
AcDbArc
 50
298.0544711204706
 51
314.9995728116842
  0
LINE
  5
B95
330
AFA
100
AcDbEntity
  8
Title (ANSI)
370
    18
100
AcDbLine
 10
322.002711445793
 20
48.37187186045415
 30
0.0
 11
320.1187446090435
 21
46.48793311661652
 31
0.0
  0
LINE
  5
B96
330
AFA
100
AcDbEntity
  8
Title (ANSI)
370
    18
100
AcDbLine
 10
320.5623753083037
 20
45.66323767140761
 30
0.0
 11
322.6368712103408
 21
47.73770263944484
 31
0.0
  0
LINE
  5
B97
330
AFA
100
AcDbEntity
  8
Title (ANSI)
370
    18
100
AcDbLine
 10
322.002711445793
 20
48.37187186045415
 30
0.0
 11
322.6368712103408
 21
47.73770263944484
 31
0.0
  0
ARC
  5
B98
330
AFA
100
AcDbEntity
  8
Title (ANSI)
370
    18
100
AcDbCircle
 10
319.2282556688476
 20
46.93423530426815
 30
0.0
 40
0.924198590391917
100
AcDbArc
 50
246.5458412859816
 51
271.5175261348818
  0
ARC
  5
B99
330
AFA
100
AcDbEntity
  8
Title (ANSI)
370
    18
100
AcDbCircle
 10
319.1690116183478
 20
46.84058114605978
 30
0.0
 40
0.8148810981022784
100
AcDbArc
 50
233.5287439140478
 51
247.7463950656698
  0
ARC
  5
B9A
330
AFA
100
AcDbEntity
  8
Title (ANSI)
370
    18
100
AcDbCircle
 10
319.2593874318021
 20
46.9643376488151
 30
0.0
 40
1.843515090004398
100
AcDbArc
 50
257.0006008119382
 51
269.2641214768844
  0
ARC
  5
B9B
330
AFA
100
AcDbEntity
  8
Title (ANSI)
370
    18
100
AcDbCircle
 10
319.3396013033019
 20
47.12087386344452
 30
0.0
 40
1.142061038616178
100
AcDbArc
 50
201.0846540965307
 51
235.0054170839294
  0
ARC
  5
B9C
330
AFA
100
AcDbEntity
  8
Title (ANSI)
370
    18
100
AcDbCircle
 10
319.0390606898136
 20
47.01477985114493
 30
0.0
 40
0.8235252331844673
100
AcDbArc
 50
166.3108586799071
 51
201.7197053650338
  0
ARC
  5
B9D
330
AFA
100
AcDbEntity
  8
Title (ANSI)
370
    18
100
AcDbCircle
 10
319.2663063901632
 20
46.99050316573238
 30
0.0
 40
1.870566600258261
100
AcDbArc
 50
239.2689455632952
 51
256.9743829460961
  0
ARC
  5
B9E
330
AFA
100
AcDbEntity
  8
Title (ANSI)
370
    18
100
AcDbCircle
 10
319.3438447186206
 20
47.10842952276529
 30
0.0
 40
2.011566119044413
100
AcDbArc
 50
220.2980177967414
 51
239.0869769422923
  0
ARC
  5
B9F
330
AFA
100
AcDbEntity
  8
Title (ANSI)
370
    18
100
AcDbCircle
 10
319.2204417093856
 20
47.03692189354465
 30
0.0
 40
1.871369956784155
100
AcDbArc
 50
178.544847243644
 51
221.0718665562399
  0
LINE
  5
BA0
330
AFA
100
AcDbEntity
  8
Title (ANSI)
370
    18
100
AcDbLine
 10
389.4178114505121
 20
47.81416963571163
 30
0.0
 11
389.4178114505121
 21
45.0
 31
0.0
  0
LINE
  5
BA1
330
AFA
100
AcDbEntity
  8
Layer 1
370
    18
100
AcDbLine
 10
404.6584778595819
 20
52.27994103544457
 30
0.0
 11
404.3109852098879
 21
52.27994103544457
 31
0.0
  0
LINE
  5
BA2
330
AFA
100
AcDbEntity
  8
Layer 1
370
    18
100
AcDbLine
 10
400.9531136016313
 20
45.0
 30
0.0
 11
402.3519270153013
 21
45.0
 31
0.0
  0
LINE
  5
BA3
330
AFA
100
AcDbEntity
  8
Layer 1
370
    18
100
AcDbLine
 10
402.3519270153013
 20
45.0
 30
0.0
 11
403.1492041988452
 21
46.71376375516253
 31
0.0
  0
LINE
  5
BA4
330
AFA
100
AcDbEntity
  8
Layer 1
370
    18
100
AcDbLine
 10
404.3109852098879
 20
52.27994103544457
 30
0.0
 11
400.9531136016313
 21
45.0
 31
0.0
  0
LINE
  5
BA5
330
AFA
100
AcDbEntity
  8
Layer 1
370
    18
100
AcDbLine
 10
403.1492041988452
 20
46.71376375516253
 30
0.0
 11
405.7939552432705
 21
46.71376375516253
 31
0.0
  0
LINE
  5
BA6
330
AFA
100
AcDbEntity
  8
Layer 1
370
    18
100
AcDbLine
 10
405.7939552432705
 20
46.71376375516253
 30
0.0
 11
406.5880100451161
 21
45.0
 31
0.0
  0
LINE
  5
BA7
330
AFA
100
AcDbEntity
  8
Layer 1
370
    18
100
AcDbLine
 10
406.5880100451161
 20
45.0
 30
0.0
 11
407.9912448662329
 21
45.0
 31
0.0
  0
LINE
  5
BA8
330
AFA
100
AcDbEntity
  8
Layer 1
370
    18
100
AcDbLine
 10
407.9912448662329
 20
45.0
 30
0.0
 11
404.6584778595819
 21
52.27994103544457
 31
0.0
  0
LINE
  5
BA9
330
AFA
100
AcDbEntity
  8
Title (ANSI)
370
    18
100
AcDbLine
 10
413.6292887523068
 20
44.99917566979799
 30
0.0
 11
415.0000002478714
 21
44.99917566979796
 31
0.0
  0
LINE
  5
BAA
330
AFA
100
AcDbEntity
  8
Title (ANSI)
100
AcDbLine
 10
220.0000000000003
 20
25.40000000000156
 30
0.0
 11
310.0000000000004
 21
25.40000000000157
 31
0.0
  0
MTEXT
  5
BAB
330
AFA
100
AcDbEntity
  8
Title (ANSI)
100
AcDbMText
 10
222.5000000000004
 20
56.50000000000154
 30
0.0
 40
2.540000081062316
 41
25.70396455647774
 46
0.0
 71
     1
 72
     1
  1
\fApercu|b0|i0;{\H2.5400;DRAWN}
  7
Jardan Text - 3.05mm
 73
     1
 44
1.0
  0
MTEXT
  5
BAC
330
AFA
100
AcDbEntity
  8
Title (ANSI)
100
AcDbMText
 10
222.5000000000004
 20
44.50000000000156
 30
0.0
 40
2.540000081062316
 41
0.0
 46
0.0
 71
     1
 72
     1
  1
\fApercu|b0|i0;{\H2.5400;APPROVALS}
  7
Jardan Text - 3.05mm
 73
     1
 44
1.0
  0
MTEXT
  5
BAD
330
AFA
100
AcDbEntity
  8
Title (ANSI)
100
AcDbMText
 10
271.5000000000003
 20
43.40000000000156
 30
0.0
 40
2.540000081062316
 41
0.0
 46
0.0
 71
     5
 72
     1
  1
\fApercu|b0|i0;{\H2.5400;SIGNATURE}
  7
Jardan Text - 3.05mm
 73
     1
 44
1.0
  0
MTEXT
  5
BAE
330
AFA
100
AcDbEntity
  8
Title (ANSI)
100
AcDbMText
 10
296.5000000000003
 20
43.40000000000156
 30
0.0
 40
2.540000081062316
 41
0.0
 46
0.0
 71
     5
 72
     1
  1
\fApercu|b0|i0;{\H2.5400;DATE}
  7
Jardan Text - 3.05mm
 73
     1
 44
1.0
  0
MTEXT
  5
BAF
330
AFA
100
AcDbEntity
  8
Title (ANSI)
100
AcDbMText
 10
222.5000000000004
 20
37.30000000000157
 30
0.0
 40
2.540000081062316
 41
0.0
 46
0.0
 71
     1
 72
     1
  1
\fApercu|b0|i0;{\H2.5400;DESIGN}
  7
Jardan Text - 3.05mm
 73
     1
 44
1.0
  0
MTEXT
  5
BB0
330
AFA
100
AcDbEntity
  8
Title (ANSI)
100
AcDbMText
 10
222.5000000000004
 20
30.10000000000156
 30
0.0
 40
2.540000081062316
 41
0.0
 46
0.0
 71
     1
 72
     1
  1
\fApercu|b0|i0;{\H2.5400;R&D - UPHOLSTERY}
  7
Jardan Text - 3.05mm
 73
     1
 44
1.0
  0
MTEXT
  5
BB1
330
AFA
100
AcDbEntity
  8
Title (ANSI)
100
AcDbMText
 10
312.5
 20
4.50000000000158
 30
0.0
 40
2.540000081062316
 41
0.0
 46
0.0
 71
     1
 72
     1
  1
\fApercu|b0|i0;{\H2.5400;SCALE}
  7
Jardan Text - 3.05mm
 73
     1
 44
1.0
  0
MTEXT
  5
BB2
330
AFA
100
AcDbEntity
  8
Title (ANSI)
100
AcDbMText
 10
312.5
 20
16.20000000000157
 30
0.0
 40
2.540000081062316
 41
0.0
 46
0.0
 71
     1
 72
     1
  1
\fApercu|b0|i0;{\H2.5400;SIZE}
  7
Jardan Text - 3.05mm
 73
     1
 44
1.0
  0
MTEXT
  5
BB3
330
AFA
100
AcDbEntity
  8
Title (ANSI)
100
AcDbMText
 10
408.0000000000002
 20
17.45000000000158
 30
0.0
 40
2.540000081062316
 41
0.0
 46
0.0
 71
     1
 72
     1
  1
\fApercu|b0|i0;{\H2.5400;REV}
  7
Jardan Text - 3.05mm
 73
     1
 44
1.0
  0
MTEXT
  5
BB4
330
AFA
100
AcDbEntity
  8
Title (ANSI)
100
AcDbMText
 10
349.3415624000004
 20
16.20000000000157
 30
0.0
 40
2.540000081062316
 41
0.0
 46
0.0
 71
     1
 72
     1
  1
\fApercu|b0|i0;{\H2.5400;JOB NO}
  7
Jardan Text - 3.05mm
 73
     1
 44
1.0
  0
MTEXT
  5
BB5
330
AFA
100
AcDbEntity
  8
Title (ANSI)
100
AcDbMText
 10
418.0000000000003
 20
4.500000000001572
 30
0.0
 40
2.540000081062316
 41
0.0
 46
0.0
 71
     3
 72
     1
  1
\fApercu|b0|i0;{\H2.5400;SHEET 1  OF 2 }
  7
Jardan Text - 3.05mm
 73
     1
 44
1.0
  0
MTEXT
  5
BB6
330
AFA
100
AcDbEntity
  8
Title (ANSI)
100
AcDbMText
 10
325.5000000000003
 20
16.20000000000157
 30
0.0
 40
2.540000081062316
 41
0.0
 46
0.0
 71
     1
 72
     1
  1
\fApercu|b0|i0;{\H2.5400;DWG NO}
  7
Jardan Text - 3.05mm
 73
     1
 44
1.0
  0
MTEXT
  5
BB7
330
AFA
100
AcDbEntity
  8
Title (ANSI)
100
AcDbMText
 10
222.5000000000004
 20
22.90000000000156
 30
0.0
 40
2.540000081062316
 41
0.0
 46
0.0
 71
     1
 72
     1
  1
\fApercu|b0|i0;{\H2.5400;R&D - TIMBER}
  7
Jardan Text - 3.05mm
 73
     1
 44
1.0
  0
MTEXT
  5
BB8
102
{ACAD_XDICTIONARY
360
BB9
102
}
330
AFA
100
AcDbEntity
  8
Title (ISO)
100
AcDbMText
 10
222.0000000000003
 20
16.70000000000156
 30
0.0
 40
3.048000037670135
 41
0.0
 46
0.0
 71
     1
 72
     1
  3
\pxsm0.94;\fApercu|b0|i0;{\H2.0000;Copyright ©}\fApercu|b0|i0;{\H2.0500;\P}\fApercu|b0|i0;{\H1.5000;All rights reserved, the plans, drawings, specifications and other material are subject \P}\fApercu|b0|i0;{\H1.5000;to copyright. Any copying, adaptat
  3
ion or communication of this material to a third \P}\fApercu|b0|i0;{\H1.5000;party without prior consent of Jardan Australia Pty Ltd will constitute cause for legal \P}\fApercu|b0|i0;{\H1.5000;proceedings. This drawing remains the property of Jardan 
  1
Australia Pty Ltd. \P}\fApercu|b0|i0;{\H1.5000;Jardan reserves the right to make alterations/improvements to the design.}\fApercu|b1|i0;{\H1.0500;\P}
  7
Jardan Text - 3.05mm
 73
     1
 44
0.7219090461730957
  0
ATTDEF
  5
BBA
102
{ACAD_XDICTIONARY
360
BBB
102
}
330
AFA
100
AcDbEntity
  8
Title (ANSI)
100
AcDbText
 10
222.4490760118101
 20
48.78957465757365
 30
0.0
 40
3.174999952316283
  1
Jules.Tsa
  7
Text Style74
 11
222.4490760118101
 21
51.96457460988994
 31
0.0
100
AcDbAttributeDefinition
280
     0
  3
AUTHOR
  2
AUTHOR
 70
     0
 74
     3
280
     0
 71
     4
 72
     0
 11
222.4490760118101
 21
51.96457460988994
 31
0.0
101
Embedded Object
 10
222.4490760118101
 20
51.96457460988994
 30
0.0
 40
3.174999952316283
 41
0.0
 46
0.0
 71
     1
 72
     5
  1
Jules.Tsa
  7
Text Style74
 73
     1
 44
1.0
  0
ATTDEF
  5
BBC
102
{ACAD_XDICTIONARY
360
BBD
102
}
330
AFA
100
AcDbEntity
  8
Title (ANSI)
100
AcDbText
 10
312.1375174263743
 20
31.26815845426257
 30
0.0
 40
4.600000083446501
  1
Colour Bedside - Large Open
  7
Text Style75
 11
312.1375174263743
 21
35.86815853770907
 31
0.0
100
AcDbAttributeDefinition
280
     0
  3
TITLE
  2
TITLE
 70
     0
 74
     3
280
     0
 71
     4
 72
     0
 11
312.1375174263743
 21
35.86815853770907
 31
0.0
101
Embedded Object
 10
312.1375174263743
 20
35.86815853770907
 30
0.0
 40
4.600000083446501
 41
103.976867188119
 46
0.0
 71
     1
 72
     5
  1
Colour Bedside - Large Open
  7
Text Style75
 73
     1
 44
1.0
  0
ATTDEF
  5
BBE
102
{ACAD_XDICTIONARY
360
BBF
102
}
330
AFA
100
AcDbEntity
  8
Title (ANSI)
100
AcDbText
 10
312.4198047403482
 20
7.099999906380367
 30
0.0
 40
4.600000083446501
  1
A3
  7
Text Style75
 11
312.4198047403482
 21
11.69999998982687
 31
0.0
100
AcDbAttributeDefinition
280
     0
  3
Sheet_Size
  2
Sheet_Size
 70
     0
 74
     3
280
     0
 71
     4
 72
     0
 11
312.4198047403482
 21
11.69999998982687
 31
0.0
101
Embedded Object
 10
312.4198047403482
 20
11.69999998982687
 30
0.0
 40
4.600000083446501
 41
0.0
 46
0.0
 71
     1
 72
     5
  1
A3
  7
Text Style75
 73
     1
 44
1.0
  0
ATTDEF
  5
BC0
102
{ACAD_XDICTIONARY
360
BC1
102
}
330
AFA
100
AcDbEntity
  8
Title (ANSI)
100
AcDbText
 10
411.3852859088514
 20
7.599999994471852
 30
0.0
 40
5.0
  1
A
  7
Text Style81
 72
     1
 11
413.5995716231371
 21
10.09999999447185
 31
0.0
100
AcDbAttributeDefinition
280
     0
  3
REVISION_NUMBER
  2
REVISION_NUMBER
 70
     0
 74
     2
280
     0
 71
     4
 72
     0
 11
413.5995716231371
 21
10.09999999447185
 31
0.0
101
Embedded Object
 10
413.5995716231371
 20
10.09999999447185
 30
0.0
 40
5.0
 41
0.0
 46
0.0
 71
     5
 72
     5
  1
A
  7
Text Style81
 73
     1
 44
1.0
  0
ATTDEF
  5
BC2
102
{ACAD_XDICTIONARY
360
BC3
102
}
330
AFA
100
AcDbEntity
  8
Title (ANSI)
100
AcDbText
 10
348.9790798263748
 20
7.048674940203281
 30
0.0
 40
4.600000083446501
  1
Colour Bedside - LO
  7
Text Style75
 11
348.9790798263748
 21
11.64867502364978
 31
0.0
100
AcDbAttributeDefinition
280
     0
  3
PART_NUMBER
  2
PART_NUMBER
 70
     0
 74
     3
280
     0
 71
     4
 72
     0
 11
348.9790798263748
 21
11.64867502364978
 31
0.0
101
Embedded Object
 10
348.9790798263748
 20
11.64867502364978
 30
0.0
 40
4.600000083446501
 41
0.0
 46
0.0
 71
     1
 72
     5
  1
Colour Bedside - LO
  7
Text Style75
 73
     1
 44
1.0
  0
ATTDEF
  5
BC4
102
{ACAD_XDICTIONARY
360
BC5
102
}
330
AFA
100
AcDbEntity
  8
Title (ANSI)
100
AcDbText
 10
325.012412821318
 20
7.099999906380367
 30
0.0
 40
4.600000083446501
  1
1
  7
Text Style75
 11
325.012412821318
 21
11.69999998982687
 31
0.0
100
AcDbAttributeDefinition
280
     0
  3
PROJECT
  2
PROJECT
 70
     0
 74
     3
280
     0
 71
     4
 72
     0
 11
325.012412821318
 21
11.69999998982687
 31
0.0
101
Embedded Object
 10
325.012412821318
 20
11.69999998982687
 30
0.0
 40
4.600000083446501
 41
0.0
 46
0.0
 71
     1
 72
     5
  1
1
  7
Text Style75
 73
     1
 44
1.0
  0
ATTDEF
  5
BC6
102
{ACAD_XDICTIONARY
360
BC7
102
}
330
AFA
100
AcDbEntity
  8
Title (ANSI)
100
AcDbText
 10
215.9520172430394
 20
4.20886109009411
 30
0.0
 40
6.100000143051147
  1
Construction
 50
90.0
  7
Text Style66
 72
     1
 11
218.0000000000004
 21
29.00000000000155
 31
0.0
100
AcDbAttributeDefinition
280
     0
  3
Drawing_Status
  2
Drawing_Status
 70
     0
 74
     1
280
     0
 71
     4
 72
     0
 11
218.0000000000004
 21
29.00000000000155
 31
0.0
101
Embedded Object
 10
218.0000000000004
 20
29.00000000000155
 30
0.0
 40
6.100000143051147
 41
51.46983029510145
 46
0.0
 71
     8
 72
     5
  1
Construction
  7
Text Style66
 11
0.0000000000000001
 21
1.0
 31
0.0
 73
     1
 44
1.0
  0
ATTDEF
  5
BC8
102
{ACAD_XDICTIONARY
360
BC9
102
}
330
AFA
100
AcDbEntity
  8
Title (ANSI)
100
AcDbText
 10
312.0358437829811
 20
23.36980319079837
 30
0.0
 40
4.160000085830687
  1
520 x 430 x 500
  7
Text Style76
 11
312.0358437829811
 21
27.52980327662906
 31
0.0
100
AcDbAttributeDefinition
280
     0
  3
SUBJECT
  2
SUBJECT
 70
     0
 74
     3
280
     0
 71
     4
 72
     0
 11
312.0358437829811
 21
27.52980327662906
 31
0.0
101
Embedded Object
 10
312.0358437829811
 20
27.52980327662906
 30
0.0
 40
4.160000085830687
 41
0.0
 46
0.0
 71
     1
 72
     5
  1
520 x 430 x 500
  7
Text Style76
 73
     1
 44
1.0
  0
ATTDEF
  5
BCA
102
{ACAD_XDICTIONARY
360
BCB
102
}
330
AFA
100
AcDbEntity
  8
Title (ANSI)
100
AcDbText
 10
271.5000000000003
 20
34.61250002384343
 30
0.0
 40
3.174999952316283
  1

  7
Text Style74
 72
     1
 11
271.5000000000003
 21
36.20000000000157
 31
0.0
100
AcDbAttributeDefinition
280
     0
  3
Design
  2
Design
 70
     0
 74
     2
280
     0
 71
     4
 72
     0
 11
271.5000000000003
 21
36.20000000000157
 31
0.0
101
Embedded Object
 10
271.5000000000003
 20
36.20000000000157
 30
0.0
 40
3.174999952316283
 41
0.0
 46
0.0
 71
     5
 72
     5
  1

  7
Text Style74
 73
     1
 44
1.0
  0
ATTDEF
  5
BCC
102
{ACAD_XDICTIONARY
360
BCD
102
}
330
AFA
100
AcDbEntity
  8
Title (ANSI)
100
AcDbText
 10
271.5000000000003
 20
27.47599998116649
 30
0.0
 40
3.048000037670135
  1

  7
Jardan Text - 3.05mm
 72
     1
 11
271.5000000000003
 21
29.00000000000156
 31
0.0
100
AcDbAttributeDefinition
280
     0
  3
R&D_Upholstery
  2
R&D_Upholstery
 70
     0
 74
     2
280
     0
 71
     4
 72
     0
 11
271.5000000000003
 21
29.00000000000156
 31
0.0
101
Embedded Object
 10
271.5000000000003
 20
29.00000000000156
 30
0.0
 40
3.048000037670135
 41
0.0
 46
0.0
 71
     5
 72
     5
  1

  7
Jardan Text - 3.05mm
 73
     1
 44
1.0
  0
ATTDEF
  5
BCE
102
{ACAD_XDICTIONARY
360
BCF
102
}
330
AFA
100
AcDbEntity
  8
Title (ANSI)
100
AcDbText
 10
296.5000000000003
 20
34.61250002384343
 30
0.0
 40
3.174999952316283
  1

  7
Text Style74
 72
     1
 11
296.5000000000003
 21
36.20000000000157
 31
0.0
100
AcDbAttributeDefinition
280
     0
  3
Design_Date
  2
Design_Date
 70
     0
 74
     2
280
     0
 71
     4
 72
     0
 11
296.5000000000003
 21
36.20000000000157
 31
0.0
101
Embedded Object
 10
296.5000000000003
 20
36.20000000000157
 30
0.0
 40
3.174999952316283
 41
0.0
 46
0.0
 71
     5
 72
     5
  1

  7
Text Style74
 73
     1
 44
1.0
  0
ATTDEF
  5
BD0
102
{ACAD_XDICTIONARY
360
BD1
102
}
330
AFA
100
AcDbEntity
  8
Title (ANSI)
100
AcDbText
 10
296.5000000000004
 20
27.4759999811665
 30
0.0
 40
3.048000037670135
  1

  7
Jardan Text - 3.05mm
 72
     1
 11
296.5000000000004
 21
29.00000000000157
 31
0.0
100
AcDbAttributeDefinition
280
     0
  3
R&D_Upholstery_Date
  2
R&D_Upholstery_Date
 70
     0
 74
     2
280
     0
 71
     4
 72
     0
 11
296.5000000000004
 21
29.00000000000157
 31
0.0
101
Embedded Object
 10
296.5000000000004
 20
29.00000000000157
 30
0.0
 40
3.048000037670135
 41
0.0
 46
0.0
 71
     5
 72
     5
  1

  7
Jardan Text - 3.05mm
 73
     1
 44
1.0
  0
ATTDEF
  5
BD2
102
{ACAD_XDICTIONARY
360
BD3
102
}
330
AFA
100
AcDbEntity
  8
Title (ANSI)
100
AcDbText
 10
271.5000000000003
 20
20.21250002384342
 30
0.0
 40
3.174999952316283
  1

  7
Text Style74
 72
     1
 11
271.5000000000003
 21
21.80000000000156
 31
0.0
100
AcDbAttributeDefinition
280
     0
  3
R&D_Timber
  2
R&D_Timber
 70
     0
 74
     2
280
     0
 71
     4
 72
     0
 11
271.5000000000003
 21
21.80000000000156
 31
0.0
101
Embedded Object
 10
271.5000000000003
 20
21.80000000000156
 30
0.0
 40
3.174999952316283
 41
0.0
 46
0.0
 71
     5
 72
     5
  1

  7
Text Style74
 73
     1
 44
1.0
  0
ATTDEF
  5
BD4
102
{ACAD_XDICTIONARY
360
BD5
102
}
330
AFA
100
AcDbEntity
  8
Title (ANSI)
100
AcDbText
 10
296.5000000000004
 20
20.21250002384343
 30
0.0
 40
3.174999952316283
  1

  7
Text Style74
 72
     1
 11
296.5000000000004
 21
21.80000000000157
 31
0.0
100
AcDbAttributeDefinition
280
     0
  3
R&D_Timber_Date
  2
R&D_Timber_Date
 70
     0
 74
     2
280
     0
 71
     4
 72
     0
 11
296.5000000000004
 21
21.80000000000157
 31
0.0
101
Embedded Object
 10
296.5000000000004
 20
21.80000000000157
 30
0.0
 40
3.174999952316283
 41
0.0
 46
0.0
 71
     5
 72
     5
  1

  7
Text Style74
 73
     1
 44
1.0
  0
ATTDEF
  5
BD6
102
{ACAD_XDICTIONARY
360
BD7
102
}
330
AFA
100
AcDbEntity
  8
Title (ANSI)
100
AcDbText
 10
283.6295155065291
 20
50.91250002033206
 30
0.0
 40
3.174999952316283
  1
27/06/2023
  7
Text Style74
 72
     1
 11
297.6902295810727
 21
52.4999999964902
 31
0.0
100
AcDbAttributeDefinition
280
     0
  3
CREATION_DATE
  2
CREATION_DATE
 70
     0
 74
     2
280
     0
 71
     4
 72
     0
 11
297.6902295810727
 21
52.4999999964902
 31
0.0
101
Embedded Object
 10
297.6902295810727
 20
52.4999999964902
 30
0.0
 40
3.174999952316283
 41
22.29132837151205
 46
0.0
 71
     5
 72
     5
  1
27/06/2023
  7
Text Style74
 73
     1
 44
1.0
  0
ATTDEF
  5
BD8
102
{ACAD_XDICTIONARY
360
BD9
102
}
330
AFA
100
AcDbEntity
  8
Title (ISO)
 62
     1
420
 16711680
100
AcDbText
 10
381.6293575302229
 20
267.3176430581695
 30
0.0
 40
6.100000143051147
  1
Released
  7
Text Style83
 72
     2
 11
424.8522156866996
 21
265.1013947495715
 31
0.0
100
AcDbAttributeDefinition
280
     0
  3
State
  2
State
 70
     0
 74
     1
280
     0
 71
     4
 72
     0
 11
424.8522156866996
 21
265.1013947495715
 31
0.0
101
Embedded Object
 10
424.8522156866996
 20
265.1013947495715
 30
0.0
 40
6.100000143051147
 41
0.0
 46
0.0
 71
     9
 72
     5
  1
Released
  7
Text Style83
 73
     1
 44
1.0
  0
ATTDEF
  5
BDA
102
{ACAD_XDICTIONARY
360
BDB
102
}
330
AFA
100
AcDbEntity
  8
Title (ISO)
100
AcDbText
 10
323.6769204973849
 20
1.917991586893228
 30
0.0
 40
3.048000037670135
  1
1:6
  7
Jardan Text - 3.05mm
 11
323.6769204973849
 21
4.965991624563363
 31
0.0
100
AcDbAttributeDefinition
280
     0
  3
Initial_View_Scale
  2
Initial_View_Scale
 70
     0
 74
     3
280
     0
 71
     4
 72
     0
 11
323.6769204973849
 21
4.965991624563363
 31
0.0
101
Embedded Object
 10
323.6769204973849
 20
4.965991624563363
 30
0.0
 40
3.048000037670135
 41
40.38228970574826
 46
0.0
 71
     1
 72
     5
  1
1:6
  7
Jardan Text - 3.05mm
 73
     1
 44
1.0
  0
ENDBLK
  5
BDC
330
AFA
100
AcDbEntity
  8
0
100
AcDbBlockEnd
  0
BLOCK
  5
C40
330
C3F
100
AcDbEntity
  8
0
100
AcDbBlockBegin
  2
2dTransSection0
 70
     0
 10
0.0
 20
0.0
 30
0.0
  3
2dTransSection0
  1

  0
LINE
  5
C41
330
C3F
100
AcDbEntity
  8
Section Line (ISO)
  6
Continuous
100
AcDbLine
 10
104.4721928973416
 20
189.5107250034244
 30
0.0
 11
104.4721928973419
 21
145.2503279414681
 31
0.0
  0
LINE
  5
C42
330
C3F
100
AcDbEntity
  8
Section Line (ISO)
  6
Continuous
100
AcDbLine
 10
104.4721928973416
 20
189.5107250034244
 30
0.0
 11
104.4721928973417
 21
180.1572593161056
 31
0.0
  0
LINE
  5
C43
330
C3F
100
AcDbEntity
  8
Section Line (ISO)
  6
Continuous
100
AcDbLine
 10
104.4721928973419
 20
154.6037936287869
 30
0.0
 11
104.4721928973419
 21
145.2503279414681
 31
0.0
  0
LINE
  5
C44
330
C3F
100
AcDbEntity
  8
Section Line (ISO)
  6
Continuous
100
AcDbLine
 10
101.9721928973416
 20
189.5107250034244
 30
0.0
 11
99.47219289734169
 21
189.5107250034243
 31
0.0
  0
POLYLINE
  5
C45
330
C3F
100
AcDbEntity
  8
Section Line (ISO)
  6
Continuous
100
AcDb2dPolyline
 66
     1
 10
0.0
 20
0.0
 30
0.0
 70
   128
  0
VERTEX
  5
C46
330
C45
100
AcDbEntity
  8
Section Line (ISO)
  6
Continuous
100
AcDbVertex
100
AcDb2dVertex
 10
101.9721929513115
 20
190.0107241771569
 30
0.0
  0
VERTEX
  5
C47
330
C45
100
AcDbEntity
  8
Section Line (ISO)
  6
Continuous
100
AcDbVertex
100
AcDb2dVertex
 10
99.47219295131157
 20
189.5107254487226
 30
0.0
  0
VERTEX
  5
C48
330
C45
100
AcDbEntity
  8
Section Line (ISO)
  6
Continuous
100
AcDbVertex
100
AcDb2dVertex
 10
101.9721929513115
 20
189.010723541374
 30
0.0
  0
VERTEX
  5
C49
330
C45
100
AcDbEntity
  8
Section Line (ISO)
  6
Continuous
100
AcDbVertex
100
AcDb2dVertex
 10
101.9721929513115
 20
190.0107241771569
 30
0.0
  0
SEQEND
  5
C4A
330
C45
100
AcDbEntity
  8
Section Line (ISO)
  6
Continuous
  0
SOLID
  5
C4B
330
C3F
100
AcDbEntity
  8
Section Line (ISO)
100
AcDbTrace
 10
101.9721929513115
 20
190.0107241771569
 30
0.0
 11
99.47219295131157
 21
189.5107254487226
 31
0.0
 12
101.9721929513115
 22
189.010723541374
 32
0.0
 13
101.9721929513115
 23
190.0107241771569
 33
0.0
  0
LINE
  5
C4C
330
C3F
100
AcDbEntity
  8
Section Line (ISO)
  6
Continuous
100
AcDbLine
 10
101.9721928973416
 20
190.0107250034244
 30
0.0
 11
99.47219289734169
 21
189.5107250034243
 31
0.0
  0
LINE
  5
C4D
330
C3F
100
AcDbEntity
  8
Section Line (ISO)
  6
Continuous
100
AcDbLine
 10
99.47219289734169
 20
189.5107250034243
 30
0.0
 11
101.9721928973416
 21
189.0107250034244
 31
0.0
  0
LINE
  5
C4E
330
C3F
100
AcDbEntity
  8
Section Line (ISO)
  6
Continuous
100
AcDbLine
 10
101.9721928973416
 20
189.0107250034244
 30
0.0
 11
101.9721928973416
 21
190.0107250034244
 31
0.0
  0
LINE
  5
C4F
330
C3F
100
AcDbEntity
  8
Section Line (ISO)
  6
Continuous
100
AcDbLine
 10
104.4721928973416
 20
189.5107250034244
 30
0.0
 11
101.9721928973416
 21
189.5107250034244
 31
0.0
  0
LINE
  5
C50
330
C3F
100
AcDbEntity
  8
Section Line (ISO)
  6
Continuous
100
AcDbLine
 10
101.9721928973419
 20
145.2503279414681
 30
0.0
 11
99.47219289734194
 21
145.2503279414681
 31
0.0
  0
POLYLINE
  5
C51
330
C3F
100
AcDbEntity
  8
Section Line (ISO)
  6
Continuous
100
AcDb2dPolyline
 66
     1
 10
0.0
 20
0.0
 30
0.0
 70
   128
  0
VERTEX
  5
C52
330
C51
100
AcDbEntity
  8
Section Line (ISO)
  6
Continuous
100
AcDbVertex
100
AcDb2dVertex
 10
101.9721929513115
 20
145.750328014488
 30
0.0
  0
VERTEX
  5
C53
330
C51
100
AcDbEntity
  8
Section Line (ISO)
  6
Continuous
100
AcDbVertex
100
AcDb2dVertex
 10
99.47219295131157
 20
145.2503278952787
 30
0.0
  0
VERTEX
  5
C54
330
C51
100
AcDbEntity
  8
Section Line (ISO)
  6
Continuous
100
AcDbVertex
100
AcDb2dVertex
 10
101.9721929513115
 20
144.7503279747516
 30
0.0
  0
VERTEX
  5
C55
330
C51
100
AcDbEntity
  8
Section Line (ISO)
  6
Continuous
100
AcDbVertex
100
AcDb2dVertex
 10
101.9721929513115
 20
145.750328014488
 30
0.0
  0
SEQEND
  5
C56
330
C51
100
AcDbEntity
  8
Section Line (ISO)
  6
Continuous
  0
SOLID
  5
C57
330
C3F
100
AcDbEntity
  8
Section Line (ISO)
100
AcDbTrace
 10
101.9721929513115
 20
145.750328014488
 30
0.0
 11
99.47219295131157
 21
145.2503278952787
 31
0.0
 12
101.9721929513115
 22
144.7503279747516
 32
0.0
 13
101.9721929513115
 23
145.750328014488
 33
0.0
  0
LINE
  5
C58
330
C3F
100
AcDbEntity
  8
Section Line (ISO)
  6
Continuous
100
AcDbLine
 10
101.9721928973419
 20
145.7503279414681
 30
0.0
 11
99.47219289734194
 21
145.2503279414681
 31
0.0
  0
LINE
  5
C59
330
C3F
100
AcDbEntity
  8
Section Line (ISO)
  6
Continuous
100
AcDbLine
 10
99.47219289734194
 20
145.2503279414681
 30
0.0
 11
101.9721928973419
 21
144.7503279414681
 31
0.0
  0
LINE
  5
C5A
330
C3F
100
AcDbEntity
  8
Section Line (ISO)
  6
Continuous
100
AcDbLine
 10
101.9721928973419
 20
144.7503279414681
 30
0.0
 11
101.9721928973419
 21
145.7503279414681
 31
0.0
  0
LINE
  5
C5B
330
C3F
100
AcDbEntity
  8
Section Line (ISO)
  6
Continuous
100
AcDbLine
 10
104.4721928973419
 20
145.2503279414681
 30
0.0
 11
101.9721928973419
 21
145.2503279414681
 31
0.0
  0
MTEXT
  5
C5C
330
C3F
100
AcDbEntity
  8
Section Line (ISO)
100
AcDbMText
 10
98.4484528467459
 20
193.0107250034244
 30
0.0
 40
3.050000071525573
 41
0.0
 46
0.0
 71
     7
 72
     1
  1
A
  7
Jardan Text - 3.05mm
 73
     1
 44
1.0
  0
MTEXT
  5
C5D
330
C3F
100
AcDbEntity
  8
Section Line (ISO)
100
AcDbMText
 10
98.44845284674619
 20
138.702327903798
 30
0.0
 40
3.050000071525573
 41
0.0
 46
0.0
 71
     7
 72
     1
  1
A
  7
Jardan Text - 3.05mm
 73
     1
 44
1.0
  0
ENDBLK
  5
C5E
330
C3F
100
AcDbEntity
  8
0
100
AcDbBlockEnd
  0
ENDSEC
  0
SECTION
  2
ENTITIES
  0
TEXT
  5
3AF
330
1F
100
AcDbEntity
  8
LINE
100
AcDbText
 10
41.73664322454294
 20
10047.09063485905
 30
0.0
 40
233.9816249415046
  1
Bedside Tables
 41
1.000399999999999
100
AcDbText
  0
LINE
  5
3B0
330
1F
100
AcDbEntity
  8
LINE
370
     9
100
AcDbLine
 10
41.73664322454294
 20
10787.53750064074
 30
0.0
 11
15457.74814146713
 21
10787.53750064074
 31
0.0
  0
TEXT
  5
3B1
330
1F
100
AcDbEntity
  8
LINE
100
AcDbText
 10
41.73664322454294
 20
12531.02804073221
 30
0.0
 40
192.6907499518273
  1
PIA
 41
1.000399999999999
100
AcDbText
  0
TEXT
  5
3B2
330
1F
100
AcDbEntity
  8
LINE
100
AcDbText
 10
41.73664322454294
 20
11928.40507237701
 30
0.0
 40
192.6907499518273
  1
—
 41
1.000399999999999
100
AcDbText
  0
TEXT
  5
3B3
330
1F
100
AcDbEntity
  8
LINE
100
AcDbText
 10
41.73664322454306
 20
11253.43455649854
 30
0.0
 40
233.9816249415046
  1
DIMENSIONS
 41
1.000399999999999
100
AcDbText
  0
TEXT
  5
5D4
330
1F
100
AcDbEntity
  8
LINE
100
AcDbText
 10
7161.188471263499
 20
8734.871923710445
 30
0.0
 40
192.6907499518273
  1
PIA52S
 41
1.000399999999999
100
AcDbText
  0
TEXT
  5
6F7
330
1F
100
AcDbEntity
  8
LINE
100
AcDbText
 10
7128.994334437773
 20
6105.601663517344
 30
0.0
 40
192.6907499518273
  1
PIA52D
 41
1.000399999999999
100
AcDbText
  0
TEXT
  5
711
330
1F
100
AcDbEntity
  8
LINE
100
AcDbText
 10
11296.3634165477
 20
8734.871923710445
 30
0.0
 40
192.6907499518273
  1
PIA42S
 41
1.000399999999999
100
AcDbText
  0
LINE
  5
73D
330
1F
100
AcDbEntity
  8
LINE
370
     9
100
AcDbLine
 10
41.7366432245425
 20
5580.162942564515
 30
0.0
 11
15457.74814146713
 21
5580.162942564516
 31
0.0
  0
TEXT
  5
740
330
1F
100
AcDbEntity
  8
LINE
100
AcDbText
 10
11538.8831184748
 20
10323.29804949378
 30
0.0
 40
192.6907499518273
  1
42
 41
1.000399999999999
100
AcDbText
  0
TEXT
  5
A9B
330
1F
100
AcDbEntity
  8
LINE
100
AcDbText
 10
11370.19746054378
 20
5971.638024896144
 30
0.0
 40
192.6907499518273
  1
PIA42D
 41
1.000399999999999
100
AcDbText
  0
ARC
  5
28CD
102
{ACAD_REACTORS
330
2BF1
102
}
330
1F
100
AcDbEntity
  8
Visible (ISO)
100
AcDbCircle
 10
7368.655339943991
 20
9132.299000031251
 30
0.0
 40
3.000000000000834
100
AcDbArc
 50
270.0
 51
0.0
  0
ARC
  5
28CE
102
{ACAD_REACTORS
330
2BF1
102
}
330
1F
100
AcDbEntity
  8
Visible (ISO)
100
AcDbCircle
 10
7342.655339943984
 20
9132.299000031251
 30
0.0
 40
3.000000000000833
100
AcDbArc
 50
180.0
 51
270.0
  0
LINE
  5
28CF
102
{ACAD_REACTORS
330
2BF1
102
}
330
1F
100
AcDbEntity
  8
Visible (ISO)
100
AcDbLine
 10
7361.65533994399
 20
9129.299000031251
 30
0.0
 11
7342.655339943984
 21
9129.299000031251
 31
0.0
  0
LINE
  5
28D0
102
{ACAD_REACTORS
330
2BF1
102
}
330
1F
100
AcDbEntity
  8
Visible (ISO)
100
AcDbLine
 10
7361.65533994399
 20
9129.299000031251
 30
0.0
 11
7368.655339943991
 21
9129.299000031251
 31
0.0
  0
LINE
  5
28D1
102
{ACAD_REACTORS
330
2BF1
102
}
330
1F
100
AcDbEntity
  8
Visible (ISO)
100
AcDbLine
 10
7371.655339943993
 20
9132.299000031251
 30
0.0
 11
7371.655339943995
 21
9597.299000031378
 31
0.0
  0
LINE
  5
28D2
102
{ACAD_REACTORS
330
2BF1
102
}
330
1F
100
AcDbEntity
  8
Visible (ISO)
100
AcDbLine
 10
7368.655339943995
 20
9594.299000031378
 30
0.0
 11
7371.655339943995
 21
9597.299000031378
 31
0.0
  0
ARC
  5
28D3
102
{ACAD_REACTORS
330
2BF1
102
}
330
1F
100
AcDbEntity
  8
Visible (ISO)
100
AcDbCircle
 10
7342.655339943987
 20
9594.299000031378
 30
0.0
 40
3.000000000000836
100
AcDbArc
 50
90.0
 51
180.0
  0
LINE
  5
28D4
102
{ACAD_REACTORS
330
2BF1
102
}
330
1F
100
AcDbEntity
  8
Visible (ISO)
100
AcDbLine
 10
7342.655339943987
 20
9597.299000031378
 30
0.0
 11
7361.655339943992
 21
9597.299000031378
 31
0.0
  0
LINE
  5
28D5
102
{ACAD_REACTORS
330
2BF1
102
}
330
1F
100
AcDbEntity
  8
Visible (ISO)
100
AcDbLine
 10
7371.655339943995
 20
9597.299000031378
 30
0.0
 11
7361.655339943992
 21
9597.299000031378
 31
0.0
  0
LINE
  5
28D6
102
{ACAD_REACTORS
330
2BF1
102
}
330
1F
100
AcDbEntity
  8
Visible (ISO)
100
AcDbLine
 10
7339.655339943984
 20
9132.299000031251
 30
0.0
 11
7339.655339943987
 21
9594.299000031378
 31
0.0
  0
ARC
  5
28D7
102
{ACAD_REACTORS
330
2BF1
102
}
330
1F
100
AcDbEntity
  8
Visible (ISO)
100
AcDbCircle
 10
7830.655339944134
 20
9132.299000031377
 30
0.0
 40
2.999999999999998
100
AcDbArc
 50
180.0
 51
270.0
  0
LINE
  5
28D8
102
{ACAD_REACTORS
330
2BF1
102
}
330
1F
100
AcDbEntity
  8
Visible (ISO)
100
AcDbLine
 10
7830.655339944134
 20
9129.299000031377
 30
0.0
 11
7837.655339944134
 21
9129.299000031377
 31
0.0
  0
ARC
  5
28D9
102
{ACAD_REACTORS
330
2BF1
102
}
330
1F
100
AcDbEntity
  8
Visible (ISO)
100
AcDbCircle
 10
7856.655339944135
 20
9132.299000031377
 30
0.0
 40
2.999999999999998
100
AcDbArc
 50
270.0
 51
0.0
  0
LINE
  5
28DA
102
{ACAD_REACTORS
330
2BF1
102
}
330
1F
100
AcDbEntity
  8
Visible (ISO)
100
AcDbLine
 10
7856.655339944135
 20
9129.299000031377
 30
0.0
 11
7837.655339944134
 21
9129.299000031377
 31
0.0
  0
LINE
  5
28DB
102
{ACAD_REACTORS
330
2BF1
102
}
330
1F
100
AcDbEntity
  8
Visible (ISO)
100
AcDbLine
 10
7827.655339944136
 20
9597.299000031377
 30
0.0
 11
7827.655339944134
 21
9132.299000031377
 31
0.0
  0
LINE
  5
28DC
102
{ACAD_REACTORS
330
2BF1
102
}
330
1F
100
AcDbEntity
  8
Visible (ISO)
100
AcDbLine
 10
7827.655339944136
 20
9597.299000031377
 30
0.0
 11
7830.655339944136
 21
9594.299000031377
 31
0.0
  0
LINE
  5
28DD
102
{ACAD_REACTORS
330
2BF1
102
}
330
1F
100
AcDbEntity
  8
Visible (ISO)
100
AcDbLine
 10
7837.655339944136
 20
9597.299000031377
 30
0.0
 11
7827.655339944136
 21
9597.299000031377
 31
0.0
  0
ARC
  5
28DE
102
{ACAD_REACTORS
330
2BF1
102
}
330
1F
100
AcDbEntity
  8
Visible (ISO)
100
AcDbCircle
 10
7856.655339944136
 20
9594.299000031377
 30
0.0
 40
2.999999999999978
100
AcDbArc
 50
0.0
 51
90.0
  0
LINE
  5
28DF
102
{ACAD_REACTORS
330
2BF1
102
}
330
1F
100
AcDbEntity
  8
Visible (ISO)
100
AcDbLine
 10
7837.655339944136
 20
9597.299000031377
 30
0.0
 11
7856.655339944136
 21
9597.299000031377
 31
0.0
  0
LINE
  5
28E0
102
{ACAD_REACTORS
330
2BF1
102
}
330
1F
100
AcDbEntity
  8
Visible (ISO)
100
AcDbLine
 10
7859.655339944135
 20
9132.299000031377
 30
0.0
 11
7859.655339944136
 21
9594.299000031377
 31
0.0
  0
ARC
  5
28E1
102
{ACAD_REACTORS
330
2BF1
102
}
330
1F
100
AcDbEntity
  8
Visible (ISO)
100
AcDbCircle
 10
7856.655339944133
 20
9626.299000031384
 30
0.0
 40
3.00000000000097
100
AcDbArc
 50
0.0
 51
90.0
  0
LINE
  5
28E2
102
{ACAD_REACTORS
330
2BF1
102
}
330
1F
100
AcDbEntity
  8
Visible (ISO)
100
AcDbLine
 10
7837.655339944127
 20
9629.299000031387
 30
0.0
 11
7856.655339944133
 21
9629.299000031387
 31
0.0
  0
LINE
  5
28E3
102
{ACAD_REACTORS
330
2BF1
102
}
330
1F
100
AcDbEntity
  8
Visible (ISO)
100
AcDbLine
 10
7837.655339944127
 20
9629.299000031387
 30
0.0
 11
7361.655339943993
 21
9629.299000031387
 31
0.0
  0
ARC
  5
28E4
102
{ACAD_REACTORS
330
2BF1
102
}
330
1F
100
AcDbEntity
  8
Visible (ISO)
100
AcDbCircle
 10
7342.655339943988
 20
9626.299000031387
 30
0.0
 40
3.000000000000857
100
AcDbArc
 50
90.0
 51
180.0
  0
LINE
  5
28E5
102
{ACAD_REACTORS
330
2BF1
102
}
330
1F
100
AcDbEntity
  8
Visible (ISO)
100
AcDbLine
 10
7342.655339943988
 20
9629.299000031387
 30
0.0
 11
7361.655339943993
 21
9629.299000031387
 31
0.0
  0
ARC
  5
28E6
102
{ACAD_REACTORS
330
2BF1
102
}
330
1F
100
AcDbEntity
  8
Visible (ISO)
100
AcDbCircle
 10
7856.655339944133
 20
9600.299000031379
 30
0.0
 40
3.000000000000865
100
AcDbArc
 50
270.0
 51
0.0
  0
LINE
  5
28E7
102
{ACAD_REACTORS
330
2BF1
102
}
330
1F
100
AcDbEntity
  8
Visible (ISO)
100
AcDbLine
 10
7856.655339944133
 20
9597.299000031377
 30
0.0
 11
7837.655339944127
 21
9597.299000031377
 31
0.0
  0
LINE
  5
28E8
102
{ACAD_REACTORS
330
2BF1
102
}
330
1F
100
AcDbEntity
  8
Visible (ISO)
100
AcDbLine
 10
7361.655339943993
 20
9597.299000031378
 30
0.0
 11
7837.655339944127
 21
9597.299000031377
 31
0.0
  0
ARC
  5
28E9
102
{ACAD_REACTORS
330
2BF1
102
}
330
1F
100
AcDbEntity
  8
Visible (ISO)
100
AcDbCircle
 10
7342.655339943988
 20
9600.299000031379
 30
0.0
 40
3.00000000000097
100
AcDbArc
 50
180.0
 51
270.0
  0
LINE
  5
28EA
102
{ACAD_REACTORS
330
2BF1
102
}
330
1F
100
AcDbEntity
  8
Visible (ISO)
100
AcDbLine
 10
7361.655339943993
 20
9597.299000031378
 30
0.0
 11
7342.655339943988
 21
9597.299000031378
 31
0.0
  0
LINE
  5
28EB
102
{ACAD_REACTORS
330
2BF1
102
}
330
1F
100
AcDbEntity
  8
Visible (ISO)
100
AcDbLine
 10
7859.655339944133
 20
9626.299000031384
 30
0.0
 11
7859.655339944133
 21
9600.299000031379
 31
0.0
  0
LINE
  5
28EC
102
{ACAD_REACTORS
330
2BF1
102
}
330
1F
100
AcDbEntity
  8
Visible (ISO)
100
AcDbLine
 10
7339.655339943987
 20
9626.299000031387
 30
0.0
 11
7339.655339943987
 21
9600.299000031379
 31
0.0
  0
LINE
  5
28ED
102
{ACAD_REACTORS
330
2BF1
102
}
330
1F
100
AcDbEntity
  8
Visible (ISO)
100
AcDbLine
 10
7371.655339943997
 20
9565.299000031378
 30
0.0
 11
7827.655339944136
 21
9565.299000031377
 31
0.0
  0
ARC
  5
28EE
102
{ACAD_REACTORS
330
2BF1
102
}
330
1F
100
AcDbEntity
  8
Visible (ISO)
100
AcDbCircle
 10
7374.655339944138
 20
9405.299000031321
 30
0.0
 40
2.999999999999973
100
AcDbArc
 50
180.0
 51
270.0
  0
LINE
  5
28EF
102
{ACAD_REACTORS
330
2BF1
102
}
330
1F
100
AcDbEntity
  8
Visible (ISO)
100
AcDbLine
 10
7371.655339944138
 20
9434.299000031321
 30
0.0
 11
7374.655339944138
 21
9434.299000031321
 31
0.0
  0
LINE
  5
28F0
102
{ACAD_REACTORS
330
2BF1
102
}
330
1F
100
AcDbEntity
  8
Visible (ISO)
100
AcDbLine
 10
7824.655339944135
 20
9434.299000031321
 30
0.0
 11
7827.655339944134
 21
9434.299000031321
 31
0.0
  0
ARC
  5
28F1
102
{ACAD_REACTORS
330
2BF1
102
}
330
1F
100
AcDbEntity
  8
Visible (ISO)
100
AcDbCircle
 10
7824.655339944135
 20
9405.299000031321
 30
0.0
 40
2.99999999999997
100
AcDbArc
 50
270.0
 51
0.0
  0
LINE
  5
28F2
102
{ACAD_REACTORS
330
2BF1
102
}
330
1F
100
AcDbEntity
  8
Visible (ISO)
100
AcDbLine
 10
7374.655339944138
 20
9402.299000031323
 30
0.0
 11
7824.655339944135
 21
9402.299000031323
 31
0.0
  0
LINE
  5
28F3
102
{ACAD_REACTORS
330
2BF1
102
}
330
1F
100
AcDbEntity
  8
Visible (ISO)
100
AcDbLine
 10
7374.655339944138
 20
9434.299000031321
 30
0.0
 11
7824.655339944135
 21
9434.299000031321
 31
0.0
  0
ARC
  5
2964
102
{ACAD_REACTORS
330
2BF0
102
}
330
1F
100
AcDbEntity
  8
Visible (ISO)
100
AcDbCircle
 10
7394.918565852205
 20
6905.412719866951
 30
0.0
 40
3.0
100
AcDbArc
 50
90.0
 51
180.0
  0
ARC
  5
2965
102
{ACAD_REACTORS
330
2BF0
102
}
330
1F
100
AcDbEntity
  8
Visible (ISO)
100
AcDbCircle
 10
7841.918565852205
 20
6905.412719866955
 30
0.0
 40
3.0
100
AcDbArc
 50
0.0
 51
90.0
  0
LINE
  5
2966
102
{ACAD_REACTORS
330
2BF0
102
}
330
1F
100
AcDbEntity
  8
Visible (ISO)
100
AcDbLine
 10
7841.918565852205
 20
6908.412719866953
 30
0.0
 11
7394.918565852205
 21
6908.412719866952
 31
0.0
  0
LINE
  5
2967
102
{ACAD_REACTORS
330
2BF0
102
}
330
1F
100
AcDbEntity
  8
Visible (ISO)
100
AcDbLine
 10
7844.918565852205
 20
6757.412719866955
 30
0.0
 11
7844.918565852205
 21
6905.412719866955
 31
0.0
  0
ARC
  5
2968
102
{ACAD_REACTORS
330
2BF0
102
}
330
1F
100
AcDbEntity
  8
Visible (ISO)
100
AcDbCircle
 10
7841.918565852205
 20
6738.412719866956
 30
0.0
 40
2.999999999999982
100
AcDbArc
 50
270.0
 51
0.0
  0
LINE
  5
2969
102
{ACAD_REACTORS
330
2BF0
102
}
330
1F
100
AcDbEntity
  8
Visible (ISO)
100
AcDbLine
 10
7844.918565852205
 20
6757.412719866955
 30
0.0
 11
7844.918565852205
 21
6738.412719866956
 31
0.0
  0
ARC
  5
296A
102
{ACAD_REACTORS
330
2BF0
102
}
330
1F
100
AcDbEntity
  8
Visible (ISO)
100
AcDbCircle
 10
7394.918565852207
 20
6738.412719866952
 30
0.0
 40
3.0
100
AcDbArc
 50
180.0
 51
270.0
  0
LINE
  5
296B
102
{ACAD_REACTORS
330
2BF0
102
}
330
1F
100
AcDbEntity
  8
Visible (ISO)
100
AcDbLine
 10
7391.918565852208
 20
6738.412719866952
 30
0.0
 11
7391.918565852207
 21
6757.412719866952
 31
0.0
  0
LINE
  5
296C
102
{ACAD_REACTORS
330
2BF0
102
}
330
1F
100
AcDbEntity
  8
Visible (ISO)
100
AcDbLine
 10
7391.918565852205
 20
6905.412719866951
 30
0.0
 11
7391.918565852207
 21
6757.412719866952
 31
0.0
  0
LINE
  5
296D
102
{ACAD_REACTORS
330
2BF0
102
}
330
1F
100
AcDbEntity
  8
Visible (ISO)
100
AcDbLine
 10
7841.918565852205
 20
6735.412719866956
 30
0.0
 11
7394.918565852207
 21
6735.412719866952
 31
0.0
  0
ARC
  5
296E
102
{ACAD_REACTORS
330
2BF0
102
}
330
1F
100
AcDbEntity
  8
Visible (ISO)
100
AcDbCircle
 10
7875.418565852349
 20
6939.412719866961
 30
0.0
 40
3.00000000000097
100
AcDbArc
 50
0.0
 51
90.0
  0
LINE
  5
296F
102
{ACAD_REACTORS
330
2BF0
102
}
330
1F
100
AcDbEntity
  8
Visible (ISO)
100
AcDbLine
 10
7856.418565852344
 20
6942.412719866961
 30
0.0
 11
7875.418565852349
 21
6942.412719866961
 31
0.0
  0
LINE
  5
2970
102
{ACAD_REACTORS
330
2BF0
102
}
330
1F
100
AcDbEntity
  8
Visible (ISO)
100
AcDbLine
 10
7856.418565852344
 20
6942.412719866961
 30
0.0
 11
7380.41856585221
 21
6942.412719866964
 31
0.0
  0
ARC
  5
2971
102
{ACAD_REACTORS
330
2BF0
102
}
330
1F
100
AcDbEntity
  8
Visible (ISO)
100
AcDbCircle
 10
7361.418565852204
 20
6939.412719866964
 30
0.0
 40
3.000000000000857
100
AcDbArc
 50
90.0
 51
180.0
  0
LINE
  5
2972
102
{ACAD_REACTORS
330
2BF0
102
}
330
1F
100
AcDbEntity
  8
Visible (ISO)
100
AcDbLine
 10
7361.418565852204
 20
6942.412719866964
 30
0.0
 11
7380.41856585221
 21
6942.412719866964
 31
0.0
  0
ARC
  5
2973
102
{ACAD_REACTORS
330
2BF0
102
}
330
1F
100
AcDbEntity
  8
Visible (ISO)
100
AcDbCircle
 10
7875.418565852349
 20
6913.412719866954
 30
0.0
 40
3.000000000000865
100
AcDbArc
 50
270.0
 51
0.0
  0
LINE
  5
2974
102
{ACAD_REACTORS
330
2BF0
102
}
330
1F
100
AcDbEntity
  8
Visible (ISO)
100
AcDbLine
 10
7875.418565852349
 20
6910.412719866951
 30
0.0
 11
7856.418565852344
 21
6910.412719866951
 31
0.0
  0
LINE
  5
2975
102
{ACAD_REACTORS
330
2BF0
102
}
330
1F
100
AcDbEntity
  8
Visible (ISO)
100
AcDbLine
 10
7380.41856585221
 20
6910.412719866954
 30
0.0
 11
7856.418565852344
 21
6910.412719866951
 31
0.0
  0
ARC
  5
2976
102
{ACAD_REACTORS
330
2BF0
102
}
330
1F
100
AcDbEntity
  8
Visible (ISO)
100
AcDbCircle
 10
7361.418565852204
 20
6913.412719866954
 30
0.0
 40
3.00000000000097
100
AcDbArc
 50
180.0
 51
270.0
  0
LINE
  5
2977
102
{ACAD_REACTORS
330
2BF0
102
}
330
1F
100
AcDbEntity
  8
Visible (ISO)
100
AcDbLine
 10
7380.41856585221
 20
6910.412719866954
 30
0.0
 11
7361.418565852204
 21
6910.412719866954
 31
0.0
  0
LINE
  5
2978
102
{ACAD_REACTORS
330
2BF0
102
}
330
1F
100
AcDbEntity
  8
Visible (ISO)
100
AcDbLine
 10
7878.418565852349
 20
6939.412719866961
 30
0.0
 11
7878.418565852349
 21
6913.412719866954
 31
0.0
  0
LINE
  5
2979
102
{ACAD_REACTORS
330
2BF0
102
}
330
1F
100
AcDbEntity
  8
Visible (ISO)
100
AcDbLine
 10
7358.418565852204
 20
6939.412719866964
 30
0.0
 11
7358.418565852204
 21
6913.412719866954
 31
0.0
  0
LINE
  5
297A
102
{ACAD_REACTORS
330
2BF0
102
}
330
1F
100
AcDbEntity
  8
Visible (ISO)
100
AcDbLine
 10
7393.418565852228
 20
6735.412719866904
 30
0.0
 11
7394.918565852146
 21
6735.412719866904
 31
0.0
  0
LINE
  5
297B
102
{ACAD_REACTORS
330
2BF0
102
}
330
1F
100
AcDbEntity
  8
Visible (ISO)
100
AcDbLine
 10
7841.918565852267
 20
6735.412719866904
 30
0.0
 11
7843.418565852352
 21
6735.412719866904
 31
0.0
  0
ARC
  5
297C
102
{ACAD_REACTORS
330
2BF0
102
}
330
1F
100
AcDbEntity
  8
Visible (ISO)
100
AcDbCircle
 10
7843.418565852352
 20
6738.412719866904
 30
0.0
 40
3.000000000000848
100
AcDbArc
 50
270.0
 51
0.0
  0
ARC
  5
297D
102
{ACAD_REACTORS
330
2BF0
102
}
330
1F
100
AcDbEntity
  8
Visible (ISO)
100
AcDbCircle
 10
7393.418565852228
 20
6738.412719866906
 30
0.0
 40
3.000000000000848
100
AcDbArc
 50
180.0
 51
270.0
  0
ARC
  5
297E
102
{ACAD_REACTORS
330
2BF0
102
}
330
1F
100
AcDbEntity
  8
Visible (ISO)
100
AcDbCircle
 10
7387.418565852208
 20
6445.412719866824
 30
0.0
 40
3.000000000000834
100
AcDbArc
 50
270.0
 51
0.0
  0
ARC
  5
297F
102
{ACAD_REACTORS
330
2BF0
102
}
330
1F
100
AcDbEntity
  8
Visible (ISO)
100
AcDbCircle
 10
7361.418565852202
 20
6445.412719866824
 30
0.0
 40
3.000000000000833
100
AcDbArc
 50
180.0
 51
270.0
  0
LINE
  5
2980
102
{ACAD_REACTORS
330
2BF0
102
}
330
1F
100
AcDbEntity
  8
Visible (ISO)
100
AcDbLine
 10
7380.418565852206
 20
6442.412719866824
 30
0.0
 11
7361.418565852202
 21
6442.412719866824
 31
0.0
  0
LINE
  5
2981
102
{ACAD_REACTORS
330
2BF0
102
}
330
1F
100
AcDbEntity
  8
Visible (ISO)
100
AcDbLine
 10
7380.418565852207
 20
6442.412719866824
 30
0.0
 11
7387.418565852208
 21
6442.412719866824
 31
0.0
  0
LINE
  5
2982
102
{ACAD_REACTORS
330
2BF0
102
}
330
1F
100
AcDbEntity
  8
Visible (ISO)
100
AcDbLine
 10
7390.418565852209
 20
6445.412719866824
 30
0.0
 11
7390.418565852211
 21
6910.412719866954
 31
0.0
  0
LINE
  5
2983
102
{ACAD_REACTORS
330
2BF0
102
}
330
1F
100
AcDbEntity
  8
Visible (ISO)
100
AcDbLine
 10
7387.418565852211
 20
6907.412719866954
 30
0.0
 11
7390.418565852211
 21
6910.412719866954
 31
0.0
  0
ARC
  5
2984
102
{ACAD_REACTORS
330
2BF0
102
}
330
1F
100
AcDbEntity
  8
Visible (ISO)
100
AcDbCircle
 10
7361.418565852203
 20
6907.412719866954
 30
0.0
 40
3.000000000000832
100
AcDbArc
 50
90.0
 51
180.0
  0
LINE
  5
2985
102
{ACAD_REACTORS
330
2BF0
102
}
330
1F
100
AcDbEntity
  8
Visible (ISO)
100
AcDbLine
 10
7361.418565852203
 20
6910.412719866954
 30
0.0
 11
7380.418565852209
 21
6910.412719866954
 31
0.0
  0
LINE
  5
2986
102
{ACAD_REACTORS
330
2BF0
102
}
330
1F
100
AcDbEntity
  8
Visible (ISO)
100
AcDbLine
 10
7390.418565852211
 20
6910.412719866954
 30
0.0
 11
7380.418565852209
 21
6910.412719866954
 31
0.0
  0
LINE
  5
2987
102
{ACAD_REACTORS
330
2BF0
102
}
330
1F
100
AcDbEntity
  8
Visible (ISO)
100
AcDbLine
 10
7358.4185658522
 20
6445.412719866824
 30
0.0
 11
7358.418565852203
 21
6907.412719866954
 31
0.0
  0
ARC
  5
2988
102
{ACAD_REACTORS
330
2BF0
102
}
330
1F
100
AcDbEntity
  8
Visible (ISO)
100
AcDbCircle
 10
7849.41856585235
 20
6445.412719866952
 30
0.0
 40
2.999999999999998
100
AcDbArc
 50
180.0
 51
270.0
  0
LINE
  5
2989
102
{ACAD_REACTORS
330
2BF0
102
}
330
1F
100
AcDbEntity
  8
Visible (ISO)
100
AcDbLine
 10
7849.41856585235
 20
6442.412719866954
 30
0.0
 11
7856.418565852351
 21
6442.412719866954
 31
0.0
  0
ARC
  5
298A
102
{ACAD_REACTORS
330
2BF0
102
}
330
1F
100
AcDbEntity
  8
Visible (ISO)
100
AcDbCircle
 10
7875.418565852351
 20
6445.412719866952
 30
0.0
 40
2.999999999999998
100
AcDbArc
 50
270.0
 51
0.0
  0
LINE
  5
298B
102
{ACAD_REACTORS
330
2BF0
102
}
330
1F
100
AcDbEntity
  8
Visible (ISO)
100
AcDbLine
 10
7875.418565852351
 20
6442.412719866952
 30
0.0
 11
7856.418565852351
 21
6442.412719866954
 31
0.0
  0
LINE
  5
298C
102
{ACAD_REACTORS
330
2BF0
102
}
330
1F
100
AcDbEntity
  8
Visible (ISO)
100
AcDbLine
 10
7846.418565852353
 20
6910.412719866951
 30
0.0
 11
7846.418565852352
 21
6445.412719866952
 31
0.0
  0
LINE
  5
298D
102
{ACAD_REACTORS
330
2BF0
102
}
330
1F
100
AcDbEntity
  8
Visible (ISO)
100
AcDbLine
 10
7846.418565852353
 20
6910.412719866951
 30
0.0
 11
7849.418565852353
 21
6907.412719866953
 31
0.0
  0
LINE
  5
298E
102
{ACAD_REACTORS
330
2BF0
102
}
330
1F
100
AcDbEntity
  8
Visible (ISO)
100
AcDbLine
 10
7856.418565852353
 20
6910.412719866951
 30
0.0
 11
7846.418565852353
 21
6910.412719866951
 31
0.0
  0
ARC
  5
298F
102
{ACAD_REACTORS
330
2BF0
102
}
330
1F
100
AcDbEntity
  8
Visible (ISO)
100
AcDbCircle
 10
7875.418565852353
 20
6907.412719866953
 30
0.0
 40
2.999999999999973
100
AcDbArc
 50
0.0
 51
90.0
  0
LINE
  5
2990
102
{ACAD_REACTORS
330
2BF0
102
}
330
1F
100
AcDbEntity
  8
Visible (ISO)
100
AcDbLine
 10
7856.418565852353
 20
6910.412719866951
 30
0.0
 11
7875.418565852353
 21
6910.412719866951
 31
0.0
  0
LINE
  5
2991
102
{ACAD_REACTORS
330
2BF0
102
}
330
1F
100
AcDbEntity
  8
Visible (ISO)
100
AcDbLine
 10
7878.418565852351
 20
6445.412719866952
 30
0.0
 11
7878.418565852353
 21
6907.412719866953
 31
0.0
  0
LINE
  5
2992
102
{ACAD_REACTORS
330
2BF0
102
}
330
1F
100
AcDbEntity
  8
Visible (ISO)
100
AcDbLine
 10
7844.918565852205
 20
6801.087719866953
 30
0.0
 11
7846.418565852352
 21
6801.087719866953
 31
0.0
  0
ARC
  5
2993
102
{ACAD_REACTORS
330
2BF0
102
}
330
1F
100
AcDbEntity
  8
Visible (ISO)
100
AcDbCircle
 10
7841.618565852352
 20
6758.387719866954
 30
0.0
 40
4.799999999999923
100
AcDbArc
 50
313.4325365554628
 51
0.0
  0
LINE
  5
2994
102
{ACAD_REACTORS
330
2BF0
102
}
330
1F
100
AcDbEntity
  8
Visible (ISO)
100
AcDbLine
 10
7844.918565852205
 20
6765.587719866953
 30
0.0
 11
7846.418565852352
 21
6765.587719866953
 31
0.0
  0
LINE
  5
2995
102
{ACAD_REACTORS
330
2BF0
102
}
330
1F
100
AcDbEntity
  8
Visible (ISO)
100
AcDbLine
 10
7391.918565852205
 20
6801.087719866953
 30
0.0
 11
7390.418565852211
 21
6801.087719866953
 31
0.0
  0
ARC
  5
2996
102
{ACAD_REACTORS
330
2BF0
102
}
330
1F
100
AcDbEntity
  8
Visible (ISO)
100
AcDbCircle
 10
7395.218565852211
 20
6758.387719866954
 30
0.0
 40
4.799999999999917
100
AcDbArc
 50
180.0
 51
226.5674634421798
  0
LINE
  5
2997
102
{ACAD_REACTORS
330
2BF0
102
}
330
1F
100
AcDbEntity
  8
Visible (ISO)
100
AcDbLine
 10
7391.918565852207
 20
6765.587719866953
 30
0.0
 11
7390.418565852211
 21
6765.587719866953
 31
0.0
  0
LINE
  5
2998
102
{ACAD_REACTORS
330
2BF0
102
}
330
1F
100
AcDbEntity
  8
Visible (ISO)
100
AcDbLine
 10
7390.418565852211
 20
6878.412719866954
 30
0.0
 11
7391.918565852205
 21
6878.412719866954
 31
0.0
  0
LINE
  5
2999
102
{ACAD_REACTORS
330
2BF0
102
}
330
1F
100
AcDbEntity
  8
Visible (ISO)
100
AcDbLine
 10
7844.918565852205
 20
6878.412719866952
 30
0.0
 11
7846.41856585235
 21
6878.412719866952
 31
0.0
  0
ARC
  5
2A2D
102
{ACAD_REACTORS
330
2BF5
102
}
330
1F
100
AcDbEntity
  8
Visible (ISO)
100
AcDbCircle
 10
11906.10657917036
 20
9632.552487048206
 30
0.0
 40
3.000000000000935
100
AcDbArc
 50
0.0
 51
90.0
  0
LINE
  5
2A2E
102
{ACAD_REACTORS
330
2BF5
102
}
330
1F
100
AcDbEntity
  8
Visible (ISO)
100
AcDbLine
 10
11887.10657917035
 20
9635.552487048208
 30
0.0
 11
11906.10657917036
 21
9635.552487048208
 31
0.0
  0
LINE
  5
2A2F
102
{ACAD_REACTORS
330
2BF5
102
}
330
1F
100
AcDbEntity
  8
Visible (ISO)
100
AcDbLine
 10
11887.10657917035
 20
9635.552487048208
 30
0.0
 11
11511.10657917025
 21
9635.552487048208
 31
0.0
  0
ARC
  5
2A30
102
{ACAD_REACTORS
330
2BF5
102
}
330
1F
100
AcDbEntity
  8
Visible (ISO)
100
AcDbCircle
 10
11492.10657917024
 20
9632.552487048208
 30
0.0
 40
3.000000000000857
100
AcDbArc
 50
90.0
 51
180.0
  0
LINE
  5
2A31
102
{ACAD_REACTORS
330
2BF5
102
}
330
1F
100
AcDbEntity
  8
Visible (ISO)
100
AcDbLine
 10
11492.10657917024
 20
9635.552487048208
 30
0.0
 11
11511.10657917025
 21
9635.552487048208
 31
0.0
  0
ARC
  5
2A32
102
{ACAD_REACTORS
330
2BF5
102
}
330
1F
100
AcDbEntity
  8
Visible (ISO)
100
AcDbCircle
 10
11906.10657917036
 20
9606.552487048199
 30
0.0
 40
3.000000000000865
100
AcDbArc
 50
270.0
 51
0.0
  0
LINE
  5
2A33
102
{ACAD_REACTORS
330
2BF5
102
}
330
1F
100
AcDbEntity
  8
Visible (ISO)
100
AcDbLine
 10
11906.10657917036
 20
9603.552487048197
 30
0.0
 11
11887.10657917035
 21
9603.552487048197
 31
0.0
  0
LINE
  5
2A34
102
{ACAD_REACTORS
330
2BF5
102
}
330
1F
100
AcDbEntity
  8
Visible (ISO)
100
AcDbLine
 10
11511.10657917025
 20
9603.552487048201
 30
0.0
 11
11887.10657917035
 21
9603.552487048197
 31
0.0
  0
ARC
  5
2A35
102
{ACAD_REACTORS
330
2BF5
102
}
330
1F
100
AcDbEntity
  8
Visible (ISO)
100
AcDbCircle
 10
11492.10657917024
 20
9606.552487048201
 30
0.0
 40
3.000000000000935
100
AcDbArc
 50
180.0
 51
270.0
  0
LINE
  5
2A36
102
{ACAD_REACTORS
330
2BF5
102
}
330
1F
100
AcDbEntity
  8
Visible (ISO)
100
AcDbLine
 10
11511.10657917025
 20
9603.552487048201
 30
0.0
 11
11492.10657917024
 21
9603.552487048201
 31
0.0
  0
LINE
  5
2A37
102
{ACAD_REACTORS
330
2BF5
102
}
330
1F
100
AcDbEntity
  8
Visible (ISO)
100
AcDbLine
 10
11909.10657917036
 20
9632.552487048206
 30
0.0
 11
11909.10657917036
 21
9606.552487048199
 31
0.0
  0
LINE
  5
2A38
102
{ACAD_REACTORS
330
2BF5
102
}
330
1F
100
AcDbEntity
  8
Visible (ISO)
100
AcDbLine
 10
11489.10657917024
 20
9632.552487048208
 30
0.0
 11
11489.10657917024
 21
9606.552487048201
 31
0.0
  0
ARC
  5
2A39
102
{ACAD_REACTORS
330
2BF5
102
}
330
1F
100
AcDbEntity
  8
Visible (ISO)
100
AcDbCircle
 10
11518.10657917024
 20
9138.55248704807
 30
0.0
 40
3.000000000000833
100
AcDbArc
 50
270.0
 51
0.0
  0
ARC
  5
2A3A
102
{ACAD_REACTORS
330
2BF5
102
}
330
1F
100
AcDbEntity
  8
Visible (ISO)
100
AcDbCircle
 10
11492.10657917024
 20
9138.55248704807
 30
0.0
 40
3.000000000000833
100
AcDbArc
 50
180.0
 51
270.0
  0
LINE
  5
2A3B
102
{ACAD_REACTORS
330
2BF5
102
}
330
1F
100
AcDbEntity
  8
Visible (ISO)
100
AcDbLine
 10
11511.10657917024
 20
9135.552487048069
 30
0.0
 11
11492.10657917024
 21
9135.552487048069
 31
0.0
  0
LINE
  5
2A3C
102
{ACAD_REACTORS
330
2BF5
102
}
330
1F
100
AcDbEntity
  8
Visible (ISO)
100
AcDbLine
 10
11511.10657917024
 20
9135.552487048069
 30
0.0
 11
11518.10657917024
 21
9135.552487048069
 31
0.0
  0
LINE
  5
2A3D
102
{ACAD_REACTORS
330
2BF5
102
}
330
1F
100
AcDbEntity
  8
Visible (ISO)
100
AcDbLine
 10
11521.10657917025
 20
9138.55248704807
 30
0.0
 11
11521.10657917025
 21
9603.552487048201
 31
0.0
  0
LINE
  5
2A3E
102
{ACAD_REACTORS
330
2BF5
102
}
330
1F
100
AcDbEntity
  8
Visible (ISO)
100
AcDbLine
 10
11518.10657917025
 20
9600.552487048199
 30
0.0
 11
11521.10657917025
 21
9603.552487048201
 31
0.0
  0
ARC
  5
2A3F
102
{ACAD_REACTORS
330
2BF5
102
}
330
1F
100
AcDbEntity
  8
Visible (ISO)
100
AcDbCircle
 10
11492.10657917024
 20
9600.552487048199
 30
0.0
 40
3.000000000000836
100
AcDbArc
 50
90.0
 51
180.0
  0
LINE
  5
2A40
102
{ACAD_REACTORS
330
2BF5
102
}
330
1F
100
AcDbEntity
  8
Visible (ISO)
100
AcDbLine
 10
11492.10657917024
 20
9603.552487048201
 30
0.0
 11
11511.10657917025
 21
9603.552487048201
 31
0.0
  0
LINE
  5
2A41
102
{ACAD_REACTORS
330
2BF5
102
}
330
1F
100
AcDbEntity
  8
Visible (ISO)
100
AcDbLine
 10
11521.10657917025
 20
9603.552487048201
 30
0.0
 11
11511.10657917025
 21
9603.552487048201
 31
0.0
  0
LINE
  5
2A42
102
{ACAD_REACTORS
330
2BF5
102
}
330
1F
100
AcDbEntity
  8
Visible (ISO)
100
AcDbLine
 10
11489.10657917024
 20
9138.55248704807
 30
0.0
 11
11489.10657917024
 21
9600.552487048199
 31
0.0
  0
ARC
  5
2A43
102
{ACAD_REACTORS
330
2BF5
102
}
330
1F
100
AcDbEntity
  8
Visible (ISO)
100
AcDbCircle
 10
11880.10657917036
 20
9138.552487048199
 30
0.0
 40
2.999999999999998
100
AcDbArc
 50
180.0
 51
270.0
  0
LINE
  5
2A44
102
{ACAD_REACTORS
330
2BF5
102
}
330
1F
100
AcDbEntity
  8
Visible (ISO)
100
AcDbLine
 10
11880.10657917036
 20
9135.552487048199
 30
0.0
 11
11887.10657917036
 21
9135.552487048199
 31
0.0
  0
ARC
  5
2A45
102
{ACAD_REACTORS
330
2BF5
102
}
330
1F
100
AcDbEntity
  8
Visible (ISO)
100
AcDbCircle
 10
11906.10657917036
 20
9138.552487048199
 30
0.0
 40
2.999999999999998
100
AcDbArc
 50
270.0
 51
0.0
  0
LINE
  5
2A46
102
{ACAD_REACTORS
330
2BF5
102
}
330
1F
100
AcDbEntity
  8
Visible (ISO)
100
AcDbLine
 10
11906.10657917036
 20
9135.552487048199
 30
0.0
 11
11887.10657917036
 21
9135.552487048199
 31
0.0
  0
LINE
  5
2A47
102
{ACAD_REACTORS
330
2BF5
102
}
330
1F
100
AcDbEntity
  8
Visible (ISO)
100
AcDbLine
 10
11877.10657917036
 20
9603.552487048197
 30
0.0
 11
11877.10657917036
 21
9138.552487048199
 31
0.0
  0
LINE
  5
2A48
102
{ACAD_REACTORS
330
2BF5
102
}
330
1F
100
AcDbEntity
  8
Visible (ISO)
100
AcDbLine
 10
11877.10657917036
 20
9603.552487048197
 30
0.0
 11
11880.10657917036
 21
9600.552487048197
 31
0.0
  0
LINE
  5
2A49
102
{ACAD_REACTORS
330
2BF5
102
}
330
1F
100
AcDbEntity
  8
Visible (ISO)
100
AcDbLine
 10
11887.10657917036
 20
9603.552487048197
 30
0.0
 11
11877.10657917036
 21
9603.552487048197
 31
0.0
  0
ARC
  5
2A4A
102
{ACAD_REACTORS
330
2BF5
102
}
330
1F
100
AcDbEntity
  8
Visible (ISO)
100
AcDbCircle
 10
11906.10657917036
 20
9600.552487048197
 30
0.0
 40
2.999999999999973
100
AcDbArc
 50
0.0
 51
90.0
  0
LINE
  5
2A4B
102
{ACAD_REACTORS
330
2BF5
102
}
330
1F
100
AcDbEntity
  8
Visible (ISO)
100
AcDbLine
 10
11887.10657917036
 20
9603.552487048197
 30
0.0
 11
11906.10657917036
 21
9603.552487048197
 31
0.0
  0
LINE
  5
2A4C
102
{ACAD_REACTORS
330
2BF5
102
}
330
1F
100
AcDbEntity
  8
Visible (ISO)
100
AcDbLine
 10
11909.10657917036
 20
9138.552487048199
 30
0.0
 11
11909.10657917036
 21
9600.552487048197
 31
0.0
  0
ARC
  5
2A4D
102
{ACAD_REACTORS
330
2BF5
102
}
330
1F
100
AcDbEntity
  8
Visible (ISO)
100
AcDbCircle
 10
11524.10657917036
 20
9411.552487048144
 30
0.0
 40
2.999999999999973
100
AcDbArc
 50
180.0
 51
270.0
  0
LINE
  5
2A4E
102
{ACAD_REACTORS
330
2BF5
102
}
330
1F
100
AcDbEntity
  8
Visible (ISO)
100
AcDbLine
 10
11521.10657917036
 20
9440.552487048144
 30
0.0
 11
11524.10657917036
 21
9440.552487048144
 31
0.0
  0
LINE
  5
2A4F
102
{ACAD_REACTORS
330
2BF5
102
}
330
1F
100
AcDbEntity
  8
Visible (ISO)
100
AcDbLine
 10
11874.10657917036
 20
9440.552487048142
 30
0.0
 11
11877.10657917036
 21
9440.552487048142
 31
0.0
  0
ARC
  5
2A50
102
{ACAD_REACTORS
330
2BF5
102
}
330
1F
100
AcDbEntity
  8
Visible (ISO)
100
AcDbCircle
 10
11874.10657917036
 20
9411.552487048142
 30
0.0
 40
2.999999999999973
100
AcDbArc
 50
270.0
 51
0.0
  0
LINE
  5
2A51
102
{ACAD_REACTORS
330
2BF5
102
}
330
1F
100
AcDbEntity
  8
Visible (ISO)
100
AcDbLine
 10
11524.10657917036
 20
9408.552487048144
 30
0.0
 11
11874.10657917036
 21
9408.552487048142
 31
0.0
  0
LINE
  5
2A52
102
{ACAD_REACTORS
330
2BF5
102
}
330
1F
100
AcDbEntity
  8
Visible (ISO)
100
AcDbLine
 10
11524.10657917036
 20
9440.552487048144
 30
0.0
 11
11874.10657917036
 21
9440.552487048142
 31
0.0
  0
LINE
  5
2A53
102
{ACAD_REACTORS
330
2BF5
102
}
330
1F
100
AcDbEntity
  8
Visible (ISO)
100
AcDbLine
 10
11521.10657917025
 20
9571.552487048199
 30
0.0
 11
11877.10657917036
 21
9571.552487048197
 31
0.0
  0
ARC
  5
2ADF
102
{ACAD_REACTORS
330
2BF6
102
}
330
1F
100
AcDbEntity
  8
Visible (ISO)
100
AcDbCircle
 10
11633.00902353785
 20
6465.383599740158
 30
0.0
 40
3.000000000000833
100
AcDbArc
 50
270.0
 51
0.0
  0
ARC
  5
2AE0
102
{ACAD_REACTORS
330
2BF6
102
}
330
1F
100
AcDbEntity
  8
Visible (ISO)
100
AcDbCircle
 10
11607.00902353784
 20
6465.383599740158
 30
0.0
 40
3.000000000000833
100
AcDbArc
 50
180.0
 51
270.0
  0
LINE
  5
2AE1
102
{ACAD_REACTORS
330
2BF6
102
}
330
1F
100
AcDbEntity
  8
Visible (ISO)
100
AcDbLine
 10
11626.00902353785
 20
6462.383599740158
 30
0.0
 11
11607.00902353784
 21
6462.383599740158
 31
0.0
  0
LINE
  5
2AE2
102
{ACAD_REACTORS
330
2BF6
102
}
330
1F
100
AcDbEntity
  8
Visible (ISO)
100
AcDbLine
 10
11626.00902353785
 20
6462.383599740158
 30
0.0
 11
11633.00902353785
 21
6462.383599740158
 31
0.0
  0
LINE
  5
2AE3
102
{ACAD_REACTORS
330
2BF6
102
}
330
1F
100
AcDbEntity
  8
Visible (ISO)
100
AcDbLine
 10
11636.00902353785
 20
6465.383599740158
 30
0.0
 11
11636.00902353785
 21
6930.38359974029
 31
0.0
  0
LINE
  5
2AE4
102
{ACAD_REACTORS
330
2BF6
102
}
330
1F
100
AcDbEntity
  8
Visible (ISO)
100
AcDbLine
 10
11633.00902353785
 20
6927.383599740288
 30
0.0
 11
11636.00902353785
 21
6930.38359974029
 31
0.0
  0
ARC
  5
2AE5
102
{ACAD_REACTORS
330
2BF6
102
}
330
1F
100
AcDbEntity
  8
Visible (ISO)
100
AcDbCircle
 10
11607.00902353784
 20
6927.383599740288
 30
0.0
 40
3.000000000000836
100
AcDbArc
 50
90.0
 51
180.0
  0
LINE
  5
2AE6
102
{ACAD_REACTORS
330
2BF6
102
}
330
1F
100
AcDbEntity
  8
Visible (ISO)
100
AcDbLine
 10
11607.00902353784
 20
6930.38359974029
 30
0.0
 11
11626.00902353785
 21
6930.38359974029
 31
0.0
  0
LINE
  5
2AE7
102
{ACAD_REACTORS
330
2BF6
102
}
330
1F
100
AcDbEntity
  8
Visible (ISO)
100
AcDbLine
 10
11636.00902353785
 20
6930.38359974029
 30
0.0
 11
11626.00902353785
 21
6930.38359974029
 31
0.0
  0
LINE
  5
2AE8
102
{ACAD_REACTORS
330
2BF6
102
}
330
1F
100
AcDbEntity
  8
Visible (ISO)
100
AcDbLine
 10
11604.00902353784
 20
6465.383599740158
 30
0.0
 11
11604.00902353784
 21
6927.383599740288
 31
0.0
  0
ARC
  5
2AE9
102
{ACAD_REACTORS
330
2BF6
102
}
330
1F
100
AcDbEntity
  8
Visible (ISO)
100
AcDbCircle
 10
11640.50902353785
 20
6925.383599740285
 30
0.0
 40
3.0
100
AcDbArc
 50
90.0
 51
180.0
  0
ARC
  5
2AEA
102
{ACAD_REACTORS
330
2BF6
102
}
330
1F
100
AcDbEntity
  8
Visible (ISO)
100
AcDbCircle
 10
11987.50902353785
 20
6925.38359974029
 30
0.0
 40
3.0
100
AcDbArc
 50
0.0
 51
90.0
  0
LINE
  5
2AEB
102
{ACAD_REACTORS
330
2BF6
102
}
330
1F
100
AcDbEntity
  8
Visible (ISO)
100
AcDbLine
 10
11987.50902353785
 20
6928.383599740289
 30
0.0
 11
11640.50902353785
 21
6928.383599740286
 31
0.0
  0
LINE
  5
2AEC
102
{ACAD_REACTORS
330
2BF6
102
}
330
1F
100
AcDbEntity
  8
Visible (ISO)
100
AcDbLine
 10
11990.50902353785
 20
6777.383599740289
 30
0.0
 11
11990.50902353784
 21
6925.38359974029
 31
0.0
  0
ARC
  5
2AED
102
{ACAD_REACTORS
330
2BF6
102
}
330
1F
100
AcDbEntity
  8
Visible (ISO)
100
AcDbCircle
 10
11987.50902353785
 20
6758.38359974029
 30
0.0
 40
2.999999999999982
100
AcDbArc
 50
270.0
 51
0.0
  0
LINE
  5
2AEE
102
{ACAD_REACTORS
330
2BF6
102
}
330
1F
100
AcDbEntity
  8
Visible (ISO)
100
AcDbLine
 10
11990.50902353785
 20
6777.383599740289
 30
0.0
 11
11990.50902353785
 21
6758.38359974029
 31
0.0
  0
ARC
  5
2AEF
102
{ACAD_REACTORS
330
2BF6
102
}
330
1F
100
AcDbEntity
  8
Visible (ISO)
100
AcDbCircle
 10
11640.50902353785
 20
6758.383599740287
 30
0.0
 40
3.0
100
AcDbArc
 50
180.0
 51
270.0
  0
LINE
  5
2AF0
102
{ACAD_REACTORS
330
2BF6
102
}
330
1F
100
AcDbEntity
  8
Visible (ISO)
100
AcDbLine
 10
11637.50902353785
 20
6758.383599740287
 30
0.0
 11
11637.50902353785
 21
6777.383599740287
 31
0.0
  0
LINE
  5
2AF1
102
{ACAD_REACTORS
330
2BF6
102
}
330
1F
100
AcDbEntity
  8
Visible (ISO)
100
AcDbLine
 10
11637.50902353785
 20
6925.383599740285
 30
0.0
 11
11637.50902353785
 21
6777.383599740287
 31
0.0
  0
LINE
  5
2AF2
102
{ACAD_REACTORS
330
2BF6
102
}
330
1F
100
AcDbEntity
  8
Visible (ISO)
100
AcDbLine
 10
11987.50902353785
 20
6755.38359974029
 30
0.0
 11
11640.50902353785
 21
6755.383599740287
 31
0.0
  0
ARC
  5
2AF3
102
{ACAD_REACTORS
330
2BF6
102
}
330
1F
100
AcDbEntity
  8
Visible (ISO)
100
AcDbCircle
 10
12021.00902353796
 20
6959.383599740296
 30
0.0
 40
3.000000000000935
100
AcDbArc
 50
0.0
 51
90.0
  0
LINE
  5
2AF4
102
{ACAD_REACTORS
330
2BF6
102
}
330
1F
100
AcDbEntity
  8
Visible (ISO)
100
AcDbLine
 10
12002.00902353796
 20
6962.383599740296
 30
0.0
 11
12021.00902353796
 21
6962.383599740296
 31
0.0
  0
LINE
  5
2AF5
102
{ACAD_REACTORS
330
2BF6
102
}
330
1F
100
AcDbEntity
  8
Visible (ISO)
100
AcDbLine
 10
12002.00902353796
 20
6962.383599740296
 30
0.0
 11
11626.00902353785
 21
6962.383599740296
 31
0.0
  0
ARC
  5
2AF6
102
{ACAD_REACTORS
330
2BF6
102
}
330
1F
100
AcDbEntity
  8
Visible (ISO)
100
AcDbCircle
 10
11607.00902353784
 20
6959.383599740296
 30
0.0
 40
3.000000000000857
100
AcDbArc
 50
90.0
 51
180.0
  0
LINE
  5
2AF7
102
{ACAD_REACTORS
330
2BF6
102
}
330
1F
100
AcDbEntity
  8
Visible (ISO)
100
AcDbLine
 10
11607.00902353784
 20
6962.383599740296
 30
0.0
 11
11626.00902353785
 21
6962.383599740296
 31
0.0
  0
ARC
  5
2AF8
102
{ACAD_REACTORS
330
2BF6
102
}
330
1F
100
AcDbEntity
  8
Visible (ISO)
100
AcDbCircle
 10
12021.00902353796
 20
6933.383599740287
 30
0.0
 40
3.000000000000865
100
AcDbArc
 50
270.0
 51
0.0
  0
LINE
  5
2AF9
102
{ACAD_REACTORS
330
2BF6
102
}
330
1F
100
AcDbEntity
  8
Visible (ISO)
100
AcDbLine
 10
12021.00902353796
 20
6930.383599740285
 30
0.0
 11
12002.00902353796
 21
6930.383599740285
 31
0.0
  0
LINE
  5
2AFA
102
{ACAD_REACTORS
330
2BF6
102
}
330
1F
100
AcDbEntity
  8
Visible (ISO)
100
AcDbLine
 10
11626.00902353785
 20
6930.38359974029
 30
0.0
 11
12002.00902353796
 21
6930.383599740285
 31
0.0
  0
ARC
  5
2AFB
102
{ACAD_REACTORS
330
2BF6
102
}
330
1F
100
AcDbEntity
  8
Visible (ISO)
100
AcDbCircle
 10
11607.00902353784
 20
6933.38359974029
 30
0.0
 40
3.000000000000935
100
AcDbArc
 50
180.0
 51
270.0
  0
LINE
  5
2AFC
102
{ACAD_REACTORS
330
2BF6
102
}
330
1F
100
AcDbEntity
  8
Visible (ISO)
100
AcDbLine
 10
11626.00902353785
 20
6930.38359974029
 30
0.0
 11
11607.00902353784
 21
6930.38359974029
 31
0.0
  0
LINE
  5
2AFD
102
{ACAD_REACTORS
330
2BF6
102
}
330
1F
100
AcDbEntity
  8
Visible (ISO)
100
AcDbLine
 10
12024.00902353796
 20
6959.383599740296
 30
0.0
 11
12024.00902353796
 21
6933.383599740287
 31
0.0
  0
LINE
  5
2AFE
102
{ACAD_REACTORS
330
2BF6
102
}
330
1F
100
AcDbEntity
  8
Visible (ISO)
100
AcDbLine
 10
11604.00902353784
 20
6959.383599740296
 30
0.0
 11
11604.00902353784
 21
6933.38359974029
 31
0.0
  0
LINE
  5
2AFF
102
{ACAD_REACTORS
330
2BF6
102
}
330
1F
100
AcDbEntity
  8
Visible (ISO)
100
AcDbLine
 10
11637.50902353785
 20
6821.058599740289
 30
0.0
 11
11636.00902353785
 21
6821.058599740289
 31
0.0
  0
ARC
  5
2B00
102
{ACAD_REACTORS
330
2BF6
102
}
330
1F
100
AcDbEntity
  8
Visible (ISO)
100
AcDbCircle
 10
11640.80902353785
 20
6778.35859974029
 30
0.0
 40
4.799999999999831
100
AcDbArc
 50
180.0
 51
226.5674634421977
  0
LINE
  5
2B01
102
{ACAD_REACTORS
330
2BF6
102
}
330
1F
100
AcDbEntity
  8
Visible (ISO)
100
AcDbLine
 10
11637.50902353785
 20
6785.558599740288
 30
0.0
 11
11636.00902353785
 21
6785.558599740288
 31
0.0
  0
LINE
  5
2B02
102
{ACAD_REACTORS
330
2BF6
102
}
330
1F
100
AcDbEntity
  8
Visible (ISO)
100
AcDbLine
 10
11990.50902353785
 20
6821.058599740289
 30
0.0
 11
11992.00902353796
 21
6821.058599740289
 31
0.0
  0
ARC
  5
2B03
102
{ACAD_REACTORS
330
2BF6
102
}
330
1F
100
AcDbEntity
  8
Visible (ISO)
100
AcDbCircle
 10
11987.20902353796
 20
6778.358599740288
 30
0.0
 40
4.79999999999994
100
AcDbArc
 50
313.4325365559407
 51
0.0
  0
LINE
  5
2B04
102
{ACAD_REACTORS
330
2BF6
102
}
330
1F
100
AcDbEntity
  8
Visible (ISO)
100
AcDbLine
 10
11990.50902353785
 20
6785.558599740288
 30
0.0
 11
11992.00902353796
 21
6785.558599740288
 31
0.0
  0
ARC
  5
2B05
102
{ACAD_REACTORS
330
2BF6
102
}
330
1F
100
AcDbEntity
  8
Visible (ISO)
100
AcDbCircle
 10
11995.00902353796
 20
6465.383599740288
 30
0.0
 40
2.999999999999998
100
AcDbArc
 50
180.0
 51
270.0
  0
LINE
  5
2B06
102
{ACAD_REACTORS
330
2BF6
102
}
330
1F
100
AcDbEntity
  8
Visible (ISO)
100
AcDbLine
 10
11995.00902353796
 20
6462.383599740288
 30
0.0
 11
12002.00902353796
 21
6462.383599740288
 31
0.0
  0
ARC
  5
2B07
102
{ACAD_REACTORS
330
2BF6
102
}
330
1F
100
AcDbEntity
  8
Visible (ISO)
100
AcDbCircle
 10
12021.00902353796
 20
6465.383599740288
 30
0.0
 40
2.999999999999998
100
AcDbArc
 50
270.0
 51
0.0
  0
LINE
  5
2B08
102
{ACAD_REACTORS
330
2BF6
102
}
330
1F
100
AcDbEntity
  8
Visible (ISO)
100
AcDbLine
 10
12021.00902353796
 20
6462.383599740288
 30
0.0
 11
12002.00902353796
 21
6462.383599740288
 31
0.0
  0
LINE
  5
2B09
102
{ACAD_REACTORS
330
2BF6
102
}
330
1F
100
AcDbEntity
  8
Visible (ISO)
100
AcDbLine
 10
11992.00902353796
 20
6930.383599740285
 30
0.0
 11
11992.00902353796
 21
6465.383599740288
 31
0.0
  0
LINE
  5
2B0A
102
{ACAD_REACTORS
330
2BF6
102
}
330
1F
100
AcDbEntity
  8
Visible (ISO)
100
AcDbLine
 10
11992.00902353796
 20
6930.383599740285
 30
0.0
 11
11995.00902353796
 21
6927.383599740285
 31
0.0
  0
LINE
  5
2B0B
102
{ACAD_REACTORS
330
2BF6
102
}
330
1F
100
AcDbEntity
  8
Visible (ISO)
100
AcDbLine
 10
12002.00902353796
 20
6930.383599740285
 30
0.0
 11
11992.00902353796
 21
6930.383599740285
 31
0.0
  0
ARC
  5
2B0C
102
{ACAD_REACTORS
330
2BF6
102
}
330
1F
100
AcDbEntity
  8
Visible (ISO)
100
AcDbCircle
 10
12021.00902353796
 20
6927.383599740285
 30
0.0
 40
2.999999999999973
100
AcDbArc
 50
0.0
 51
90.0
  0
LINE
  5
2B0D
102
{ACAD_REACTORS
330
2BF6
102
}
330
1F
100
AcDbEntity
  8
Visible (ISO)
100
AcDbLine
 10
12002.00902353796
 20
6930.383599740285
 30
0.0
 11
12021.00902353796
 21
6930.383599740285
 31
0.0
  0
LINE
  5
2B0E
102
{ACAD_REACTORS
330
2BF6
102
}
330
1F
100
AcDbEntity
  8
Visible (ISO)
100
AcDbLine
 10
12024.00902353796
 20
6465.383599740288
 30
0.0
 11
12024.00902353796
 21
6927.383599740285
 31
0.0
  0
LINE
  5
2B0F
102
{ACAD_REACTORS
330
2BF6
102
}
330
1F
100
AcDbEntity
  8
Visible (ISO)
100
AcDbLine
 10
11636.00902353785
 20
6898.383599740289
 30
0.0
 11
11637.50902353785
 21
6898.383599740289
 31
0.0
  0
LINE
  5
2B10
102
{ACAD_REACTORS
330
2BF6
102
}
330
1F
100
AcDbEntity
  8
Visible (ISO)
100
AcDbLine
 10
11990.50902353785
 20
6898.383599740286
 30
0.0
 11
11992.00902353796
 21
6898.383599740286
 31
0.0
  0
LINE
  5
2B11
102
{ACAD_REACTORS
330
2BF6
102
}
330
1F
100
AcDbEntity
  8
Visible (ISO)
100
AcDbLine
 10
11639.00902353786
 20
6755.383599740238
 30
0.0
 11
11640.5090235378
 21
6755.383599740238
 31
0.0
  0
LINE
  5
2B12
102
{ACAD_REACTORS
330
2BF6
102
}
330
1F
100
AcDbEntity
  8
Visible (ISO)
100
AcDbLine
 10
11987.50902353789
 20
6755.383599740238
 30
0.0
 11
11989.00902353796
 21
6755.383599740238
 31
0.0
  0
ARC
  5
2B13
102
{ACAD_REACTORS
330
2BF6
102
}
330
1F
100
AcDbEntity
  8
Visible (ISO)
100
AcDbCircle
 10
11989.00902353796
 20
6758.383599740239
 30
0.0
 40
3.000000000000848
100
AcDbArc
 50
270.0
 51
0.0
  0
ARC
  5
2B14
102
{ACAD_REACTORS
330
2BF6
102
}
330
1F
100
AcDbEntity
  8
Visible (ISO)
100
AcDbCircle
 10
11639.00902353786
 20
6758.38359974024
 30
0.0
 40
3.000000000000848
100
AcDbArc
 50
180.0
 51
270.0
  0
ARC
  5
2B80
102
{ACAD_REACTORS
330
2BF3
102
}
330
1F
100
AcDbEntity
  8
Visible (ISO)
100
AcDbCircle
 10
7858.188896913126
 20
7286.79388290794
 30
0.0
 40
22.00000000001205
100
AcDbArc
 50
270.0
 51
0.0
  0
LINE
  5
2B81
102
{ACAD_REACTORS
330
2BF3
102
}
330
1F
100
AcDbEntity
  8
Visible (ISO)
100
AcDbLine
 10
7382.188896912992
 20
7264.793882907928
 30
0.0
 11
7858.188896913126
 21
7264.793882907928
 31
0.0
  0
ARC
  5
2B82
102
{ACAD_REACTORS
330
2BF3
102
}
330
1F
100
AcDbEntity
  8
Visible (ISO)
100
AcDbCircle
 10
7382.188896912992
 20
7286.79388290794
 30
0.0
 40
22.00000000001205
100
AcDbArc
 50
180.0
 51
270.0
  0
LINE
  5
2B83
102
{ACAD_REACTORS
330
2BF3
102
}
330
1F
100
AcDbEntity
  8
Visible (ISO)
100
AcDbLine
 10
7360.188896912984
 20
7672.793882908152
 30
0.0
 11
7360.188896912984
 21
7286.79388290794
 31
0.0
  0
ARC
  5
2B84
102
{ACAD_REACTORS
330
2BF3
102
}
330
1F
100
AcDbEntity
  8
Visible (ISO)
100
AcDbCircle
 10
7382.188896912992
 20
7672.793882908152
 30
0.0
 40
22.00000000001205
100
AcDbArc
 50
90.0
 51
180.0
  0
LINE
  5
2B85
102
{ACAD_REACTORS
330
2BF3
102
}
330
1F
100
AcDbEntity
  8
Visible (ISO)
100
AcDbLine
 10
7858.188896913126
 20
7694.793882908164
 30
0.0
 11
7382.188896912992
 21
7694.793882908165
 31
0.0
  0
ARC
  5
2B86
102
{ACAD_REACTORS
330
2BF3
102
}
330
1F
100
AcDbEntity
  8
Visible (ISO)
100
AcDbCircle
 10
7858.188896913126
 20
7672.793882908151
 30
0.0
 40
22.00000000001205
100
AcDbArc
 50
0.0
 51
90.0
  0
LINE
  5
2B87
102
{ACAD_REACTORS
330
2BF3
102
}
330
1F
100
AcDbEntity
  8
Visible (ISO)
100
AcDbLine
 10
7880.188896913131
 20
7286.79388290794
 30
0.0
 11
7880.188896913132
 21
7672.793882908151
 31
0.0
  0
ARC
  5
2B96
102
{ACAD_REACTORS
330
2BF2
102
}
330
1F
100
AcDbEntity
  8
Visible (ISO)
100
AcDbCircle
 10
7831.273294396474
 20
9874.044562476793
 30
0.0
 40
22.00000000001205
100
AcDbArc
 50
270.0
 51
0.0
  0
LINE
  5
2B97
102
{ACAD_REACTORS
330
2BF2
102
}
330
1F
100
AcDbEntity
  8
Visible (ISO)
100
AcDbLine
 10
7355.27329439634
 20
9852.04456247678
 30
0.0
 11
7831.273294396474
 21
9852.04456247678
 31
0.0
  0
ARC
  5
2B98
102
{ACAD_REACTORS
330
2BF2
102
}
330
1F
100
AcDbEntity
  8
Visible (ISO)
100
AcDbCircle
 10
7355.27329439634
 20
9874.044562476793
 30
0.0
 40
22.00000000001205
100
AcDbArc
 50
180.0
 51
270.0
  0
LINE
  5
2B99
102
{ACAD_REACTORS
330
2BF2
102
}
330
1F
100
AcDbEntity
  8
Visible (ISO)
100
AcDbLine
 10
7333.273294396335
 20
10260.044562477
 30
0.0
 11
7333.273294396335
 21
9874.044562476793
 31
0.0
  0
ARC
  5
2B9A
102
{ACAD_REACTORS
330
2BF2
102
}
330
1F
100
AcDbEntity
  8
Visible (ISO)
100
AcDbCircle
 10
7355.27329439634
 20
10260.044562477
 30
0.0
 40
22.00000000001205
100
AcDbArc
 50
90.0
 51
180.0
  0
LINE
  5
2B9B
102
{ACAD_REACTORS
330
2BF2
102
}
330
1F
100
AcDbEntity
  8
Visible (ISO)
100
AcDbLine
 10
7831.273294396474
 20
10282.04456247701
 30
0.0
 11
7355.27329439634
 21
10282.04456247701
 31
0.0
  0
ARC
  5
2B9C
102
{ACAD_REACTORS
330
2BF2
102
}
330
1F
100
AcDbEntity
  8
Visible (ISO)
100
AcDbCircle
 10
7831.273294396474
 20
10260.044562477
 30
0.0
 40
22.00000000001205
100
AcDbArc
 50
0.0
 51
90.0
  0
LINE
  5
2B9D
102
{ACAD_REACTORS
330
2BF2
102
}
330
1F
100
AcDbEntity
  8
Visible (ISO)
100
AcDbLine
 10
7853.273294396482
 20
9874.044562476793
 30
0.0
 11
7853.273294396482
 21
10260.044562477
 31
0.0
  0
ARC
  5
2BBA
102
{ACAD_REACTORS
330
2BF4
102
}
330
1F
100
AcDbEntity
  8
Visible (ISO)
100
AcDbCircle
 10
11878.71984081178
 20
9865.676214945757
 30
0.0
 40
22.00000000001204
100
AcDbArc
 50
270.0
 51
0.0
  0
LINE
  5
2BBB
102
{ACAD_REACTORS
330
2BF4
102
}
330
1F
100
AcDbEntity
  8
Visible (ISO)
100
AcDbLine
 10
11502.71984081167
 20
9843.676214945743
 30
0.0
 11
11878.71984081178
 21
9843.676214945743
 31
0.0
  0
ARC
  5
2BBC
102
{ACAD_REACTORS
330
2BF4
102
}
330
1F
100
AcDbEntity
  8
Visible (ISO)
100
AcDbCircle
 10
11502.71984081167
 20
9865.676214945757
 30
0.0
 40
22.00000000001205
100
AcDbArc
 50
180.0
 51
270.0
  0
LINE
  5
2BBD
102
{ACAD_REACTORS
330
2BF4
102
}
330
1F
100
AcDbEntity
  8
Visible (ISO)
100
AcDbLine
 10
11480.71984081167
 20
10191.67621494593
 30
0.0
 11
11480.71984081167
 21
9865.676214945757
 31
0.0
  0
ARC
  5
2BBE
102
{ACAD_REACTORS
330
2BF4
102
}
330
1F
100
AcDbEntity
  8
Visible (ISO)
100
AcDbCircle
 10
11502.71984081167
 20
10191.67621494593
 30
0.0
 40
22.00000000001204
100
AcDbArc
 50
90.0
 51
180.0
  0
LINE
  5
2BBF
102
{ACAD_REACTORS
330
2BF4
102
}
330
1F
100
AcDbEntity
  8
Visible (ISO)
100
AcDbLine
 10
11878.71984081178
 20
10213.67621494594
 30
0.0
 11
11502.71984081167
 21
10213.67621494594
 31
0.0
  0
ARC
  5
2BC0
102
{ACAD_REACTORS
330
2BF4
102
}
330
1F
100
AcDbEntity
  8
Visible (ISO)
100
AcDbCircle
 10
11878.71984081178
 20
10191.67621494593
 30
0.0
 40
22.00000000001205
100
AcDbArc
 50
0.0
 51
90.0
  0
LINE
  5
2BC1
102
{ACAD_REACTORS
330
2BF4
102
}
330
1F
100
AcDbEntity
  8
Visible (ISO)
100
AcDbLine
 10
11900.71984081178
 20
9865.676214945757
 30
0.0
 11
11900.71984081178
 21
10191.67621494593
 31
0.0
  0
ARC
  5
2BE8
102
{ACAD_REACTORS
330
2BF7
102
}
330
1F
100
AcDbEntity
  8
Visible (ISO)
100
AcDbCircle
 10
11992.73303669856
 20
7193.233031821501
 30
0.0
 40
22.00000000001204
100
AcDbArc
 50
270.0
 51
0.0
  0
LINE
  5
2BE9
102
{ACAD_REACTORS
330
2BF7
102
}
330
1F
100
AcDbEntity
  8
Visible (ISO)
100
AcDbLine
 10
11616.73303669845
 20
7171.233031821488
 30
0.0
 11
11992.73303669856
 21
7171.233031821488
 31
0.0
  0
ARC
  5
2BEA
102
{ACAD_REACTORS
330
2BF7
102
}
330
1F
100
AcDbEntity
  8
Visible (ISO)
100
AcDbCircle
 10
11616.73303669845
 20
7193.233031821501
 30
0.0
 40
22.00000000001205
100
AcDbArc
 50
180.0
 51
270.0
  0
LINE
  5
2BEB
102
{ACAD_REACTORS
330
2BF7
102
}
330
1F
100
AcDbEntity
  8
Visible (ISO)
100
AcDbLine
 10
11594.73303669845
 20
7519.233031821679
 30
0.0
 11
11594.73303669845
 21
7193.233031821501
 31
0.0
  0
ARC
  5
2BEC
102
{ACAD_REACTORS
330
2BF7
102
}
330
1F
100
AcDbEntity
  8
Visible (ISO)
100
AcDbCircle
 10
11616.73303669845
 20
7519.233031821679
 30
0.0
 40
22.00000000001204
100
AcDbArc
 50
90.0
 51
180.0
  0
LINE
  5
2BED
102
{ACAD_REACTORS
330
2BF7
102
}
330
1F
100
AcDbEntity
  8
Visible (ISO)
100
AcDbLine
 10
11992.73303669856
 20
7541.23303182169
 30
0.0
 11
11616.73303669845
 21
7541.233031821692
 31
0.0
  0
ARC
  5
2BEE
102
{ACAD_REACTORS
330
2BF7
102
}
330
1F
100
AcDbEntity
  8
Visible (ISO)
100
AcDbCircle
 10
11992.73303669856
 20
7519.233031821679
 30
0.0
 40
22.00000000001205
100
AcDbArc
 50
0.0
 51
90.0
  0
LINE
  5
2BEF
102
{ACAD_REACTORS
330
2BF7
102
}
330
1F
100
AcDbEntity
  8
Visible (ISO)
100
AcDbLine
 10
12014.73303669857
 20
7193.233031821501
 30
0.0
 11
12014.73303669857
 21
7519.233031821679
 31
0.0
  0
TEXT
  5
2BFF
330
1F
100
AcDbEntity
  8
LINE
100
AcDbText
 10
7421.345688883026
 20
10460.67118561591
 30
0.0
 40
192.6907499518273
  1
52
 41
1.000399999999999
100
AcDbText
  0
TEXT
  5
2C07
330
1F
100
AcDbEntity
  8
LINE
100
AcDbText
 10
7467.105150000309
 20
7813.170776164068
 30
0.0
 40
192.6907499518273
  1
52
 41
1.000399999999999
100
AcDbText
  0
TEXT
  5
2C0F
330
1F
100
AcDbEntity
  8
LINE
100
AcDbText
 10
11648.19839130211
 20
7708.440782759055
 30
0.0
 40
192.6907499518273
  1
42
 41
1.000399999999999
100
AcDbText
  0
TEXT
  5
2C17
330
1F
100
AcDbEntity
  8
LINE
100
AcDbText
 10
6768.073579564341
 20
6694.535111886415
 30
0.0
 40
192.6907499518273
  1
50
 41
1.000399999999999
100
AcDbText
  0
TEXT
  5
2C1F
330
1F
100
AcDbEntity
  8
LINE
100
AcDbText
 10
6774.921151323113
 20
9302.286152801254
 30
0.0
 40
192.6907499518273
  1
50
 41
1.000399999999999
100
AcDbText
  0
TEXT
  5
2C27
330
1F
100
AcDbEntity
  8
LINE
100
AcDbText
 10
10958.79032405052
 20
9274.908165307188
 30
0.0
 40
192.6907499518273
  1
50
 41
1.000399999999999
100
AcDbText
  0
TEXT
  5
2C2F
330
1F
100
AcDbEntity
  8
LINE
100
AcDbText
 10
11082.04670140895
 20
6585.023254007402
 30
0.0
 40
192.6907499518273
  1
50
 41
1.000399999999999
100
AcDbText
  0
TEXT
  5
2C37
330
1F
100
AcDbEntity
  8
LINE
100
AcDbText
 10
6766.138714824265
 20
10007.74138687413
 30
0.0
 40
192.6907499518273
  1
43
 41
1.000399999999999
100
AcDbText
  0
TEXT
  5
2C3F
330
1F
100
AcDbEntity
  8
LINE
100
AcDbText
 10
6798.099420275787
 20
7368.249957731229
 30
0.0
 40
192.6907499518273
  1
43
 41
1.000399999999999
100
AcDbText
  0
TEXT
  5
2C47
330
1F
100
AcDbEntity
  8
LINE
100
AcDbText
 10
11074.5364918254
 20
7258.647153792121
 30
0.0
 40
192.6907499518273
  1
37
 41
1.000399999999999
100
AcDbText
  0
TEXT
  5
2C4F
330
1F
100
AcDbEntity
  8
LINE
100
AcDbText
 10
10972.1944279854
 20
9932.956067231597
 30
0.0
 40
192.6907499518273
  1
37
 41
1.000399999999999
100
AcDbText
  0
ENDSEC
  0
SECTION
  2
OBJECTS
  0
DICTIONARY
  5
C
330
0
100
AcDbDictionary
281
     1
  3
ACAD_CIP_PREVIOUS_PRODUCT_INFO
350
1A5
  3
ACAD_COLOR
350
73
  3
ACAD_DETAILVIEWSTYLE
350
1AB
  3
ACAD_GROUP
350
D
  3
ACAD_LAYOUT
350
1A
  3
ACAD_MATERIAL
350
72
  3
ACAD_MLEADERSTYLE
350
D7
  3
ACAD_MLINESTYLE
350
17
  3
ACAD_PLOTSETTINGS
350
19
  3
ACAD_PLOTSTYLENAME
350
E
  3
ACAD_SCALELIST
350
B6
  3
ACAD_SECTIONVIEWSTYLE
350
1A8
  3
ACAD_TABLESTYLE
350
86
  3
ACAD_VISUALSTYLE
350
99
  3
ACDB_RECOMPOSE_DATA
350
2C6C
  3
AcDbVariableDictionary
350
66
  0
DICTIONARY
  5
18E
330
2
100
AcDbDictionary
280
     1
281
     1
  3
ACAD_LAYERSTATES
360
18F
  0
DICTIONARY
  5
E6
330
10
100
AcDbDictionary
280
     1
281
     1
  0
DICTIONARY
  5
15D
330
1F
100
AcDbDictionary
280
     1
281
     1
  3
ACAD_SORTENTS
360
396
  0
DICTIONARY
  5
AAE
330
AAC
100
AcDbDictionary
280
     1
281
     1
  3
ACAD_SORTENTS
360
AAF
  0
DICTIONARY
  5
BB9
330
BB8
100
AcDbDictionary
280
     1
281
     1
  0
DICTIONARY
  5
BBB
330
BBA
100
AcDbDictionary
280
     1
281
     1
  0
DICTIONARY
  5
BBD
330
BBC
100
AcDbDictionary
280
     1
281
     1
  0
DICTIONARY
  5
BBF
330
BBE
100
AcDbDictionary
280
     1
281
     1
  0
DICTIONARY
  5
BC1
330
BC0
100
AcDbDictionary
280
     1
281
     1
  0
DICTIONARY
  5
BC3
330
BC2
100
AcDbDictionary
280
     1
281
     1
  0
DICTIONARY
  5
BC5
330
BC4
100
AcDbDictionary
280
     1
281
     1
  0
DICTIONARY
  5
BC7
330
BC6
100
AcDbDictionary
280
     1
281
     1
  0
DICTIONARY
  5
BC9
330
BC8
100
AcDbDictionary
280
     1
281
     1
  0
DICTIONARY
  5
BCB
330
BCA
100
AcDbDictionary
280
     1
281
     1
  0
DICTIONARY
  5
BCD
330
BCC
100
AcDbDictionary
280
     1
281
     1
  0
DICTIONARY
  5
BCF
330
BCE
100
AcDbDictionary
280
     1
281
     1
  0
DICTIONARY
  5
BD1
330
BD0
100
AcDbDictionary
280
     1
281
     1
  0
DICTIONARY
  5
BD3
330
BD2
100
AcDbDictionary
280
     1
281
     1
  0
DICTIONARY
  5
BD5
330
BD4
100
AcDbDictionary
280
     1
281
     1
  0
DICTIONARY
  5
BD7
330
BD6
100
AcDbDictionary
280
     1
281
     1
  0
DICTIONARY
  5
BD9
330
BD8
100
AcDbDictionary
280
     1
281
     1
  0
DICTIONARY
  5
BDB
330
BDA
100
AcDbDictionary
280
     1
281
     1
  0
XRECORD
  5
1A5
102
{ACAD_REACTORS
330
C
102
}
330
C
100
AcDbXrecord
280
     1
300
ACD
300
2023
300

  0
DICTIONARY
  5
73
102
{ACAD_REACTORS
330
C
102
}
330
C
100
AcDbDictionary
281
     1
  0
DICTIONARY
  5
1AB
102
{ACAD_REACTORS
330
C
102
}
330
C
100
AcDbDictionary
281
     1
  3
Imperial24
350
1AC
  3
Metric50
350
21D
  0
DICTIONARY
  5
D
102
{ACAD_REACTORS
330
C
102
}
330
C
100
AcDbDictionary
281
     1
  3
*A1
350
2BF0
  3
*A2
350
2BF1
  3
*A3
350
2BF2
  3
*A4
350
2BF3
  3
*A5
350
2BF4
  3
*A6
350
2BF5
  3
*A7
350
2BF6
  3
*A8
350
2BF7
  0
DICTIONARY
  5
1A
102
{ACAD_REACTORS
330
C
102
}
330
C
100
AcDbDictionary
281
     1
  3
Layout1
350
59
  3
Layout2
350
5E
  3
Model
350
22
  0
DICTIONARY
  5
72
102
{ACAD_REACTORS
330
C
102
}
330
C
100
AcDbDictionary
281
     1
  3
ByBlock
350
97
  3
ByLayer
350
96
  3
Global
350
98
  0
DICTIONARY
  5
D7
102
{ACAD_REACTORS
330
C
102
}
330
C
100
AcDbDictionary
281
     1
  3
Annotative
350
E5
  3
Standard
350
D8
  0
DICTIONARY
  5
17
102
{ACAD_REACTORS
330
C
102
}
330
C
100
AcDbDictionary
281
     1
  3
Standard
350
18
  0
DICTIONARY
  5
19
102
{ACAD_REACTORS
330
C
102
}
330
C
100
AcDbDictionary
281
     1
  0
ACDBDICTIONARYWDFLT
  5
E
102
{ACAD_REACTORS
330
C
102
}
330
C
100
AcDbDictionary
281
     1
  3
Normal
350
F
100
AcDbDictionaryWithDefault
340
F
  0
DICTIONARY
  5
B6
102
{ACAD_REACTORS
330
C
102
}
330
C
100
AcDbDictionary
281
     1
  3
A0
350
B7
  3
A1
350
124
  3
A2
350
125
  3
A3
350
126
  3
A4
350
127
  3
A5
350
128
  3
A6
350
129
  3
A7
350
12A
  3
A8
350
12B
  3
A9
350
12C
  3
B0
350
12D
  3
B1
350
12E
  3
B2
350
12F
  3
B3
350
130
  3
B4
350
131
  3
B5
350
132
  3
B6
350
133
  3
B7
350
134
  3
B8
350
135
  3
B9
350
136
  3
C0
350
137
  3
C1
350
138
  3
C2
350
139
  3
C3
350
13A
  3
C4
350
13B
  3
C5
350
13C
  3
C6
350
13D
  3
C7
350
13E
  3
C8
350
13F
  3
C9
350
140
  3
D0
350
141
  3
D1
350
142
  3
D2
350
143
  0
DICTIONARY
  5
1A8
102
{ACAD_REACTORS
330
C
102
}
330
C
100
AcDbDictionary
281
     1
  3
Imperial24
350
1AA
  3
Metric50
350
21C
  0
DICTIONARY
  5
86
102
{ACAD_REACTORS
330
C
102
}
330
C
100
AcDbDictionary
281
     1
  3
Standard
350
87
  0
DICTIONARY
  5
99
102
{ACAD_REACTORS
330
C
102
}
330
C
100
AcDbDictionary
281
     1
  3
2dWireframe
350
9F
  3
Basic
350
9E
  3
Brighten
350
A5
  3
ColorChange
350
A9
  3
Conceptual
350
A2
  3
Dim
350
A4
  3
EdgeColorOff
350
175
  3
Facepattern
350
A8
  3
Flat
350
9A
  3
FlatWithEdges
350
9B
  3
Gouraud
350
9C
  3
GouraudWithEdges
350
9D
  3
Hidden
350
A1
  3
JitterOff
350
173
  3
Linepattern
350
A7
  3
OverhangOff
350
174
  3
Realistic
350
A3
  3
Shaded
350
182
  3
Shaded with edges
350
181
  3
Shades of Gray
350
17E
  3
Sketchy
350
17F
  3
Thicken
350
A6
  3
Wireframe
350
A0
  3
X-Ray
350
180
  0
XRECORD
  5
2C6C
102
{ACAD_REACTORS
330
C
102
}
330
C
100
AcDbXrecord
280
     1
 90
        1
330
87
  0
DICTIONARY
  5
66
102
{ACAD_REACTORS
330
C
102
}
330
C
100
AcDbDictionary
281
     1
  3
CANNOSCALE
350
F0
  3
CMLEADERSTYLE
350
EF
  3
CTABLESTYLE
350
89
  3
CVIEWDETAILSTYLE
350
1B7
  3
CVIEWSECTIONSTYLE
350
1B8
  3
DIMASSOC
350
67
  3
HIDETEXT
350
6B
  3
LAYEREVAL
350
14D
  3
LAYERNOTIFY
350
14E
  0
DICTIONARY
  5
18F
102
{ACAD_REACTORS
330
18E
102
}
330
18E
100
AcDbDictionary
281
     1
  0
SORTENTSTABLE
  5
396
102
{ACAD_REACTORS
330
15D
102
}
330
15D
100
AcDbSortentsTable
330
1F
  0
SORTENTSTABLE
  5
AAF
102
{ACAD_REACTORS
330
AAE
102
}
330
AAE
100
AcDbSortentsTable
330
AAC
  0
ACDBDETAILVIEWSTYLE
  5
1AC
102
{ACAD_REACTORS
330
1AB
102
}
330
1AB
100
AcDbModelDocViewStyle
 70
     0
  3
Imperial24
290
     0
300
Imperial24
 90
        0
100
AcDbDetailViewStyle
 70
     0
 71
     0
 90
        3
 71
     1
340
11
 62
   256
 40
0.24
340
0
 62
   256
 40
0.24
300

 40
0.36
280
     3
 71
     2
340
16
 90
       25
 62
   256
 71
     3
340
11
 62
   256
 40
0.24
 90
        1
 40
0.75
 90
        1
300
%<\AcVar ViewType \f "%tc1">% %<\AcVar ViewDetailId>%\PSCALE %<\AcVar ViewScale \f "%sn">%
 71
     4
340
16
 90
       25
 62
   256
340
16
 90
       25
 62
   256
280
     0
  0
ACDBDETAILVIEWSTYLE
  5
21D
102
{ACAD_REACTORS
330
1AB
102
}
330
1AB
100
AcDbModelDocViewStyle
 70
     0
  3
Metric50
290
     0
300
Metric50
 90
        0
100
AcDbDetailViewStyle
 70
     0
 71
     0
 90
        3
 71
     1
340
11
 62
   256
 40
5.0
340
0
 62
   256
 40
5.0
300

 40
0.0
280
     1
 71
     2
340
16
 90
       25
 62
   256
 71
     3
340
11
 62
   256
 40
5.0
 90
        0
 40
15.0
 90
        1
300
%<\AcVar ViewDetailId>% (%<\AcVar ViewScale \f "%sn">%)
 71
     4
340
16
 90
       25
 62
   256
340
16
 90
       25
 62
   256
280
     0
  0
GROUP
  5
2BF0
102
{ACAD_REACTORS
330
D
102
}
330
D
100
AcDbGroup
300

 70
     1
 71
     1
340
2999
340
2998
340
2997
340
2996
340
2995
340
2994
340
2993
340
2992
340
2991
340
2990
340
298F
340
298E
340
298D
340
298C
340
298B
340
298A
340
2989
340
2988
340
2987
340
2986
340
2985
340
2984
340
2983
340
2982
340
2981
340
2980
340
297F
340
297E
340
297D
340
297C
340
297B
340
297A
340
2979
340
2978
340
2977
340
2976
340
2975
340
2974
340
2973
340
2972
340
2971
340
2970
340
296F
340
296E
340
296D
340
296C
340
296B
340
296A
340
2969
340
2968
340
2967
340
2966
340
2965
340
2964
  0
GROUP
  5
2BF1
102
{ACAD_REACTORS
330
D
102
}
330
D
100
AcDbGroup
300

 70
     1
 71
     1
340
28F3
340
28F2
340
28F1
340
28F0
340
28EF
340
28EE
340
28ED
340
28EC
340
28EB
340
28EA
340
28E9
340
28E8
340
28E7
340
28E6
340
28E5
340
28E4
340
28E3
340
28E2
340
28E1
340
28E0
340
28DF
340
28DE
340
28DD
340
28DC
340
28DB
340
28DA
340
28D9
340
28D8
340
28D7
340
28D6
340
28D5
340
28D4
340
28D3
340
28D2
340
28D1
340
28D0
340
28CF
340
28CE
340
28CD
  0
GROUP
  5
2BF2
102
{ACAD_REACTORS
330
D
102
}
330
D
100
AcDbGroup
300

 70
     1
 71
     1
340
2B9D
340
2B9C
340
2B9B
340
2B9A
340
2B99
340
2B98
340
2B97
340
2B96
  0
GROUP
  5
2BF3
102
{ACAD_REACTORS
330
D
102
}
330
D
100
AcDbGroup
300

 70
     1
 71
     1
340
2B87
340
2B86
340
2B85
340
2B84
340
2B83
340
2B82
340
2B81
340
2B80
  0
GROUP
  5
2BF4
102
{ACAD_REACTORS
330
D
102
}
330
D
100
AcDbGroup
300

 70
     1
 71
     1
340
2BC1
340
2BC0
340
2BBF
340
2BBE
340
2BBD
340
2BBC
340
2BBB
340
2BBA
  0
GROUP
  5
2BF5
102
{ACAD_REACTORS
330
D
102
}
330
D
100
AcDbGroup
300

 70
     1
 71
     1
340
2A53
340
2A52
340
2A51
340
2A50
340
2A4F
340
2A4E
340
2A4D
340
2A4C
340
2A4B
340
2A4A
340
2A49
340
2A48
340
2A47
340
2A46
340
2A45
340
2A44
340
2A43
340
2A42
340
2A41
340
2A40
340
2A3F
340
2A3E
340
2A3D
340
2A3C
340
2A3B
340
2A3A
340
2A39
340
2A38
340
2A37
340
2A36
340
2A35
340
2A34
340
2A33
340
2A32
340
2A31
340
2A30
340
2A2F
340
2A2E
340
2A2D
  0
GROUP
  5
2BF6
102
{ACAD_REACTORS
330
D
102
}
330
D
100
AcDbGroup
300

 70
     1
 71
     1
340
2B14
340
2B13
340
2B12
340
2B11
340
2B10
340
2B0F
340
2B0E
340
2B0D
340
2B0C
340
2B0B
340
2B0A
340
2B09
340
2B08
340
2B07
340
2B06
340
2B05
340
2B04
340
2B03
340
2B02
340
2B01
340
2B00
340
2AFF
340
2AFE
340
2AFD
340
2AFC
340
2AFB
340
2AFA
340
2AF9
340
2AF8
340
2AF7
340
2AF6
340
2AF5
340
2AF4
340
2AF3
340
2AF2
340
2AF1
340
2AF0
340
2AEF
340
2AEE
340
2AED
340
2AEC
340
2AEB
340
2AEA
340
2AE9
340
2AE8
340
2AE7
340
2AE6
340
2AE5
340
2AE4
340
2AE3
340
2AE2
340
2AE1
340
2AE0
340
2ADF
  0
GROUP
  5
2BF7
102
{ACAD_REACTORS
330
D
102
}
330
D
100
AcDbGroup
300

 70
     1
 71
     1
340
2BEF
340
2BEE
340
2BED
340
2BEC
340
2BEB
340
2BEA
340
2BE9
340
2BE8
  0
LAYOUT
  5
59
102
{ACAD_REACTORS
330
1A
102
}
330
1A
100
AcDbPlotSettings
  1

  2
None
  4

  6

 40
0.0
 41
0.0
 42
0.0
 43
0.0
 44
0.0
 45
0.0
 46
0.0
 47
0.0
 48
0.0
 49
0.0
140
0.0
141
0.0
142
1.0
143
1.0
 70
   688
 72
     0
 73
     0
 74
     5
  7

 75
    16
147
1.0
 76
     0
 77
     2
 78
   300
148
0.0
149
0.0
100
AcDbLayout
  1
Layout1
 70
     1
 71
     1
 10
0.0
 20
0.0
 11
12.0
 21
9.0
 12
0.0
 22
0.0
 32
0.0
 14
0.0
 24
0.0
 34
0.0
 15
0.0
 25
0.0
 35
0.0
146
0.0
 13
0.0
 23
0.0
 33
0.0
 16
1.0
 26
0.0
 36
0.0
 17
0.0
 27
1.0
 37
0.0
 76
     0
330
58
  0
LAYOUT
  5
5E
102
{ACAD_REACTORS
330
1A
102
}
330
1A
100
AcDbPlotSettings
  1

  2
None
  4

  6

 40
0.0
 41
0.0
 42
0.0
 43
0.0
 44
0.0
 45
0.0
 46
0.0
 47
0.0
 48
0.0
 49
0.0
140
0.0
141
0.0
142
1.0
143
1.0
 70
   688
 72
     0
 73
     0
 74
     5
  7

 75
    16
147
1.0
 76
     0
 77
     2
 78
   300
148
0.0
149
0.0
100
AcDbLayout
  1
Layout2
 70
     1
 71
     2
 10
0.0
 20
0.0
 11
12.0
 21
9.0
 12
0.0
 22
0.0
 32
0.0
 14
0.0
 24
0.0
 34
0.0
 15
0.0
 25
0.0
 35
0.0
146
0.0
 13
0.0
 23
0.0
 33
0.0
 16
1.0
 26
0.0
 36
0.0
 17
0.0
 27
1.0
 37
0.0
 76
     0
330
5D
  0
LAYOUT
  5
22
102
{ACAD_XDICTIONARY
360
194
102
}
102
{ACAD_REACTORS
330
1A
102
}
330
1A
100
AcDbPlotSettings
  1

  2
none_device
  4
ANSI_A_(8.50_x_11.00_Inches)
  6

 40
6.349999904632568
 41
19.04999923706055
 42
6.350006103515625
 43
19.04998779296875
 44
215.8999938964844
 45
279.3999938964844
 46
0.0
 47
0.0
 48
0.0
 49
0.0
140
0.0
141
0.0
142
1.0
143
2.584895464708373
 70
 11952
 72
     0
 73
     1
 74
     0
  7

 75
     0
147
0.3868628397755418
 76
     0
 77
     2
 78
   300
148
0.0
149
0.0
100
AcDbLayout
  1
Model
 70
     1
 71
     0
 10
0.0
 20
0.0
 11
12.0
 21
9.0
 12
0.0
 22
0.0
 32
0.0
 14
0.0
 24
0.0
 34
0.0
 15
0.0
 25
0.0
 35
0.0
146
0.0
 13
0.0
 23
0.0
 33
0.0
 16
1.0
 26
0.0
 36
0.0
 17
0.0
 27
1.0
 37
0.0
 76
     0
330
1F
331
94
  0
MATERIAL
  5
97
102
{ACAD_XDICTIONARY
360
188
102
}
102
{ACAD_REACTORS
330
72
102
}
330
72
100
AcDbMaterial
  1
ByBlock
 94
       63
  0
MATERIAL
  5
96
102
{ACAD_XDICTIONARY
360
186
102
}
102
{ACAD_REACTORS
330
72
102
}
330
72
100
AcDbMaterial
  1
ByLayer
 94
       63
  0
MATERIAL
  5
98
102
{ACAD_XDICTIONARY
360
110
102
}
102
{ACAD_REACTORS
330
72
102
}
330
72
100
AcDbMaterial
  1
Global
 43
0.0208000000566244
 43
0.0
 43
0.0
 43
0.0
 43
0.0
 43
0.0208000000566244
 43
0.0
 43
0.0
 43
0.0
 43
0.0
 43
1.0
 43
0.0
 43
0.0
 43
0.0
 43
0.0
 43
1.0
 49
0.0208000000566244
 49
0.0
 49
0.0
 49
0.0
 49
0.0
 49
0.0208000000566244
 49
0.0
 49
0.0
 49
0.0
 49
0.0
 49
1.0
 49
0.0
 49
0.0
 49
0.0
 49
0.0
 49
1.0
142
0.0208000000566244
142
0.0
142
0.0
142
0.0
142
0.0
142
0.0208000000566244
142
0.0
142
0.0
142
0.0
142
0.0
142
1.0
142
0.0
142
0.0
142
0.0
142
0.0
142
1.0
144
0.0208000000566244
144
0.0
144
0.0
144
0.0
144
0.0
144
0.0208000000566244
144
0.0
144
0.0
144
0.0
144
0.0
144
1.0
144
0.0
144
0.0
144
0.0
144
0.0
144
1.0
 94
       63
1001
ACAD
1070
    -1
1070
     3
1070
     0
1000

1071
        0
1070
     0
  0
MLEADERSTYLE
  5
E5
102
{ACAD_REACTORS
330
D7
102
}
330
D7
100
AcDbMLeaderStyle
179
     2
170
     2
171
     1
172
     0
 90
        2
 40
0.0
 41
0.0
173
     1
 91
-1056964608
340
14
 92
       -2
290
     1
 42
0.09
291
     1
 43
0.36
  3
Standard
 44
0.18
300

342
11
174
     1
178
     1
175
     1
176
     0
 93
-1056964608
 45
0.18
292
     0
297
     0
 46
0.18
 94
-1056964608
 47
1.0
 49
1.0
140
1.0
293
     1
141
0.0
294
     1
177
     0
142
1.0
295
     0
296
     1
143
0.125
271
     0
272
     9
273
     9
298
     0
  0
MLEADERSTYLE
  5
D8
102
{ACAD_REACTORS
330
D7
102
}
330
D7
100
AcDbMLeaderStyle
179
     2
170
     2
171
     1
172
     0
 90
        2
 40
0.0
 41
0.0
173
     1
 91
-1056964608
340
14
 92
       -2
290
     1
 42
0.09
291
     1
 43
0.36
  3
Standard
 44
0.18
300

342
11
174
     1
178
     1
175
     1
176
     0
 93
-1056964608
 45
0.18
292
     0
297
     0
 46
0.18
 94
-1056964608
 47
1.0
 49
1.0
140
1.0
293
     1
141
0.0
294
     1
177
     0
142
1.0
295
     0
296
     0
143
0.125
271
     0
272
     9
273
     9
298
     0
  0
MLINESTYLE
  5
18
102
{ACAD_REACTORS
330
17
102
}
330
17
100
AcDbMlineStyle
  2
STANDARD
 70
     0
  3

 62
   256
 51
90.0
 52
90.0
 71
     2
 49
0.5
 62
   256
  6
BYLAYER
 49
-0.5
 62
   256
  6
BYLAYER
  0
ACDBPLACEHOLDER
  5
F
102
{ACAD_REACTORS
330
E
102
}
330
E
  0
SCALE
  5
B7
102
{ACAD_REACTORS
330
B6
102
}
330
B6
100
AcDbScale
 70
     0
300
1:1
140
1.0
141
1.0
290
     1
  0
SCALE
  5
124
102
{ACAD_REACTORS
330
B6
102
}
330
B6
100
AcDbScale
 70
     0
300
1:2
140
1.0
141
2.0
290
     0
  0
SCALE
  5
125
102
{ACAD_REACTORS
330
B6
102
}
330
B6
100
AcDbScale
 70
     0
300
1:4
140
1.0
141
4.0
290
     0
  0
SCALE
  5
126
102
{ACAD_REACTORS
330
B6
102
}
330
B6
100
AcDbScale
 70
     0
300
1:5
140
1.0
141
5.0
290
     0
  0
SCALE
  5
127
102
{ACAD_REACTORS
330
B6
102
}
330
B6
100
AcDbScale
 70
     0
300
1:8
140
1.0
141
8.0
290
     0
  0
SCALE
  5
128
102
{ACAD_REACTORS
330
B6
102
}
330
B6
100
AcDbScale
 70
     0
300
1:10
140
1.0
141
10.0
290
     0
  0
SCALE
  5
129
102
{ACAD_REACTORS
330
B6
102
}
330
B6
100
AcDbScale
 70
     0
300
1:16
140
1.0
141
16.0
290
     0
  0
SCALE
  5
12A
102
{ACAD_REACTORS
330
B6
102
}
330
B6
100
AcDbScale
 70
     0
300
1:20
140
1.0
141
20.0
290
     0
  0
SCALE
  5
12B
102
{ACAD_REACTORS
330
B6
102
}
330
B6
100
AcDbScale
 70
     0
300
1:30
140
1.0
141
30.0
290
     0
  0
SCALE
  5
12C
102
{ACAD_REACTORS
330
B6
102
}
330
B6
100
AcDbScale
 70
     0
300
1:40
140
1.0
141
40.0
290
     0
  0
SCALE
  5
12D
102
{ACAD_REACTORS
330
B6
102
}
330
B6
100
AcDbScale
 70
     0
300
1:50
140
1.0
141
50.0
290
     0
  0
SCALE
  5
12E
102
{ACAD_REACTORS
330
B6
102
}
330
B6
100
AcDbScale
 70
     0
300
1:100
140
1.0
141
100.0
290
     0
  0
SCALE
  5
12F
102
{ACAD_REACTORS
330
B6
102
}
330
B6
100
AcDbScale
 70
     0
300
2:1
140
2.0
141
1.0
290
     0
  0
SCALE
  5
130
102
{ACAD_REACTORS
330
B6
102
}
330
B6
100
AcDbScale
 70
     0
300
4:1
140
4.0
141
1.0
290
     0
  0
SCALE
  5
131
102
{ACAD_REACTORS
330
B6
102
}
330
B6
100
AcDbScale
 70
     0
300
8:1
140
8.0
141
1.0
290
     0
  0
SCALE
  5
132
102
{ACAD_REACTORS
330
B6
102
}
330
B6
100
AcDbScale
 70
     0
300
10:1
140
10.0
141
1.0
290
     0
  0
SCALE
  5
133
102
{ACAD_REACTORS
330
B6
102
}
330
B6
100
AcDbScale
 70
     0
300
100:1
140
100.0
141
1.0
290
     0
  0
SCALE
  5
134
102
{ACAD_REACTORS
330
B6
102
}
330
B6
100
AcDbScale
 70
     0
300
1/128" = 1'-0"
140
0.0078125
141
12.0
290
     0
  0
SCALE
  5
135
102
{ACAD_REACTORS
330
B6
102
}
330
B6
100
AcDbScale
 70
     0
300
1/64" = 1'-0"
140
0.015625
141
12.0
290
     0
  0
SCALE
  5
136
102
{ACAD_REACTORS
330
B6
102
}
330
B6
100
AcDbScale
 70
     0
300
1/32" = 1'-0"
140
0.03125
141
12.0
290
     0
  0
SCALE
  5
137
102
{ACAD_REACTORS
330
B6
102
}
330
B6
100
AcDbScale
 70
     0
300
1/16" = 1'-0"
140
0.0625
141
12.0
290
     0
  0
SCALE
  5
138
102
{ACAD_REACTORS
330
B6
102
}
330
B6
100
AcDbScale
 70
     0
300
3/32" = 1'-0"
140
0.09375
141
12.0
290
     0
  0
SCALE
  5
139
102
{ACAD_REACTORS
330
B6
102
}
330
B6
100
AcDbScale
 70
     0
300
1/8" = 1'-0"
140
0.125
141
12.0
290
     0
  0
SCALE
  5
13A
102
{ACAD_REACTORS
330
B6
102
}
330
B6
100
AcDbScale
 70
     0
300
3/16" = 1'-0"
140
0.1875
141
12.0
290
     0
  0
SCALE
  5
13B
102
{ACAD_REACTORS
330
B6
102
}
330
B6
100
AcDbScale
 70
     0
300
1/4" = 1'-0"
140
0.25
141
12.0
290
     0
  0
SCALE
  5
13C
102
{ACAD_REACTORS
330
B6
102
}
330
B6
100
AcDbScale
 70
     0
300
3/8" = 1'-0"
140
0.375
141
12.0
290
     0
  0
SCALE
  5
13D
102
{ACAD_REACTORS
330
B6
102
}
330
B6
100
AcDbScale
 70
     0
300
1/2" = 1'-0"
140
0.5
141
12.0
290
     0
  0
SCALE
  5
13E
102
{ACAD_REACTORS
330
B6
102
}
330
B6
100
AcDbScale
 70
     0
300
3/4" = 1'-0"
140
0.75
141
12.0
290
     0
  0
SCALE
  5
13F
102
{ACAD_REACTORS
330
B6
102
}
330
B6
100
AcDbScale
 70
     0
300
1" = 1'-0"
140
1.0
141
12.0
290
     0
  0
SCALE
  5
140
102
{ACAD_REACTORS
330
B6
102
}
330
B6
100
AcDbScale
 70
     0
300
1-1/2" = 1'-0"
140
1.5
141
12.0
290
     0
  0
SCALE
  5
141
102
{ACAD_REACTORS
330
B6
102
}
330
B6
100
AcDbScale
 70
     0
300
3" = 1'-0"
140
3.0
141
12.0
290
     0
  0
SCALE
  5
142
102
{ACAD_REACTORS
330
B6
102
}
330
B6
100
AcDbScale
 70
     0
300
6" = 1'-0"
140
6.0
141
12.0
290
     0
  0
SCALE
  5
143
102
{ACAD_REACTORS
330
B6
102
}
330
B6
100
AcDbScale
 70
     0
300
1'-0" = 1'-0"
140
12.0
141
12.0
290
     0
  0
ACDBSECTIONVIEWSTYLE
  5
1AA
102
{ACAD_REACTORS
330
1A8
102
}
330
1A8
100
AcDbModelDocViewStyle
 70
     0
  3
Imperial24
290
     0
300
Imperial24
 90
        0
100
AcDbSectionViewStyle
 70
     0
 71
     0
 90
       78
 71
     1
340
11
 62
   256
 40
0.24
340
0
340
0
 62
   256
 40
0.24
300
I, O, Q, S, X, Z
 40
0.48
 90
        3
 40
0.18
 90
        1
 71
     2
340
16
 90
       25
 62
   256
340
16
 90
       50
 62
   256
 40
0.24
 40
0.0
 40
0.24
 71
     3
340
11
 62
   256
 40
0.24
 90
        1
 40
0.75
 90
        1
300
%<\AcVar ViewType \f "%tc1">% %<\AcVar ViewSectionStartId>%-%<\AcVar ViewSectionEndId>%\PSCALE %<\AcVar ViewScale \f "%sn">%
 71
     4
 62
   256
 62
   257
300
ANSI31
 40
1.0
 90
        0
290
     0
290
     0
 90
        6
 40
0.0
 40
1.570796326794896
 40
0.2617993877991494
 40
1.308996938995747
 40
-0.2617993877991494
 40
1.832595714594046
  0
ACDBSECTIONVIEWSTYLE
  5
21C
102
{ACAD_REACTORS
330
1A8
102
}
330
1A8
100
AcDbModelDocViewStyle
 70
     0
  3
Metric50
290
     0
300
Metric50
 90
        0
100
AcDbSectionViewStyle
 70
     0
 71
     0
 90
      102
 71
     1
340
11
 62
   256
 40
5.0
340
0
340
0
 62
   256
 40
5.0
300
I, O, Q, S, X, Z
 40
10.0
 90
        0
 40
2.5
 90
        0
 71
     2
340
16
 90
       25
 62
   256
340
16
 90
       50
 62
   256
 40
5.0
 40
2.5
 40
5.0
 71
     3
340
11
 62
   256
 40
5.0
 90
        0
 40
15.0
 90
        1
300
%<\AcVar ViewSectionStartId>%-%<\AcVar ViewSectionEndId>% (%<\AcVar ViewScale \f "%sn">%)
 71
     4
 62
   256
 62
   257
300
ANSI31
 40
1.0
 90
        0
290
     0
290
     0
 90
        6
 40
0.0
 40
1.570796326794896
 40
0.2617993877991494
 40
1.308996938995747
 40
-0.2617993877991494
 40
1.832595714594046
  0
TABLESTYLE
  5
87
102
{ACAD_XDICTIONARY
360
104
102
}
102
{ACAD_REACTORS
330
86
102
}
330
86
100
AcDbTableStyle
280
     0
  3
Standard
 70
     0
 71
     0
 40
0.06
 41
0.06
280
     0
281
     0
  7
Standard
140
0.18
170
     2
 62
     0
 63
     7
283
     0
 90
      512
 91
        0
  1

274
    -2
284
     1
 64
     0
275
    -2
285
     1
 65
     0
276
    -2
286
     1
 66
     0
277
    -2
287
     1
 67
     0
278
    -2
288
     1
 68
     0
279
    -2
289
     1
 69
     0
  7
Standard
140
0.25
170
     5
 62
     0
 63
     7
283
     0
 90
      512
 91
        0
  1

274
    -2
284
     1
 64
     0
275
    -2
285
     1
 65
     0
276
    -2
286
     1
 66
     0
277
    -2
287
     1
 67
     0
278
    -2
288
     1
 68
     0
279
    -2
289
     1
 69
     0
  7
Standard
140
0.18
170
     5
 62
     0
 63
     7
283
     0
 90
      512
 91
        0
  1

274
    -2
284
     1
 64
     0
275
    -2
285
     1
 65
     0
276
    -2
286
     1
 66
     0
277
    -2
287
     1
 67
     0
278
    -2
288
     1
 68
     0
279
    -2
289
     1
 69
     0
  0
VISUALSTYLE
  5
9F
102
{ACAD_REACTORS
330
99
102
}
330
99
100
AcDbVisualStyle
  2
2dWireframe
 70
     4
177
     3
291
     0
 70
    58
 90
        0
176
     1
 90
        2
176
     1
 90
        1
176
     1
 90
        0
176
     1
 40
0.6
176
     1
 40
30.0
176
     1
 62
     7
420
 16777215
176
     1
 90
        1
176
     1
 90
        4
176
     1
 62
     7
176
     1
 62
   257
176
     1
 90
        1
176
     1
 90
        1
176
     1
 40
1.0
176
     1
 90
        0
176
     1
 62
   257
176
     1
 40
1.0
176
     1
 90
        1
176
     1
 90
        6
176
     1
 90
        2
176
     1
 62
     7
176
     1
 90
        5
176
     1
 90
        0
176
     1
 90
        0
176
     1
290
     0
176
     1
 90
        1
176
     1
 40
0.0
176
     1
 90
        0
176
     1
290
     1
176
     1
290
     1
176
     1
290
     0
176
     1
290
     0
176
     1
290
     0
176
     1
290
     0
176
     1
290
     0
176
     1
290
     0
176
     1
290
     0
176
     1
 90
       50
176
     1
 40
0.0
176
     1
 40
1.0
176
     1
 90
        0
176
     1
 62
    18
420
        0
176
     1
 90
       50
176
     1
 90
        3
176
     1
 62
     5
420
      255
176
     1
290
     0
176
     1
 90
       50
176
     1
 90
       50
176
     1
 90
       50
176
     1
290
     0
176
     1
 90
       50
176
     1
 62
   256
176
     0
 40
1.0
176
     0
 90
        2
176
     1
  1
strokes_ogs.tif
176
     1
290
     0
176
     1
 40
1.0
176
     1
 40
1.0
176
     1
  0
VISUALSTYLE
  5
9E
102
{ACAD_REACTORS
330
99
102
}
330
99
100
AcDbVisualStyle
  2
Basic
 70
     7
177
     3
291
     1
 70
    58
 90
        1
176
     1
 90
        0
176
     1
 90
        1
176
     1
 90
        0
176
     1
 40
0.6
176
     1
 40
30.0
176
     1
 62
     7
420
 16777215
176
     1
 90
        0
176
     1
 90
        4
176
     1
 62
     7
176
     1
 62
   257
176
     1
 90
        1
176
     1
 90
        1
176
     1
 40
1.0
176
     1
 90
        8
176
     1
 62
     7
176
     1
 40
1.0
176
     1
 90
        1
176
     1
 90
        6
176
     1
 90
        2
176
     1
 62
     7
176
     1
 90
        5
176
     1
 90
        0
176
     1
 90
        0
176
     1
290
     0
176
     1
 90
        1
176
     1
 40
0.0
176
     1
 90
        0
176
     1
290
     0
176
     1
290
     1
176
     1
290
     1
176
     1
290
     0
176
     1
290
     0
176
     1
290
     0
176
     1
290
     0
176
     1
290
     0
176
     1
290
     0
176
     1
 90
       50
176
     1
 40
0.0
176
     1
 40
1.0
176
     1
 90
        0
176
     1
 62
    18
420
        0
176
     1
 90
       50
176
     1
 90
        3
176
     1
 62
     5
420
      255
176
     1
290
     0
176
     1
 90
       50
176
     1
 90
       50
176
     1
 90
       50
176
     1
290
     0
176
     1
 90
       50
176
     1
 62
   256
176
     0
 40
1.0
176
     0
 90
        2
176
     1
  1
strokes_ogs.tif
176
     1
290
     0
176
     1
 40
1.0
176
     1
 40
1.0
176
     1
  0
VISUALSTYLE
  5
A5
102
{ACAD_REACTORS
330
99
102
}
330
99
100
AcDbVisualStyle
  2
Brighten
 70
    12
177
     3
291
     1
 70
    58
 90
        2
176
     1
 90
        2
176
     1
 90
        1
176
     1
 90
        0
176
     1
 40
0.6
176
     1
 40
30.0
176
     1
 62
     7
420
 16777215
176
     1
 90
        1
176
     1
 90
        4
176
     1
 62
     7
176
     1
 62
   257
176
     1
 90
        1
176
     1
 90
        1
176
     1
 40
1.0
176
     1
 90
        8
176
     1
 62
     7
176
     1
 40
1.0
176
     1
 90
        1
176
     1
 90
        6
176
     1
 90
        2
176
     1
 62
     7
176
     1
 90
        5
176
     1
 90
        0
176
     1
 90
        0
176
     1
290
     0
176
     1
 90
        1
176
     1
 40
50.0
176
     1
 90
        0
176
     1
290
     0
176
     1
290
     1
176
     1
290
     1
176
     1
290
     0
176
     1
290
     0
176
     1
290
     0
176
     1
290
     0
176
     1
290
     0
176
     1
290
     0
176
     1
 90
       50
176
     1
 40
0.0
176
     1
 40
1.0
176
     1
 90
        0
176
     1
 62
    18
420
        0
176
     1
 90
       50
176
     1
 90
        3
176
     1
 62
     5
420
      255
176
     1
290
     0
176
     1
 90
       50
176
     1
 90
       50
176
     1
 90
       50
176
     1
290
     0
176
     1
 90
       50
176
     1
 62
   256
176
     0
 40
1.0
176
     0
 90
        2
176
     1
  1
strokes_ogs.tif
176
     1
290
     0
176
     1
 40
1.0
176
     1
 40
1.0
176
     1
  0
VISUALSTYLE
  5
A9
102
{ACAD_REACTORS
330
99
102
}
330
99
100
AcDbVisualStyle
  2
ColorChange
 70
    16
177
     3
291
     1
 70
    58
 90
        2
176
     1
 90
        2
176
     1
 90
        3
176
     1
 90
        0
176
     1
 40
0.6
176
     1
 40
30.0
176
     1
 62
     8
420
  8421504
176
     1
 90
        1
176
     1
 90
        4
176
     1
 62
     7
176
     1
 62
   257
176
     1
 90
        1
176
     1
 90
        1
176
     1
 40
1.0
176
     1
 90
        8
176
     1
 62
     8
420
  8421504
176
     1
 40
1.0
176
     1
 90
        1
176
     1
 90
        6
176
     1
 90
        2
176
     1
 62
     7
176
     1
 90
        5
176
     1
 90
        0
176
     1
 90
        0
176
     1
290
     0
176
     1
 90
        1
176
     1
 40
0.0
176
     1
 90
        0
176
     1
290
     0
176
     1
290
     1
176
     1
290
     1
176
     1
290
     0
176
     1
290
     0
176
     1
290
     0
176
     1
290
     0
176
     1
290
     0
176
     1
290
     0
176
     1
 90
       50
176
     1
 40
0.0
176
     1
 40
1.0
176
     1
 90
        0
176
     1
 62
    18
420
        0
176
     1
 90
       50
176
     1
 90
        3
176
     1
 62
     5
420
      255
176
     1
290
     0
176
     1
 90
       50
176
     1
 90
       50
176
     1
 90
       50
176
     1
290
     0
176
     1
 90
       50
176
     1
 62
   256
176
     0
 40
1.0
176
     0
 90
        2
176
     1
  1
strokes_ogs.tif
176
     1
290
     0
176
     1
 40
1.0
176
     1
 40
1.0
176
     1
  0
VISUALSTYLE
  5
A2
102
{ACAD_REACTORS
330
99
102
}
330
99
100
AcDbVisualStyle
  2
Conceptual
 70
     9
177
     3
291
     0
 70
    58
 90
        3
176
     1
 90
        2
176
     1
 90
        1
176
     1
 90
        0
176
     1
 40
0.6
176
     1
 40
30.0
176
     1
 62
     7
420
 16777215
176
     1
 90
        2
176
     1
 90
        2
176
     1
 62
     7
176
     1
 62
   257
176
     1
 90
        1
176
     1
 90
        1
176
     1
 40
40.0
176
     1
 90
        8
176
     1
 62
     7
176
     1
 40
1.0
176
     1
 90
        1
176
     1
 90
        6
176
     1
 90
        2
176
     1
 62
     7
176
     1
 90
        3
176
     1
 90
        0
176
     1
 90
        0
176
     1
290
     0
176
     1
 90
        1
176
     1
 40
0.0
176
     1
 90
        0
176
     1
290
     0
176
     1
290
     1
176
     1
290
     1
176
     1
290
     0
176
     1
290
     0
176
     1
290
     0
176
     1
290
     0
176
     1
290
     0
176
     1
290
     0
176
     1
 90
       50
176
     1
 40
0.0
176
     1
 40
1.0
176
     1
 90
        0
176
     1
 62
    18
420
        0
176
     1
 90
       50
176
     1
 90
        3
176
     1
 62
     5
420
      255
176
     1
290
     0
176
     1
 90
       50
176
     1
 90
       50
176
     1
 90
       50
176
     1
290
     0
176
     1
 90
       50
176
     1
 62
   256
176
     0
 40
1.0
176
     0
 90
        2
176
     1
  1
strokes_ogs.tif
176
     1
290
     0
176
     1
 40
1.0
176
     1
 40
1.0
176
     1
  0
VISUALSTYLE
  5
A4
102
{ACAD_REACTORS
330
99
102
}
330
99
100
AcDbVisualStyle
  2
Dim
 70
    11
177
     3
291
     1
 70
    58
 90
        2
176
     1
 90
        2
176
     1
 90
        1
176
     1
 90
        0
176
     1
 40
0.6
176
     1
 40
30.0
176
     1
 62
     7
420
 16777215
176
     1
 90
        1
176
     1
 90
        4
176
     1
 62
     7
176
     1
 62
   257
176
     1
 90
        1
176
     1
 90
        1
176
     1
 40
1.0
176
     1
 90
        8
176
     1
 62
     7
176
     1
 40
1.0
176
     1
 90
        1
176
     1
 90
        6
176
     1
 90
        2
176
     1
 62
     7
176
     1
 90
        5
176
     1
 90
        0
176
     1
 90
        0
176
     1
290
     0
176
     1
 90
        1
176
     1
 40
-50.0
176
     1
 90
        0
176
     1
290
     0
176
     1
290
     1
176
     1
290
     1
176
     1
290
     0
176
     1
290
     0
176
     1
290
     0
176
     1
290
     0
176
     1
290
     0
176
     1
290
     0
176
     1
 90
       50
176
     1
 40
0.0
176
     1
 40
1.0
176
     1
 90
        0
176
     1
 62
    18
420
        0
176
     1
 90
       50
176
     1
 90
        3
176
     1
 62
     5
420
      255
176
     1
290
     0
176
     1
 90
       50
176
     1
 90
       50
176
     1
 90
       50
176
     1
290
     0
176
     1
 90
       50
176
     1
 62
   256
176
     0
 40
1.0
176
     0
 90
        2
176
     1
  1
strokes_ogs.tif
176
     1
290
     0
176
     1
 40
1.0
176
     1
 40
1.0
176
     1
  0
VISUALSTYLE
  5
175
102
{ACAD_REACTORS
330
99
102
}
330
99
100
AcDbVisualStyle
  2
EdgeColorOff
 70
    22
177
     3
291
     1
 70
    58
 90
        2
176
     0
 90
        2
176
     0
 90
        0
176
     0
 90
        0
176
     0
 40
0.6
176
     0
 40
30.0
176
     0
 62
     7
420
 16777215
176
     0
 90
        1
176
     0
 90
        4
176
     0
 62
     7
176
     0
 62
   257
176
     0
 90
        1
176
     0
 90
        1
176
     0
 40
1.0
176
     0
 90
        8
176
     2
 62
     7
176
     0
 40
1.0
176
     0
 90
        1
176
     0
 90
        6
176
     0
 90
        2
176
     0
 62
     7
176
     0
 90
        5
176
     0
 90
        0
176
     0
 90
        0
176
     0
290
     0
176
     0
 90
        1
176
     0
 40
0.0
176
     0
 90
        0
176
     0
290
     0
176
     1
290
     1
176
     1
290
     1
176
     1
290
     0
176
     1
290
     0
176
     1
290
     0
176
     1
290
     0
176
     1
290
     0
176
     1
290
     0
176
     1
 90
       50
176
     1
 40
0.0
176
     1
 40
1.0
176
     1
 90
        0
176
     1
 62
    18
420
        0
176
     1
 90
       50
176
     1
 90
        3
176
     1
 62
     5
420
      255
176
     1
290
     0
176
     1
 90
       50
176
     1
 90
       50
176
     1
 90
       50
176
     1
290
     0
176
     1
 90
       50
176
     1
 62
   256
176
     0
 40
1.0
176
     0
 90
        2
176
     1
  1
strokes_ogs.tif
176
     1
290
     0
176
     1
 40
1.0
176
     1
 40
1.0
176
     1
  0
VISUALSTYLE
  5
A8
102
{ACAD_REACTORS
330
99
102
}
330
99
100
AcDbVisualStyle
  2
Facepattern
 70
    15
177
     3
291
     1
 70
    58
 90
        2
176
     1
 90
        2
176
     1
 90
        1
176
     1
 90
        0
176
     1
 40
0.6
176
     1
 40
30.0
176
     1
 62
     7
420
 16777215
176
     1
 90
        1
176
     1
 90
        4
176
     1
 62
     7
176
     1
 62
   257
176
     1
 90
        1
176
     1
 90
        1
176
     1
 40
1.0
176
     1
 90
        8
176
     1
 62
     7
176
     1
 40
1.0
176
     1
 90
        1
176
     1
 90
        6
176
     1
 90
        2
176
     1
 62
     7
176
     1
 90
        5
176
     1
 90
        0
176
     1
 90
        0
176
     1
290
     0
176
     1
 90
        1
176
     1
 40
0.0
176
     1
 90
        0
176
     1
290
     0
176
     1
290
     1
176
     1
290
     1
176
     1
290
     0
176
     1
290
     0
176
     1
290
     0
176
     1
290
     0
176
     1
290
     0
176
     1
290
     0
176
     1
 90
       50
176
     1
 40
0.0
176
     1
 40
1.0
176
     1
 90
        0
176
     1
 62
    18
420
        0
176
     1
 90
       50
176
     1
 90
        3
176
     1
 62
     5
420
      255
176
     1
290
     0
176
     1
 90
       50
176
     1
 90
       50
176
     1
 90
       50
176
     1
290
     0
176
     1
 90
       50
176
     1
 62
   256
176
     0
 40
1.0
176
     0
 90
        2
176
     1
  1
strokes_ogs.tif
176
     1
290
     0
176
     1
 40
1.0
176
     1
 40
1.0
176
     1
  0
VISUALSTYLE
  5
9A
102
{ACAD_REACTORS
330
99
102
}
330
99
100
AcDbVisualStyle
  2
Flat
 70
     0
177
     3
291
     1
 70
    58
 90
        2
176
     1
 90
        1
176
     1
 90
        1
176
     1
 90
        2
176
     1
 40
0.6
176
     1
 40
30.0
176
     1
 62
     7
420
 16777215
176
     1
 90
        0
176
     1
 90
        0
176
     1
 62
     7
176
     1
 62
   257
176
     1
 90
        1
176
     1
 90
        1
176
     1
 40
1.0
176
     1
 90
        8
176
     1
 62
     7
176
     1
 40
1.0
176
     1
 90
        1
176
     1
 90
        6
176
     1
 90
        2
176
     1
 62
     7
176
     1
 90
        5
176
     1
 90
        0
176
     1
 90
        0
176
     1
290
     0
176
     1
 90
       13
176
     1
 40
0.0
176
     1
 90
        0
176
     1
290
     0
176
     1
290
     1
176
     1
290
     1
176
     1
290
     0
176
     1
290
     0
176
     1
290
     0
176
     1
290
     0
176
     1
290
     0
176
     1
290
     0
176
     1
 90
       50
176
     1
 40
0.0
176
     1
 40
1.0
176
     1
 90
        0
176
     1
 62
    18
420
        0
176
     1
 90
       50
176
     1
 90
        3
176
     1
 62
     5
420
      255
176
     1
290
     0
176
     1
 90
       50
176
     1
 90
       50
176
     1
 90
       50
176
     1
290
     0
176
     1
 90
       50
176
     1
 62
   256
176
     0
 40
1.0
176
     0
 90
        2
176
     1
  1
strokes_ogs.tif
176
     1
290
     0
176
     1
 40
1.0
176
     1
 40
1.0
176
     1
  0
VISUALSTYLE
  5
9B
102
{ACAD_REACTORS
330
99
102
}
330
99
100
AcDbVisualStyle
  2
FlatWithEdges
 70
     1
177
     3
291
     1
 70
    58
 90
        2
176
     1
 90
        1
176
     1
 90
        1
176
     1
 90
        2
176
     1
 40
0.6
176
     1
 40
30.0
176
     1
 62
     7
420
 16777215
176
     1
 90
        1
176
     1
 90
        0
176
     1
 62
     7
176
     1
 62
   257
176
     1
 90
        1
176
     1
 90
        1
176
     1
 40
1.0
176
     1
 90
        0
176
     1
 62
   257
176
     1
 40
1.0
176
     1
 90
        1
176
     1
 90
        6
176
     1
 90
        2
176
     1
 62
     7
176
     1
 90
        5
176
     1
 90
        0
176
     1
 90
        0
176
     1
290
     0
176
     1
 90
       13
176
     1
 40
0.0
176
     1
 90
        0
176
     1
290
     0
176
     1
290
     1
176
     1
290
     1
176
     1
290
     0
176
     1
290
     0
176
     1
290
     0
176
     1
290
     0
176
     1
290
     0
176
     1
290
     0
176
     1
 90
       50
176
     1
 40
0.0
176
     1
 40
1.0
176
     1
 90
        0
176
     1
 62
    18
420
        0
176
     1
 90
       50
176
     1
 90
        3
176
     1
 62
     5
420
      255
176
     1
290
     0
176
     1
 90
       50
176
     1
 90
       50
176
     1
 90
       50
176
     1
290
     0
176
     1
 90
       50
176
     1
 62
   256
176
     0
 40
1.0
176
     0
 90
        2
176
     1
  1
strokes_ogs.tif
176
     1
290
     0
176
     1
 40
1.0
176
     1
 40
1.0
176
     1
  0
VISUALSTYLE
  5
9C
102
{ACAD_REACTORS
330
99
102
}
330
99
100
AcDbVisualStyle
  2
Gouraud
 70
     2
177
     3
291
     1
 70
    58
 90
        2
176
     1
 90
        2
176
     1
 90
        1
176
     1
 90
        2
176
     1
 40
0.6
176
     1
 40
30.0
176
     1
 62
     7
420
 16777215
176
     1
 90
        0
176
     1
 90
        0
176
     1
 62
     7
176
     1
 62
   257
176
     1
 90
        1
176
     1
 90
        1
176
     1
 40
1.0
176
     1
 90
        0
176
     1
 62
     7
176
     1
 40
1.0
176
     1
 90
        1
176
     1
 90
        6
176
     1
 90
        2
176
     1
 62
     7
176
     1
 90
        5
176
     1
 90
        0
176
     1
 90
        0
176
     1
290
     0
176
     1
 90
       13
176
     1
 40
0.0
176
     1
 90
        0
176
     1
290
     0
176
     1
290
     1
176
     1
290
     1
176
     1
290
     0
176
     1
290
     0
176
     1
290
     0
176
     1
290
     0
176
     1
290
     0
176
     1
290
     0
176
     1
 90
       50
176
     1
 40
0.0
176
     1
 40
1.0
176
     1
 90
        0
176
     1
 62
    18
420
        0
176
     1
 90
       50
176
     1
 90
        3
176
     1
 62
     5
420
      255
176
     1
290
     0
176
     1
 90
       50
176
     1
 90
       50
176
     1
 90
       50
176
     1
290
     0
176
     1
 90
       50
176
     1
 62
   256
176
     0
 40
1.0
176
     0
 90
        2
176
     1
  1
strokes_ogs.tif
176
     1
290
     0
176
     1
 40
1.0
176
     1
 40
1.0
176
     1
  0
VISUALSTYLE
  5
9D
102
{ACAD_REACTORS
330
99
102
}
330
99
100
AcDbVisualStyle
  2
GouraudWithEdges
 70
     3
177
     3
291
     1
 70
    58
 90
        2
176
     1
 90
        2
176
     1
 90
        1
176
     1
 90
        2
176
     1
 40
0.6
176
     1
 40
30.0
176
     1
 62
     7
420
 16777215
176
     1
 90
        1
176
     1
 90
        0
176
     1
 62
     7
176
     1
 62
   257
176
     1
 90
        1
176
     1
 90
        1
176
     1
 40
1.0
176
     1
 90
        0
176
     1
 62
   257
176
     1
 40
1.0
176
     1
 90
        1
176
     1
 90
        6
176
     1
 90
        2
176
     1
 62
     7
176
     1
 90
        5
176
     1
 90
        0
176
     1
 90
        0
176
     1
290
     0
176
     1
 90
       13
176
     1
 40
0.0
176
     1
 90
        0
176
     1
290
     0
176
     1
290
     1
176
     1
290
     1
176
     1
290
     0
176
     1
290
     0
176
     1
290
     0
176
     1
290
     0
176
     1
290
     0
176
     1
290
     0
176
     1
 90
       50
176
     1
 40
0.0
176
     1
 40
1.0
176
     1
 90
        0
176
     1
 62
    18
420
        0
176
     1
 90
       50
176
     1
 90
        3
176
     1
 62
     5
420
      255
176
     1
290
     0
176
     1
 90
       50
176
     1
 90
       50
176
     1
 90
       50
176
     1
290
     0
176
     1
 90
       50
176
     1
 62
   256
176
     0
 40
1.0
176
     0
 90
        2
176
     1
  1
strokes_ogs.tif
176
     1
290
     0
176
     1
 40
1.0
176
     1
 40
1.0
176
     1
  0
VISUALSTYLE
  5
A1
102
{ACAD_REACTORS
330
99
102
}
330
99
100
AcDbVisualStyle
  2
Hidden
 70
     6
177
     3
291
     0
 70
    58
 90
        1
176
     1
 90
        2
176
     1
 90
        2
176
     1
 90
        0
176
     1
 40
0.6
176
     1
 40
30.0
176
     1
 62
     7
420
 16777215
176
     1
 90
        2
176
     1
 90
        2
176
     1
 62
     7
176
     1
 62
   257
176
     1
 90
        2
176
     1
 90
        1
176
     1
 40
40.0
176
     1
 90
        0
176
     1
 62
   257
176
     1
 40
1.0
176
     1
 90
        1
176
     1
 90
        6
176
     1
 90
        2
176
     1
 62
     7
176
     1
 90
        3
176
     1
 90
        0
176
     1
 90
        0
176
     1
290
     0
176
     1
 90
        1
176
     1
 40
0.0
176
     1
 90
        0
176
     1
290
     0
176
     1
290
     1
176
     1
290
     1
176
     1
290
     0
176
     1
290
     0
176
     1
290
     0
176
     1
290
     0
176
     1
290
     0
176
     1
290
     0
176
     1
 90
       50
176
     1
 40
0.0
176
     1
 40
1.0
176
     1
 90
        0
176
     1
 62
    18
420
        0
176
     1
 90
       50
176
     1
 90
        3
176
     1
 62
     5
420
      255
176
     1
290
     0
176
     1
 90
       50
176
     1
 90
       50
176
     1
 90
       50
176
     1
290
     0
176
     1
 90
       50
176
     1
 62
   256
176
     0
 40
1.0
176
     0
 90
        2
176
     1
  1
strokes_ogs.tif
176
     1
290
     0
176
     1
 40
1.0
176
     1
 40
1.0
176
     1
  0
VISUALSTYLE
  5
173
102
{ACAD_REACTORS
330
99
102
}
330
99
100
AcDbVisualStyle
  2
JitterOff
 70
    20
177
     3
291
     1
 70
    58
 90
        2
176
     0
 90
        2
176
     0
 90
        0
176
     0
 90
        0
176
     0
 40
0.6
176
     0
 40
30.0
176
     0
 62
     7
420
 16777215
176
     0
 90
        1
176
     0
 90
        4
176
     0
 62
     7
176
     0
 62
   257
176
     0
 90
        1
176
     0
 90
        1
176
     0
 40
1.0
176
     0
 90
       10
176
     2
 62
     7
176
     0
 40
1.0
176
     0
 90
        1
176
     0
 90
        6
176
     0
 90
        2
176
     0
 62
     7
176
     0
 90
        5
176
     0
 90
        0
176
     0
 90
        0
176
     0
290
     0
176
     0
 90
        1
176
     0
 40
0.0
176
     0
 90
        0
176
     0
290
     0
176
     1
290
     1
176
     1
290
     1
176
     1
290
     0
176
     1
290
     0
176
     1
290
     0
176
     1
290
     0
176
     1
290
     0
176
     1
290
     0
176
     1
 90
       50
176
     1
 40
0.0
176
     1
 40
1.0
176
     1
 90
        0
176
     1
 62
    18
420
        0
176
     1
 90
       50
176
     1
 90
        3
176
     1
 62
     5
420
      255
176
     1
290
     0
176
     1
 90
       50
176
     1
 90
       50
176
     1
 90
       50
176
     1
290
     0
176
     1
 90
       50
176
     1
 62
   256
176
     0
 40
1.0
176
     0
 90
        2
176
     1
  1
strokes_ogs.tif
176
     1
290
     0
176
     1
 40
1.0
176
     1
 40
1.0
176
     1
  0
VISUALSTYLE
  5
A7
102
{ACAD_REACTORS
330
99
102
}
330
99
100
AcDbVisualStyle
  2
Linepattern
 70
    14
177
     3
291
     1
 70
    58
 90
        2
176
     1
 90
        2
176
     1
 90
        1
176
     1
 90
        0
176
     1
 40
0.6
176
     1
 40
30.0
176
     1
 62
     7
420
 16777215
176
     1
 90
        1
176
     1
 90
        4
176
     1
 62
     7
176
     1
 62
   257
176
     1
 90
        7
176
     1
 90
        7
176
     1
 40
1.0
176
     1
 90
        8
176
     1
 62
     7
176
     1
 40
1.0
176
     1
 90
        1
176
     1
 90
        6
176
     1
 90
        2
176
     1
 62
     7
176
     1
 90
        5
176
     1
 90
        0
176
     1
 90
        0
176
     1
290
     0
176
     1
 90
        1
176
     1
 40
0.0
176
     1
 90
        0
176
     1
290
     0
176
     1
290
     1
176
     1
290
     1
176
     1
290
     0
176
     1
290
     0
176
     1
290
     0
176
     1
290
     0
176
     1
290
     0
176
     1
290
     0
176
     1
 90
       50
176
     1
 40
0.0
176
     1
 40
1.0
176
     1
 90
        0
176
     1
 62
    18
420
        0
176
     1
 90
       50
176
     1
 90
        3
176
     1
 62
     5
420
      255
176
     1
290
     0
176
     1
 90
       50
176
     1
 90
       50
176
     1
 90
       50
176
     1
290
     0
176
     1
 90
       50
176
     1
 62
   256
176
     0
 40
1.0
176
     0
 90
        2
176
     1
  1
strokes_ogs.tif
176
     1
290
     0
176
     1
 40
1.0
176
     1
 40
1.0
176
     1
  0
VISUALSTYLE
  5
174
102
{ACAD_REACTORS
330
99
102
}
330
99
100
AcDbVisualStyle
  2
OverhangOff
 70
    21
177
     3
291
     1
 70
    58
 90
        2
176
     0
 90
        2
176
     0
 90
        0
176
     0
 90
        0
176
     0
 40
0.6
176
     0
 40
30.0
176
     0
 62
     7
420
 16777215
176
     0
 90
        1
176
     0
 90
        4
176
     0
 62
     7
176
     0
 62
   257
176
     0
 90
        1
176
     0
 90
        1
176
     0
 40
1.0
176
     0
 90
        9
176
     2
 62
     7
176
     0
 40
1.0
176
     0
 90
        1
176
     0
 90
        6
176
     0
 90
        2
176
     0
 62
     7
176
     0
 90
        5
176
     0
 90
        0
176
     0
 90
        0
176
     0
290
     0
176
     0
 90
        1
176
     0
 40
0.0
176
     0
 90
        0
176
     0
290
     0
176
     1
290
     1
176
     1
290
     1
176
     1
290
     0
176
     1
290
     0
176
     1
290
     0
176
     1
290
     0
176
     1
290
     0
176
     1
290
     0
176
     1
 90
       50
176
     1
 40
0.0
176
     1
 40
1.0
176
     1
 90
        0
176
     1
 62
    18
420
        0
176
     1
 90
       50
176
     1
 90
        3
176
     1
 62
     5
420
      255
176
     1
290
     0
176
     1
 90
       50
176
     1
 90
       50
176
     1
 90
       50
176
     1
290
     0
176
     1
 90
       50
176
     1
 62
   256
176
     0
 40
1.0
176
     0
 90
        2
176
     1
  1
strokes_ogs.tif
176
     1
290
     0
176
     1
 40
1.0
176
     1
 40
1.0
176
     1
  0
VISUALSTYLE
  5
A3
102
{ACAD_REACTORS
330
99
102
}
330
99
100
AcDbVisualStyle
  2
Realistic
 70
     8
177
     3
291
     0
 70
    58
 90
        2
176
     1
 90
        3
176
     1
 90
        0
176
     1
 90
        2
176
     1
 40
0.6
176
     1
 40
30.0
176
     1
 62
     7
420
 16777215
176
     1
 90
        0
176
     1
 90
        0
176
     1
 62
     7
176
     1
 62
   257
176
     1
 90
        1
176
     1
 90
        1
176
     1
 40
1.0
176
     1
 90
        8
176
     1
 62
   257
176
     1
 40
1.0
176
     1
 90
        1
176
     1
 90
        6
176
     1
 90
        2
176
     1
 62
     7
176
     1
 90
        3
176
     1
 90
        0
176
     1
 90
        0
176
     1
290
     0
176
     1
 90
       13
176
     1
 40
0.0
176
     1
 90
        0
176
     1
290
     0
176
     1
290
     1
176
     1
290
     1
176
     1
290
     0
176
     1
290
     0
176
     1
290
     0
176
     1
290
     0
176
     1
290
     0
176
     1
290
     0
176
     1
 90
       50
176
     1
 40
0.0
176
     1
 40
1.0
176
     1
 90
        0
176
     1
 62
    18
420
        0
176
     1
 90
       50
176
     1
 90
        3
176
     1
 62
     5
420
      255
176
     1
290
     0
176
     1
 90
       50
176
     1
 90
       50
176
     1
 90
       50
176
     1
290
     0
176
     1
 90
       50
176
     1
 62
   256
176
     0
 40
1.0
176
     0
 90
        2
176
     1
  1
strokes_ogs.tif
176
     1
290
     0
176
     1
 40
1.0
176
     1
 40
1.0
176
     1
  0
VISUALSTYLE
  5
182
102
{ACAD_REACTORS
330
99
102
}
330
99
100
AcDbVisualStyle
  2
Shaded
 70
    27
177
     3
291
     0
 70
    58
 90
        2
176
     1
 90
        2
176
     1
 90
        1
176
     1
 90
        2
176
     1
 40
0.6
176
     1
 40
30.0
176
     1
 62
     7
420
 16777215
176
     1
 90
        0
176
     1
 90
        4
176
     1
 62
     7
176
     1
 62
   257
176
     1
 90
        1
176
     1
 90
        1
176
     1
 40
1.0
176
     1
 90
        8
176
     1
 62
   257
176
     1
 40
1.0
176
     1
 90
        1
176
     1
 90
        6
176
     1
 90
        2
176
     1
 62
     8
420
  7895160
176
     1
 90
        3
176
     1
 90
        0
176
     1
 90
        0
176
     1
290
     0
176
     1
 90
        5
176
     1
 40
0.0
176
     1
 90
        0
176
     1
290
     0
176
     1
290
     1
176
     1
290
     1
176
     1
290
     0
176
     1
290
     0
176
     1
290
     0
176
     1
290
     0
176
     1
290
     0
176
     1
290
     0
176
     1
 90
       50
176
     1
 40
0.0
176
     1
 40
1.0
176
     1
 90
        0
176
     1
 62
    18
420
        0
176
     1
 90
       50
176
     1
 90
        3
176
     1
 62
     5
420
      255
176
     1
290
     0
176
     1
 90
       50
176
     1
 90
       50
176
     1
 90
       50
176
     1
290
     0
176
     1
 90
       50
176
     1
 62
   256
176
     0
 40
1.0
176
     0
 90
        2
176
     1
  1
strokes_ogs.tif
176
     1
290
     0
176
     1
 40
1.0
176
     1
 40
1.0
176
     1
  0
VISUALSTYLE
  5
181
102
{ACAD_REACTORS
330
99
102
}
330
99
100
AcDbVisualStyle
  2
Shaded with edges
 70
    26
177
     3
291
     0
 70
    58
 90
        2
176
     1
 90
        2
176
     1
 90
        1
176
     1
 90
        2
176
     1
 40
0.6
176
     1
 40
30.0
176
     1
 62
     7
420
 16777215
176
     1
 90
        1
176
     1
 90
        2
176
     1
 62
     7
176
     1
 62
   257
176
     1
 90
        2
176
     1
 90
        1
176
     1
 40
1.0
176
     1
 90
        8
176
     1
 62
   257
176
     1
 40
1.0
176
     1
 90
        1
176
     1
 90
        6
176
     1
 90
        2
176
     1
 62
     7
176
     1
 90
        3
176
     1
 90
        0
176
     1
 90
        0
176
     1
290
     0
176
     1
 90
        5
176
     1
 40
0.0
176
     1
 90
        0
176
     1
290
     0
176
     1
290
     1
176
     1
290
     1
176
     1
290
     0
176
     1
290
     0
176
     1
290
     0
176
     1
290
     0
176
     1
290
     0
176
     1
290
     0
176
     1
 90
       50
176
     1
 40
0.0
176
     1
 40
1.0
176
     1
 90
        0
176
     1
 62
    18
420
        0
176
     1
 90
       50
176
     1
 90
        3
176
     1
 62
     5
420
      255
176
     1
290
     0
176
     1
 90
       50
176
     1
 90
       50
176
     1
 90
       50
176
     1
290
     0
176
     1
 90
       50
176
     1
 62
   256
176
     0
 40
1.0
176
     0
 90
        2
176
     1
  1
strokes_ogs.tif
176
     1
290
     0
176
     1
 40
1.0
176
     1
 40
1.0
176
     1
  0
VISUALSTYLE
  5
17E
102
{ACAD_REACTORS
330
99
102
}
330
99
100
AcDbVisualStyle
  2
Shades of Gray
 70
    23
177
     3
291
     0
 70
    58
 90
        2
176
     1
 90
        2
176
     1
 90
        3
176
     1
 90
        0
176
     1
 40
0.6
176
     1
 40
30.0
176
     1
 62
     7
420
 16777215
176
     1
 90
        2
176
     1
 90
        2
176
     1
 62
     7
176
     1
 62
     7
176
     1
 90
        1
176
     1
 90
        1
176
     1
 40
40.0
176
     1
 90
        8
176
     1
 62
     7
176
     1
 40
1.0
176
     1
 90
        1
176
     1
 90
        6
176
     1
 90
        2
176
     1
 62
     7
176
     1
 90
        3
176
     1
 90
        0
176
     1
 90
        0
176
     1
290
     0
176
     1
 90
        1
176
     1
 40
0.0
176
     1
 90
        0
176
     1
290
     0
176
     1
290
     1
176
     1
290
     1
176
     1
290
     0
176
     1
290
     0
176
     1
290
     0
176
     1
290
     0
176
     1
290
     0
176
     1
290
     0
176
     1
 90
       50
176
     1
 40
0.0
176
     1
 40
1.0
176
     1
 90
        0
176
     1
 62
    18
420
        0
176
     1
 90
       50
176
     1
 90
        3
176
     1
 62
     5
420
      255
176
     1
290
     0
176
     1
 90
       50
176
     1
 90
       50
176
     1
 90
       50
176
     1
290
     0
176
     1
 90
       50
176
     1
 62
   256
176
     0
 40
1.0
176
     0
 90
        2
176
     1
  1
strokes_ogs.tif
176
     1
290
     0
176
     1
 40
1.0
176
     1
 40
1.0
176
     1
  0
VISUALSTYLE
  5
17F
102
{ACAD_REACTORS
330
99
102
}
330
99
100
AcDbVisualStyle
  2
Sketchy
 70
    24
177
     3
291
     0
 70
    58
 90
        1
176
     1
 90
        2
176
     1
 90
        2
176
     1
 90
        0
176
     1
 40
0.6
176
     1
 40
30.0
176
     1
 62
     7
420
 16777215
176
     1
 90
        2
176
     1
 90
        2
176
     1
 62
     7
176
     1
 62
     7
176
     1
 90
        1
176
     1
 90
        1
176
     1
 40
40.0
176
     1
 90
       11
176
     1
 62
     7
176
     1
 40
1.0
176
     1
 90
        1
176
     1
 90
        6
176
     1
 90
        2
176
     1
 62
     7
176
     1
 90
        6
176
     1
 90
        0
176
     1
 90
        0
176
     1
290
     0
176
     1
 90
        1
176
     1
 40
0.0
176
     1
 90
        0
176
     1
290
     0
176
     1
290
     1
176
     1
290
     1
176
     1
290
     0
176
     1
290
     0
176
     1
290
     0
176
     1
290
     0
176
     1
290
     0
176
     1
290
     0
176
     1
 90
       50
176
     1
 40
0.0
176
     1
 40
1.0
176
     1
 90
        0
176
     1
 62
    18
420
        0
176
     1
 90
       50
176
     1
 90
        3
176
     1
 62
     5
420
      255
176
     1
290
     0
176
     1
 90
       50
176
     1
 90
       50
176
     1
 90
       50
176
     1
290
     0
176
     1
 90
       50
176
     1
 62
   256
176
     0
 40
1.0
176
     0
 90
        2
176
     1
  1
strokes_ogs.tif
176
     1
290
     0
176
     1
 40
1.0
176
     1
 40
1.0
176
     1
  0
VISUALSTYLE
  5
A6
102
{ACAD_REACTORS
330
99
102
}
330
99
100
AcDbVisualStyle
  2
Thicken
 70
    13
177
     3
291
     1
 70
    58
 90
        2
176
     1
 90
        2
176
     1
 90
        1
176
     1
 90
        0
176
     1
 40
0.6
176
     1
 40
30.0
176
     1
 62
     7
420
 16777215
176
     1
 90
        1
176
     1
 90
        4
176
     1
 62
     7
176
     1
 62
   257
176
     1
 90
        1
176
     1
 90
        1
176
     1
 40
1.0
176
     1
 90
       12
176
     1
 62
     7
176
     1
 40
1.0
176
     1
 90
        1
176
     1
 90
        6
176
     1
 90
        2
176
     1
 62
     7
176
     1
 90
        5
176
     1
 90
        0
176
     1
 90
        0
176
     1
290
     0
176
     1
 90
        1
176
     1
 40
0.0
176
     1
 90
        0
176
     1
290
     0
176
     1
290
     1
176
     1
290
     1
176
     1
290
     0
176
     1
290
     0
176
     1
290
     0
176
     1
290
     0
176
     1
290
     0
176
     1
290
     0
176
     1
 90
       50
176
     1
 40
0.0
176
     1
 40
1.0
176
     1
 90
        0
176
     1
 62
    18
420
        0
176
     1
 90
       50
176
     1
 90
        3
176
     1
 62
     5
420
      255
176
     1
290
     0
176
     1
 90
       50
176
     1
 90
       50
176
     1
 90
       50
176
     1
290
     0
176
     1
 90
       50
176
     1
 62
   256
176
     0
 40
1.0
176
     0
 90
        2
176
     1
  1
strokes_ogs.tif
176
     1
290
     0
176
     1
 40
1.0
176
     1
 40
1.0
176
     1
  0
VISUALSTYLE
  5
A0
102
{ACAD_REACTORS
330
99
102
}
330
99
100
AcDbVisualStyle
  2
Wireframe
 70
     5
177
     3
291
     0
 70
    58
 90
        0
176
     1
 90
        2
176
     1
 90
        0
176
     1
 90
        0
176
     1
 40
0.6
176
     1
 40
30.0
176
     1
 62
     7
420
 16777215
176
     1
 90
        1
176
     1
 90
        4
176
     1
 62
     7
176
     1
 62
   257
176
     1
 90
        1
176
     1
 90
        1
176
     1
 40
1.0
176
     1
 90
        0
176
     1
 62
   257
176
     1
 40
1.0
176
     1
 90
        1
176
     1
 90
        6
176
     1
 90
        2
176
     1
 62
     7
176
     1
 90
        3
176
     1
 90
        0
176
     1
 90
        0
176
     1
290
     0
176
     1
 90
        1
176
     1
 40
0.0
176
     1
 90
        0
176
     1
290
     0
176
     1
290
     1
176
     1
290
     1
176
     1
290
     0
176
     1
290
     0
176
     1
290
     0
176
     1
290
     0
176
     1
290
     0
176
     1
290
     0
176
     1
 90
       50
176
     1
 40
0.0
176
     1
 40
1.0
176
     1
 90
        0
176
     1
 62
    18
420
        0
176
     1
 90
       50
176
     1
 90
        3
176
     1
 62
     5
420
      255
176
     1
290
     0
176
     1
 90
       50
176
     1
 90
       50
176
     1
 90
       50
176
     1
290
     0
176
     1
 90
       50
176
     1
 62
   256
176
     0
 40
1.0
176
     0
 90
        2
176
     1
  1
strokes_ogs.tif
176
     1
290
     0
176
     1
 40
1.0
176
     1
 40
1.0
176
     1
  0
VISUALSTYLE
  5
180
102
{ACAD_REACTORS
330
99
102
}
330
99
100
AcDbVisualStyle
  2
X-Ray
 70
    25
177
     3
291
     0
 70
    58
 90
        2
176
     1
 90
        2
176
     1
 90
        1
176
     1
 90
        1
176
     1
 40
0.5
176
     1
 40
30.0
176
     1
 62
     7
420
 16777215
176
     1
 90
        1
176
     1
 90
        0
176
     1
 62
     7
176
     1
 62
   257
176
     1
 90
        1
176
     1
 90
        1
176
     1
 40
1.0
176
     1
 90
        8
176
     1
 62
     7
176
     1
 40
1.0
176
     1
 90
        1
176
     1
 90
        6
176
     1
 90
        2
176
     1
 62
     7
176
     1
 90
        3
176
     1
 90
        0
176
     1
 90
        0
176
     1
290
     0
176
     1
 90
       13
176
     1
 40
0.0
176
     1
 90
        0
176
     1
290
     0
176
     1
290
     1
176
     1
290
     1
176
     1
290
     0
176
     1
290
     0
176
     1
290
     0
176
     1
290
     0
176
     1
290
     0
176
     1
290
     0
176
     1
 90
       50
176
     1
 40
0.0
176
     1
 40
1.0
176
     1
 90
        0
176
     1
 62
    18
420
        0
176
     1
 90
       50
176
     1
 90
        3
176
     1
 62
     5
420
      255
176
     1
290
     0
176
     1
 90
       50
176
     1
 90
       50
176
     1
 90
       50
176
     1
290
     0
176
     1
 90
       50
176
     1
 62
   256
176
     0
 40
1.0
176
     0
 90
        2
176
     1
  1
strokes_ogs.tif
176
     1
290
     0
176
     1
 40
1.0
176
     1
 40
1.0
176
     1
  0
DICTIONARYVAR
  5
F0
102
{ACAD_REACTORS
330
66
102
}
330
66
100
DictionaryVariables
280
     0
  1
1:1
  0
DICTIONARYVAR
  5
EF
102
{ACAD_REACTORS
330
66
102
}
330
66
100
DictionaryVariables
280
     0
  1
STANDARD
  0
DICTIONARYVAR
  5
89
102
{ACAD_REACTORS
330
66
102
}
330
66
100
DictionaryVariables
280
     0
  1
STANDARD
  0
DICTIONARYVAR
  5
1B7
102
{ACAD_REACTORS
330
66
102
}
330
66
100
DictionaryVariables
280
     0
  1
Imperial24
  0
DICTIONARYVAR
  5
1B8
102
{ACAD_REACTORS
330
66
102
}
330
66
100
DictionaryVariables
280
     0
  1
Imperial24
  0
DICTIONARYVAR
  5
67
102
{ACAD_REACTORS
330
66
102
}
330
66
100
DictionaryVariables
280
     0
  1
2
  0
DICTIONARYVAR
  5
6B
102
{ACAD_REACTORS
330
66
102
}
330
66
100
DictionaryVariables
280
     0
  1
1
  0
DICTIONARYVAR
  5
14D
102
{ACAD_REACTORS
330
66
102
}
330
66
100
DictionaryVariables
280
     0
  1
0
  0
DICTIONARYVAR
  5
14E
102
{ACAD_REACTORS
330
66
102
}
330
66
100
DictionaryVariables
280
     0
  1
0
  0
DICTIONARY
  5
194
330
22
100
AcDbDictionary
280
     1
281
     1
  0
DICTIONARY
  5
188
330
97
100
AcDbDictionary
280
     1
281
     1
  3
FBXASSET
360
189
  0
DICTIONARY
  5
186
330
96
100
AcDbDictionary
280
     1
281
     1
  3
FBXASSET
360
187
  0
DICTIONARY
  5
110
330
98
100
AcDbDictionary
280
     1
281
     1
  3
BUMPTILE
360
112
  3
DIFFUSETILE
360
111
  3
FBXASSET
360
18A
  3
OPACITYTILE
360
113
  3
REFLECTIONTILE
360
114
  0
DICTIONARY
  5
104
330
87
100
AcDbDictionary
280
     1
281
     1
  3
ACAD_ROUNDTRIP_2008_TABLESTYLE_CELLSTYLEMAP
360
2C6B
  0
XRECORD
  5
189
102
{ACAD_REACTORS
330
188
102
}
330
188
100
AcDbXrecord
280
     1
 70
     1
 90
429727718
  1
508B35C9-AEE7-456F-BE74-D52651303AC6
310
504B03040A0000080000B670623B3DEE336E79000000790000001B0000006175746F6465736B2D64657369676E2D7061636B6167652E786D6C3C3F786D6C2076657273696F6E3D22312E302220656E636F64696E673D227574662D3822203F3E3C666F726D6174733E3C666F726D61743E687474703A2F2F736368656D612E
310
6175746F6465736B2E636F6D2F64657369676E2D7061636B6167652F323030393C2F666F726D61743E3C2F666F726D6174733E504B0304140006080800B670623BD486FD9CA0000000F4000000130000005B436F6E74656E745F54797065735D2E786D6C7D8EC10E82300C865F65E91D8A1E8C310C0EEA1BF002731658846E
310
D98AC1B77784ABF1D8FE5FBFBF75BBCE937A534CCEB38643598122B6FEE978D0B0485F9C41B54DDD7D022595594E1A469170414C76A4D9A4D207E29CF43ECE46F218070CC6BECC4078ACAA135ACF422C856C0E68EA1BF5669944DDD7BCDE7B1F8E415D77AECB980613C2E4AC91FC167A2B244592486606FC29C8FD7F045B9A
310
EF7053A7E60B504B0304140006080800B670623B28ED286BEB0000007C01000008000000636F72652E786D6C8D90416EC3201045AF82665B6183218D6D61A254764FD00B204C5C94182C03558F5F9C3852BBEB6A467FFE9B197D71FA9E6FE8CBACC17AD7012D0820E3B41FAD9B3A48F1826B40272956EFE32F1B20A766D3C1
310
268314D3EAD3B24BDABB685CCCAAF3A3D94515828980F42D371D04FD696655A814B3235C8B45E9AB9A4C419F5D8653B2237A1CB163DE672FD6AC209BF3C08E0D1B30EB19C3FC9D72FCC6EB231EFA33EDE96BDD341517E5064B11EDFCBCAF57A3A2194156843498524CAA0FCA5B7268F9E185D42D21A2DCEC7FA0B48CFF8492
310
759155FBBB0F2C80A4F991FB408A72CB22977B50B96EB9C91F504B0304140006080800B670623B55019EA25F0000007C00000007000000636E782E786D6C4DCB3B0E80201045D1AD90E915ED2CF8AC45050C11660C8261F98AB1B07AC9C97D42D718D865D3E909258CFD00CCE24AC6E326A164D74DC0B4128928FF32603847
310
2BA13128B1252AC747C6BAB984FC68F0B87FE8960A5C09FE86CFB69FBA01504B0304140006080800B670623B7BC41AC871010000D40300000C0000006662782F636F72652E786D6CC553ED6E8320147D15C2DF4501B56B6D90A64BBB27D80B50A5CE54C120983EFEAE1F4DD7A56BBA5FF3879273EEE59E7310BE393735EA95
310
ED2AA333CC428A91D2B9292A5D66D8BB63B0C26823B835C67D2BC348CB46657880B1E0A535BE9DA1DC68A7B403549B42CDA0EC3AE530CA6B5864B8CB3F552343E91D5474A7B095F949962A6421D0502778E72C0840D390E18DC5F170E664C205F7BE2A66B62A605A75AC94C522DDEEE3651AEF837817C741F2CE92E02D592D
310
83FD6ECB76EC7595A651C2C9D02CB8AB9A8BBADC2AE954814544691A3016D0E883256BBA58278B17BA5A53CAC9507ED3E4DBE2C9265F691747B3DCA9ADC382819091F8E1162272A8933DE82182932144F88C09DF060D8140C84E1EEA8B8F1340BDCA9DB1093085F157AA97B557309586747CD0EF0B4EA64E983A6E0EAEEFCE
310
889E9EF17847386AA94B30211D2C0FDE0D3AF9A4610EAD5536E8DD1969631B593F67E381C33F5157F17725E5A636F6BF1491F980C8FC7B90E13E8A2F504B0304140006080800B670623B70102A487D0000009D0000000B0000006662782F636E782E786D6C4DCCD10A83201886E15B91FFDC95A5C30335ACCDFB886521330D
310
A76397BF1A1DECE883878F57749FD5A3B74D2F17830472A901D9F088930B8B849267CC01754AA418F3DF0D5018572BE160506249B16C274D761E8BCFBB7A179E27F65CB39A0F14D396184C9921B81F34C3ACA1B4B99ABB6E6F062A25AA5F69DF23ACBE504B0304140006080800B670623B3610CA3329010000120200003100
310
00006662782F42384135303843342D343331462D343546312D424341352D3532343432364645413344462F636F72652E786D6C8D515B6EC32010BC0AE22B55850D0E446E848992B43E412FE000495162B07854397EA176A4F62F3F2C9A9D991D58BEBB8F37F0AD7D30CE76905418026DA553C65E3A98E219B510EC04F7CEC5
310
3F3408EC30EA0E16180A7EF12E4D0B249D8DDAC68C5AA7F4020E21E80881BCE54B0783FCD2E3500D296646B856D320AFC34557A4CAEDCC133C449F0380794839A138B47B86DB2345744D7A44594FD0E1B867883594369BFE63BF7EEF793D0B054FC9A8456E548E63CE46FB674D8A58F068C6477CE9F510B582A2C1F80D1182
310
70F349E816B32D65AFB8DD62CCEB42FF274A937A52948C8DEB66893BCB021484D7734370E5D2E9F608A3EF93F3119479ABA0E50B14B8C298119A43CCC4FCFCECB8A18B6388CEE7EF5D5D4F994BD86CBBA182D76543B9FCAE2FD7B24DF103504B0304140006080800B670623B1B8617914E0100003303000030000000666278
310
2F42384135303843342D343331462D343546312D424341352D3532343432364645413344462F636E782E786D6CD593C16EC32010447F0571AD6CE3D489D20813A9877E410FBD62D82434182CC055F3F75D1292E692438FBD206B7698593D61BEFD1E2DF982108D773D6D6B460938E5B571FB9ECE6957AD29D90A1EBC4F7736
310
4A9C1CA1A759A682EF839FA72269D8C9D92654AD71C72206887E0E0A22CAF926B15E498B01E0AA19451807D01A34B919F16B070157417138917400F2F6FA41FCF0092A45DEE414C19BDC21783E4BD39D891265658C3D8DEA00A3ACE59CBC8678ACB54CB26EEB6BD7839D7E9348BE70AD9C8321B9BCA7F9A4A26C542347DEE0
310
50F09802D22BA6749A800A394DD62899107273365E3C82CFC6A55557BC06C10774B7ABE7AEC3B0F34CF06446280E154026D0542C187BA9DAB6628BF7B6DBB0E5A65B3EB1F58631DE64BBE083F7B65CC218087E22CABB042E51D1F2268F1FE12B3EA24D40D63E9CFE00120194D60B9D5BC67FE6D39CDF37E20AF817881F504B
310
0304140006080800B670623BBFEF2E3B690500003C100000340000006662782F42384135303843342D343331462D343546312D424341352D3532343432364645413344462F6F626A656374732E786D6CAD575D739B3814FD2B0CFB0C98D84E931D4227B6938EA793B6534F3BFB90198F0099B001899144EAECAFDF231018B0
310
D37A3FFC609090EEE7B94757C1FB7D915B2F54C88CB31BDB7727B64559CC938CA53776A576CE956DBD0F03C1B9EA2DB32D460A7A63EB693B0C52C1ABD24C257447AA5C8D66EF177F5832A68CDA569C13296F6C193FD182B8A4523CA1F2D94D88226EBADBBBBEDB2C1C8A4D05299F46424B222853B014F30C52ACC6287F389C
310
D85E1878FA7B18E87FB36AFAF62AAFF667A83F635211161F291B8999FAB3D5DDC5FCDA99CF6653677679E13B8BFBC5CAF1DF4D27CBCBE5F2FAF6EE1A8AA51290642C117467871F101B91C581D77CEA2C36869F3229E68CD1B8F61F1ED6361B89092D294B90C78C4A68EB793D190E7D1D9BDEE7A91E1B95FDE9F3BCEAEFE809
310
6A6D6F9F7D4B79F4275C90E7A04248AA51D5C4C738DAE06F72885AC4796EBE65D22A88A22223B995679120E2D50EB1542F098381188D4EA111AE3DB043FF20AF6F2B4AE3D7D83D65E5AECA730D4D3BAC91BD05FEA992B565D95F549CD6069B90AB2A63EACA38A45E4B6A87D781574F86817E4C2FCCC72690D62E2729520E37
310
9BAF234797BAF6D62B3BFC781FED37BA1E4F2B2F052FA9501A3E80569BB8F6A9A364D4FA67654E6F803383981F82F21591FF84F23D9882BC896C3FDBCF8C162508933B2E0AE4C69DD43F6BD2BE38DDDBF10BF86CB4FA784D37F3AF16075E67EC9030DECA1FC0A55373F5DFF3378C591FA9BDF485C10B0A8C8BA909E5262639
310
A8E72163488806A595734C81CB77D1DE0ED7604A303B76913CEC0272F412782FF88EFF4636D8AA56DF7B322474C4B767303F625997056C7B032C473C592B36CEBD15F3F9FF5233B7ABCDC74D257624A60F8658567497B14CE1EC3C80B76FD02011038F9EE9EB0F2E12387A9C844D3F09855125116D1D731DF8B43D2CF4E0A0
310
79A020C6BE946BCE0B7EA1E1219331CD73C228AF5A2DDD31A4B1DA918CE91350854D40A71723140BFA92E94E62B0626016CEFA5864A50E5977E8753CEDBEE1CBB7F52780D20E17AF0BA0F5F9B02A3AD07DCC732EB6D1EBB661421BE0C39E21BABF0FE16D22EA6929407C8DE596724C88B749B6DB5512BC7B228ADFD7CB7EA6
310
3A22397E690BA8D5D8D4E40CEC8CDA23C2C0B7D5898640101CEC9C6D331CE328CB93CAFBBAC70A642DF70DF95155945B52F08AA973C23469FD69ADEF84F7BB18F983A8F8C90E37F5D35980B2139A1C523540813E824EF83448CF7C72B598CE97D7CEEDDDDD3B6736BFBC771677EF66CE6A7E7139F7A793E9EDF2B2B3A8B624
310
0CDA13AA5F8388264EC4A0129909F3B7F5A16CEDF08128E97D680ACA4B9BE7B7B58BB638F0B00700EF36AE8B32A705658A68F83EE897FC2B41573190D1CCAF0B92D233A47CFEB019D9809933F67DD1A5467F8CF69AD9A5AE859342D45355448C64F968A371DC2D596ADC6E43D93D1B466F877A64E2893E54F23C4B40388995
310
525E5005DA3983ED45412510D3EFCA13737B3863F74BD30F2A12E5B4B5E489A025CE25500DB855B11ACE5BBFA185D35DD48D8DC3CE7DC69F2944DB42AA6F6CF09BCA622ADD08C7A36E7C6AE18000BAB08E040135C2D21C9D75B3A91B77BB746C403F38018DFE6EC939DD92F16B40BC05294B9CDA035AAD6D330AE27FE4786B
310
8E45145EA34A75BE1C263A676A35A8ACC6297337400BF16C54EF515F3F77CB77EB3583889C754FFA29081AA98E2222ADEF05DA3E63D2EDEA8B8756C05A7FB6CABC4A91CBF325398202CC952E70A008A830324BA200D5E5EF8F5F04C75DB4B0EE3340E071C98B823333B83577596BF3849B69F2085AA0FAFA212F26BEFF5877
310
FDE622B28D88A42E49E43326DA82D31E8CB006401E1DA726059ECEC168F97A6599036306A135688F9AD2E61A6EA178F4CD51974A9F2CCB9F36FE5EBD14601068D9C3BF01504B0304140006080000B670623B000000000000000000000000350000006662782F42384135303843342D343331462D343546312D424341352D35
310
32343432364645413344462F76657274696365732E62696E504B0304140006080800B670623BF270F1330600000004000000360000006662782F42384135303843342D343331462D343546312D424341352D3532343432364645413344462F747269616E676C65732E62696E636660600000504B0304140006080000B67062
310
3B000000000000000000000000370000006662782F42384135303843342D343331462D343546312D424341352D3532343432364645413344462F617474726962757465732E62696E504B0304140006080800B670623B08DA0BD19000000041010000360000006662782F42384135303843342D343331462D343546312D4243
310
41352D3532343432364645413344462F6469726563746F72792E786D6C858F410AC3201045AF22B36F53E9A60B35CBEEBAE80D244E44489C6234F4F835464A48035D0DF398FF9F8AF63D0E6CC63039F212F8F9020C7D47C6792B21C5FE7403D62A1188E2E60C98D7234A5830286103A55745067B9D86B8A3CF9C7F90C11DE6
310
07FB144396D7B6A82D282E9A152AD114D5EF2CB866EEE831B8EEA07A7BB5A8D7D61A2BAAEB7FD5F70921FF497D00504B0304140006080800B670623B3B4606F3FE000000A00100003B0000006662782F42384135303843342D343331462D343546312D424341352D3532343432364645413344462F7265736F75726365732F
310
636F72652E786D6C8D504B6E833010BD0A9A6D65B08134808CA354A427E8052C332156828DFCA97AFC9A40A576D7CDCCE87D344F8F9FBEE647F689CE6B6B7A6039850C8DB2A336530F315C4903D94970676DF82583CCC8197B5861107C72362E3BA4AC096842428D1D7107A5F71820538F74F4E0D50D6799CB1892C2DFF345
310
AABB9C306779A2934E701F5C0A906D4FD609C2A1B7D129F4BCD858C163D4E3AED163FAA9AF1A1D88F67CA98E6D35906AA82A52BFB39ABCD5CD915C86331BD86BD3B665CD8BD52C78D0F34F46E550061C419494B6843142CB0F5677F4D0D58717DA7494F26295FF31C565FCA7296A13AA728FBBD93C0896823C09C18BB5AFB4
310
9E65A6BD762BBE01504B010214000A0000080000B670623B3DEE336E79000000790000001B00000000000000000000000000000000006175746F6465736B2D64657369676E2D7061636B6167652E786D6C504B01021400140006080800B670623BD486FD9CA0000000F40000001300000000000000000000000000B2000000
310
5B436F6E74656E745F54797065735D2E786D6C504B01021400140006080800B670623B28ED286BEB0000007C010000080000000000000000000000000083010000636F72652E786D6C504B01021400140006080800B670623B55019EA25F0000007C000000070000000000000000000000000094020000636E782E786D6C50
310
4B01021400140006080800B670623B7BC41AC871010000D40300000C00000000000000000000000000180300006662782F636F72652E786D6C504B01021400140006080800B670623B70102A487D0000009D0000000B00000000000000000000000000B30400006662782F636E782E786D6C504B01021400140006080800B6
310
70623B3610CA3329010000120200003100000000000000000000000000590500006662782F42384135303843342D343331462D343546312D424341352D3532343432364645413344462F636F72652E786D6C504B01021400140006080800B670623B1B8617914E010000330300003000000000000000000000000000D10600
310
006662782F42384135303843342D343331462D343546312D424341352D3532343432364645413344462F636E782E786D6C504B01021400140006080800B670623BBFEF2E3B690500003C10000034000000000000000000000000006D0800006662782F42384135303843342D343331462D343546312D424341352D35323434
310
32364645413344462F6F626A656374732E786D6C504B01021400140006080000B670623B0000000000000000000000003500000000000000000000000000280E00006662782F42384135303843342D343331462D343546312D424341352D3532343432364645413344462F76657274696365732E62696E504B010214001400
310
06080800B670623BF270F133060000000400000036000000000000000000000000007B0E00006662782F42384135303843342D343331462D343546312D424341352D3532343432364645413344462F747269616E676C65732E62696E504B01021400140006080000B670623B00000000000000000000000037000000000000
310
00000000000000D50E00006662782F42384135303843342D343331462D343546312D424341352D3532343432364645413344462F617474726962757465732E62696E504B01021400140006080800B670623B08DA0BD1900000004101000036000000000000000000000000002A0F00006662782F42384135303843342D3433
310
31462D343546312D424341352D3532343432364645413344462F6469726563746F72792E786D6C504B01021400140006080800B670623B3B4606F3FE000000A00100003B000000000000000000000000000E1000006662782F42384135303843342D343331462D343546312D424341352D3532343432364645413344462F72
310
65736F75726365732F636F72652E786D6C504B0506000000000E000E0080040000651100000000
  0
XRECORD
  5
187
102
{ACAD_REACTORS
330
186
102
}
330
186
100
AcDbXrecord
280
     1
 70
     1
 90
429727718
  1
887D55A9-D0DD-414E-B741-A7DCD4DA2B4C
310
504B03040A0000080000B670623B3DEE336E79000000790000001B0000006175746F6465736B2D64657369676E2D7061636B6167652E786D6C3C3F786D6C2076657273696F6E3D22312E302220656E636F64696E673D227574662D3822203F3E3C666F726D6174733E3C666F726D61743E687474703A2F2F736368656D612E
310
6175746F6465736B2E636F6D2F64657369676E2D7061636B6167652F323030393C2F666F726D61743E3C2F666F726D6174733E504B0304140006080800B670623BD486FD9CA0000000F4000000130000005B436F6E74656E745F54797065735D2E786D6C7D8EC10E82300C865F65E91D8A1E8C310C0EEA1BF002731658846E
310
D98AC1B77784ABF1D8FE5FBFBF75BBCE937A534CCEB38643598122B6FEE978D0B0485F9C41B54DDD7D022595594E1A469170414C76A4D9A4D207E29CF43ECE46F218070CC6BECC4078ACAA135ACF422C856C0E68EA1BF5669944DDD7BCDE7B1F8E415D77AECB980613C2E4AC91FC167A2B244592486606FC29C8FD7F045B9A
310
EF7053A7E60B504B0304140006080800B670623BBC1638F5EC0000007C01000008000000636F72652E786D6C8D90416EC3201045AF82665B61836BE2D8C24471DB9CA01740401C94182C03558F5F9C3852BBEB6A467FFE9B197D7EF89E6EE8CB2CC17AD7032D0820E394D7D68D3DA478C67B4007C117EFE32F1B202727D3C3
310
2A83E0E3E2D3BC49CABB685CCCAAF3DA6CA20CC14440EA969B1E82BA98491632C5EC08D76296EA2A4753D06797E194AC468F2356E77DF66CCD02825543D50CACC62D39ED70FDC68EB8FD68F6F8787A6784342D1DDA1D2F5758F068A7E77DB518198D065111D2624A31A93E69DD11D6D5EC85EC3B4278B9DAFF4069D6FF8492
310
75F1B5DADE7D600104CD8FDC0782976B16B9DC83CA75CD4DFC00504B0304140006080800B670623B55019EA25F0000007C00000007000000636E782E786D6C4DCB3B0E80201045D1AD90E915ED2CF8AC45050C11660C8261F98AB1B07AC9C97D42D718D865D3E909258CFD00CCE24AC6E326A164D74DC0B4128928FF326038
310
472BA13128B1252AC747C6BAB984FC68F0B87FE8960A5C09FE86CFB69FBA01504B0304140006080800B670623B3586FFB671010000D40300000C0000006662782F636F72652E786D6CC553ED6E8320147D15C2DF4541A76D6D90A6DDD627D80B50A4CE54C120983EFEAE1F4DD7A55BBA5FF3879273EEE59E7310B6393735EA
310
95ED2AA3731C851423A5A5292A5DE6D8BB63B0C268C39935C67D29C3488B46E578803167A535BE9D2169B453DA01AA4DA16650749D7218C91A1639EEE4876A4428BC838AEE14B6429E44A9C228041AEA38EB9C0501681A32BC313F1ECE8C4C3867DE57C5CC56054CAB8E95B298A7F12E5EEED224C8E87E11242FE936C8DE96
310
AB60BB7F4D295D66D12E5B30323473E6AAE6A24E5A259C2A308F29CD82280A68FC1E256B9AAE93F489AED694323294DF34F9B678B0C957DA3DC7B3DCA9ADC33C022123F1CD2D44E450277AD04338234388F01913BE0D1A0281909D38D4171F27807A259DB1093085F157AA17B557309586747CD0CF0B46A64E983A6E0EAEEF
310
CE881F9EF1FB8E70D44297604238581EBC1B74B249C31C5AAB6CD0BB33D2C636A27ECCC62F0EFF445DC5DF95244D6DEC7F2922F30191F9F720C37DE49F504B0304140006080800B670623B4220A0FF7D0000009D0000000B0000006662782F636E782E786D6C4DCCD10A83201886E15B91FFDCE542CB0335D0EC3E6259C84A
310
C3E9D8E5AF46073BFAE0E1E315DD675BD1DBA5978F41C2FD4600B9F088930F8B849267CC01754AA418F3DF0D50183727E164506249B1EC174D6E1ECB9A0F5D7D785E68DB8151CD286E5A5363CA6B8A39E90D36D40E96B086F55A43A544F52B1D7B86D517504B0304140006080800B670623B2FA3FEDE290100001202000031
310
0000006662782F45374635344235342D363743322D343832342D383044432D4334454645303536354442422F636F72652E786D6C8D515B6EC32010BC0AE22B55850D2E386E848994D7097A0117488A1283C5A3CAF10BB523B57FF961D1ECCCECC0F2ED7DBC816FED8371B687A4C210682B9D32F6D2C314CFA883602BB8772E
310
FEA141608751F7B0C050F08B77695A20E96CD43666D43AA5177008414708E42D5F7A18E4971E876A483133C2B59A06791D2EBA22556E679EE021FA1C00CC43CA09C5717D6274C7286AD7FB06D1AEA1A8C3873DDAD3E3E98859CB0EBB1DAF67A1E02919B5C88DCA71CCD968FFAC49110B1ECDF8882FBD1EA256503418BF2342
310
106E3E08DD60B6A1EC15771B8C795DE8FF4469524F8A92B1F1AD59E2CEB20005E1F5DC105CB9F4797B84D1F7C9F908CABC55D0F2050A5C61CC1AD2F27A26E6E767C7962E8E213A9FBF7775FDCC5CC266DB960A5E970DE5F2BBBE5CCB36C50F504B0304140006080800B670623B1B8617914E01000033030000300000006662
310
782F45374635344235342D363743322D343832342D383044432D4334454645303536354442422F636E782E786D6CD593C16EC32010447F0571AD6CE3D489D20813A9877E410FBD62D82434182CC055F3F75D1292E692438FBD206B7698593D61BEFD1E2DF982108D773D6D6B460938E5B571FB9ECE6957AD29D90A1EBC4F77
310
364A9C1CA1A759A682EF839FA72269D8C9D92654AD71C72206887E0E0A22CAF926B15E498B01E0AA19451807D01A34B919F16B070157417138917400F2F6FA41FCF0092A45DEE414C19BDC21783E4BD39D891265658C3D8DEA00A3ACE59CBC8678ACB54CB26EEB6BD7839D7E9348BE70AD9C8321B9BCA7F9A4A26C542347DE
310
E050F09802D22BA6749A800A394DD62899107273365E3C82CFC6A55557BC06C10774B7ABE7AEC3B0F34CF06446280E154026D0542C187BA9DAB6628BF7B6DBB0E5A65B3EB1F58631DE64BBE083F7B65CC218087E22CABB042E51D1F2268F1FE12B3EA24D40D63E9CFE00120194D60B9D5BC67FE6D39CDF37E20AF817881F50
310
4B0304140006080800B670623B29652116630500003C100000340000006662782F45374635344235342D363743322D343832342D383044432D4334454645303536354442422F6F626A656374732E786D6CAD575D739B3814FD2B0CFB0C989834C90EA1639B24E3E9A6EDD4D3CE3E64C623834CD8006224913AFDF57B040203
310
B65BEF871F0C12D2FD3CF7E8CA7FBFCB33E3957291B2E2D674ED8969D02262715A24B76625B7D6B569BC0F7CCE98EC2D338D82E4F4D654D366E0279C55A59E8AE99654991CCDDECFFF3444440B6A1A514684B83545F44C7362934AB2988A173B2692D8C97667BB76B3702836E1A47C1E092D09A78584A5982F20C5688C7287
310
C389E904BEA3BE07BEFAD7ABA6A75739B53F43FD69212429A20365233153D70BEF2E2E6FAC4BCF9B5ADEBB0BD79ADFCF43CBBD9A4E16EF168B9BD9DD0D140BC921495BC2E9D60C1E101B9E46BED37CEA2CD6861F3329624541A3DA7F7858DBAC25C6B4A4458C3CA654405BCFEBC970E8AAD8F43E4FD558ABEC4F9FE7557F47
310
4F506B7BFBEC5BCA367FC105710E2AB8A00A554D7CB4A30DFE26FBA86D18CBF4B75418399194A72433B274C3097F33032C554B027F2046A1932B842B0FCCC0DDCBEBDB8AD2F835768F59B9ADB24C41D30C6A64AF817F2A456D59FA83F2E3DA60137255A585BCD60EC9B7929AC18DEFD49381AF1ED30BFDB109A4B1CD488294
310
C3CDE6EBC8D185AABD6568061FEE37BB95AAC7E3CA4BCE4ACAA5820FA0D526AE7DAA2869B5EE5999531BE0CC20E6FBA07C41E43FA27CF7A6206F3CDD793B4F6B919C1462CB788EDCD893FA674CDA17AB7B3B7C019F8D561FAEE966FED562DFE98C1D12C6A9FC015C2A35D7FF3D7FC398F591DA4B5FE0BFA2C0189FEA50AE22
310
92817A1ED3020951A03432862970F976B33383259812CC8E5D240BBA801CBCF8CE2BBEE3BF910DB6AAD5F79E05123AE2DB33981FB1ACCB02B69D00CB014FD68AB573A7627EF9BFD4CC2C5C7D58557C4B22FAA88925A4DBB44825CECE3D78FB060D1231F0E885BE7D673C86A3874958F593906B5502D1563157814FDAC3420D
310
F69A070A22EC4B98E23CFF171A1E5311D12C23056555ABA53B8614563B92D17D02AAB009E8F46284624E5F53D5490C560CCCC2591FF1B45421EB0EBD8EA7ED13BE7C5D7E0428CD60FEF60779EB13E6664FF711CB185F6FDED60D139A001FF60CD1FD6D086F1D51474901E26B2CB794A343BC8ED3EDB612E0DD2351FCB65CF4
310
33D511C9E14B5B40ADC6A6263DB0336A8F700DDF56271A024E70B0B3629DE21847591E55DED73D56206AB927E46FAABC5C939C55853C274C93D69FD6FA4E78BF8B11DF898C9ECD60553FAD39283BA6F18984AA23E8884F83F45C5F5F859797B31B2B9C84A1E5B9DE9D35BFF25C6B76152E422F9C5DCC3D847F5801ED09D5AF
310
41441327A25FF15487F9EB725FB666F048A4701E9A827292E6F97569A32DF61DEC01C0BB8DCBBCCC684E0B49147C1FD54BF685A0AB18C868E6973949E819523E3DAC463660E68C7D9F55A9D1EFA3BD7A76A16AE1A810F95CE59B82A4D968A376DC2E8B44BBDD86B27B368CDE0ED548C7137DA860591A83706223A12CA712B4
310
7306DBF39C0A20A6DF95C7FAF670C6EED7A61F946493D1D6926782963813403548A78AE470DEF80D2D9CEAA26E4D1C76F60BFE74219A06527D6B82DF641A51616F703CAAC6A7160E08A00BEB4810A0274592A1B36E3675E36E978A0DE80727A0D6DF2D39A75BD27E0D8837276589537B40ABB56D5A41F48F1C6FCD3188C4EB
310
A6929D2FFB89CE995A4D00AE813BDD032DC48B56BD437DFDDC2DD7AED70C2272D63DE9A72068A45A92F0A4BE17A8A06B9366E16707AD80B1FC649459952097E74BB23805982B55E0401150A165964402AA8BDF9F3E7386BB686EDCA780C0D382E5392BF460A6EFB2C6EA1937D3F809B440D5F5435C4C5CF7A9EEFAF54564BD
310
2182DA24162F98680B4E7930C21A0079709CEAEB99A372305ABE0C0D7D6078105A83F6A0296DAEE1068A47DD1C55A9F4C9B2FC69E3EFD44B81028E963DF81B504B0304140006080000B670623B000000000000000000000000350000006662782F45374635344235342D363743322D343832342D383044432D433445464530
310
3536354442422F76657274696365732E62696E504B0304140006080800B670623BF270F1330600000004000000360000006662782F45374635344235342D363743322D343832342D383044432D4334454645303536354442422F747269616E676C65732E62696E636660600000504B0304140006080000B670623B00000000
310
0000000000000000370000006662782F45374635344235342D363743322D343832342D383044432D4334454645303536354442422F617474726962757465732E62696E504B0304140006080800B670623B08DA0BD19000000041010000360000006662782F45374635344235342D363743322D343832342D383044432D4334
310
454645303536354442422F6469726563746F72792E786D6C858F410AC3201045AF22B36F53E9A60B35CBEEBAE80D244E44489C6234F4F835464A48035D0DF398FF9F8AF63D0E6CC63039F212F8F9020C7D47C6792B21C5FE7403D62A1188E2E60C98D7234A5830286103A55745067B9D86B8A3CF9C7F90C11DE607FB144396
310
D7B6A82D282E9A152AD114D5EF2CB866EEE831B8EEA07A7BB5A8D7D61A2BAAEB7FD5F70921FF497D00504B0304140006080800B670623B6378F24DFF000000A00100003B0000006662782F45374635344235342D363743322D343832342D383044432D4334454645303536354442422F7265736F75726365732F636F72652E
310
786D6C8D504B6E833010BD0A9A6D65B0094E42641C85B639412F6099496225D8C89FAAC7AF09546A77DDCC8CDE47F3F4C4F16B7C149FE88371B603565228D06A37187BED20C50BD9437194C23B177FC9A0B06AC40E6618A4B87A97A615D2CE46B431A3D60DB8822A048C50E8473E3A08FA86A32A558A5911EEE5A4F45D5DB1
310
6465A6B34E8A107D0E502C4FE609D26370C96B0CA25A58295232C3AA3143FE692E063D485EF7F5AEE71BD2D2F39634AFFC44DAF7DD9E9CCE6F9CD25DCBFA762BAAD92C4534E34F46ED51451C40D694B6843142EB0FD61C283F34FC85EE0F948A6A96FF31A569F8A729191B37F51A77B105902C0779125254735F793DCBCC7B
310
EE567E03504B010214000A0000080000B670623B3DEE336E79000000790000001B00000000000000000000000000000000006175746F6465736B2D64657369676E2D7061636B6167652E786D6C504B01021400140006080800B670623BD486FD9CA0000000F40000001300000000000000000000000000B20000005B436F6E
310
74656E745F54797065735D2E786D6C504B01021400140006080800B670623BBC1638F5EC0000007C010000080000000000000000000000000083010000636F72652E786D6C504B01021400140006080800B670623B55019EA25F0000007C000000070000000000000000000000000095020000636E782E786D6C504B010214
310
00140006080800B670623B3586FFB671010000D40300000C00000000000000000000000000190300006662782F636F72652E786D6C504B01021400140006080800B670623B4220A0FF7D0000009D0000000B00000000000000000000000000B40400006662782F636E782E786D6C504B01021400140006080800B670623B2F
310
A3FEDE290100001202000031000000000000000000000000005A0500006662782F45374635344235342D363743322D343832342D383044432D4334454645303536354442422F636F72652E786D6C504B01021400140006080800B670623B1B8617914E010000330300003000000000000000000000000000D2060000666278
310
2F45374635344235342D363743322D343832342D383044432D4334454645303536354442422F636E782E786D6C504B01021400140006080800B670623B29652116630500003C10000034000000000000000000000000006E0800006662782F45374635344235342D363743322D343832342D383044432D4334454645303536
310
354442422F6F626A656374732E786D6C504B01021400140006080000B670623B0000000000000000000000003500000000000000000000000000230E00006662782F45374635344235342D363743322D343832342D383044432D4334454645303536354442422F76657274696365732E62696E504B01021400140006080800
310
B670623BF270F13306000000040000003600000000000000000000000000760E00006662782F45374635344235342D363743322D343832342D383044432D4334454645303536354442422F747269616E676C65732E62696E504B01021400140006080000B670623B0000000000000000000000003700000000000000000000
310
000000D00E00006662782F45374635344235342D363743322D343832342D383044432D4334454645303536354442422F617474726962757465732E62696E504B01021400140006080800B670623B08DA0BD190000000410100003600000000000000000000000000250F00006662782F45374635344235342D363743322D34
310
3832342D383044432D4334454645303536354442422F6469726563746F72792E786D6C504B01021400140006080800B670623B6378F24DFF000000A00100003B00000000000000000000000000091000006662782F45374635344235342D363743322D343832342D383044432D4334454645303536354442422F7265736F75
310
726365732F636F72652E786D6C504B0506000000000E000E0080040000611100000000
  0
XRECORD
  5
112
102
{ACAD_REACTORS
330
110
102
}
330
110
100
AcDbXrecord
280
     1
270
     1
271
     1
  0
XRECORD
  5
111
102
{ACAD_REACTORS
330
110
102
}
330
110
100
AcDbXrecord
280
     1
270
     1
271
     1
  0
XRECORD
  5
18A
102
{ACAD_REACTORS
330
110
102
}
330
110
100
AcDbXrecord
280
     1
 70
     0
 90
1778669749
  1
9BF507EE-FAF7-4A99-A33D-4EE51894BC40
310
504B03040A0000080000B670623B3DEE336E79000000790000001B0000006175746F6465736B2D64657369676E2D7061636B6167652E786D6C3C3F786D6C2076657273696F6E3D22312E302220656E636F64696E673D227574662D3822203F3E3C666F726D6174733E3C666F726D61743E687474703A2F2F736368656D612E
310
6175746F6465736B2E636F6D2F64657369676E2D7061636B6167652F323030393C2F666F726D61743E3C2F666F726D6174733E504B0304140006080800B670623BD486FD9CA0000000F4000000130000005B436F6E74656E745F54797065735D2E786D6C7D8EC10E82300C865F65E91D8A1E8C310C0EEA1BF002731658846E
310
D98AC1B77784ABF1D8FE5FBFBF75BBCE937A534CCEB38643598122B6FEE978D0B0485F9C41B54DDD7D022595594E1A469170414C76A4D9A4D207E29CF43ECE46F218070CC6BECC4078ACAA135ACF422C856C0E68EA1BF5669944DDD7BCDE7B1F8E415D77AECB980613C2E4AC91FC167A2B244592486606FC29C8FD7F045B9A
310
EF7053A7E60B504B0304140006080800B670623BCA089DFFEC0000007C01000008000000636F72652E786D6C8D90416E83301045AF62CDB632D8402020E32882F604BD80653BC44AB011B6AB1EBF262152BBEB6A467FFE9B197D76FA9EEFE84BAFDE38DB03CD08206DA553C64E3DC470C1474027CE56E7C22F1B202B66DDC3
310
260367D3EAE2B24BD2D9A06D48AA754AEFA2F05E0740F29E9A1EBCBCEA59642286E4F0B76C11F226269DD15797E0188D42CF2346A57DE662F40ABCAEC77628C6120F654571D50C04B7F5B9C1E3997CD4F550BE3745C3F20DE62C98F9755FAE5A04AD801784B498524C8A4F5A75E4D055873772EC0861F966FF03C545FD138A
310
C686B2D8DF7D621E384D8F3C069CE55B16A93C824A75CB8DFF00504B0304140006080800B670623B55019EA25F0000007C00000007000000636E782E786D6C4DCB3B0E80201045D1AD90E915ED2CF8AC45050C11660C8261F98AB1B07AC9C97D42D718D865D3E909258CFD00CCE24AC6E326A164D74DC0B4128928FF326038
310
472BA13128B1252AC747C6BAB984FC68F0B87FE8960A5C09FE86CFB69FBA01504B0304140006080800B670623B68FC0B7272010000D40300000C0000006662782F636F72652E786D6CC5535B6E833010BC8AE5DF0A6C1E8124328E22D29EA01770C0A128602363A31CBFCB234A53A555FA553EC09AD9F5CE8C31DB5DDA060D
310
D2F4B556190E7C8A9154852E6B5565D8D993B7C668C799D1DA7E29C3488956667884316795D1AE5BA0422B2B950554E9522EA0E87B69312A1A5864B82F3E642B7CE12C54F467BF13C55954D20F7CA0A18EB3DE1A1080E621E31BF3D3F1C2C88C73E65C5D2E6C5DC2B4FA544B8379921C36797888BC3C8A032F4E73EA6D927D
310
EA1DF6F42D49F2E8350D5346C666CE6CDD5ED515460A2B4BCC434A375E1078347C0FE22D5D6DE3D50B5D6F2965642CBF6B725DF96493AB958DC245EEDCD6631E809089F8E61622B2A81703E8219C913144F84C09DF070D8140C8561C9BAB8F3340832CAC363130A576376A108D933095FA747AD0CF0B46E64E983A6D0EAE1F
310
CE089F9EF1FB8E70D44255604258581E9D1D75B259C3125A278D37D80B52DAB4A279CEC62F0EFF44DDC43F9454E8469BFF5244960322CBEF41C6FBC83F01504B0304140006080800B670623B0F71DDB67E0000009D0000000B0000006662782F636E782E786D6C4DCCD10A83201886E15B91FFDCA54DB73F502386BB8F5816
310
32D3703976F9ABD1C18E3E78F87855FB990379BBFCF2296AE02706C4C5471A7C9C349475A408A4352AA7B4FEDD80C47E761A7606A3A69CCA72D0E0C6BE8475D3E0E3F3409428EA6B27A84079A782899AA2EC1A7AE3ECCC2FD858CB2D544655BFD2B67BD87C01504B0304140006080800B670623BE134B4FB28010000120200
310
00310000006662782F38353834323741342D343835462D343034322D383541392D4331303331363839454531452F636F72652E786D6C8D515B6EC32010BC0AE22B55850D0EA424C24451959EA0172086A42831583CAA1CBF503B52FB971F16CDCECC0EACD8DFC71BF836215AEF7A481A0C817183D7D65D7A98D3197108F652
310
04EFD31F1A044E8DA6871586525C82CFD3020DDE25E352419DD76601558C264130DCCAA58771F832A36A544E8511AFCDA486ABBA988634A55D7852C4144A00300FA927949C71DABD1D28A29C7D208A6987383B6CD13BC16BB2E1DBE3911C453B0BA5C8D9EA456E758963CFD684674DAA588A64C747FC2118958C86B2C3788B
310
0841B8FB247487D98EB257CC77188BB6D2FF89F2A49F1465EBD2BA5BE2CEB2082511EDDC9042FB7CBA3DC298FBE4430275DE2A9AE1054ADC60CC08E3A29D89E5F9C5714317C7987C28DFBBBA9E0A97B0D97643A568EB864AF95D5FA9759BF207504B0304140006080800B670623B1B8617914E010000330300003000000066
310
62782F38353834323741342D343835462D343034322D383541392D4331303331363839454531452F636E782E786D6CD593C16EC32010447F0571AD6CE3D489D20813A9877E410FBD62D82434182CC055F3F75D1292E692438FBD206B7698593D61BEFD1E2DF982108D773D6D6B460938E5B571FB9ECE6957AD29D90A1EBC4F
310
77364A9C1CA1A759A682EF839FA72269D8C9D92654AD71C72206887E0E0A22CAF926B15E498B01E0AA19451807D01A34B919F16B070157417138917400F2F6FA41FCF0092A45DEE414C19BDC21783E4BD39D891265658C3D8DEA00A3ACE59CBC8678ACB54CB26EEB6BD7839D7E9348BE70AD9C8321B9BCA7F9A4A26C542347
310
DEE050F09802D22BA6749A800A394DD62899107273365E3C82CFC6A55557BC06C10774B7ABE7AEC3B0F34CF06446280E154026D0542C187BA9DAB6628BF7B6DBB0E5A65B3EB1F58631DE64BBE083F7B65CC218087E22CABB042E51D1F2268F1FE12B3EA24D40D63E9CFE00120194D60B9D5BC67FE6D39CDF37E20AF817881F
310
504B0304140006080800B670623B5933D422630500003B100000340000006662782F38353834323741342D343835462D343034322D383541392D4331303331363839454531452F6F626A656374732E786D6CAD575B6FA33814FE2B887D0642934E9B156594264D158D3A534DD4D13E548A0C38942D60649B4EBABF7E3F8321
310
40924EF6928780CDF1B97EE762EFF32E4B8D37CA45C2F21BD3B547A641F39045491EDF98A5DC5AD7A6F1D9F73863B243661A39C9E88DA9B64DDF8B392B0BBD15D12D295339D85DDEFE618890E6D434C2940871638AF08566C426A5641115AF764424B1E3EDCE76ED9AB0CF36E6A47819302D08A7B984A6D8CFC1C5A89572FB
310
CB91E9F89EA3BEFB9EFAD754E3D3544E654F5F7E920B49F2F040D880CDD89D2CEE2E2EA7D6E56432B6269F2E5CEB7679BBB0DCABF168FE693E9FCEEEA6102C240727AD09A75BD3BF876F78127A4EFDA9D5582B7E4CA590E5390D2BFB6161A5B3E618D182E611E2985001691DAB47FDA5AB7CD3F93C566B2DB2BB7D9E55DD13
310
1D468DEECDB3AB290BFE8409E21C54704115AA6AFF68436BFC8DF65E0B184BF5B74418199194272435D224E084BF9B3E481589EFF5D828747285706581E9BB7B7E5D5D911ABFC6EE312DB7659A2A689A7E85EC0DF04FA5A8344BFEA2FCB834E8845895492EAFB541F2BDA0A63FF59C6AD3F7D4637CA13FD68E34B629891172
310
98597F1D183A57B9B75A98FE9765B05BAB7C3C2EBCE0ACA05C2AF8005A4DE09AA7F29216EB9E15397500C6F47CBE77CA7778FE2BD277AF0AE2C693DD6437D1522427B9D8329E2136F6A8FA19A3E6C56ADF0E5F50CF06D48734EDCEBF22F69C56D97EC138153F804B85E6FABFC7AFEFB32E523BE1F3BD372418E363EDCA7548
310
52949E8724474014288D94610BB57C1BEC4C7F854A89CA8E5324F55B871CBC78CE1BBEE3BFE68D6A5589EF3C730474506FCFA8FCF0659516D0ED04580EEA6425581B77CAE797FF4BCECC16EB2FEB926F49481F746159D06D922712BD730FDEAE42BD40F42C7AA5EF3F198F60E86110D6DD20645A9480B795CF95E3E3A659A8
310
C55E724F408873315335CFFB8584874484344D494E59D94869DB90C26A5B64F49C802CAC1D3ABE18A098D3B7444D123D8A9E5AE8F5214F0AE5B2B6E9B575DA3E61CBD3EA2B4009FA940524DD1305FB6A1FB294F14DF0BEA90BA109ECE1481FDC3FFAE8D60E75141700BE82725371B4873751B2DD960265F788137FACE6DD40
310
B575E4F0A5C99F46629D92131467A41EE11ABD8D4CCC039CA0AFB37C93A08B232B8F0AEFCA1E0A1015DF13FC83322B362463652ECF71D3A8B1A7D1BE65DE1D62C44F22C317D35F574FEB16153BA2D13E543D10A80E74C4A65E78A6B7CBCBD1D5DD9DB59C2DAFACC96C3AB566E3F1C29ADCDD5DBAD7D3C9ED7C822ED74F80A6
310
41755310DE4443F44A9E68373FADF6596BFA0F440AE7BECE2727AE9F4F2B1B53B1E7E00CF0DD1E5C65454A339A4BA2D0FBA05ED2EF0443458F47BDBFCA484CCFE0F2ED7E3DD0013B679C7B5499467F0ECEEADDB9CA85A34CE44B99053949D2C1416DB85DE4B136BB7165FBAC0B7AB3542BED4F8CA182A549847A1319316519
310
95A83A67147B9E5101C47487F2485F1ECE38FD568F839204296D3479219888530154036E6528FBFBC66F98E0D4107563A2D7D9AFF8D389681A08F58D89F22693900A3B407754734FC51C10C010D6D640809EE4718AC1BA3ED4AEDB53CA37283F68805A7E4B72CEB0A4EDEAD5DD8C14059A76AFAA56BA6901E13F32BC51C720
310
12AF41295B5BF61BAD3195181FB506E6B40F4C10AF5AF40EF9F5B159AE5DD1F43C72D635E94310D45C2D49785C5D0B94D3B54AB3C5A38349C0587D338AB48C11CBF339599C02CCA54A70A008A8D03C0B2201D5F9EFCF8F9CE12A9A19CB0410789EB32C63B95ECCF455D658BFE0621A3DA32C5075FB101723D77DAE867E7D0F
310
D90444509B44E2151B4DC2290B065803200FBAA9BE9D392A0603F2D5C2D00D6302A615680F66D2FA166E2079D4C551A54AB758161FCEFD4E450A14704CECFEDF504B0304140006080000B670623B000000000000000000000000350000006662782F38353834323741342D343835462D343034322D383541392D4331303331
310
363839454531452F76657274696365732E62696E504B0304140006080800B670623BF270F1330600000004000000360000006662782F38353834323741342D343835462D343034322D383541392D4331303331363839454531452F747269616E676C65732E62696E636660600000504B0304140006080000B670623B000000
310
000000000000000000370000006662782F38353834323741342D343835462D343034322D383541392D4331303331363839454531452F617474726962757465732E62696E504B0304140006080800B670623B08DA0BD19000000041010000360000006662782F38353834323741342D343835462D343034322D383541392D43
310
31303331363839454531452F6469726563746F72792E786D6C858F410AC3201045AF22B36F53E9A60B35CBEEBAE80D244E44489C6234F4F835464A48035D0DF398FF9F8AF63D0E6CC63039F212F8F9020C7D47C6792B21C5FE7403D62A1188E2E60C98D7234A5830286103A55745067B9D86B8A3CF9C7F90C11DE607FB1443
310
96D7B6A82D282E9A152AD114D5EF2CB866EEE831B8EEA07A7BB5A8D7D61A2BAAEB7FD5F70921FF497D00504B0304140006080800B670623BD9A3B367FE000000A00100003B0000006662782F38353834323741342D343835462D343034322D383541392D4331303331363839454531452F7265736F75726365732F636F7265
310
2E786D6C8D504B6E833010BD0A9A6D65B01D0201194711694FD00B586642AD043BF2A7EAF16B122AB5BB6E6646EFA3797AE2F8B5DC8A4FF4C1383B002B291468B59B8C9D0748F1420E501CA5F0CEC55F3228AC5A708015062966EFD27D83B4B3116DCCA875136EA00A012314FA968F0182FEC045952AC5AC08D7F2AEF455CD
310
58B232D3592745883E07289E4FD609D26370C96B0CA27AB252A464A64D63A6FCD35C0C7A904D73EE467EE664DCD58CD4ED4849D79C5A723ED1B7A61977AF2D6F45B59AA58866F9C9A83DAA8813484E6947182394BFB3BAA7FBBEDEBFD0434FA9A856F91F53BA4FFF342563E38E6F719FB60092E5200F428A6AED2BAF479979
310
AFDDCA6F504B010214000A0000080000B670623B3DEE336E79000000790000001B00000000000000000000000000000000006175746F6465736B2D64657369676E2D7061636B6167652E786D6C504B01021400140006080800B670623BD486FD9CA0000000F40000001300000000000000000000000000B20000005B436F6E
310
74656E745F54797065735D2E786D6C504B01021400140006080800B670623BCA089DFFEC0000007C010000080000000000000000000000000083010000636F72652E786D6C504B01021400140006080800B670623B55019EA25F0000007C000000070000000000000000000000000095020000636E782E786D6C504B010214
310
00140006080800B670623B68FC0B7272010000D40300000C00000000000000000000000000190300006662782F636F72652E786D6C504B01021400140006080800B670623B0F71DDB67E0000009D0000000B00000000000000000000000000B50400006662782F636E782E786D6C504B01021400140006080800B670623BE1
310
34B4FB280100001202000031000000000000000000000000005C0500006662782F38353834323741342D343835462D343034322D383541392D4331303331363839454531452F636F72652E786D6C504B01021400140006080800B670623B1B8617914E010000330300003000000000000000000000000000D3060000666278
310
2F38353834323741342D343835462D343034322D383541392D4331303331363839454531452F636E782E786D6C504B01021400140006080800B670623B5933D422630500003B10000034000000000000000000000000006F0800006662782F38353834323741342D343835462D343034322D383541392D4331303331363839
310
454531452F6F626A656374732E786D6C504B01021400140006080000B670623B0000000000000000000000003500000000000000000000000000240E00006662782F38353834323741342D343835462D343034322D383541392D4331303331363839454531452F76657274696365732E62696E504B01021400140006080800
310
B670623BF270F13306000000040000003600000000000000000000000000770E00006662782F38353834323741342D343835462D343034322D383541392D4331303331363839454531452F747269616E676C65732E62696E504B01021400140006080000B670623B0000000000000000000000003700000000000000000000
310
000000D10E00006662782F38353834323741342D343835462D343034322D383541392D4331303331363839454531452F617474726962757465732E62696E504B01021400140006080800B670623B08DA0BD190000000410100003600000000000000000000000000260F00006662782F38353834323741342D343835462D34
310
3034322D383541392D4331303331363839454531452F6469726563746F72792E786D6C504B01021400140006080800B670623BD9A3B367FE000000A00100003B000000000000000000000000000A1000006662782F38353834323741342D343835462D343034322D383541392D4331303331363839454531452F7265736F75
310
726365732F636F72652E786D6C504B0506000000000E000E0080040000611100000000
  0
XRECORD
  5
113
102
{ACAD_REACTORS
330
110
102
}
330
110
100
AcDbXrecord
280
     1
270
     1
271
     1
  0
XRECORD
  5
114
102
{ACAD_REACTORS
330
110
102
}
330
110
100
AcDbXrecord
280
     1
270
     1
271
     1
  0
CELLSTYLEMAP
  5
2C6B
102
{ACAD_REACTORS
330
104
102
}
330
104
100
AcDbCellStyleMap
 90
        3
300
CELLSTYLE
  1
TABLEFORMAT_BEGIN
 90
        5
170
     1
 91
        0
 92
    32768
 62
   257
 93
        1
300
CONTENTFORMAT
  1
CONTENTFORMAT_BEGIN
 90
        0
 91
        0
 92
      512
 93
        0
300

 40
0.0
140
1.0
 94
        5
 62
     0
340
11
144
0.25
309
CONTENTFORMAT_END
171
     1
301
MARGIN
  1
CELLMARGIN_BEGIN
 40
0.06
 40
0.06
 40
0.06
 40
0.06
 40
0.18
 40
0.18
309
CELLMARGIN_END
 94
        6
 95
        1
302
GRIDFORMAT
  1
GRIDFORMAT_BEGIN
 90
        0
 91
        1
 62
     0
 92
       -2
340
0
 93
        0
 40
0.045
309
GRIDFORMAT_END
 95
        2
302
GRIDFORMAT
  1
GRIDFORMAT_BEGIN
 90
        0
 91
        1
 62
     0
 92
       -2
340
0
 93
        0
 40
0.045
309
GRIDFORMAT_END
 95
        4
302
GRIDFORMAT
  1
GRIDFORMAT_BEGIN
 90
        0
 91
        1
 62
     0
 92
       -2
340
0
 93
        0
 40
0.045
309
GRIDFORMAT_END
 95
        8
302
GRIDFORMAT
  1
GRIDFORMAT_BEGIN
 90
        0
 91
        1
 62
     0
 92
       -2
340
0
 93
        0
 40
0.045
309
GRIDFORMAT_END
 95
       16
302
GRIDFORMAT
  1
GRIDFORMAT_BEGIN
 90
        0
 91
        1
 62
     0
 92
       -2
340
0
 93
        0
 40
0.045
309
GRIDFORMAT_END
 95
       32
302
GRIDFORMAT
  1
GRIDFORMAT_BEGIN
 90
        0
 91
        1
 62
     0
 92
       -2
340
0
 93
        0
 40
0.045
309
GRIDFORMAT_END
309
TABLEFORMAT_END
  1
CELLSTYLE_BEGIN
 90
        1
 91
        1
300
_TITLE
309
CELLSTYLE_END
300
CELLSTYLE
  1
TABLEFORMAT_BEGIN
 90
        5
170
     1
 91
        0
 92
        0
 62
   257
 93
        1
300
CONTENTFORMAT
  1
CONTENTFORMAT_BEGIN
 90
        0
 91
        0
 92
      512
 93
        0
300

 40
0.0
140
1.0
 94
        5
 62
     0
340
11
144
0.18
309
CONTENTFORMAT_END
171
     1
301
MARGIN
  1
CELLMARGIN_BEGIN
 40
0.06
 40
0.06
 40
0.06
 40
0.06
 40
0.18
 40
0.18
309
CELLMARGIN_END
 94
        6
 95
        1
302
GRIDFORMAT
  1
GRIDFORMAT_BEGIN
 90
        0
 91
        1
 62
     0
 92
       -2
340
0
 93
        0
 40
0.045
309
GRIDFORMAT_END
 95
        2
302
GRIDFORMAT
  1
GRIDFORMAT_BEGIN
 90
        0
 91
        1
 62
     0
 92
       -2
340
0
 93
        0
 40
0.045
309
GRIDFORMAT_END
 95
        4
302
GRIDFORMAT
  1
GRIDFORMAT_BEGIN
 90
        0
 91
        1
 62
     0
 92
       -2
340
0
 93
        0
 40
0.045
309
GRIDFORMAT_END
 95
        8
302
GRIDFORMAT
  1
GRIDFORMAT_BEGIN
 90
        0
 91
        1
 62
     0
 92
       -2
340
0
 93
        0
 40
0.045
309
GRIDFORMAT_END
 95
       16
302
GRIDFORMAT
  1
GRIDFORMAT_BEGIN
 90
        0
 91
        1
 62
     0
 92
       -2
340
0
 93
        0
 40
0.045
309
GRIDFORMAT_END
 95
       32
302
GRIDFORMAT
  1
GRIDFORMAT_BEGIN
 90
        0
 91
        1
 62
     0
 92
       -2
340
0
 93
        0
 40
0.045
309
GRIDFORMAT_END
309
TABLEFORMAT_END
  1
CELLSTYLE_BEGIN
 90
        2
 91
        1
300
_HEADER
309
CELLSTYLE_END
300
CELLSTYLE
  1
TABLEFORMAT_BEGIN
 90
        5
170
     1
 91
        0
 92
        0
 62
   257
 93
        1
300
CONTENTFORMAT
  1
CONTENTFORMAT_BEGIN
 90
        0
 91
        0
 92
      512
 93
        0
300

 40
0.0
140
1.0
 94
        2
 62
     0
340
11
144
0.18
309
CONTENTFORMAT_END
171
     1
301
MARGIN
  1
CELLMARGIN_BEGIN
 40
0.06
 40
0.06
 40
0.06
 40
0.06
 40
0.18
 40
0.18
309
CELLMARGIN_END
 94
        6
 95
        1
302
GRIDFORMAT
  1
GRIDFORMAT_BEGIN
 90
        0
 91
        1
 62
     0
 92
       -2
340
0
 93
        0
 40
0.045
309
GRIDFORMAT_END
 95
        2
302
GRIDFORMAT
  1
GRIDFORMAT_BEGIN
 90
        0
 91
        1
 62
     0
 92
       -2
340
0
 93
        0
 40
0.045
309
GRIDFORMAT_END
 95
        4
302
GRIDFORMAT
  1
GRIDFORMAT_BEGIN
 90
        0
 91
        1
 62
     0
 92
       -2
340
0
 93
        0
 40
0.045
309
GRIDFORMAT_END
 95
        8
302
GRIDFORMAT
  1
GRIDFORMAT_BEGIN
 90
        0
 91
        1
 62
     0
 92
       -2
340
0
 93
        0
 40
0.045
309
GRIDFORMAT_END
 95
       16
302
GRIDFORMAT
  1
GRIDFORMAT_BEGIN
 90
        0
 91
        1
 62
     0
 92
       -2
340
0
 93
        0
 40
0.045
309
GRIDFORMAT_END
 95
       32
302
GRIDFORMAT
  1
GRIDFORMAT_BEGIN
 90
        0
 91
        1
 62
     0
 92
       -2
340
0
 93
        0
 40
0.045
309
GRIDFORMAT_END
309
TABLEFORMAT_END
  1
CELLSTYLE_BEGIN
 90
        3
 91
        2
300
_DATA
309
CELLSTYLE_END
  0
ENDSEC
  0
SECTION
  2
ACDSDATA
 70
     2
 71
     8
  0
ACDSSCHEMA
 90
        0
  1
AcDb_Thumbnail_Schema
  2
AcDbDs::ID
280
    10
 91
        8
  2
Thumbnail_Data
280
    15
 91
        0
101
ACDSRECORD
 95
        0
 90
        1
  2
AcDbDs::TreatedAsObjectData
280
     1
291
     1
101
ACDSRECORD
 95
        0
 90
        2
  2
AcDbDs::Legacy
280
     1
291
     1
101
ACDSRECORD
  1
AcDbDs::ID
 90
        3
  2
AcDs:Indexable
280
     1
291
     1
101
ACDSRECORD
  1
AcDbDs::ID
 90
        4
  2
AcDbDs::HandleAttribute
280
     7
282
     1
  0
ACDSSCHEMA
 90
        1
  1
AcDbDs::TreatedAsObjectDataSchema
  2
AcDbDs::TreatedAsObjectData
280
     1
 91
        0
  0
ACDSSCHEMA
 90
        2
  1
AcDbDs::LegacySchema
  2
AcDbDs::Legacy
280
     1
 91
        0
  0
ACDSSCHEMA
 90
        3
  1
AcDbDs::IndexedPropertySchema
  2
AcDs:Indexable
280
     1
 91
        0
  0
ACDSSCHEMA
 90
        4
  1
AcDbDs::HandleAttributeSchema
  2
AcDbDs::HandleAttribute
280
     7
 91
        1
284
     1
  0
ACDSRECORD
 90
        0
  2
AcDbDs::ID
280
    10
320
22
  2
Thumbnail_Data
280
    15
 94
     1186
310
89504E470D0A1A0A0000000D4948445200000113000001000803000000A73562BF00000300504C5445212830FFFFFF2128300000000000000000000000000000000000000000000000000000330000660000990000CC0000FF0033000033330033660033990033CC0033FF0066000066330066660066990066CC0066FF0099
310
000099330099660099990099CC0099FF00CC0000CC3300CC6600CC9900CCCC00CCFF00FF0000FF3300FF6600FF9900FFCC00FFFF3300003300333300663300993300CC3300FF3333003333333333663333993333CC3333FF3366003366333366663366993366CC3366FF3399003399333399663399993399CC3399FF33CC00
310
33CC3333CC6633CC9933CCCC33CCFF33FF0033FF3333FF6633FF9933FFCC33FFFF6600006600336600666600996600CC6600FF6633006633336633666633996633CC6633FF6666006666336666666666996666CC6666FF6699006699336699666699996699CC6699FF66CC0066CC3366CC6666CC9966CCCC66CCFF66FF0066
310
FF3366FF6666FF9966FFCC66FFFF9900009900339900669900999900CC9900FF9933009933339933669933999933CC9933FF9966009966339966669966999966CC9966FF9999009999339999669999999999CC9999FF99CC0099CC3399CC6699CC9999CCCC99CCFF99FF0099FF3399FF6699FF9999FFCC99FFFFCC0000CC00
310
33CC0066CC0099CC00CCCC00FFCC3300CC3333CC3366CC3399CC33CCCC33FFCC6600CC6633CC6666CC6699CC66CCCC66FFCC9900CC9933CC9966CC9999CC99CCCC99FFCCCC00CCCC33CCCC66CCCC99CCCCCCCCCCFFCCFF00CCFF33CCFF66CCFF99CCFFCCCCFFFFFF0000FF0033FF0066FF0099FF00CCFF00FFFF3300FF3333
310
FF3366FF3399FF33CCFF33FFFF6600FF6633FF6666FF6699FF66CCFF66FFFF9900FF9933FF9966FF9999FF99CCFF99FFFFCC00FFCC33FFCC66FFCC99FFCCCCFFCCFFFFFF00FFFF33FFFF66FFFF99FFFFCCFFFFFF0000000D0D0D1A1A1A2828283535354343435050505D5D5D6B6B6B787878868686939393A1A1A1AEAEAEBB
310
BBBBC9C9C9D6D6D6E4E4E4F1F1F1FFFFFF0000000000000000000000000000000000000000000000000000000000002E4550F1000001264944415478DAEDDCD90AC2301445D1FEFFFFF65DA4088116E9ED40D39CB59EA3E0366610719A00000000000000000000000000008040F3970C9A6802F0E41A2B82269A003C7DDFD9
310
A089269A6802D0DB1ADB316FDA48934F85734D12126A7249C377EC3BA79FB3387ED426CBC39687169AD4860FDEA419AF49D74D6EE9ACC9706B2CE68926FD1C48F73769C76B92D7A4BE176B92D4E4F74AEBF71DE713A85E2313BE90D7441300E04DF76334B9B649C88F2D34D9BAC168D2BCB6EAEF0AC6FE92FA6893E2F8B19B
310
2CF323A1C9ACC989F521A7C97D0D493E9F24ECC5F526F61DF364C7BE639E64356996074D8E36095863F97B3A7130D5E4DA26011135F16103D61F66FF5700000000000000000000000000000000000000000000000000000000000000C04E1F67D8F797ED9CE75D0000000049454E44AE426082B103A82A39E5F4E86C09BC1A
310
2173A5953E00000000F8A21F88DE373320799AB30000000049454E44AE42608200000049454E44AE426082
  0
ENDSEC
  0
EOF
