  0
SECTION
  2
HEADER
  9
$ACADVER
  1
AC1027
  9
$ACADMAINTVER
 70
   125
  9
$DWGCODEPAGE
  3
ANSI_1252
  9
$LASTSAVEDBY
  1
carolina.coriani
  9
$REQUIREDVERSIONS
160
                 0
  9
$INSBASE
 10
0.0
 20
0.0
 30
0.0
  9
$EXTMIN
 10
22.51902786963057
 20
1857.789208244479
 30
0.0
  9
$EXTMAX
 10
4032.178490513111
 20
3305.72960416346
 30
0.0
  9
$LIMMIN
 10
0.0
 20
0.0
  9
$LIMMAX
 10
12.0
 20
9.0
  9
$ORTHOMODE
 70
     0
  9
$REGENMODE
 70
     1
  9
$FILLMODE
 70
     1
  9
$QTEXTMODE
 70
     0
  9
$MIRRTEXT
 70
     0
  9
$LTSCALE
 40
1.0
  9
$ATTMODE
 70
     1
  9
$TEXTSIZE
 40
0.2
  9
$TRACEWID
 40
0.05
  9
$TEXTSTYLE
  7
Standard
  9
$CLAYER
  8
0
  9
$CELTYPE
  6
ByLayer
  9
$CECOLOR
 62
   256
  9
$CELTSCALE
 40
1.0
  9
$DISPSILH
 70
     0
  9
$DIMSCALE
 40
1.0
  9
$DIMASZ
 40
0.18
  9
$DIMEXO
 40
0.0625
  9
$DIMDLI
 40
0.38
  9
$DIMRND
 40
0.0
  9
$DIMDLE
 40
0.0
  9
$DIMEXE
 40
0.18
  9
$DIMTP
 40
0.0
  9
$DIMTM
 40
0.0
  9
$DIMTXT
 40
0.18
  9
$DIMCEN
 40
0.09
  9
$DIMTSZ
 40
0.0
  9
$DIMTOL
 70
     0
  9
$DIMLIM
 70
     0
  9
$DIMTIH
 70
     1
  9
$DIMTOH
 70
     1
  9
$DIMSE1
 70
     0
  9
$DIMSE2
 70
     0
  9
$DIMTAD
 70
     0
  9
$DIMZIN
 70
     0
  9
$DIMBLK
  1

  9
$DIMASO
 70
     1
  9
$DIMSHO
 70
     1
  9
$DIMPOST
  1

  9
$DIMAPOST
  1

  9
$DIMALT
 70
     0
  9
$DIMALTD
 70
     2
  9
$DIMALTF
 40
25.4
  9
$DIMLFAC
 40
1.0
  9
$DIMTOFL
 70
     0
  9
$DIMTVP
 40
0.0
  9
$DIMTIX
 70
     0
  9
$DIMSOXD
 70
     0
  9
$DIMSAH
 70
     0
  9
$DIMBLK1
  1

  9
$DIMBLK2
  1

  9
$DIMSTYLE
  2
Standard
  9
$DIMCLRD
 70
     0
  9
$DIMCLRE
 70
     0
  9
$DIMCLRT
 70
     0
  9
$DIMTFAC
 40
1.0
  9
$DIMGAP
 40
0.09
  9
$DIMJUST
 70
     0
  9
$DIMSD1
 70
     0
  9
$DIMSD2
 70
     0
  9
$DIMTOLJ
 70
     1
  9
$DIMTZIN
 70
     0
  9
$DIMALTZ
 70
     0
  9
$DIMALTTZ
 70
     0
  9
$DIMUPT
 70
     0
  9
$DIMDEC
 70
     4
  9
$DIMTDEC
 70
     4
  9
$DIMALTU
 70
     2
  9
$DIMALTTD
 70
     2
  9
$DIMTXSTY
  7
Standard
  9
$DIMAUNIT
 70
     0
  9
$DIMADEC
 70
     0
  9
$DIMALTRND
 40
0.0
  9
$DIMAZIN
 70
     0
  9
$DIMDSEP
 70
    46
  9
$DIMATFIT
 70
     3
  9
$DIMFRAC
 70
     0
  9
$DIMLDRBLK
  1

  9
$DIMLUNIT
 70
     2
  9
$DIMLWD
 70
    -2
  9
$DIMLWE
 70
    -2
  9
$DIMTMOVE
 70
     0
  9
$DIMFXL
 40
1.0
  9
$DIMFXLON
 70
     0
  9
$DIMJOGANG
 40
0.7853981633974483
  9
$DIMTFILL
 70
     0
  9
$DIMTFILLCLR
 70
     0
  9
$DIMARCSYM
 70
     0
  9
$DIMLTYPE
  6

  9
$DIMLTEX1
  6

  9
$DIMLTEX2
  6

  9
$DIMTXTDIRECTION
 70
     0
  9
$LUNITS
 70
     2
  9
$LUPREC
 70
     4
  9
$SKETCHINC
 40
0.1
  9
$FILLETRAD
 40
0.0
  9
$AUNITS
 70
     0
  9
$AUPREC
 70
     0
  9
$MENU
  1
.
  9
$ELEVATION
 40
0.0
  9
$PELEVATION
 40
0.0
  9
$THICKNESS
 40
0.0
  9
$LIMCHECK
 70
     0
  9
$CHAMFERA
 40
0.0
  9
$CHAMFERB
 40
0.0
  9
$CHAMFERC
 40
0.0
  9
$CHAMFERD
 40
0.0
  9
$SKPOLY
 70
     0
  9
$TDCREATE
 40
2459103.502569444
  9
$TDUCREATE
 40
2459103.085902778
  9
$TDUPDATE
 40
2459150.549826389
  9
$TDUUPDATE
 40
2459150.091493056
  9
$TDINDWG
 40
0.0080787037
  9
$TDUSRTIMER
 40
0.0080787037
  9
$USRTIMER
 70
     1
  9
$ANGBASE
 50
0.0
  9
$ANGDIR
 70
     0
  9
$PDMODE
 70
     0
  9
$PDSIZE
 40
0.0
  9
$PLINEWID
 40
0.0
  9
$SPLFRAME
 70
     0
  9
$SPLINETYPE
 70
     6
  9
$SPLINESEGS
 70
     8
  9
$HANDSEED
  5
9CB
  9
$SURFTAB1
 70
     6
  9
$SURFTAB2
 70
     6
  9
$SURFTYPE
 70
     6
  9
$SURFU
 70
     6
  9
$SURFV
 70
     6
  9
$UCSBASE
  2

  9
$UCSNAME
  2

  9
$UCSORG
 10
0.0
 20
0.0
 30
0.0
  9
$UCSXDIR
 10
1.0
 20
0.0
 30
0.0
  9
$UCSYDIR
 10
0.0
 20
1.0
 30
0.0
  9
$UCSORTHOREF
  2

  9
$UCSORTHOVIEW
 70
     0
  9
$UCSORGTOP
 10
0.0
 20
0.0
 30
0.0
  9
$UCSORGBOTTOM
 10
0.0
 20
0.0
 30
0.0
  9
$UCSORGLEFT
 10
0.0
 20
0.0
 30
0.0
  9
$UCSORGRIGHT
 10
0.0
 20
0.0
 30
0.0
  9
$UCSORGFRONT
 10
0.0
 20
0.0
 30
0.0
  9
$UCSORGBACK
 10
0.0
 20
0.0
 30
0.0
  9
$PUCSBASE
  2

  9
$PUCSNAME
  2

  9
$PUCSORG
 10
0.0
 20
0.0
 30
0.0
  9
$PUCSXDIR
 10
1.0
 20
0.0
 30
0.0
  9
$PUCSYDIR
 10
0.0
 20
1.0
 30
0.0
  9
$PUCSORTHOREF
  2

  9
$PUCSORTHOVIEW
 70
     0
  9
$PUCSORGTOP
 10
0.0
 20
0.0
 30
0.0
  9
$PUCSORGBOTTOM
 10
0.0
 20
0.0
 30
0.0
  9
$PUCSORGLEFT
 10
0.0
 20
0.0
 30
0.0
  9
$PUCSORGRIGHT
 10
0.0
 20
0.0
 30
0.0
  9
$PUCSORGFRONT
 10
0.0
 20
0.0
 30
0.0
  9
$PUCSORGBACK
 10
0.0
 20
0.0
 30
0.0
  9
$USERI1
 70
     0
  9
$USERI2
 70
     0
  9
$USERI3
 70
     0
  9
$USERI4
 70
     0
  9
$USERI5
 70
     0
  9
$USERR1
 40
0.0
  9
$USERR2
 40
0.0
  9
$USERR3
 40
0.0
  9
$USERR4
 40
0.0
  9
$USERR5
 40
0.0
  9
$WORLDVIEW
 70
     1
  9
$SHADEDGE
 70
     3
  9
$SHADEDIF
 70
    70
  9
$TILEMODE
 70
     1
  9
$MAXACTVP
 70
    64
  9
$PINSBASE
 10
0.0
 20
0.0
 30
0.0
  9
$PLIMCHECK
 70
     0
  9
$PEXTMIN
 10
0.0
 20
0.0
 30
0.0
  9
$PEXTMAX
 10
0.0
 20
0.0
 30
0.0
  9
$PLIMMIN
 10
0.0
 20
0.0
  9
$PLIMMAX
 10
12.0
 20
9.0
  9
$UNITMODE
 70
     0
  9
$VISRETAIN
 70
     1
  9
$PLINEGEN
 70
     0
  9
$PSLTSCALE
 70
     1
  9
$TREEDEPTH
 70
  3020
  9
$CMLSTYLE
  2
Standard
  9
$CMLJUST
 70
     0
  9
$CMLSCALE
 40
1.0
  9
$PROXYGRAPHICS
 70
     1
  9
$MEASUREMENT
 70
     0
  9
$CELWEIGHT
370
    -1
  9
$ENDCAPS
280
     0
  9
$JOINSTYLE
280
     0
  9
$LWDISPLAY
290
     0
  9
$INSUNITS
 70
     1
  9
$HYPERLINKBASE
  1

  9
$STYLESHEET
  1

  9
$XEDIT
290
     1
  9
$CEPSNTYPE
380
     0
  9
$PSTYLEMODE
290
     1
  9
$FINGERPRINTGUID
  2
{8E3272D0-9781-BE43-BED4-45B8A60C8690}
  9
$VERSIONGUID
  2
{C1CAD8F5-0768-1743-B993-C88D16B15114}
  9
$EXTNAMES
290
     1
  9
$PSVPSCALE
 40
0.0
  9
$OLESTARTUP
290
     0
  9
$SORTENTS
280
   127
  9
$INDEXCTL
280
     0
  9
$HIDETEXT
280
     1
  9
$XCLIPFRAME
280
     2
  9
$HALOGAP
280
     0
  9
$OBSCOLOR
 70
   257
  9
$OBSLTYPE
280
     0
  9
$INTERSECTIONDISPLAY
280
     0
  9
$INTERSECTIONCOLOR
 70
   257
  9
$DIMASSOC
280
     2
  9
$PROJECTNAME
  1

  9
$CAMERADISPLAY
290
     0
  9
$LENSLENGTH
 40
50.0
  9
$CAMERAHEIGHT
 40
0.0
  9
$STEPSPERSEC
 40
2.0
  9
$STEPSIZE
 40
6.0
  9
$3DDWFPREC
 40
2.0
  9
$PSOLWIDTH
 40
0.25
  9
$PSOLHEIGHT
 40
4.0
  9
$LOFTANG1
 40
1.570796326794896
  9
$LOFTANG2
 40
1.570796326794896
  9
$LOFTMAG1
 40
0.0
  9
$LOFTMAG2
 40
0.0
  9
$LOFTPARAM
 70
     7
  9
$LOFTNORMALS
280
     1
  9
$LATITUDE
 40
37.795
  9
$LONGITUDE
 40
-122.394
  9
$NORTHDIRECTION
 40
0.0
  9
$TIMEZONE
 70
 -8000
  9
$LIGHTGLYPHDISPLAY
280
     1
  9
$TILEMODELIGHTSYNCH
280
     1
  9
$CMATERIAL
347
96
  9
$SOLIDHIST
280
     0
  9
$SHOWHIST
280
     1
  9
$DWFFRAME
280
     2
  9
$DGNFRAME
280
     0
  9
$REALWORLDSCALE
290
     1
  9
$INTERFERECOLOR
 62
     1
  9
$INTERFEREOBJVS
345
A3
  9
$INTERFEREVPVS
346
A0
  9
$CSHADOW
280
     0
  9
$SHADOWPLANELOCATION
 40
0.0
  0
ENDSEC
  0
SECTION
  2
CLASSES
  0
CLASS
  1
ACDBDICTIONARYWDFLT
  2
AcDbDictionaryWithDefault
  3
ObjectDBX Classes
 90
        0
 91
        1
280
     0
281
     0
  0
CLASS
  1
DICTIONARYVAR
  2
AcDbDictionaryVar
  3
ObjectDBX Classes
 90
        0
 91
        9
280
     0
281
     0
  0
CLASS
  1
TABLESTYLE
  2
AcDbTableStyle
  3
ObjectDBX Classes
 90
     4095
 91
        1
280
     0
281
     0
  0
CLASS
  1
MATERIAL
  2
AcDbMaterial
  3
ObjectDBX Classes
 90
     1153
 91
        3
280
     0
281
     0
  0
CLASS
  1
VISUALSTYLE
  2
AcDbVisualStyle
  3
ObjectDBX Classes
 90
     4095
 91
       24
280
     0
281
     0
  0
CLASS
  1
SCALE
  2
AcDbScale
  3
ObjectDBX Classes
 90
     1153
 91
       33
280
     0
281
     0
  0
CLASS
  1
MLEADERSTYLE
  2
AcDbMLeaderStyle
  3
ACDB_MLEADERSTYLE_CLASS
 90
     4095
 91
        2
280
     0
281
     0
  0
CLASS
  1
CELLSTYLEMAP
  2
AcDbCellStyleMap
  3
ObjectDBX Classes
 90
     1152
 91
        1
280
     0
281
     0
  0
CLASS
  1
EXACXREFPANELOBJECT
  2
ExAcXREFPanelObject
  3
EXAC_ESW
 90
     1025
 91
        1
280
     0
281
     0
  0
CLASS
  1
NPOCOLLECTION
  2
AcDbImpNonPersistentObjectsCollection
  3
ObjectDBX Classes
 90
     1153
 91
        1
280
     0
281
     0
  0
CLASS
  1
LAYER_INDEX
  2
AcDbLayerIndex
  3
ObjectDBX Classes
 90
        0
 91
        0
280
     0
281
     0
  0
CLASS
  1
SPATIAL_INDEX
  2
AcDbSpatialIndex
  3
ObjectDBX Classes
 90
        0
 91
        0
280
     0
281
     0
  0
CLASS
  1
IDBUFFER
  2
AcDbIdBuffer
  3
ObjectDBX Classes
 90
        0
 91
        0
280
     0
281
     0
  0
CLASS
  1
ACDBSECTIONVIEWSTYLE
  2
AcDbSectionViewStyle
  3
ObjectDBX Classes
 90
     1025
 91
        2
280
     0
281
     0
  0
CLASS
  1
ACDBDETAILVIEWSTYLE
  2
AcDbDetailViewStyle
  3
ObjectDBX Classes
 90
     1025
 91
        2
280
     0
281
     0
  0
ENDSEC
  0
SECTION
  2
TABLES
  0
TABLE
  2
VPORT
  5
8
330
0
100
AcDbSymbolTable
 70
     1
1001
ACAD
1000
DbSaveVer
1071
      208
  0
VPORT
  5
94
330
8
100
AcDbSymbolTableRecord
100
AcDbViewportTableRecord
  2
*Active
 70
     0
 10
0.0
 20
0.0
 11
1.0
 21
1.0
 12
2057.597134139699
 22
1976.794483330432
 13
0.0
 23
0.0
 14
0.5
 24
0.5
 15
0.5
 25
0.5
 16
0.0
 26
0.0
 36
1.0
 17
0.0
 27
0.0
 37
0.0
 40
4885.594454827723
 41
1.838247683235046
 42
50.0
 43
0.0
 44
0.0
 50
0.0
 51
0.0
 71
     0
 72
  1000
 73
     1
 74
     3
 75
     0
 76
     1
 77
     0
 78
     0
281
     0
 65
     1
110
0.0
120
0.0
130
0.0
111
1.0
121
0.0
131
0.0
112
0.0
122
1.0
132
0.0
 79
     0
146
0.0
348
9F
 60
     3
 61
     5
292
     1
282
     1
141
0.0
142
0.0
 63
   250
421
  3355443
1001
ACAD_NAV_VCDISPLAY
1070
     3
  0
ENDTAB
  0
TABLE
  2
LTYPE
  5
5
330
0
100
AcDbSymbolTable
 70
     2
  0
LTYPE
  5
14
330
5
100
AcDbSymbolTableRecord
100
AcDbLinetypeTableRecord
  2
ByBlock
 70
     0
  3

 72
    65
 73
     0
 40
0.0
  0
LTYPE
  5
15
330
5
100
AcDbSymbolTableRecord
100
AcDbLinetypeTableRecord
  2
ByLayer
 70
     0
  3

 72
    65
 73
     0
 40
0.0
  0
LTYPE
  5
16
330
5
100
AcDbSymbolTableRecord
100
AcDbLinetypeTableRecord
  2
Continuous
 70
     0
  3
Solid line
 72
    65
 73
     0
 40
0.0
  0
LTYPE
  5
720
330
5
100
AcDbSymbolTableRecord
100
AcDbLinetypeTableRecord
  2
DASHED
 70
     0
  3
Dashed __ __ __ __ __ __ __ __ __ __ __ __ __ _
 72
    65
 73
     2
 40
0.2067
 49
0.1654
 74
     0
 49
-0.0413
 74
     0
  0
ENDTAB
  0
TABLE
  2
LAYER
  5
2
102
{ACAD_XDICTIONARY
360
18E
102
}
330
0
100
AcDbSymbolTable
 70
     7
  0
LAYER
  5
10
102
{ACAD_XDICTIONARY
360
E6
102
}
330
2
100
AcDbSymbolTableRecord
100
AcDbLayerTableRecord
  2
0
 70
     0
 62
     7
  6
Continuous
370
    -3
390
F
347
98
348
0
  0
LAYER
  5
21B
102
{ACAD_XDICTIONARY
360
21C
102
}
330
2
100
AcDbSymbolTableRecord
100
AcDbLayerTableRecord
  2
Text
 70
     0
 62
     7
  6
Continuous
370
    -3
390
F
347
98
348
0
1001
AcAecLayerStandard
1000

1000

1001
AcCmTransparency
1071
        0
  0
LAYER
  5
21D
102
{ACAD_XDICTIONARY
360
21E
102
}
330
2
100
AcDbSymbolTableRecord
100
AcDbLayerTableRecord
  2
Dimension
 70
     0
 62
     7
  6
Continuous
370
    -3
390
F
347
98
348
0
1001
AcAecLayerStandard
1000

1000

1001
AcCmTransparency
1071
        0
  0
LAYER
  5
21F
330
2
100
AcDbSymbolTableRecord
100
AcDbLayerTableRecord
  2
Visible (ISO)
 70
     0
 62
     7
  6
Continuous
370
     5
390
F
347
98
348
0
  0
LAYER
  5
721
330
2
100
AcDbSymbolTableRecord
100
AcDbLayerTableRecord
  2
Dimension (ISO)
 70
     0
 62
     7
  6
Continuous
370
     5
390
F
347
98
348
0
  0
LAYER
  5
722
330
2
100
AcDbSymbolTableRecord
100
AcDbLayerTableRecord
  2
Sketch Geometry (ISO)
 70
     0
 62
     7
  6
Continuous
370
     5
390
F
347
98
348
0
  0
LAYER
  5
723
330
2
100
AcDbSymbolTableRecord
100
AcDbLayerTableRecord
  2
Defpoints
 70
     0
 62
     7
  6
Continuous
290
     0
370
    -3
390
F
347
98
348
0
  0
ENDTAB
  0
TABLE
  2
STYLE
  5
3
330
0
100
AcDbSymbolTable
 70
     3
  0
STYLE
  5
11
330
3
100
AcDbSymbolTableRecord
100
AcDbTextStyleTableRecord
  2
Standard
 70
     0
 40
0.0
 41
1.0
 50
0.0
 71
     0
 42
0.2
  3
arial.ttf
  4

1001
ACAD
1000
Arial
1071
       34
  0
STYLE
  5
DC
330
3
100
AcDbSymbolTableRecord
100
AcDbTextStyleTableRecord
  2
Annotative
 70
     0
 40
0.0
 41
1.0
 50
0.0
 71
     0
 42
0.2
  3
arial.ttf
  4

1001
AcadAnnotative
1000
AnnotativeData
1002
{
1070
     1
1070
     1
1002
}
1001
ACAD
1000
Arial
1071
       34
  0
STYLE
  5
724
330
3
100
AcDbSymbolTableRecord
100
AcDbTextStyleTableRecord
  2
Jardan Text - 3.05mm
 70
     0
 40
0.0
 41
1.0
 50
0.0
 71
     0
 42
0.2
  3
apercu_regular-webfont_0.ttf
  4

1001
ACAD
1000
Apercu
1071
      256
  0
ENDTAB
  0
TABLE
  2
VIEW
  5
6
330
0
100
AcDbSymbolTable
 70
     0
  0
ENDTAB
  0
TABLE
  2
UCS
  5
7
330
0
100
AcDbSymbolTable
 70
     0
  0
ENDTAB
  0
TABLE
  2
APPID
  5
9
330
0
100
AcDbSymbolTable
 70
    11
  0
APPID
  5
12
330
9
100
AcDbSymbolTableRecord
100
AcDbRegAppTableRecord
  2
ACAD
 70
     0
  0
APPID
  5
DD
330
9
100
AcDbSymbolTableRecord
100
AcDbRegAppTableRecord
  2
AcadAnnoPO
 70
     0
  0
APPID
  5
DE
330
9
100
AcDbSymbolTableRecord
100
AcDbRegAppTableRecord
  2
AcadAnnotative
 70
     0
  0
APPID
  5
DF
330
9
100
AcDbSymbolTableRecord
100
AcDbRegAppTableRecord
  2
ACAD_DSTYLE_DIMJAG
 70
     0
  0
APPID
  5
E0
330
9
100
AcDbSymbolTableRecord
100
AcDbRegAppTableRecord
  2
ACAD_DSTYLE_DIMTALN
 70
     0
  0
APPID
  5
107
330
9
100
AcDbSymbolTableRecord
100
AcDbRegAppTableRecord
  2
ACAD_MLEADERVER
 70
     0
  0
APPID
  5
1A6
330
9
100
AcDbSymbolTableRecord
100
AcDbRegAppTableRecord
  2
ACAD_NAV_VCDISPLAY
 70
     0
  0
APPID
  5
220
330
9
100
AcDbSymbolTableRecord
100
AcDbRegAppTableRecord
  2
AcAecLayerStandard
 70
     0
  0
APPID
  5
221
330
9
100
AcDbSymbolTableRecord
100
AcDbRegAppTableRecord
  2
AcCmTransparency
 70
     0
  0
APPID
  5
70F
330
9
100
AcDbSymbolTableRecord
100
AcDbRegAppTableRecord
  2
ACAD_EXEMPT_FROM_CAD_STANDARDS
 70
     0
  0
APPID
  5
726
330
9
100
AcDbSymbolTableRecord
100
AcDbRegAppTableRecord
  2
ACAD_DSTYLE_DIMRADIAL_EXTENSION
 70
     0
  0
ENDTAB
  0
TABLE
  2
DIMSTYLE
  5
A
330
0
100
AcDbSymbolTable
 70
     3
100
AcDbDimStyleTable
 71
     2
340
27
340
E1
  0
DIMSTYLE
105
27
330
A
100
AcDbSymbolTableRecord
100
AcDbDimStyleTableRecord
  2
Standard
 70
     0
340
11
  0
DIMSTYLE
105
E1
330
A
100
AcDbSymbolTableRecord
100
AcDbDimStyleTableRecord
  2
Annotative
 70
     0
 40
0.0
340
11
1001
AcadAnnotative
1000
AnnotativeData
1002
{
1070
     1
1070
     1
1002
}
1001
ACAD_DSTYLE_DIMJAG
1070
   388
1040
1.5
1001
ACAD_DSTYLE_DIMTALN
1070
   392
1070
     0
  0
DIMSTYLE
105
725
330
A
100
AcDbSymbolTableRecord
100
AcDbDimStyleTableRecord
  2
Jardan Dimension Style
 70
     0
 40
2.0
 41
2.5
 42
1.587499999999999
 43
5.999999999999999
 44
3.174999999999998
 45
0.00000001
 73
     0
 78
    12
 79
     3
140
3.050000190734863
143
1.0
146
0.9993442296981811
147
0.8
171
     1
176
   256
177
   256
178
   256
271
     1
272
     2
274
     1
284
     4
285
    12
340
724
342
711
371
    -1
372
    -1
  0
ENDTAB
  0
TABLE
  2
BLOCK_RECORD
  5
1
330
0
100
AcDbSymbolTable
 70
    14
  0
BLOCK_RECORD
  5
1F
102
{ACAD_XDICTIONARY
360
15D
102
}
330
1
100
AcDbSymbolTableRecord
100
AcDbBlockTableRecord
  2
*Model_Space
340
22
 70
     0
280
     1
281
     0
  0
BLOCK_RECORD
  5
58
330
1
100
AcDbSymbolTableRecord
100
AcDbBlockTableRecord
  2
*Paper_Space
340
59
 70
     0
280
     1
281
     0
  0
BLOCK_RECORD
  5
5D
330
1
100
AcDbSymbolTableRecord
100
AcDbBlockTableRecord
  2
*Paper_Space0
340
5E
 70
     0
280
     1
281
     0
  0
BLOCK_RECORD
  5
711
330
1
100
AcDbSymbolTableRecord
100
AcDbBlockTableRecord
  2
_Oblique
340
0
102
{BLKREFS
102
}
 70
     0
280
     1
281
     0
  0
ENDTAB
  0
ENDSEC
  0
SECTION
  2
BLOCKS
  0
BLOCK
  5
20
330
1F
100
AcDbEntity
  8
0
100
AcDbBlockBegin
  2
*Model_Space
 70
     0
 10
0.0
 20
0.0
 30
0.0
  3
*Model_Space
  1

  0
ENDBLK
  5
21
330
1F
100
AcDbEntity
  8
0
100
AcDbBlockEnd
  0
BLOCK
  5
5A
330
58
100
AcDbEntity
 67
     1
  8
0
100
AcDbBlockBegin
  2
*Paper_Space
 70
     0
 10
0.0
 20
0.0
 30
0.0
  3
*Paper_Space
  1

  0
ENDBLK
  5
5B
330
58
100
AcDbEntity
 67
     1
  8
0
100
AcDbBlockEnd
  0
BLOCK
  5
5F
330
5D
100
AcDbEntity
 67
     1
  8
0
100
AcDbBlockBegin
  2
*Paper_Space0
 70
     0
 10
0.0
 20
0.0
 30
0.0
  3
*Paper_Space0
  1

  0
ENDBLK
  5
60
330
5D
100
AcDbEntity
 67
     1
  8
0
100
AcDbBlockEnd
  0
BLOCK
  5
712
330
711
100
AcDbEntity
  8
0
100
AcDbBlockBegin
  2
_Oblique
 70
     0
 10
0.0
 20
0.0
 30
0.0
  3
_Oblique
  1

  0
LINE
  5
713
330
711
100
AcDbEntity
  8
0
  6
ByBlock
 62
     0
370
    -2
100
AcDbLine
 10
-0.5
 20
-0.5
 30
0.0
 11
0.5
 21
0.5
 31
0.0
  0
ENDBLK
  5
714
330
711
100
AcDbEntity
  8
0
100
AcDbBlockEnd
  0
ENDSEC
  0
SECTION
  2
ENTITIES
  0
MTEXT
  5
49C
330
1F
100
AcDbEntity
  8
Text
100
AcDbMText
 10
28.67849051311117
 20
2672.581189741123
 30
0.0
 40
53.97543178650614
 41
0.0
 46
0.0
 71
     7
 72
     1
  1
Sconce
 73
     1
 44
1.0
  0
POLYLINE
  5
49D
330
1F
100
AcDbEntity
  8
Text
100
AcDb2dPolyline
 66
     1
 10
0.0
 20
0.0
 30
0.0
  0
VERTEX
  5
49E
330
49D
100
AcDbEntity
  8
Text
100
AcDbVertex
100
AcDb2dVertex
 10
28.67849051311117
 20
2861.381025563064
 30
0.0
  0
VERTEX
  5
49F
330
49D
100
AcDbEntity
  8
Text
100
AcDbVertex
100
AcDb2dVertex
 10
4032.178490513111
 20
2861.381025563064
 30
0.0
  0
SEQEND
  5
4A0
330
49D
100
AcDbEntity
  8
Text
  0
MTEXT
  5
4A1
330
1F
100
AcDbEntity
  8
Text
100
AcDbMText
 10
28.67849051311117
 20
3248.756740485752
 30
0.0
 40
44.4503555888874
 41
0.0
 46
0.0
 71
     7
 72
     1
  1
GOLDIE
 73
     1
 44
1.0
  0
MTEXT
  5
4A2
330
1F
100
AcDbEntity
  8
Text
100
AcDbMText
 10
28.67849051311117
 20
3124.559041405472
 30
0.0
 40
44.4503555888874
 41
0.0
 46
0.0
 71
     7
 72
     1
  1
—
 73
     1
 44
1.0
  0
MTEXT
  5
4A3
330
1F
100
AcDbEntity
  8
Text
100
AcDbMText
 10
28.67849051311117
 20
2993.822701438156
 30
0.0
 40
57.15045718571238
 41
0.0
 46
0.0
 71
     7
 72
     1
  1
DIMENSIONS 
 73
     1
 44
1.0
  0
MTEXT
  5
4A4
330
1F
100
AcDbEntity
  8
Dimension
100
AcDbMText
 10
774.3451145847337
 20
2098.825833739044
 30
0.0
 40
41.27533018968118
 41
0.0
 46
42.21876630830245
 71
     7
 72
     1
  1
{\fApercu|b0|i0|c0|p34;\W1.0004;5}
 73
     1
 44
1.0
  0
MTEXT
  5
4A5
330
1F
100
AcDbEntity
  8
Text
100
AcDbMText
 10
2433.739889941658
 20
1872.847838258586
 30
0.0
 40
53.97543178650614
 41
0.0
 46
0.0
 71
     7
 72
     1
  1
GO20
 73
     1
 44
1.0
  0
MTEXT
  5
534
330
1F
100
AcDbEntity
  8
Dimension
100
AcDbMText
 10
1389.969242892737
 20
2098.825833739044
 30
0.0
 40
41.27533018968118
 41
0.0
 46
42.21876630830245
 71
     7
 72
     1
  1
{\fApercu|b0|i0|c0|p34;\W1.0004;20}
 73
     1
 44
1.0
  0
MTEXT
  5
535
330
1F
100
AcDbEntity
  8
Dimension
100
AcDbMText
 10
1619.7890262165
 20
2326.370475106189
 30
0.0
 40
41.27533018968118
 41
0.0
 46
42.21876630830245
 71
     7
 72
     1
  1
{\fApercu|b0|i0|c0|p34;\W1.0004;20}
 73
     1
 44
1.0
  0
MTEXT
  5
56A
330
1F
100
AcDbEntity
  8
Dimension
100
AcDbMText
 10
2514.362285269646
 20
2098.825833739046
 30
0.0
 40
41.27533018968118
 41
0.0
 46
42.21876630830245
 71
     7
 72
     1
  1
{\fApercu|b0|i0|c0|p34;\W1.0004;20}
 73
     1
 44
1.0
  0
MTEXT
  5
56B
330
1F
100
AcDbEntity
  8
Dimension
100
AcDbMText
 10
2744.182068593461
 20
2330.345877019718
 30
0.0
 40
41.27533018968118
 41
0.0
 46
42.21876630830245
 71
     7
 72
     1
  1
{\fApercu|b0|i0|c0|p34;\W1.0004;5}
 73
     1
 44
1.0
  0
SPLINE
  5
740
330
1F
100
AcDbEntity
  8
Visible (ISO)
100
AcDbSpline
210
0.0
220
0.0
230
1.0
 70
     8
 71
     3
 72
    15
 73
    11
 74
     0
 42
0.000000001
 43
0.0000000001
 40
-8.862210550892909
 40
-8.862210550892909
 40
-8.862210550892909
 40
-8.862210550892909
 40
-8.535692640325061
 40
-8.535692640325061
 40
-7.965633963180258
 40
-7.965633963180258
 40
-7.965633963180258
 40
-7.377091529959387
 40
-7.377091529959387
 40
-7.132274057456647
 40
-7.132274057456647
 40
-7.132274057456647
 40
-7.132274057456647
 10
1436.980013404422
 20
2245.067021968681
 30
0.0
 10
1435.844399643125
 20
2244.774320333525
 30
0.0
 10
1434.705672198653
 20
2244.504501505696
 30
0.0
 10
1431.57486417102
 20
2243.825930848079
 30
0.0
 10
1429.56336335255
 20
2243.460021382667
 30
0.0
 10
1427.538169647649
 20
2243.160902133872
 30
0.0
 10
1425.391012006347
 20
2242.843768923771
 30
0.0
 10
1423.224094888404
 20
2242.63042008045
 30
0.0
 10
1420.155468744432
 20
2242.474849877792
 30
0.0
 10
1419.254271043731
 20
2242.447236021722
 30
0.0
 10
1418.353642439015
 20
2242.436414873022
 30
0.0
  0
SPLINE
  5
741
330
1F
100
AcDbEntity
  8
Visible (ISO)
100
AcDbSpline
210
0.0
220
0.0
230
1.0
 70
     8
 71
     3
 72
    16
 73
    12
 74
     0
 42
0.000000001
 43
0.0000000001
 40
-6.615898421176048
 40
-6.615898421176048
 40
-6.615898421176048
 40
-6.615898421176048
 40
-6.448653623171179
 40
-6.448653623171179
 40
-3.132362160942426
 40
-3.132362160942426
 40
-1.474387508363663
 40
-1.474387508363663
 40
0.0
 40
0.0
 40
0.1470436436008559
 40
0.1470436436008559
 40
0.1470436436008559
 40
0.1470436436008559
 10
1408.977891140562
 20
2442.890766701919
 30
0.0
 10
1409.482508983157
 20
2442.952533004474
 30
0.0
 10
1409.987649396386
 20
2443.010085587621
 30
0.0
 10
1420.518416494788
 20
2444.120213746697
 30
0.0
 10
1430.715648974892
 20
2443.503724392001
 30
0.0
 10
1445.317050807827
 20
2439.587135679837
 30
0.0
 10
1450.097728448626
 20
2437.788064514841
 30
0.0
 10
1459.366918000347
 20
2432.981901390441
 30
0.0
 10
1463.518670910367
 20
2430.344706337634
 30
0.0
 10
1467.890987356271
 20
2427.167642301661
 30
0.0
 10
1468.28571084034
 20
2426.877048009631
 30
0.0
 10
1468.67867661294
 20
2426.584105260125
 30
0.0
  0
SPLINE
  5
742
330
1F
100
AcDbEntity
  8
Visible (ISO)
100
AcDbSpline
210
0.0
220
0.0
230
1.0
 70
     8
 71
     3
 72
    10
 73
     6
 74
     0
 42
0.000000001
 43
0.0000000001
 40
-1.003026124009297
 40
-1.003026124009297
 40
-1.003026124009297
 40
-1.003026124009297
 40
-0.6116882278794225
 40
-0.6116882278794225
 40
-0.2203553317495458
 40
-0.2203553317495458
 40
-0.2203553317495458
 40
-0.2203553317495458
 10
1498.506272199583
 20
2396.275169568439
 30
0.0
 10
1499.286294743982
 20
2395.107024187647
 30
0.0
 10
1500.040754617555
 20
2393.914778709685
 30
0.0
 10
1501.489073499531
 20
2391.484198326974
 30
0.0
 10
1502.182125313164
 20
2390.24738790626
 30
0.0
 10
1502.842047719533
 20
2388.985930792493
 30
0.0
  0
SPLINE
  5
743
330
1F
100
AcDbEntity
  8
Visible (ISO)
100
AcDbSpline
210
0.0
220
0.0
230
1.0
 70
     8
 71
     3
 72
     8
 73
     4
 74
     0
 42
0.000000001
 43
0.0000000001
 40
-0.2203553317495458
 40
-0.2203553317495458
 40
-0.2203553317495458
 40
-0.2203553317495458
 40
0.0
 40
0.0
 40
0.0
 40
0.0
 10
1502.842047719533
 20
2388.985930792493
 30
0.0
 10
1503.213642921482
 20
2388.275617906767
 30
0.0
 10
1503.57535469056
 20
2387.554414690057
 30
0.0
 10
1503.922972671098
 20
2386.83148745593
 30
0.0
  0
SPLINE
  5
744
330
1F
100
AcDbEntity
  8
Visible (ISO)
100
AcDbSpline
210
0.0
220
0.0
230
1.0
 70
     8
 71
     3
 72
    10
 73
     6
 74
     0
 42
0.000000001
 43
0.0000000001
 40
0.0
 40
0.0
 40
0.0
 40
0.0
 40
0.3143703423193074
 40
0.3143703423193074
 40
0.6287406846386148
 40
0.6287406846386148
 40
0.6287406846386148
 40
0.6287406846386148
 10
1503.922972671098
 20
2386.83148745593
 30
0.0
 10
1504.418902507111
 20
2385.8001219779
 30
0.0
 10
1504.889470191363
 20
2384.758856069461
 30
0.0
 10
1505.781345052028
 20
2382.659535531786
 30
0.0
 10
1506.202654569872
 20
2381.601479472966
 30
0.0
 10
1506.600063979176
 20
2380.536331272408
 30
0.0
  0
SPLINE
  5
745
330
1F
100
AcDbEntity
  8
Visible (ISO)
100
AcDbSpline
210
0.0
220
0.0
230
1.0
 70
     8
 71
     3
 72
    16
 73
    12
 74
     0
 42
0.000000001
 43
0.0000000001
 40
-1.94162304943912
 40
-1.94162304943912
 40
-1.94162304943912
 40
-1.94162304943912
 40
-1.553298439551295
 40
-1.553298439551295
 40
-1.164973829663471
 40
-1.164973829663471
 40
-0.776649219775648
 40
-0.776649219775648
 40
-0.3883246098878239
 40
-0.3883246098878239
 40
0.0
 40
0.0
 40
0.0
 40
0.0
 10
1348.513111857252
 20
2266.791394679342
 30
0.0
 10
1347.373017934291
 20
2267.403899420505
 30
0.0
 10
1345.943886721935
 20
2268.215769415605
 30
0.0
 10
1343.42352015666
 20
2269.886608574191
 30
0.0
 10
1342.21481327554
 20
2270.784414414778
 30
0.0
 10
1339.907104219523
 20
2272.674275963986
 30
0.0
 10
1338.80968114776
 20
2273.664570814771
 30
0.0
 10
1336.716470981317
 20
2275.717506540607
 30
0.0
 10
1335.719634136922
 20
2276.781304766683
 30
0.0
 10
1333.81939690197
 20
2278.964343070461
 30
0.0
 10
1332.916085572867
 20
2280.083463284829
 30
0.0
 10
1332.056313961044
 20
2281.221701495656
 30
0.0
  0
SPLINE
  5
746
330
1F
100
AcDbEntity
  8
Visible (ISO)
100
AcDbSpline
210
0.0
220
0.0
230
1.0
 70
     8
 71
     3
 72
    16
 73
    12
 74
     0
 42
0.000000001
 43
0.0000000001
 40
-3.243722068863051
 40
-3.243722068863051
 40
-3.243722068863051
 40
-3.243722068863051
 40
-2.59497765509044
 40
-2.59497765509044
 40
-1.94623324131783
 40
-1.94623324131783
 40
-1.297488827545219
 40
-1.297488827545219
 40
-0.6487444137726103
 40
-0.6487444137726103
 40
0.0
 40
0.0
 40
0.0
 40
0.0
 10
1332.056313961044
 20
2281.221701495656
 30
0.0
 10
1330.619958870257
 20
2283.123269570443
 30
0.0
 10
1329.298555007176
 20
2285.085911417554
 30
0.0
 10
1326.848035459563
 20
2289.094771670818
 30
0.0
 10
1325.719022198128
 20
2291.141253845764
 30
0.0
 10
1323.627235122556
 20
2295.286405464986
 30
0.0
 10
1322.665519253235
 20
2297.382885976866
 30
0.0
 10
1320.885924736826
 20
2301.608228522031
 30
0.0
 10
1320.025146407078
 20
2303.99417789889
 30
0.0
 10
1318.709450420137
 20
2308.650486273114
 30
0.0
 10
1318.2005064772
 20
2311.005931972223
 30
0.0
 10
1317.822299400015
 20
2313.356332597381
 30
0.0
  0
SPLINE
  5
747
330
1F
100
AcDbEntity
  8
Visible (ISO)
100
AcDbSpline
210
0.0
220
0.0
230
1.0
 70
     8
 71
     3
 72
    20
 73
    16
 74
     0
 42
0.000000001
 43
0.0000000001
 40
-23.60367800917378
 40
-23.60367800917378
 40
-23.60367800917378
 40
-23.60367800917378
 40
-23.00267067960055
 40
-23.00267067960055
 40
-21.94681828460398
 40
-21.94681828460398
 40
-20.52107214267296
 40
-20.52107214267296
 40
-19.23946651340121
 40
-19.23946651340121
 40
-17.84819218247688
 40
-17.84819218247688
 40
-16.94995721245543
 40
-16.94995721245543
 40
-16.79795733231985
 40
-16.79795733231985
 40
-16.79795733231985
 40
-16.79795733231985
 10
1348.51311185726
 20
2266.791394679338
 30
0.0
 10
1350.268889625374
 20
2265.848119580913
 30
0.0
 10
1352.039180913927
 20
2264.894859318502
 30
0.0
 10
1356.950310725598
 20
2262.263957267866
 30
0.0
 10
1360.124185026401
 20
2260.578401421487
 30
0.0
 10
1367.73351651129
 20
2256.671759395324
 30
0.0
 10
1372.220028262222
 20
2254.467865788875
 30
0.0
 10
1381.092480868006
 20
2250.548262889278
 30
0.0
 10
1385.439856722189
 20
2248.806553067034
 30
0.0
 10
1394.912323572172
 20
2245.655435105111
 30
0.0
 10
1400.159569283376
 20
2244.262421685797
 30
0.0
 10
1409.179731336445
 20
2242.832850193509
 30
0.0
 10
1412.814389242475
 20
2242.493226678328
 30
0.0
 10
1417.108113053368
 20
2242.430146256634
 30
0.0
 10
1417.730488951254
 20
2242.429123106127
 30
0.0
 10
1418.35364243889
 20
2242.43641487302
 30
0.0
  0
SPLINE
  5
748
330
1F
100
AcDbEntity
  8
Visible (ISO)
100
AcDbSpline
210
0.0
220
0.0
230
1.0
 70
     8
 71
     3
 72
    12
 73
     8
 74
     0
 42
0.000000001
 43
0.0000000001
 40
-3.328234790900598
 40
-3.328234790900598
 40
-3.328234790900598
 40
-3.328234790900598
 40
-1.7409099724452
 40
-1.7409099724452
 40
-0.8704549862225999
 40
-0.8704549862225999
 40
-0.5649003774586216
 40
-0.5649003774586216
 40
-0.5649003774586216
 40
-0.5649003774586216
 10
1511.93593206232
 20
2348.628667655381
 30
0.0
 10
1512.030007123706
 20
2354.794493860756
 30
0.0
 10
1511.509044758212
 20
2360.983699202888
 30
0.0
 10
1509.702098018406
 20
2370.432291802526
 30
0.0
 10
1508.863325070691
 20
2373.7686643681
 30
0.0
 10
1507.428825053401
 20
2378.232344316581
 30
0.0
 10
1507.028700791325
 20
2379.387486482972
 30
0.0
 10
1506.600063979176
 20
2380.536331272408
 30
0.0
  0
SPLINE
  5
749
330
1F
100
AcDbEntity
  8
Visible (ISO)
100
AcDbSpline
210
0.0
220
0.0
230
1.0
 70
     8
 71
     3
 72
     8
 73
     4
 74
     0
 42
0.000000001
 43
0.0000000001
 40
-4.748446186203707
 40
-4.748446186203707
 40
-4.748446186203707
 40
-4.748446186203707
 40
-3.328234790900598
 40
-3.328234790900598
 40
-3.328234790900598
 40
-3.328234790900598
 10
1510.301204970911
 20
2332.353674904469
 30
0.0
 10
1511.284742105462
 20
2337.685523123679
 30
0.0
 10
1511.852060164249
 20
2343.131574258366
 30
0.0
 10
1511.93593206232
 20
2348.628667655381
 30
0.0
  0
SPLINE
  5
74A
330
1F
100
AcDbEntity
  8
Visible (ISO)
100
AcDbSpline
210
0.0
220
0.0
230
1.0
 70
     8
 71
     3
 72
    14
 73
    10
 74
     0
 42
0.000000001
 43
0.0000000001
 40
-8.258123679103896
 40
-8.258123679103896
 40
-8.258123679103896
 40
-8.258123679103896
 40
-7.649104099548726
 40
-7.649104099548726
 40
-6.829056401346956
 40
-6.829056401346956
 40
-5.686425046111625
 40
-5.686425046111625
 40
-4.748446186203707
 40
-4.748446186203707
 40
-4.748446186203707
 40
-4.748446186203707
 10
1496.293052564055
 20
2295.185000788498
 30
0.0
 10
1497.571529345774
 20
2297.2604787043
 30
0.0
 10
1498.713240453571
 20
2299.323353216668
 30
0.0
 10
1501.202733322922
 20
2304.190998331779
 30
0.0
 10
1502.482779824496
 20
2307.007322025085
 30
0.0
 10
1505.274297756834
 20
2313.836166419219
 30
0.0
 10
1506.676917496118
 20
2317.881576321296
 30
0.0
 10
1508.82914159085
 20
2325.389637361071
 30
0.0
 10
1509.65208715015
 20
2328.834745547252
 30
0.0
 10
1510.301204970911
 20
2332.353674904469
 30
0.0
  0
SPLINE
  5
74B
330
1F
100
AcDbEntity
  8
Visible (ISO)
100
AcDbSpline
210
0.0
220
0.0
230
1.0
 70
     8
 71
     3
 72
    24
 73
    20
 74
     0
 42
0.000000001
 43
0.0000000001
 40
-15.22599998503877
 40
-15.22599998503877
 40
-15.22599998503877
 40
-15.22599998503877
 40
-14.799932449784
 40
-14.799932449784
 40
-13.76424130740941
 40
-13.76424130740941
 40
-12.72855499685547
 40
-12.72855499685547
 40
-12.35406282906023
 40
-12.35406282906023
 40
-11.73100028861277
 40
-11.73100028861277
 40
-10.95149869377081
 40
-10.95149869377081
 40
-9.812069182207004
 40
-9.812069182207004
 40
-9.021882571017117
 40
-9.021882571017117
 40
-8.258123679103896
 40
-8.258123679103896
 40
-8.258123679103896
 40
-8.258123679103896
 10
1436.980013404875
 20
2245.067021968798
 30
0.0
 10
1438.593918047226
 20
2245.483046548856
 30
0.0
 10
1440.20369904497
 20
2245.945972659869
 30
0.0
 10
1445.697205585229
 20
2247.69899639151
 30
0.0
 10
1449.539261523275
 20
2249.225475490479
 30
0.0
 10
1456.985803069453
 20
2252.869439494863
 30
0.0
 10
1460.589964643636
 20
2254.987198609196
 30
0.0
 10
1465.236994899304
 20
2258.274191945465
 30
0.0
 10
1466.452817856126
 20
2259.19344469724
 30
0.0
 10
1469.54833994298
 20
2261.673570148272
 30
0.0
 10
1471.397888218786
 20
2263.302233339407
 30
0.0
 10
1475.365985345174
 20
2267.091119659288
 30
0.0
 10
1477.435439962142
 20
2269.281267159813
 30
0.0
 10
1482.227837270782
 20
2274.768799774874
 30
0.0
 10
1484.804443135292
 20
2278.095564724759
 30
0.0
 10
1488.878103676291
 20
2283.754987877474
 30
0.0
 10
1490.466126868535
 20
2286.084833426169
 30
0.0
 10
1493.475275092128
 20
2290.669273060564
 30
0.0
 10
1494.903294226939
 20
2292.928868508093
 30
0.0
 10
1496.293052564055
 20
2295.185000788498
 30
0.0
  0
SPLINE
  5
74C
330
1F
100
AcDbEntity
  8
Visible (ISO)
100
AcDbSpline
210
0.0
220
0.0
230
1.0
 70
     8
 71
     3
 72
    42
 73
    38
 74
     0
 42
0.000000001
 43
0.0000000001
 40
-15.50474609419451
 40
-15.50474609419451
 40
-15.50474609419451
 40
-15.50474609419451
 40
-13.8767640339759
 40
-13.8767640339759
 40
-12.32150763726905
 40
-12.32150763726905
 40
-11.30183933816322
 40
-11.30183933816322
 40
-10.55149672511966
 40
-10.55149672511966
 40
-9.906274865625841
 40
-9.906274865625841
 40
-9.436153927095002
 40
-9.436153927095002
 40
-9.022115298373222
 40
-9.022115298373222
 40
-8.684457202744116
 40
-8.684457202744116
 40
-8.515628154929562
 40
-8.515628154929562
 40
-8.431213631022284
 40
-8.431213631022284
 40
-8.389006369068646
 40
-8.389006369068646
 40
-8.346799107115009
 40
-8.346799107115009
 40
-7.297821297151615
 40
-7.297821297151615
 40
-6.248838617188221
 40
-6.248838617188221
 40
-4.847195135026976
 40
-4.847195135026976
 40
-4.04477276106965
 40
-4.04477276106965
 40
-3.035751286639321
 40
-3.035751286639321
 40
-2.901745808947674
 40
-2.901745808947674
 40
-2.901745808947674
 40
-2.901745808947674
 10
1378.328591884195
 20
2433.67144255673
 30
0.0
 10
1372.77002392999
 20
2430.912893329709
 30
0.0
 10
1367.437421691604
 20
2427.638465411605
 30
0.0
 10
1357.695715105563
 20
2420.325188852442
 30
0.0
 10
1353.214660095404
 20
2416.294242754093
 30
0.0
 10
1346.448951676755
 20
2409.013654602513
 30
0.0
 10
1343.939079221763
 20
2405.974829320758
 30
0.0
 10
1339.913217188215
 20
2400.495912704793
 30
0.0
 10
1338.309579860305
 20
2398.109914648349
 30
0.0
 10
1335.526100190827
 20
2393.584579794481
 30
0.0
 10
1334.317595746163
 20
2391.457135599525
 30
0.0
 10
1332.353577841403
 20
2387.709938166558
 30
0.0
 10
1331.565018514754
 20
2386.110447383885
 30
0.0
 10
1330.156433658775
 20
2383.069494346078
 30
0.0
 10
1329.527537707429
 20
2381.631962412056
 30
0.0
 10
1328.44196605478
 20
2379.001657085109
 30
0.0
 10
1327.974923664242
 20
2377.812663070834
 30
0.0
 10
1327.305356479356
 20
2376.020020694354
 30
0.0
 10
1327.087332450705
 20
2375.420949880892
 30
0.0
 10
1326.768046718946
 20
2374.520330326076
 30
0.0
 10
1326.662909774031
 20
2374.219788334323
 30
0.0
 10
1326.507141332305
 20
2373.768506753197
 30
0.0
 10
1326.455541341763
 20
2373.618001464652
 30
0.0
 10
1326.352986856207
 20
2373.316840512785
 30
0.0
 10
1326.298270361121
 20
2373.154985684812
 30
0.0
 10
1325.086524705244
 20
2369.547690510492
 30
0.0
 10
1323.975895066066
 20
2366.04148261728
 30
0.0
 10
1321.911266134055
 20
2358.9008530018
 30
0.0
 10
1320.958479890241
 20
2355.271538789455
 30
0.0
 10
1319.004707855268
 20
2346.628831272504
 30
0.0
 10
1318.082559960687
 20
2341.518587892587
 30
0.0
 10
1317.18126012364
 20
2333.240686239841
 30
0.0
 10
1316.968057576334
 20
2330.175560521093
 30
0.0
 10
1316.842957675467
 20
2323.130766785531
 30
0.0
 10
1317.019179463411
 20
2319.113277050021
 30
0.0
 10
1317.65287317775
 20
2314.452843220766
 30
0.0
 10
1317.733981492923
 20
2313.905191877338
 30
0.0
 10
1317.822299399884
 20
2313.356332598197
 30
0.0
  0
SPLINE
  5
74D
330
1F
100
AcDbEntity
  8
Visible (ISO)
100
AcDbSpline
210
0.0
220
0.0
230
1.0
 70
     8
 71
     3
 72
    10
 73
     6
 74
     0
 42
0.000000001
 43
0.0000000001
 40
-18.26089468444567
 40
-18.26089468444567
 40
-18.26089468444567
 40
-18.26089468444567
 40
-17.07576228859997
 40
-17.07576228859997
 40
-15.50474609419451
 40
-15.50474609419451
 40
-15.50474609419451
 40
-15.50474609419451
 10
1408.97789114058
 20
2442.890766701922
 30
0.0
 10
1404.383459379036
 20
2442.328398433699
 30
0.0
 10
1399.835435591344
 20
2441.417661557546
 30
0.0
 10
1389.48796372727
 20
2438.557932852436
 30
0.0
 10
1383.769466097706
 20
2436.371583932993
 30
0.0
 10
1378.328591884195
 20
2433.67144255673
 30
0.0
  0
SPLINE
  5
74E
330
1F
100
AcDbEntity
  8
Visible (ISO)
100
AcDbSpline
210
0.0
220
0.0
230
1.0
 70
     8
 71
     3
 72
    18
 73
    14
 74
     0
 42
0.000000001
 43
0.0000000001
 40
-27.42521695708344
 40
-27.42521695708344
 40
-27.42521695708344
 40
-27.42521695708344
 40
-27.19989270670645
 40
-27.19989270670645
 40
-26.0807700670591
 40
-26.0807700670591
 40
-25.45610430122234
 40
-25.45610430122234
 40
-24.74487758329804
 40
-24.74487758329804
 40
-24.14246427274963
 40
-24.14246427274963
 40
-23.60610225221272
 40
-23.60610225221272
 40
-23.60610225221272
 40
-23.60610225221272
 10
1498.506272199583
 20
2396.275169568439
 30
0.0
 10
1498.013763456702
 20
2397.012740318319
 30
0.0
 10
1497.511892170537
 20
2397.739500138704
 30
0.0
 10
1494.468077295411
 20
2402.012567498136
 30
0.0
 10
1491.740428557105
 20
2405.299561604881
 30
0.0
 10
1487.32065621109
 20
2410.105265416178
 30
0.0
 10
1485.702810991955
 20
2411.76324818132
 30
0.0
 10
1482.195277136626
 20
2415.191102250078
 30
0.0
 10
1480.302213572268
 20
2416.941931344865
 30
0.0
 10
1476.759224905109
 20
2420.082655718689
 30
0.0
 10
1475.097684542455
 20
2421.504851490827
 30
0.0
 10
1471.855715550622
 20
2424.154414454537
 30
0.0
 10
1470.289269256641
 20
2425.383462684415
 30
0.0
 10
1468.678676612965
 20
2426.584105260106
 30
0.0
  0
LINE
  5
822
330
1F
100
AcDbEntity
  8
Visible (ISO)
100
AcDbLine
 10
781.4583736622328
 20
2273.995825413084
 30
0.0
 11
781.4583736622719
 21
2250.363049906687
 31
0.0
  0
LINE
  5
823
330
1F
100
AcDbEntity
  8
Visible (ISO)
100
AcDbLine
 10
781.4583736622242
 20
2286.729176302086
 30
0.0
 11
781.4583736622328
 21
2273.995825413088
 31
0.0
  0
SPLINE
  5
824
330
1F
100
AcDbEntity
  8
Visible (ISO)
100
AcDbSpline
210
0.0
220
0.0
230
1.0
 70
     8
 71
     3
 72
    10
 73
     6
 74
     0
 42
0.000000001
 43
0.0000000001
 40
-6.615898421176048
 40
-6.615898421176048
 40
-6.615898421176048
 40
-6.615898421176048
 40
-6.448653623171179
 40
-6.448653623171179
 40
-5.43105261492643
 40
-5.43105261492643
 40
-5.43105261492643
 40
-5.43105261492643
 10
787.5583736622661
 20
2444.721587428107
 30
0.0
 10
787.5555880543958
 20
2444.783353730663
 30
0.0
 10
787.5528308783977
 20
2444.840906313809
 30
0.0
 10
787.5335193077096
 20
2445.218491214731
 30
0.0
 10
787.5180402396704
 20
2445.385225049804
 30
0.0
 10
787.5044619136165
 20
2445.385121071094
 30
0.0
  0
LINE
  5
825
330
1F
100
AcDbEntity
  8
Visible (ISO)
100
AcDbLine
 10
781.4583736622726
 20
2439.28580183842
 30
0.0
 11
781.4583736622164
 21
2316.156248977632
 31
0.0
  0
LINE
  5
826
330
1F
100
AcDbEntity
  8
Visible (ISO)
100
AcDbLine
 10
781.4583736622164
 20
2316.156248976889
 30
0.0
 11
781.4583736622242
 21
2286.729176302086
 31
0.0
  0
ARC
  5
827
330
1F
100
AcDbEntity
  8
Visible (ISO)
100
AcDbCircle
 10
787.5583736622718
 20
2250.362421685796
 30
0.0
 40
6.100000000000018
100
AcDbArc
 50
180.0
 51
270.0
  0
ARC
  5
828
330
1F
100
AcDbEntity
  8
Visible (ISO)
100
AcDbCircle
 10
787.5583736622725
 20
2439.285336924806
 30
0.0
 40
6.100000000000016
100
AcDbArc
 50
90.50585107237552
 51
180.0
  0
LINE
  5
829
330
1F
100
AcDbEntity
  8
Visible (ISO)
100
AcDbLine
 10
787.5635578234675
 20
2244.262421685797
 30
0.0
 11
787.5583736622718
 21
2244.262421685797
 31
0.0
  0
SPLINE
  5
82A
330
1F
100
AcDbEntity
  8
Visible (ISO)
100
AcDbSpline
210
0.0
220
0.0
230
1.0
 70
     8
 71
     3
 72
    22
 73
    18
 74
     0
 42
0.000000001
 43
0.0000000001
 40
-19.17962993917913
 40
-19.17962993917913
 40
-19.17962993917913
 40
-19.17962993917913
 40
-19.15003876468498
 40
-19.15003876468498
 40
-19.11663759620516
 40
-19.11663759620516
 40
-19.07194343326407
 40
-19.07194343326407
 40
-19.00382055975327
 40
-19.00382055975327
 40
-18.90931345986491
 40
-18.90931345986491
 40
-18.80385287050224
 40
-18.80385287050224
 40
-18.6822267382603
 40
-18.6822267382603
 40
-18.57149927796941
 40
-18.57149927796941
 40
-18.57149927796941
 40
-18.57149927796941
 10
787.5045434901194
 20
2445.385099221866
 30
0.0
 10
788.8959418640306
 20
2445.376688737533
 30
0.0
 10
790.2559674770141
 20
2445.133424033233
 30
0.0
 10
792.7509433899545
 20
2444.326990227629
 30
0.0
 10
793.8350186670994
 20
2443.744444169294
 30
0.0
 10
795.8364801194066
 20
2442.397835640818
 30
0.0
 10
796.5972198490655
 20
2441.644337290407
 30
0.0
 10
798.0322111885802
 20
2440.026423332489
 30
0.0
 10
798.4751098610996
 20
2439.283672133678
 30
0.0
 10
799.2602736231138
 20
2437.8751718322
 30
0.0
 10
799.4732710668022
 20
2437.329683994045
 30
0.0
 10
799.8192338377116
 20
2436.405573929226
 30
0.0
 10
799.9211991546805
 20
2436.06021266442
 30
0.0
 10
800.0930388740441
 20
2435.442614940791
 30
0.0
 10
800.1507960055665
 20
2435.193437217924
 30
0.0
 10
800.2396796574002
 20
2434.784729950204
 30
0.0
 10
800.2714749772172
 20
2434.62100312209
 30
0.0
 10
800.2984400046031
 20
2434.473581687822
 30
0.0
  0
SPLINE
  5
82B
330
1F
100
AcDbEntity
  8
Visible (ISO)
100
AcDbSpline
210
0.0
220
0.0
230
1.0
 70
     8
 71
     3
 72
    22
 73
    18
 74
     0
 42
0.000000001
 43
0.0000000001
 40
-17.25080680406074
 40
-17.25080680406074
 40
-17.25080680406074
 40
-17.25080680406074
 40
-17.17364121163537
 40
-17.17364121163537
 40
-17.09647561921001
 40
-17.09647561921001
 40
-17.01931002678465
 40
-17.01931002678465
 40
-16.94824827224607
 40
-16.94824827224607
 40
-16.91929636978113
 40
-16.91929636978113
 40
-16.90092334407783
 40
-16.90092334407783
 40
-16.87572426742752
 40
-16.87572426742752
 40
-16.86497884193393
 40
-16.86497884193393
 40
-16.86497884193393
 40
-16.86497884193393
 10
800.3927129268886
 20
2255.064432642714
 30
0.0
 10
800.3709904767802
 20
2254.944963840361
 30
0.0
 10
800.3450432632201
 20
2254.809061360564
 30
0.0
 10
800.2730692251063
 20
2254.470668531155
 30
0.0
 10
800.2282434005017
 20
2254.270205200336
 30
0.0
 10
800.0831691855346
 20
2253.719855726144
 30
0.0
 10
799.9912518378565
 20
2253.379530627265
 30
0.0
 10
799.6057538358215
 20
2252.322424320773
 30
0.0
 10
799.3973560891745
 20
2251.668337720889
 30
0.0
 10
798.2865319638192
 20
2249.883268708332
 30
0.0
 10
797.8609506576358
 20
2249.252051235663
 30
0.0
 10
796.6743111163703
 20
2247.962289715042
 30
0.0
 10
796.0883104361689
 20
2247.39459822139
 30
0.0
 10
794.1629840796345
 20
2245.97640998184
 30
0.0
 10
792.5662238330528
 20
2245.068836897551
 30
0.0
 10
789.5498045999413
 20
2244.381775665779
 30
0.0
 10
788.5656201544297
 20
2244.262421685797
 30
0.0
 10
787.5635578234668
 20
2244.262421685797
 30
0.0
  0
ARC
  5
82C
330
1F
100
AcDbEntity
  8
Visible (ISO)
100
AcDbCircle
 10
308.4583736622692
 20
2344.510538495805
 30
0.0
 40
500.0
100
AcDbArc
 50
349.6947590750604
 51
10.36545457737771
  0
SPLINE
  5
82D
330
1F
100
AcDbEntity
  8
Visible (ISO)
100
AcDbSpline
210
0.0
220
0.0
230
1.0
 70
     8
 71
     3
 72
    24
 73
    20
 74
     0
 42
0.000000001
 43
0.0000000001
 40
-2.853151903331343
 40
-2.853151903331343
 40
-2.853151903331343
 40
-2.853151903331343
 40
-2.799429783442173
 40
-2.799429783442173
 40
-2.723117972623678
 40
-2.723117972623678
 40
-2.643317502276748
 40
-2.643317502276748
 40
-2.564974076254216
 40
-2.564974076254216
 40
-2.48846296869005
 40
-2.48846296869005
 40
-2.40794481130597
 40
-2.40794481130597
 40
-2.330501594988805
 40
-2.330501594988805
 40
-2.252312449430112
 40
-2.252312449430112
 40
-2.200501349828941
 40
-2.200501349828941
 40
-2.200501349828941
 40
-2.200501349828941
 10
761.9483428331857
 20
2304.320249273527
 30
0.0
 10
761.9661334182678
 20
2304.309925712324
 30
0.0
 10
761.9602748625213
 20
2304.299487533604
 30
0.0
 10
761.8885085705474
 20
2304.274618247152
 30
0.0
 10
761.7991831091062
 20
2304.260931816386
 30
0.0
 10
761.5298019077372
 20
2304.234394848341
 30
0.0
 10
761.3484365134297
 20
2304.219489409731
 30
0.0
 10
760.9235086749166
 20
2304.189017442357
 30
0.0
 10
760.6851494272498
 20
2304.173755306341
 30
0.0
 10
760.1854136347842
 20
2304.144954235817
 30
0.0
 10
759.9293388238497
 20
2304.132575792031
 30
0.0
 10
759.4129241585542
 20
2304.104352747562
 30
0.0
 10
759.1583582845935
 20
2304.088860001802
 30
0.0
 10
758.7086017350487
 20
2304.058265483627
 30
0.0
 10
758.5156564083406
 20
2304.043453105084
 30
0.0
 10
758.2046242235344
 20
2304.015697166229
 30
0.0
 10
758.0902673066325
 20
2304.002914672224
 30
0.0
 10
757.9803957042729
 20
2303.978552026714
 30
0.0
 10
757.9583749378064
 20
2303.96857513587
 30
0.0
 10
757.9583743462151
 20
2303.958579645229
 30
0.0
  0
SPLINE
  5
82E
330
1F
100
AcDbEntity
  8
Visible (ISO)
100
AcDbSpline
210
0.0
220
0.0
230
1.0
 70
     8
 71
     3
 72
    24
 73
    20
 74
     0
 42
0.000000001
 43
0.0000000001
 40
-1.588734300105125
 40
-1.588734300105125
 40
-1.588734300105125
 40
-1.588734300105125
 40
-1.547281943470485
 40
-1.547281943470485
 40
-1.4705979298153
 40
-1.4705979298153
 40
-1.39028276355909
 40
-1.39028276355909
 40
-1.311671277772515
 40
-1.311671277772515
 40
-1.235553472510418
 40
-1.235553472510418
 40
-1.155842426081741
 40
-1.155842426081741
 40
-1.07809639620971
 40
-1.07809639620971
 40
-1.001030677775792
 40
-1.001030677775792
 40
-0.9370345530481703
 40
-0.9370345530481703
 40
-0.9370345530481703
 40
-0.9370345530481703
 10
761.9483425221799
 20
2303.62024927171
 30
0.0
 10
761.9620632586611
 20
2303.612287620527
 30
0.0
 10
761.9617401874007
 20
2303.604245464088
 30
0.0
 10
761.920227221636
 20
2303.581459580824
 30
0.0
 10
761.8450341966288
 20
2303.567102559582
 30
0.0
 10
761.6005286439099
 20
2303.540185350776
 30
0.0
 10
761.4293849164589
 20
2303.525942268863
 30
0.0
 10
761.0194679734463
 20
2303.495485629287
 30
0.0
 10
760.7862196725409
 20
2303.480087210512
 30
0.0
 10
760.29318324534
 20
2303.450844081211
 30
0.0
 10
760.0390099459141
 20
2303.438072054609
 30
0.0
 10
759.5224248550355
 20
2303.410676833548
 30
0.0
 10
759.2653678171211
 20
2303.39550025369
 30
0.0
 10
758.8013830018308
 20
2303.36497311674
 30
0.0
 10
758.5976965363428
 20
2303.34992035614
 30
0.0
 10
758.2652571366195
 20
2303.321651651643
 30
0.0
 10
758.1389849333143
 20
2303.309284935587
 30
0.0
 10
757.9921570834224
 20
2303.283282075441
 30
0.0
 10
757.9583746357698
 20
2303.270959601336
 30
0.0
 10
757.9583739042213
 20
2303.258579645229
 30
0.0
  0
SPLINE
  5
82F
330
1F
100
AcDbEntity
  8
Visible (ISO)
100
AcDbSpline
210
0.0
220
0.0
230
1.0
 70
     8
 71
     3
 72
    16
 73
    12
 74
     0
 42
0.000000001
 43
0.0000000001
 40
-0.3257658212215615
 40
-0.3257658212215615
 40
-0.3257658212215615
 40
-0.3257658212215615
 40
-0.2954158071015413
 40
-0.2954158071015413
 40
-0.2183527480428993
 40
-0.2183527480428993
 40
-0.1395487732958611
 40
-0.1395487732958611
 40
-0.0689823054432048
 40
-0.0689823054432048
 40
-0.0000010000001142
 40
-0.0000010000001142
 40
-0.0000010000001142
 40
-0.0000010000001142
 10
761.9483426490537
 20
2302.920249272451
 30
0.0
 10
761.9583948523079
 20
2302.914416551019
 30
0.0
 10
761.9609197940497
 20
2302.90853464786
 30
0.0
 10
761.9427704944578
 20
2302.887719701585
 30
0.0
 10
761.8806508282646
 20
2302.87306831209
 30
0.0
 10
761.6624771902511
 20
2302.845623394893
 30
0.0
 10
761.5064785160886
 20
2302.832404466843
 30
0.0
 10
761.1409033870231
 20
2302.804111643073
 30
0.0
 10
760.9415143150036
 20
2302.790320882314
 30
0.0
 10
760.5125583828236
 20
2302.763461686545
 30
0.0
 10
760.2869161073371
 20
2302.750580976985
 30
0.0
 10
760.0575701749514
 20
2302.738662658658
 30
0.0
  0
LINE
  5
830
330
1F
100
AcDbEntity
  8
Visible (ISO)
100
AcDbLine
 10
760.0575701749514
 20
2302.738662658658
 30
0.0
 11
761.4227875473182
 21
2302.738662658658
 31
0.0
  0
SPLINE
  5
831
330
1F
100
AcDbEntity
  8
Visible (ISO)
100
AcDbSpline
210
0.0
220
0.0
230
1.0
 70
     8
 71
     3
 72
    24
 73
    20
 74
     0
 42
0.000000001
 43
0.0000000001
 40
-4.861167662603574
 40
-4.861167662603574
 40
-4.861167662603574
 40
-4.861167662603574
 40
-4.807976808359696
 40
-4.807976808359696
 40
-4.727878105284157
 40
-4.727878105284157
 40
-4.651262946573576
 40
-4.651262946573576
 40
-4.57165243462729
 40
-4.57165243462729
 40
-4.494294994008551
 40
-4.494294994008551
 40
-4.416778663688941
 40
-4.416778663688941
 40
-4.337117607823874
 40
-4.337117607823874
 40
-4.26098234447676
 40
-4.26098234447676
 40
-4.210077172068426
 40
-4.210077172068426
 40
-4.210077172068426
 40
-4.210077172068426
 10
757.9684044745619
 20
2303.859410015601
 30
0.0
 10
757.9507499947689
 20
2303.869654584775
 30
0.0
 10
757.9563836471931
 20
2303.880012302812
 30
0.0
 10
758.0292151072376
 20
2303.905569475342
 30
0.0
 10
758.1252261839006
 20
2303.919728042539
 30
0.0
 10
758.4040773043454
 20
2303.946683112443
 30
0.0
 10
758.5804041806514
 20
2303.961062025742
 30
0.0
 10
759.0020167172934
 20
2303.991244886427
 30
0.0
 10
759.2456042991455
 20
2304.006787293814
 30
0.0
 10
759.7545807886756
 20
2304.035965066971
 30
0.0
 10
760.014314998529
 20
2304.04844658483
 30
0.0
 10
760.5237298909437
 20
2304.076515424483
 30
0.0
 10
760.7685221753087
 20
2304.09147854029
 30
0.0
 10
761.2168282267539
 20
2304.121994860288
 30
0.0
 10
761.4146231424371
 20
2304.137254151394
 30
0.0
 10
761.7213104189233
 20
2304.164950692765
 30
0.0
 10
761.8309425569555
 20
2304.177513879759
 30
0.0
 10
761.9370052296947
 20
2304.201405113559
 30
0.0
 10
761.9583724737084
 20
2304.211233589048
 30
0.0
 10
761.958373018626
 20
2304.221079645229
 30
0.0
  0
SPLINE
  5
832
330
1F
100
AcDbEntity
  8
Visible (ISO)
100
AcDbSpline
210
0.0
220
0.0
230
1.0
 70
     8
 71
     3
 72
    24
 73
    20
 74
     0
 42
0.000000001
 43
0.0000000001
 40
-6.122601673701432
 40
-6.122601673701432
 40
-6.122601673701432
 40
-6.122601673701432
 40
-6.05719459879
 40
-6.05719459879
 40
-5.978578261096659
 40
-5.978578261096659
 40
-5.901569529065722
 40
-5.901569529065722
 40
-5.821521105581322
 40
-5.821521105581322
 40
-5.744944532607791
 40
-5.744944532607791
 40
-5.667040132626977
 40
-5.667040132626977
 40
-5.587435630398017
 40
-5.587435630398017
 40
-5.511416955274869
 40
-5.511416955274869
 40
-5.4717180908843
 40
-5.4717180908843
 40
-5.4717180908843
 40
-5.4717180908843
 10
757.9684040667054
 20
2303.159410013217
 30
0.0
 10
757.9466688024429
 20
2303.172022498416
 30
0.0
 10
757.960285915595
 20
2303.184776252574
 30
0.0
 10
758.0675742283339
 20
2303.212057684045
 30
0.0
 10
758.1756931510381
 20
2303.225214012494
 30
0.0
 10
758.4756527027297
 20
2303.252698397054
 30
0.0
 10
758.6629310200333
 20
2303.26737077827
 30
0.0
 10
759.1031954165474
 20
2303.297846128414
 30
0.0
 10
759.3541275871114
 20
2303.313369356951
 30
0.0
 10
759.868125944203
 20
2303.341933962812
 30
0.0
 10
760.125400266438
 20
2303.354247220227
 30
0.0
 10
760.628652276516
 20
2303.382795754043
 30
0.0
 10
760.8694968414854
 20
2303.397964221421
 30
0.0
 10
761.3030829305952
 20
2303.428478343171
 30
0.0
 10
761.4904166688688
 20
2303.443522010727
 30
0.0
 10
761.773060603245
 20
2303.470476626172
 30
0.0
 10
761.8695775972023
 20
2303.483660563601
 30
0.0
 10
761.9453702551184
 20
2303.505718052738
 30
0.0
 10
761.9583727519061
 20
2303.513398704607
 30
0.0
 10
761.9583727662741
 20
2303.521079645229
 30
0.0
  0
SPLINE
  5
833
330
1F
100
AcDbEntity
  8
Visible (ISO)
100
AcDbSpline
210
0.0
220
0.0
230
1.0
 70
     8
 71
     3
 72
    12
 73
     8
 74
     0
 42
0.000000001
 43
0.0000000001
 40
-6.883991163792567
 40
-6.883991163792567
 40
-6.883991163792567
 40
-6.883991163792567
 40
-6.823515872944764
 40
-6.823515872944764
 40
-6.761551125312955
 40
-6.761551125312955
 40
-6.733647337106338
 40
-6.733647337106338
 40
-6.733647337106338
 40
-6.733647337106338
 10
761.4227875473175
 20
2302.738662658647
 30
0.0
 10
761.5599607975736
 20
2302.749893586523
 30
0.0
 10
761.6740314712505
 20
2302.759980924409
 30
0.0
 10
761.8505293769962
 20
2302.781416812469
 30
0.0
 10
761.9105278033057
 20
2302.793004738707
 30
0.0
 10
761.9519604695966
 20
2302.810285901857
 30
0.0
 10
761.9583732841188
 20
2302.815685420356
 30
0.0
 10
761.9583729693661
 20
2302.821079645229
 30
0.0
  0
LINE
  5
834
330
1F
100
AcDbEntity
  8
Visible (ISO)
100
AcDbLine
 10
758.3583736622695
 20
2302.458579643374
 30
0.0
 11
760.5749427767279
 21
2302.458579643374
 31
0.0
  0
SPLINE
  5
835
330
1F
100
AcDbEntity
  8
Visible (ISO)
100
AcDbSpline
210
0.0
220
0.0
230
1.0
 70
     8
 71
     3
 72
    10
 73
     6
 74
     0
 42
0.000000001
 43
0.0000000001
 40
0.0
 40
0.0
 40
0.0
 40
0.0
 40
0.045541103351271
 40
0.045541103351271
 40
0.0911428195972336
 40
0.0911428195972336
 40
0.0911428195972336
 40
0.0911428195972336
 10
761.4227875472965
 20
2302.738662658609
 30
0.0
 10
761.2882228653382
 20
2302.696462499158
 30
0.0
 10
761.1476195808509
 20
2302.651987706168
 30
0.0
 10
760.8613275291908
 20
2302.55829150447
 30
0.0
 10
760.7167738192302
 20
2302.509431447338
 30
0.0
 10
760.5749427767279
 20
2302.458579643374
 30
0.0
  0
SPLINE
  5
836
330
1F
100
AcDbEntity
  8
Visible (ISO)
100
AcDbSpline
210
0.0
220
0.0
230
1.0
 70
     8
 71
     3
 72
    20
 73
    16
 74
     0
 42
0.000000001
 43
0.0000000001
 40
-1.529809695754027
 40
-1.529809695754027
 40
-1.529809695754027
 40
-1.529809695754027
 40
-1.447337631601729
 40
-1.447337631601729
 40
-1.370444607991561
 40
-1.370444607991561
 40
-1.225137756944886
 40
-1.225137756944886
 40
-1.03518798995616
 40
-1.03518798995616
 40
-0.9410147582119805
 40
-0.9410147582119805
 40
-0.7512972602212497
 40
-0.7512972602212497
 40
-0.7159479482877954
 40
-0.7159479482877954
 40
-0.7159479482877954
 40
-0.7159479482877954
 10
760.0575701749505
 20
2302.738662658658
 30
0.0
 10
759.9530084314931
 20
2302.735690529061
 30
0.0
 10
759.8481162506275
 20
2302.732813900371
 30
0.0
 10
759.6463704878285
 20
2302.726811886843
 30
0.0
 10
759.5502882425198
 20
2302.72381642883
 30
0.0
 10
759.2786579088299
 20
2302.714937302489
 30
0.0
 10
759.1098632079799
 20
2302.708899677767
 30
0.0
 10
758.7526597234416
 20
2302.694834292677
 30
0.0
 10
758.5773008613569
 20
2302.68688638713
 30
0.0
 10
758.3689692013669
 20
2302.675680757793
 30
0.0
 10
758.3080219753433
 20
2302.672172844401
 30
0.0
 10
758.1583455450493
 20
2302.661121830924
 30
0.0
 10
758.1037173209124
 20
2302.65303267045
 30
0.0
 10
758.0965333761989
 20
2302.643093883244
 30
0.0
 10
758.097095444218
 20
2302.641528446762
 30
0.0
 10
758.0993326171157
 20
2302.639961841746
 30
0.0
  0
LINE
  5
837
330
1F
100
AcDbEntity
  8
Visible (ISO)
100
AcDbLine
 10
760.5749427767279
 20
2302.458579643374
 30
0.0
 11
760.914302795468
 21
2302.458579643374
 31
0.0
  0
ELLIPSE
  5
838
330
1F
100
AcDbEntity
  8
Visible (ISO)
100
AcDbEllipse
 10
759.9828295806016
 20
2302.458370524567
 30
0.0
 11
1.555302298607605
 21
0.000210119552793
 31
0.0
210
0.0
220
0.0
230
0.9999999999999998
 40
0.0000133092901381
 41
0.0000105958931975
 42
0.2365644029461773
  0
LINE
  5
839
330
1F
100
AcDbEntity
  8
Visible (ISO)
100
AcDbLine
 10
760.914302795468
 20
2302.458579643374
 30
0.0
 11
761.4948148029744
 21
2302.458579643372
 31
0.0
  0
SPLINE
  5
83A
330
1F
100
AcDbEntity
  8
Visible (ISO)
100
AcDbSpline
210
0.0
220
0.0
230
1.0
 70
    12
 71
     2
 72
    10
 73
     7
 74
     0
 42
0.000000001
 43
0.0000000001
 40
0.5449486867104935
 40
0.5449486867104935
 40
0.5449486867104935
 40
0.5555555555555556
 40
0.5555555555555556
 40
0.5740740740740741
 40
0.5740740740740741
 40
0.583333327239072
 40
0.583333327239072
 40
0.583333327239072
 10
760.8329180341963
 20
2304.550998610336
 30
0.0
 41
0.9344316553647875
 10
760.4377184722991
 20
2304.514919881492
 30
0.0
 41
0.9232632475860548
 10
759.9583731172008
 20
2304.483579604079
 30
0.0
 41
1.0
 10
759.0661725788216
 20
2304.425246270746
 30
0.0
 41
0.8660254037844387
 10
758.6200725821663
 20
2304.366912937412
 30
0.0
 41
1.0
 10
758.4130369992559
 20
2304.339840362294
 30
0.0
 41
0.9330127459819351
 10
758.4130369992562
 20
2304.308579645229
 30
0.0
 41
0.9330127018922482
  0
SPLINE
  5
83B
330
1F
100
AcDbEntity
  8
Visible (ISO)
100
AcDbSpline
210
0.0
220
0.0
230
1.0
 70
    12
 71
     2
 72
    12
 73
     9
 74
     0
 42
0.000000001
 43
0.0000000001
 40
0.6411201034584729
 40
0.6411201034584729
 40
0.6411201034584729
 40
0.6481481481481481
 40
0.6481481481481481
 40
0.6666666666666666
 40
0.6666666666666666
 40
0.6851851851851852
 40
0.6851851851851852
 40
0.6944444383501831
 40
0.6944444383501831
 40
0.6944444383501831
 10
761.4908786386977
 20
2303.94357627942
 30
0.0
 41
0.9369024604632617
 10
761.451147933042
 20
2303.920445681137
 30
0.0
 41
0.9491547097278546
 10
761.2966741973039
 20
2303.900246270746
 30
0.0
 41
1.0
 10
760.8505736555801
 20
2303.841912937412
 30
0.0
 41
0.8660254037844387
 10
759.9583731172008
 20
2303.783579604079
 30
0.0
 41
1.0
 10
759.0661725788216
 20
2303.725246270746
 30
0.0
 41
0.8660254037844387
 10
758.6200725821663
 20
2303.666912937412
 30
0.0
 41
1.0
 10
758.4130369992561
 20
2303.639840362293
 30
0.0
 41
0.9330127459819351
 10
758.4130369992562
 20
2303.608579645229
 30
0.0
 41
0.9330127018922482
  0
SPLINE
  5
83C
330
1F
100
AcDbEntity
  8
Visible (ISO)
100
AcDbSpline
210
0.0
220
0.0
230
1.0
 70
    12
 71
     2
 72
    12
 73
     9
 74
     0
 42
0.000000001
 43
0.0000000001
 40
0.7522312145695839
 40
0.7522312145695839
 40
0.7522312145695839
 40
0.7592592592592595
 40
0.7592592592592595
 40
0.7777777777777778
 40
0.7777777777777778
 40
0.7962962962962963
 40
0.7962962962962963
 40
0.805555549461294
 40
0.805555549461294
 40
0.805555549461294
 10
761.4908786386977
 20
2303.243576279419
 30
0.0
 41
0.9369024604632611
 10
761.451147933042
 20
2303.220445681136
 30
0.0
 41
0.9491547097278539
 10
761.2966741973039
 20
2303.200246270746
 30
0.0
 41
1.0
 10
760.8505736555801
 20
2303.141912937412
 30
0.0
 41
0.8660254037844387
 10
759.9583731172008
 20
2303.083579604079
 30
0.0
 41
1.0
 10
759.0661725788216
 20
2303.025246270745
 30
0.0
 41
0.8660254037844387
 10
758.6200725821663
 20
2302.966912937412
 30
0.0
 41
1.0
 10
758.4130369992561
 20
2302.939840362293
 30
0.0
 41
0.9330127459819351
 10
758.4130369992562
 20
2302.908579645229
 30
0.0
 41
0.9330127018922482
  0
SPLINE
  5
83D
330
1F
100
AcDbEntity
  8
Visible (ISO)
100
AcDbSpline
210
0.0
220
0.0
230
1.0
 70
    12
 71
     2
 72
     8
 73
     5
 74
     0
 42
0.000000001
 43
0.0000000001
 40
0.8633423256806949
 40
0.8633423256806949
 40
0.8633423256806949
 40
0.8703703703703704
 40
0.8703703703703704
 40
0.8771486126783923
 40
0.8771486126783923
 40
0.8771486126783923
 10
761.4908786386977
 20
2302.54357627942
 30
0.0
 41
0.9369024604632617
 10
761.451147933042
 20
2302.520445681137
 30
0.0
 41
0.9491547097278546
 10
761.2966741973039
 20
2302.500246270745
 30
0.0
 41
1.0
 10
761.1479741530725
 20
2302.480801844129
 30
0.0
 41
0.9509619370815014
 10
760.914302795468
 20
2302.458579643374
 30
0.0
 41
0.9378221964229853
  0
SPLINE
  5
83E
330
1F
100
AcDbEntity
  8
Visible (ISO)
100
AcDbSpline
210
0.0
220
0.0
230
1.0
 70
    12
 71
     2
 72
    12
 73
     9
 74
     0
 42
0.000000001
 43
0.0000000001
 40
0.5896579982518144
 40
0.5896579982518144
 40
0.5896579982518144
 40
0.5936170281025774
 40
0.5936170281025774
 40
0.61408658079577
 40
0.61408658079577
 40
0.634556133488962
 40
0.634556133488962
 40
0.6423246104599314
 40
0.6423246104599314
 40
0.6423246104599314
 10
761.4224712825094
 20
2304.533750457726
 30
0.0
 41
0.9581991271637644
 10
761.3733830813558
 20
2304.522776935326
 30
0.0
 41
0.9740878839117105
 10
761.2966741973039
 20
2304.512746270745
 30
0.0
 41
1.0
 10
760.8505736555801
 20
2304.454412937412
 30
0.0
 41
0.8660254037844387
 10
759.9583731172008
 20
2304.396079604079
 30
0.0
 41
1.0
 10
759.0661725788216
 20
2304.337746270745
 30
0.0
 41
0.8660254037844387
 10
758.6200725821663
 20
2304.279412937412
 30
0.0
 41
1.0
 10
758.4655993139878
 20
2304.259213563479
 30
0.0
 41
0.9491547968343418
 10
758.4258686835601
 20
2304.236083009028
 30
0.0
 41
0.9369025024436798
  0
SPLINE
  5
83F
330
1F
100
AcDbEntity
  8
Visible (ISO)
100
AcDbSpline
210
0.0
220
0.0
230
1.0
 70
    12
 71
     2
 72
    12
 73
     9
 74
     0
 42
0.000000001
 43
0.0000000001
 40
0.7061995611788076
 40
0.7061995611788076
 40
0.7061995611788076
 40
0.7164343442617313
 40
0.7164343442617313
 40
0.7369038969549237
 40
0.7369038969549237
 40
0.7573734496481162
 40
0.7573734496481162
 40
0.7651419266190853
 40
0.7651419266190853
 40
0.7651419266190853
 10
761.5037103252825
 20
2303.871079645229
 30
0.0
 41
0.9330127018922484
 10
761.5037103252823
 20
2303.83981888406
 30
0.0
 41
0.933012657802503
 10
761.2966741973039
 20
2303.812746270745
 30
0.0
 41
1.0
 10
760.8505736555801
 20
2303.754412937412
 30
0.0
 41
0.8660254037844387
 10
759.9583731172008
 20
2303.696079604078
 30
0.0
 41
1.0
 10
759.0661725788216
 20
2303.637746270745
 30
0.0
 41
0.8660254037844387
 10
758.6200725821663
 20
2303.579412937412
 30
0.0
 41
1.0
 10
758.4655993139876
 20
2303.559213563479
 30
0.0
 41
0.9491547968343423
 10
758.4258686835601
 20
2303.536083009028
 30
0.0
 41
0.9369025024436799
  0
SPLINE
  5
840
330
1F
100
AcDbEntity
  8
Visible (ISO)
100
AcDbSpline
210
0.0
220
0.0
230
1.0
 70
    12
 71
     2
 72
    12
 73
     9
 74
     0
 42
0.000000001
 43
0.0000000001
 40
0.8290168773379614
 40
0.8290168773379614
 40
0.8290168773379614
 40
0.8392516604208852
 40
0.8392516604208852
 40
0.8597212131140777
 40
0.8597212131140777
 40
0.88019076580727
 40
0.88019076580727
 40
0.8879592427782393
 40
0.8879592427782393
 40
0.8879592427782393
 10
761.5037103252825
 20
2303.171079645229
 30
0.0
 41
0.9330127018922484
 10
761.5037103252823
 20
2303.13981888406
 30
0.0
 41
0.9330126578025032
 10
761.2966741973039
 20
2303.112746270746
 30
0.0
 41
1.0
 10
760.8505736555801
 20
2303.054412937412
 30
0.0
 41
0.8660254037844387
 10
759.9583731172008
 20
2302.996079604079
 30
0.0
 41
1.0
 10
759.0661725788216
 20
2302.937746270746
 30
0.0
 41
0.8660254037844387
 10
758.6200725821663
 20
2302.879412937412
 30
0.0
 41
1.0
 10
758.4655993139876
 20
2302.85921356348
 30
0.0
 41
0.9491547968343414
 10
758.4258686835601
 20
2302.836083009028
 30
0.0
 41
0.9369025024436798
  0
SPLINE
  5
841
330
1F
100
AcDbEntity
  8
Visible (ISO)
100
AcDbSpline
210
0.0
220
0.0
230
1.0
 70
    12
 71
     2
 72
     6
 73
     3
 74
     0
 42
0.000000001
 43
0.0000000001
 40
0.9518341934971154
 40
0.9518341934971154
 40
0.9518341934971154
 40
0.9538863523020287
 40
0.9538863523020287
 40
0.9538863523020287
 10
761.5037103252825
 20
2302.471079645229
 30
0.0
 41
0.9330127018922484
 10
761.5037103252825
 20
2302.464811603851
 30
0.0
 41
0.9330126930518892
 10
761.4948148029744
 20
2302.458579643372
 30
0.0
 41
0.935705816447135
  0
LINE
  5
842
330
1F
100
AcDbEntity
  8
Visible (ISO)
100
AcDbLine
 10
761.9583736622693
 20
2304.308579645229
 30
0.0
 11
761.9583736622693
 21
2304.221079645229
 31
0.0
  0
LINE
  5
843
330
1F
100
AcDbEntity
  8
Visible (ISO)
100
AcDbLine
 10
761.9583736622693
 20
2303.608579645229
 30
0.0
 11
761.9583736622693
 21
2303.521079645229
 31
0.0
  0
LINE
  5
844
330
1F
100
AcDbEntity
  8
Visible (ISO)
100
AcDbLine
 10
761.9583736622693
 20
2302.908579645229
 30
0.0
 11
761.9583736622693
 21
2302.821079645229
 31
0.0
  0
LINE
  5
845
330
1F
100
AcDbEntity
  8
Visible (ISO)
100
AcDbLine
 10
757.9583736622694
 20
2303.958579645229
 30
0.0
 11
757.9583736622694
 21
2303.871079645229
 31
0.0
  0
LINE
  5
846
330
1F
100
AcDbEntity
  8
Visible (ISO)
100
AcDbLine
 10
757.9583736622694
 20
2303.258579645229
 30
0.0
 11
757.9583736622694
 21
2303.171079645229
 31
0.0
  0
LINE
  5
847
330
1F
100
AcDbEntity
  8
Visible (ISO)
100
AcDbLine
 10
758.3583736622695
 20
2302.458579643374
 30
0.0
 11
758.0993324606786
 21
2302.639962245435
 31
0.0
  0
SPLINE
  5
848
330
1F
100
AcDbEntity
  8
Visible (ISO)
100
AcDbSpline
210
0.0
220
0.0
230
1.0
 70
     8
 71
     3
 72
     8
 73
     4
 74
     0
 42
0.000000001
 43
0.0000000001
 40
0.0014847711265211
 40
0.0014847711265211
 40
0.0014847711265211
 40
0.0014847711265211
 40
0.0440204900097918
 40
0.0440204900097918
 40
0.0440204900097918
 40
0.0440204900097918
 10
758.4130369992564
 20
2304.301046190876
 30
0.0
 10
758.2905008951835
 20
2304.372375354012
 30
0.0
 10
758.1679081226823
 20
2304.443608280312
 30
0.0
 10
758.0452854888908
 20
2304.514789892247
 30
0.0
  0
SPLINE
  5
849
330
1F
100
AcDbEntity
  8
Visible (ISO)
100
AcDbSpline
210
0.0
220
0.0
230
1.0
 70
     8
 71
     3
 72
     8
 73
     4
 74
     0
 42
0.000000001
 43
0.0000000001
 40
0.0014847711265222
 40
0.0014847711265222
 40
0.0014847711265222
 40
0.0014847711265222
 40
0.0529096727777917
 40
0.0529096727777917
 40
0.0529096727777917
 40
0.0529096727777917
 10
758.4130369992564
 20
2303.601046190876
 30
0.0
 10
758.264893103582
 20
2303.68728183695
 30
0.0
 10
758.1166674077818
 20
2303.77337857776
 30
0.0
 10
757.968403899103
 20
2303.859410012238
 30
0.0
  0
SPLINE
  5
84A
330
1F
100
AcDbEntity
  8
Visible (ISO)
100
AcDbSpline
210
0.0
220
0.0
230
1.0
 70
     8
 71
     3
 72
     8
 73
     4
 74
     0
 42
0.000000001
 43
0.0000000001
 40
0.0014847711265212
 40
0.0014847711265212
 40
0.0014847711265212
 40
0.0014847711265212
 40
0.0529096727777912
 40
0.0529096727777912
 40
0.0529096727777912
 40
0.0529096727777912
 10
758.4130369992564
 20
2302.901046190876
 30
0.0
 10
758.264893103582
 20
2302.98728183695
 30
0.0
 10
758.1166674077818
 20
2303.073378577759
 30
0.0
 10
757.968403899103
 20
2303.159410012238
 30
0.0
  0
SPLINE
  5
84B
330
1F
100
AcDbEntity
  8
Visible (ISO)
100
AcDbSpline
210
0.0
220
0.0
230
1.0
 70
     8
 71
     3
 72
     8
 73
     4
 74
     0
 42
0.000000001
 43
0.0000000001
 40
0.0
 40
0.0
 40
0.0
 40
0.0
 40
0.052909672777788
 40
0.052909672777788
 40
0.052909672777788
 40
0.052909672777788
 10
761.9483434254358
 20
2304.209410012238
 30
0.0
 10
761.7957991623027
 20
2304.120894625709
 30
0.0
 10
761.6432946795089
 20
2304.032310525481
 30
0.0
 10
761.4908786386977
 20
2303.94357627942
 30
0.0
  0
SPLINE
  5
84C
330
1F
100
AcDbEntity
  8
Visible (ISO)
100
AcDbSpline
210
0.0
220
0.0
230
1.0
 70
     8
 71
     3
 72
     8
 73
     4
 74
     0
 42
0.000000001
 43
0.0000000001
 40
0.0
 40
0.0
 40
0.0
 40
0.0
 40
0.0529096727777909
 40
0.0529096727777909
 40
0.0529096727777909
 40
0.0529096727777909
 10
761.9483434254359
 20
2303.509410012238
 30
0.0
 10
761.7957991623027
 20
2303.420894625709
 30
0.0
 10
761.6432946795089
 20
2303.332310525481
 30
0.0
 10
761.4908786386977
 20
2303.243576279419
 30
0.0
  0
SPLINE
  5
84D
330
1F
100
AcDbEntity
  8
Visible (ISO)
100
AcDbSpline
210
0.0
220
0.0
230
1.0
 70
     8
 71
     3
 72
     8
 73
     4
 74
     0
 42
0.000000001
 43
0.0000000001
 40
0.0
 40
0.0
 40
0.0
 40
0.0
 40
0.0529096727777917
 40
0.0529096727777917
 40
0.0529096727777917
 40
0.0529096727777917
 10
761.9483434254359
 20
2302.809410012238
 30
0.0
 10
761.7957991623027
 20
2302.720894625709
 30
0.0
 10
761.6432946795089
 20
2302.632310525481
 30
0.0
 10
761.4908786386977
 20
2302.54357627942
 30
0.0
  0
LINE
  5
84E
330
1F
100
AcDbEntity
  8
Visible (ISO)
100
AcDbLine
 10
758.4130369992562
 20
2304.228613098909
 30
0.0
 11
758.4130369992562
 21
2304.308579645229
 31
0.0
  0
LINE
  5
84F
330
1F
100
AcDbEntity
  8
Visible (ISO)
100
AcDbLine
 10
761.5037103252825
 20
2303.871079645229
 30
0.0
 11
761.5037103252825
 21
2303.951046190876
 31
0.0
  0
LINE
  5
850
330
1F
100
AcDbEntity
  8
Visible (ISO)
100
AcDbLine
 10
758.4130369992562
 20
2303.528613076144
 30
0.0
 11
758.4130369992562
 21
2303.608579645229
 31
0.0
  0
LINE
  5
851
330
1F
100
AcDbEntity
  8
Visible (ISO)
100
AcDbLine
 10
761.5037103252825
 20
2303.171079645229
 30
0.0
 11
761.5037103252825
 21
2303.251046190876
 31
0.0
  0
LINE
  5
852
330
1F
100
AcDbEntity
  8
Visible (ISO)
100
AcDbLine
 10
758.4130369992562
 20
2302.828613098909
 30
0.0
 11
758.4130369992562
 21
2302.908579645229
 31
0.0
  0
LINE
  5
853
330
1F
100
AcDbEntity
  8
Visible (ISO)
100
AcDbLine
 10
761.5037103252825
 20
2302.471079645229
 30
0.0
 11
761.5037103252825
 21
2302.551046190877
 31
0.0
  0
SPLINE
  5
854
330
1F
100
AcDbEntity
  8
Visible (ISO)
100
AcDbSpline
210
0.0
220
0.0
230
1.0
 70
     8
 71
     3
 72
     8
 73
     4
 74
     0
 42
0.000000001
 43
0.0000000001
 40
0.0
 40
0.0
 40
0.0
 40
0.0
 40
0.0376615451233789
 40
0.0376615451233789
 40
0.0376615451233789
 40
0.0376615451233789
 10
758.1002783346138
 20
2302.646797362935
 30
0.0
 10
758.2088408784159
 20
2302.709837167701
 30
0.0
 10
758.3173776780567
 20
2302.772921234766
 30
0.0
 10
758.4258686835601
 20
2302.836083009028
 30
0.0
  0
SPLINE
  5
855
330
1F
100
AcDbEntity
  8
Visible (ISO)
100
AcDbSpline
210
0.0
220
0.0
230
1.0
 70
     8
 71
     3
 72
     8
 73
     4
 74
     0
 42
0.000000001
 43
0.0000000001
 40
0.0
 40
0.0
 40
0.0
 40
0.0
 40
0.0529096726628233
 40
0.0529096726628233
 40
0.0529096726628233
 40
0.0529096726628233
 10
757.9684038977047
 20
2303.970249276996
 30
0.0
 10
758.1209481605319
 20
2304.058764663285
 30
0.0
 10
758.2734526430274
 20
2304.14734876326
 30
0.0
 10
758.4258686835601
 20
2304.236083009028
 30
0.0
  0
SPLINE
  5
856
330
1F
100
AcDbEntity
  8
Visible (ISO)
100
AcDbSpline
210
0.0
220
0.0
230
1.0
 70
     8
 71
     3
 72
     8
 73
     4
 74
     0
 42
0.000000001
 43
0.0000000001
 40
0.0
 40
0.0
 40
0.0
 40
0.0
 40
0.0529096726628237
 40
0.0529096726628237
 40
0.0529096726628237
 40
0.0529096726628237
 10
757.9684038977047
 20
2303.270249276997
 30
0.0
 10
758.1209481605319
 20
2303.358764663286
 30
0.0
 10
758.2734526430274
 20
2303.44734876326
 30
0.0
 10
758.4258686835601
 20
2303.536083009028
 30
0.0
  0
SPLINE
  5
857
330
1F
100
AcDbEntity
  8
Visible (ISO)
100
AcDbSpline
210
0.0
220
0.0
230
1.0
 70
     8
 71
     3
 72
     8
 73
     4
 74
     0
 42
0.000000001
 43
0.0000000001
 40
0.0117120511280963
 40
0.0117120511280963
 40
0.0117120511280963
 40
0.0117120511280963
 40
0.0529096726628245
 40
0.0529096726628245
 40
0.0529096726628245
 40
0.0529096726628245
 10
761.5921076434761
 20
2304.527178372858
 30
0.0
 10
761.710814208724
 20
2304.458135968571
 30
0.0
 10
761.8295662639645
 20
2304.389170954278
 30
0.0
 10
761.9483434268341
 20
2304.320249276996
 30
0.0
  0
SPLINE
  5
858
330
1F
100
AcDbEntity
  8
Visible (ISO)
100
AcDbSpline
210
0.0
220
0.0
230
1.0
 70
     8
 71
     3
 72
     8
 73
     4
 74
     0
 42
0.000000001
 43
0.0000000001
 40
0.0014847708621075
 40
0.0014847708621075
 40
0.0014847708621075
 40
0.0014847708621075
 40
0.0529096726628213
 40
0.0529096726628213
 40
0.0529096726628213
 40
0.0529096726628213
 10
761.5037103252827
 20
2303.878613098909
 30
0.0
 10
761.6518542214367
 20
2303.79237745268
 30
0.0
 10
761.8000799176995
 20
2303.706280711679
 30
0.0
 10
761.9483434268341
 20
2303.620249276997
 30
0.0
  0
SPLINE
  5
859
330
1F
100
AcDbEntity
  8
Visible (ISO)
100
AcDbSpline
210
0.0
220
0.0
230
1.0
 70
     8
 71
     3
 72
     8
 73
     4
 74
     0
 42
0.000000001
 43
0.0000000001
 40
0.001484772021855
 40
0.001484772021855
 40
0.001484772021855
 40
0.001484772021855
 40
0.0529096726628208
 40
0.0529096726628208
 40
0.0529096726628208
 40
0.0529096726628208
 10
761.5037103252827
 20
2303.178613076144
 30
0.0
 10
761.6518539942482
 20
2303.092377053737
 30
0.0
 10
761.8000799210431
 20
2303.006280709738
 30
0.0
 10
761.9483434268341
 20
2302.920249276997
 30
0.0
  0
LINE
  5
85A
330
1F
100
AcDbEntity
  8
Visible (ISO)
100
AcDbLine
 10
761.50371101668
 20
2302.478613965202
 30
0.0
 11
761.5381313839166
 21
2302.458579793362
 31
0.0
  0
SPLINE
  5
85B
330
1F
100
AcDbEntity
  8
Visible (ISO)
100
AcDbSpline
210
0.0
220
0.0
230
1.0
 70
     8
 71
     3
 72
    24
 73
    20
 74
     0
 42
0.000000001
 43
0.0000000001
 40
-1.587708870415336
 40
-1.587708870415336
 40
-1.587708870415336
 40
-1.587708870415336
 40
-1.547281943470485
 40
-1.547281943470485
 40
-1.4705979298153
 40
-1.4705979298153
 40
-1.39028276355909
 40
-1.39028276355909
 40
-1.311671277772515
 40
-1.311671277772515
 40
-1.235553472510418
 40
-1.235553472510418
 40
-1.155842426081741
 40
-1.155842426081741
 40
-1.07809639620971
 40
-1.07809639620971
 40
-1.001030677775792
 40
-1.001030677775792
 40
-0.9360014168073885
 40
-0.9360014168073885
 40
-0.9360014168073885
 40
-0.9360014168073885
 10
757.9684147393191
 20
2384.565450671437
 30
0.0
 10
757.9550268754353
 20
2384.573219179314
 30
0.0
 10
757.9549946280025
 20
2384.581061260615
 30
0.0
 10
757.9941565392174
 20
2384.603649361256
 30
0.0
 10
758.0680836129259
 20
2384.618006382498
 30
0.0
 10
758.3102143342614
 20
2384.644923591304
 30
0.0
 10
758.4802833011734
 20
2384.659166673216
 30
0.0
 10
758.8884770204388
 20
2384.689623312793
 30
0.0
 10
759.121085199134
 20
2384.705021731567
 30
0.0
 10
759.6133510762521
 20
2384.734264860869
 30
0.0
 10
759.8673854571286
 20
2384.747036887471
 30
0.0
 10
760.3841925050278
 20
2384.774432108532
 30
0.0
 10
760.6416321521066
 20
2384.78960868839
 30
0.0
 10
761.1068597571889
 20
2384.820135825339
 30
0.0
 10
761.3113828243085
 20
2384.83518858594
 30
0.0
 10
761.6458398036576
 20
2384.863457290436
 30
0.0
 10
761.7732708548309
 20
2384.875824006493
 30
0.0
 10
761.923479939201
 20
2384.902017311458
 30
0.0
 10
761.9583727545012
 20
2384.914547339159
 30
0.0
 10
761.958373454742
 20
2384.927128915878
 30
0.0
  0
SPLINE
  5
85C
330
1F
100
AcDbEntity
  8
Visible (ISO)
100
AcDbSpline
210
0.0
220
0.0
230
1.0
 70
     8
 71
     3
 72
    16
 73
    12
 74
     0
 42
0.000000001
 43
0.0000000001
 40
-0.3247410372389039
 40
-0.3247410372389039
 40
-0.3247410372389039
 40
-0.3247410372389039
 40
-0.2954158071015413
 40
-0.2954158071015413
 40
-0.2183527480428993
 40
-0.2183527480428993
 40
-0.1395487732958611
 40
-0.1395487732958611
 40
-0.0689823054432048
 40
-0.0689823054432048
 40
-0.0000010000001142
 40
-0.0000010000001142
 40
-0.0000010000001142
 40
-0.0000010000001142
 10
757.9684145764836
 20
2385.265450670534
 30
0.0
 10
757.9586963805176
 20
2385.271089601458
 30
0.0
 10
757.9560056708701
 20
2385.276772881067
 30
0.0
 10
757.9721651264062
 20
2385.297389240494
 30
0.0
 10
758.0329930779567
 20
2385.312040629989
 30
0.0
 10
758.2487457373668
 20
2385.339485547187
 30
0.0
 10
758.4036431635727
 20
2385.352704475237
 30
0.0
 10
758.7674822180028
 20
2385.380997299007
 30
0.0
 10
758.9662134917086
 20
2385.394788059765
 30
0.0
 10
759.3942493570311
 20
2385.421647255535
 30
0.0
 10
759.6196275589748
 20
2385.434527965095
 30
0.0
 10
759.8489119264894
 20
2385.446446283421
 30
0.0
  0
LINE
  5
85D
330
1F
100
AcDbEntity
  8
Visible (ISO)
100
AcDbLine
 10
759.8489119264895
 20
2385.446446283421
 30
0.0
 11
758.486978149154
 21
2385.446446283421
 31
0.0
  0
SPLINE
  5
85E
330
1F
100
AcDbEntity
  8
Visible (ISO)
100
AcDbSpline
210
0.0
220
0.0
230
1.0
 70
     8
 71
     3
 72
    24
 73
    20
 74
     0
 42
0.000000001
 43
0.0000000001
 40
-6.123622445712928
 40
-6.123622445712928
 40
-6.123622445712928
 40
-6.123622445712928
 40
-6.05719459879
 40
-6.05719459879
 40
-5.978578261096659
 40
-5.978578261096659
 40
-5.901569529065722
 40
-5.901569529065722
 40
-5.821521105581322
 40
-5.821521105581322
 40
-5.744944532607791
 40
-5.744944532607791
 40
-5.667040132626977
 40
-5.667040132626977
 40
-5.587435630398017
 40
-5.587435630398017
 40
-5.511416955274869
 40
-5.511416955274869
 40
-5.472751136614586
 40
-5.472751136614586
 40
-5.472751136614586
 40
-5.472751136614586
 10
761.948353723972
 20
2385.026289331943
 30
0.0
 10
761.9704204346881
 20
2385.01348461391
 30
0.0
 10
761.956005684271
 20
2385.000526047802
 30
0.0
 10
761.8455376585812
 20
2384.973051258035
 30
0.0
 10
761.7361802466799
 20
2384.959894929586
 30
0.0
 10
761.4340517584042
 20
2384.932410545026
 30
0.0
 10
761.2458575853227
 20
2384.91773816381
 30
0.0
 10
760.8041480514859
 20
2384.887262813666
 30
0.0
 10
760.5527175826063
 20
2384.871739585128
 30
0.0
 10
760.0382681446172
 20
2384.843174979268
 30
0.0
 10
759.7810224496438
 20
2384.830861721853
 30
0.0
 10
759.2783277870924
 20
2384.802313188037
 30
0.0
 10
759.0380153015851
 20
2384.787144720659
 30
0.0
 10
758.6059521743095
 20
2384.756630598909
 30
0.0
 10
758.4196041728048
 20
2384.741586931353
 30
0.0
 10
758.1391976627343
 20
2384.714632315908
 30
0.0
 10
758.0438980762278
 20
2384.701448378478
 30
0.0
 10
757.9707091105831
 20
2384.679587803268
 30
0.0
 10
757.9583745253842
 20
2384.672109893219
 30
0.0
 10
757.9583745575363
 20
2384.664628915672
 30
0.0
  0
SPLINE
  5
85F
330
1F
100
AcDbEntity
  8
Visible (ISO)
100
AcDbSpline
210
0.0
220
0.0
230
1.0
 70
     8
 71
     3
 72
    12
 73
     8
 74
     0
 42
0.000000001
 43
0.0000000001
 40
-6.883991163792567
 40
-6.883991163792567
 40
-6.883991163792567
 40
-6.883991163792567
 40
-6.823515872944764
 40
-6.823515872944764
 40
-6.761551125312955
 40
-6.761551125312955
 40
-6.734681225885928
 40
-6.734681225885928
 40
-6.734681225885928
 40
-6.734681225885928
 10
758.4869781491548
 20
2385.446446283433
 30
0.0
 10
758.3505646463938
 20
2385.435215355557
 30
0.0
 10
758.2373552708534
 20
2385.425128017671
 30
0.0
 10
758.0627483540413
 20
2385.40369212961
 30
0.0
 10
758.0037717009018
 20
2385.392104203372
 30
0.0
 10
757.964321315723
 20
2385.375021850635
 30
0.0
 10
757.958374000696
 20
2385.369823600329
 30
0.0
 10
757.9583743192672
 20
2385.364628915743
 30
0.0
  0
LINE
  5
860
330
1F
100
AcDbEntity
  8
Visible (ISO)
100
AcDbLine
 10
761.558373662269
 20
2385.726529298706
 30
0.0
 11
759.3342244484825
 21
2385.726529298706
 31
0.0
  0
SPLINE
  5
861
330
1F
100
AcDbEntity
  8
Visible (ISO)
100
AcDbSpline
210
0.0
220
0.0
230
1.0
 70
     8
 71
     3
 72
    10
 73
     6
 74
     0
 42
0.000000001
 43
0.0000000001
 40
0.0
 40
0.0
 40
0.0
 40
0.0
 40
0.045541103351271
 40
0.045541103351271
 40
0.0911428195972336
 40
0.0911428195972336
 40
0.0911428195972336
 40
0.0911428195972336
 10
758.4869781491759
 20
2385.446446283471
 30
0.0
 10
758.6212523272275
 20
2385.488646442922
 30
0.0
 10
758.7616561239626
 20
2385.533121235912
 30
0.0
 10
759.0477445376732
 20
2385.62681743761
 30
0.0
 10
759.192295199104
 20
2385.675677494742
 30
0.0
 10
759.3342244484825
 20
2385.726529298706
 30
0.0
  0
SPLINE
  5
862
330
1F
100
AcDbEntity
  8
Visible (ISO)
100
AcDbSpline
210
0.0
220
0.0
230
1.0
 70
     8
 71
     3
 72
    20
 73
    16
 74
     0
 42
0.000000001
 43
0.0000000001
 40
-1.529809695754027
 40
-1.529809695754027
 40
-1.529809695754027
 40
-1.529809695754027
 40
-1.447337631601729
 40
-1.447337631601729
 40
-1.370444607991561
 40
-1.370444607991561
 40
-1.225137756944886
 40
-1.225137756944886
 40
-1.03518798995616
 40
-1.03518798995616
 40
-0.9410147582119805
 40
-0.9410147582119805
 40
-0.7512972602212497
 40
-0.7512972602212497
 40
-0.7134758956355398
 40
-0.7134758956355398
 40
-0.7134758956355398
 40
-0.7134758956355398
 10
759.8489119264902
 20
2385.446446283421
 30
0.0
 10
759.9534674443389
 20
2385.449418413019
 30
0.0
 10
760.0583946880308
 20
2385.452295041709
 30
0.0
 10
760.2602947667194
 20
2385.458297055237
 30
0.0
 10
760.356489273209
 20
2385.461292513249
 30
0.0
 10
760.6285504900678
 20
2385.470171639591
 30
0.0
 10
760.7977563353894
 20
2385.476209264313
 30
0.0
 10
761.1561780849929
 20
2385.490274649403
 30
0.0
 10
761.3324161945622
 20
2385.498222554949
 30
0.0
 10
761.5422777292153
 20
2385.509428184287
 30
0.0
 10
761.6037729110676
 20
2385.512936097679
 30
0.0
 10
761.7551710891464
 20
2385.523987111156
 30
0.0
 10
761.8110408995264
 20
2385.53207627163
 30
0.0
 10
761.8198158993038
 20
2385.54212422289
 30
0.0
 10
761.8193391876034
 20
2385.543799465628
 30
0.0
 10
761.8169453330433
 20
2385.545475784434
 30
0.0
  0
LINE
  5
863
330
1F
100
AcDbEntity
  8
Visible (ISO)
100
AcDbLine
 10
759.3342244484825
 20
2385.726529298706
 30
0.0
 11
758.9962166973873
 21
2385.726529298706
 31
0.0
  0
ELLIPSE
  5
864
330
1F
100
AcDbEntity
  8
Visible (ISO)
100
AcDbEllipse
 10
759.9349405167629
 20
2385.726738417513
 30
0.0
 11
-1.555302298593608
 21
-0.00021022316694
 31
0.0
210
0.0
220
0.0
230
1.0
 40
0.0000126147613593
 41
0.0000135317867205
 42
0.2314248047086718
  0
LINE
  5
865
330
1F
100
AcDbEntity
  8
Visible (ISO)
100
AcDbLine
 10
758.9962166973873
 20
2385.726529298706
 30
0.0
 11
758.4211018429929
 21
2385.726529298707
 31
0.0
  0
SPLINE
  5
866
330
1F
100
AcDbEntity
  8
Visible (ISO)
100
AcDbSpline
210
0.0
220
0.0
230
1.0
 70
    12
 71
     2
 72
     8
 73
     5
 74
     0
 42
0.000000001
 43
0.0000000001
 40
0.6774668642479038
 40
0.6774668642479038
 40
0.6774668642479038
 40
0.6851851851851852
 40
0.6851851851851852
 40
0.6945332408772273
 40
0.6945332408772273
 40
0.6945332408772273
 10
760.8405857589182
 20
2384.470246930472
 30
0.0
 41
0.9348679862537714
 10
761.1206271094418
 20
2384.495895327787
 30
0.0
 41
0.9441608177241429
 10
761.292685868675
 20
2384.518196004668
 30
0.0
 41
1.0
 10
761.5037103252821
 20
2384.545547057538
 30
0.0
 41
0.9323702927159375
 10
761.5037103252823
 20
2384.57712891594
 30
0.0
 41
0.9330188626056891
  0
SPLINE
  5
867
330
1F
100
AcDbEntity
  8
Visible (ISO)
100
AcDbSpline
210
0.0
220
0.0
230
1.0
 70
    12
 71
     2
 72
    12
 73
     9
 74
     0
 42
0.000000001
 43
0.0000000001
 40
0.7523189230636522
 40
0.7523189230636522
 40
0.7523189230636522
 40
0.7592592592592595
 40
0.7592592592592595
 40
0.7777777777777778
 40
0.7777777777777778
 40
0.7962962962962963
 40
0.7962962962962963
 40
0.8056443519883382
 40
0.8056443519883382
 40
0.8056443519883382
 10
758.4258517557457
 20
2384.942117251652
 30
0.0
 41
0.9372142820376186
 10
758.4650346518521
 20
2384.964928671739
 30
0.0
 41
0.9497892480720382
 10
758.6161196006806
 20
2384.984862671334
 30
0.0
 41
1.0
 10
759.0582430510883
 20
2385.043196004668
 30
0.0
 41
0.8660254037844387
 10
759.9504318070865
 20
2385.101529338001
 30
0.0
 41
1.0
 10
760.8426205630847
 20
2385.159862671335
 30
0.0
 41
0.8660254037844387
 10
761.292685868675
 20
2385.218196004668
 30
0.0
 41
1.0
 10
761.5037103252821
 20
2385.245547057539
 30
0.0
 41
0.9323702927159375
 10
761.5037103252823
 20
2385.27712891594
 30
0.0
 41
0.9330188626056891
  0
SPLINE
  5
868
330
1F
100
AcDbEntity
  8
Visible (ISO)
100
AcDbSpline
210
0.0
220
0.0
230
1.0
 70
    12
 71
     2
 72
     8
 73
     5
 74
     0
 42
0.000000001
 43
0.0000000001
 40
0.8634300341747634
 40
0.8634300341747634
 40
0.8634300341747634
 40
0.8703703703703704
 40
0.8703703703703704
 40
0.8771486126783923
 40
0.8771486126783923
 40
0.8771486126783923
 10
758.4258517557457
 20
2385.642117251652
 30
0.0
 41
0.9372142820376188
 10
758.4650346518521
 20
2385.664928671738
 30
0.0
 41
0.9497892480720386
 10
758.6161196006806
 20
2385.684862671334
 30
0.0
 41
1.0
 10
758.7634939490219
 20
2385.70430709795
 30
0.0
 41
0.9509619370815014
 10
758.9962166973873
 20
2385.726529298706
 30
0.0
 41
0.9378221964229853
  0
SPLINE
  5
869
330
1F
100
AcDbEntity
  8
Visible (ISO)
100
AcDbSpline
210
0.0
220
0.0
230
1.0
 70
    12
 71
     2
 72
    10
 73
     7
 74
     0
 42
0.000000001
 43
0.0000000001
 40
0.7319566721391997
 40
0.7319566721391997
 40
0.7319566721391997
 40
0.7369038969549237
 40
0.7369038969549237
 40
0.7573734496481162
 40
0.7573734496481162
 40
0.7652389055969471
 40
0.7652389055969471
 40
0.7652389055969471
 10
759.5706224894085
 20
2384.462388903166
 30
0.0
 41
0.950891773896399
 10
759.7574413661632
 20
2384.476411183328
 30
0.0
 41
0.9676200815421506
 10
759.9504318070865
 20
2384.489029338001
 30
0.0
 41
1.0
 10
760.8426205630847
 20
2384.547362671334
 30
0.0
 41
0.8660254037844387
 10
761.292685868675
 20
2384.605696004668
 30
0.0
 41
1.0
 10
761.4505833478144
 20
2384.626161226423
 30
0.0
 41
0.9485200629153771
 10
761.4908623377796
 20
2384.649611276727
 30
0.0
 41
0.9366026100195128
  0
SPLINE
  5
86A
330
1F
100
AcDbEntity
  8
Visible (ISO)
100
AcDbSpline
210
0.0
220
0.0
230
1.0
 70
    12
 71
     2
 72
    12
 73
     9
 74
     0
 42
0.000000001
 43
0.0000000001
 40
0.8291150357303187
 40
0.8291150357303187
 40
0.8291150357303187
 40
0.8392516604208852
 40
0.8392516604208852
 40
0.8597212131140777
 40
0.8597212131140777
 40
0.88019076580727
 40
0.88019076580727
 40
0.8880562217561005
 40
0.8880562217561005
 40
0.8880562217561005
 10
758.4130369992561
 20
2385.01462891594
 30
0.0
 41
0.9330188626056891
 10
758.4130369992558
 20
2385.045568152582
 30
0.0
 41
0.9336551110685016
 10
758.6161196006806
 20
2385.072362671334
 30
0.0
 41
1.0
 10
759.0582430510883
 20
2385.130696004667
 30
0.0
 41
0.8660254037844387
 10
759.9504318070865
 20
2385.189029338
 30
0.0
 41
1.0
 10
760.8426205630847
 20
2385.247362671334
 30
0.0
 41
0.8660254037844387
 10
761.292685868675
 20
2385.305696004667
 30
0.0
 41
1.0
 10
761.4505833478144
 20
2385.326161226423
 30
0.0
 41
0.9485200629153778
 10
761.4908623377796
 20
2385.349611276728
 30
0.0
 41
0.9366026100195131
  0
SPLINE
  5
86B
330
1F
100
AcDbEntity
  8
Visible (ISO)
100
AcDbSpline
210
0.0
220
0.0
230
1.0
 70
    12
 71
     2
 72
     6
 73
     3
 74
     0
 42
0.000000001
 43
0.0000000001
 40
0.9519323518894728
 40
0.9519323518894728
 40
0.9519323518894728
 40
0.9538863523020287
 40
0.9538863523020287
 40
0.9538863523020287
 10
758.4130369992561
 20
2385.714628915939
 30
0.0
 41
0.9330188626056894
 10
758.4130369992561
 20
2385.720596243093
 30
0.0
 41
0.9331415099164829
 10
758.4211018429929
 20
2385.726529298708
 30
0.0
 41
0.935705816447135
  0
LINE
  5
86C
330
1F
100
AcDbEntity
  8
Visible (ISO)
100
AcDbLine
 10
757.9583736622692
 20
2384.57712891594
 30
0.0
 11
757.9583736622692
 21
2384.66462891594
 31
0.0
  0
LINE
  5
86D
330
1F
100
AcDbEntity
  8
Visible (ISO)
100
AcDbLine
 10
757.9583736622692
 20
2385.27712891594
 30
0.0
 11
757.9583736622692
 21
2385.36462891594
 31
0.0
  0
LINE
  5
86E
330
1F
100
AcDbEntity
  8
Visible (ISO)
100
AcDbLine
 10
761.9583736622692
 20
2384.92712891594
 30
0.0
 11
761.9583736622692
 21
2385.01462891594
 31
0.0
  0
LINE
  5
86F
330
1F
100
AcDbEntity
  8
Visible (ISO)
100
AcDbLine
 10
761.558373662269
 20
2385.726529298706
 30
0.0
 11
761.8169455159481
 21
2385.54547533759
 31
0.0
  0
SPLINE
  5
870
330
1F
100
AcDbEntity
  8
Visible (ISO)
100
AcDbSpline
210
0.0
220
0.0
230
1.0
 70
     8
 71
     3
 72
     8
 73
     4
 74
     0
 42
0.000000001
 43
0.0000000001
 40
0.0014828083895251
 40
0.0014828083895251
 40
0.0014828083895251
 40
0.0014828083895251
 40
0.0190103982940454
 40
0.0190103982940454
 40
0.0190103982940454
 40
0.0190103982940454
 10
761.5037103252825
 20
2384.584657276789
 30
0.0
 10
761.5542036033507
 20
2384.555265082181
 30
0.0
 10
761.6047067527327
 20
2384.525889645445
 30
0.0
 10
761.6552174275068
 20
2384.496527026335
 30
0.0
  0
SPLINE
  5
871
330
1F
100
AcDbEntity
  8
Visible (ISO)
100
AcDbSpline
210
0.0
220
0.0
230
1.0
 70
     8
 71
     3
 72
     8
 73
     4
 74
     0
 42
0.000000001
 43
0.0000000001
 40
0.0014828083895272
 40
0.0014828083895272
 40
0.0014828083895272
 40
0.0014828083895272
 40
0.0529088260522734
 40
0.0529088260522734
 40
0.0529088260522734
 40
0.0529088260522734
 10
761.5037103252825
 20
2385.284657276789
 30
0.0
 10
761.6518578015717
 20
2385.1984204623
 30
0.0
 10
761.80008695119
 20
2385.112322290709
 30
0.0
 10
761.9483538629683
 20
2385.026289332796
 30
0.0
  0
SPLINE
  5
872
330
1F
100
AcDbEntity
  8
Visible (ISO)
100
AcDbSpline
210
0.0
220
0.0
230
1.0
 70
     8
 71
     3
 72
     8
 73
     4
 74
     0
 42
0.000000001
 43
0.0000000001
 40
0.0
 40
0.0
 40
0.0
 40
0.0
 40
0.0529088260522734
 40
0.0529088260522734
 40
0.0529088260522734
 40
0.0529088260522734
 10
757.96839346157
 20
2384.676289332796
 30
0.0
 10
758.1209354743705
 20
2384.764802949286
 30
0.0
 10
758.2734377625895
 20
2384.853385177956
 30
0.0
 10
758.4258517557457
 20
2384.942117251652
 30
0.0
  0
SPLINE
  5
873
330
1F
100
AcDbEntity
  8
Visible (ISO)
100
AcDbSpline
210
0.0
220
0.0
230
1.0
 70
     8
 71
     3
 72
     8
 73
     4
 74
     0
 42
0.000000001
 43
0.0000000001
 40
0.0
 40
0.0
 40
0.0
 40
0.0
 40
0.0529088260522734
 40
0.0529088260522734
 40
0.0529088260522734
 40
0.0529088260522734
 10
757.96839346157
 20
2385.376289332796
 30
0.0
 10
758.1209354743705
 20
2385.464802949286
 30
0.0
 10
758.2734377625895
 20
2385.553385177956
 30
0.0
 10
758.4258517557457
 20
2385.642117251652
 30
0.0
  0
LINE
  5
874
330
1F
100
AcDbEntity
  8
Visible (ISO)
100
AcDbLine
 10
761.5037103252823
 20
2384.657090778575
 30
0.0
 11
761.5037103252823
 21
2384.57712891594
 31
0.0
  0
LINE
  5
875
330
1F
100
AcDbEntity
  8
Visible (ISO)
100
AcDbLine
 10
758.4130369992561
 20
2385.01462891594
 30
0.0
 11
758.4130369992561
 21
2384.934657276788
 31
0.0
  0
LINE
  5
876
330
1F
100
AcDbEntity
  8
Visible (ISO)
100
AcDbLine
 10
761.5037103252823
 20
2385.35709075569
 30
0.0
 11
761.5037103252823
 21
2385.27712891594
 31
0.0
  0
LINE
  5
877
330
1F
100
AcDbEntity
  8
Visible (ISO)
100
AcDbLine
 10
758.4130369992561
 20
2385.714628915939
 30
0.0
 11
758.4130369992561
 21
2385.634657276789
 31
0.0
  0
SPLINE
  5
878
330
1F
100
AcDbEntity
  8
Visible (ISO)
100
AcDbSpline
210
0.0
220
0.0
230
1.0
 70
     8
 71
     3
 72
     8
 73
     4
 74
     0
 42
0.000000001
 43
0.0000000001
 40
0.0
 40
0.0
 40
0.0
 40
0.0
 40
0.0376087881815116
 40
0.0376087881815116
 40
0.0376087881815116
 40
0.0376087881815116
 10
761.8159958387527
 20
2385.538633175419
 30
0.0
 10
761.7075856040838
 20
2385.475681254104
 30
0.0
 10
761.5992010998723
 20
2385.412685088241
 30
0.0
 10
761.4908623377796
 20
2385.349611276728
 30
0.0
  0
SPLINE
  5
879
330
1F
100
AcDbEntity
  8
Visible (ISO)
100
AcDbSpline
210
0.0
220
0.0
230
1.0
 70
     8
 71
     3
 72
     8
 73
     4
 74
     0
 42
0.000000001
 43
0.0000000001
 40
0.0
 40
0.0
 40
0.0
 40
0.0
 40
0.052910501119643
 40
0.052910501119643
 40
0.052910501119643
 40
0.052910501119643
 10
761.9483334946281
 20
2384.915450666392
 30
0.0
 10
761.7957870245868
 20
2384.826933557543
 30
0.0
 10
761.6432803887239
 20
2384.738347636926
 30
0.0
 10
761.4908623377796
 20
2384.649611276727
 30
0.0
  0
SPLINE
  5
87A
330
1F
100
AcDbEntity
  8
Visible (ISO)
100
AcDbSpline
210
0.0
220
0.0
230
1.0
 70
     8
 71
     3
 72
     8
 73
     4
 74
     0
 42
0.000000001
 43
0.0000000001
 40
0.0408664620260819
 40
0.0408664620260819
 40
0.0408664620260819
 40
0.0408664620260819
 40
0.0529105011196408
 40
0.0529105011196408
 40
0.0529105011196408
 40
0.0529105011196408
 10
758.0725793658643
 20
2384.504990862708
 30
0.0
 10
758.0378600209501
 20
2384.525148428502
 30
0.0
 10
758.0031380455174
 20
2384.545301480561
 30
0.0
 10
757.9684138299103
 20
2384.565450666391
 30
0.0
  0
SPLINE
  5
87B
330
1F
100
AcDbEntity
  8
Visible (ISO)
100
AcDbSpline
210
0.0
220
0.0
230
1.0
 70
     8
 71
     3
 72
     8
 73
     4
 74
     0
 42
0.000000001
 43
0.0000000001
 40
0.0014866620873856
 40
0.0014866620873856
 40
0.0014866620873856
 40
0.0014866620873856
 40
0.0529105011196398
 40
0.0529105011196398
 40
0.0529105011196398
 40
0.0529105011196398
 10
758.4130369992561
 20
2385.007090778575
 30
0.0
 10
758.2648967404549
 20
2385.093325699492
 30
0.0
 10
758.1166740987481
 20
2385.179420682538
 30
0.0
 10
757.9684138299103
 20
2385.265450666391
 30
0.0
  0
LINE
  5
87C
330
1F
100
AcDbEntity
  8
Visible (ISO)
100
AcDbLine
 10
758.413036335462
 20
2385.707089906844
 30
0.0
 11
758.3796387331065
 21
2385.726529078702
 31
0.0
  0
LINE
  5
87D
330
1F
100
AcDbEntity
  8
Visible (ISO)
100
AcDbLine
 10
766.9583736622691
 20
2356.510538495806
 30
0.0
 11
766.9583736622694
 21
2332.510538495806
 31
0.0
  0
LINE
  5
87E
330
1F
100
AcDbEntity
  8
Visible (ISO)
100
AcDbLine
 10
766.4583736622692
 20
2356.010538495806
 30
0.0
 11
766.9583736622691
 21
2356.510538495806
 31
0.0
  0
LINE
  5
87F
330
1F
100
AcDbEntity
  8
Visible (ISO)
100
AcDbLine
 10
766.4583736622694
 20
2333.010538495807
 30
0.0
 11
766.9583736622694
 21
2332.510538495806
 31
0.0
  0
LINE
  5
880
330
1F
100
AcDbEntity
  8
Visible (ISO)
100
AcDbLine
 10
781.4583736622692
 20
2332.510538495807
 30
0.0
 11
766.9583736622692
 21
2332.510538495806
 31
0.0
  0
LINE
  5
881
330
1F
100
AcDbEntity
  8
Visible (ISO)
100
AcDbLine
 10
781.4583736622692
 20
2356.510538495806
 30
0.0
 11
766.9583736622691
 21
2356.510538495806
 31
0.0
  0
LINE
  5
882
330
1F
100
AcDbEntity
  8
Visible (ISO)
100
AcDbLine
 10
763.4583736622694
 20
2300.010538495806
 30
0.0
 11
763.4583736622691
 21
2389.010538495806
 31
0.0
  0
LINE
  5
883
330
1F
100
AcDbEntity
  8
Visible (ISO)
100
AcDbLine
 10
763.9583736622691
 20
2389.510538495806
 30
0.0
 11
763.9583736622694
 21
2299.510538495806
 31
0.0
  0
LINE
  5
884
330
1F
100
AcDbEntity
  8
Visible (ISO)
100
AcDbLine
 10
765.9583736622693
 20
2299.510538495806
 30
0.0
 11
765.9583736622692
 21
2389.510538495806
 31
0.0
  0
LINE
  5
885
330
1F
100
AcDbEntity
  8
Visible (ISO)
100
AcDbLine
 10
766.4583736622692
 20
2389.010538495806
 30
0.0
 11
766.4583736622694
 21
2300.010538495806
 31
0.0
  0
LINE
  5
886
330
1F
100
AcDbEntity
  8
Visible (ISO)
100
AcDbLine
 10
763.4583736622691
 20
2389.010538495806
 30
0.0
 11
763.9583736622691
 21
2389.510538495806
 31
0.0
  0
LINE
  5
887
330
1F
100
AcDbEntity
  8
Visible (ISO)
100
AcDbLine
 10
763.4583736622694
 20
2300.010538495806
 30
0.0
 11
763.9583736622694
 21
2299.510538495806
 31
0.0
  0
LINE
  5
888
330
1F
100
AcDbEntity
  8
Visible (ISO)
100
AcDbLine
 10
766.4583736622694
 20
2300.010538495806
 30
0.0
 11
765.9583736622693
 21
2299.510538495806
 31
0.0
  0
LINE
  5
889
330
1F
100
AcDbEntity
  8
Visible (ISO)
100
AcDbLine
 10
766.4583736622692
 20
2389.010538495806
 30
0.0
 11
765.9583736622692
 21
2389.510538495806
 31
0.0
  0
SPLINE
  5
88A
330
1F
100
AcDbEntity
  8
Visible (ISO)
100
AcDbSpline
210
0.0
220
0.0
230
1.0
 70
     8
 71
     3
 72
    14
 73
    10
 74
     0
 42
0.000000001
 43
0.0000000001
 40
0.0
 40
0.0
 40
0.0
 40
0.0
 40
0.0753508227474801
 40
0.0753508227474801
 40
0.1507016454949601
 40
0.1507016454949601
 40
0.226052452324966
 40
0.226052452324966
 40
0.3014032591549719
 40
0.3014032591549719
 40
0.301403259154972
 40
0.301403259154972
 10
759.9583736622682
 20
2304.56056978493
 30
0.0
 10
760.2095430714265
 20
2304.56056978493
 30
0.0
 10
760.4774255134118
 20
2304.557957385359
 30
0.0
 10
760.9701717915047
 20
2304.54851830172
 30
0.0
 10
761.1950391767172
 20
2304.541827511603
 30
0.0
 10
761.55013523506
 20
2304.52926511611
 30
0.0
 10
761.7040484664202
 20
2304.522577976717
 30
0.0
 10
761.9081688387852
 20
2304.513147241099
 30
0.0
 10
761.9583736622693
 20
2304.510538495806
 30
0.0
 10
761.9583736622693
 20
2304.510538495806
 30
0.0
  0
SPLINE
  5
88B
330
1F
100
AcDbEntity
  8
Visible (ISO)
100
AcDbSpline
210
0.0
220
0.0
230
1.0
 70
     8
 71
     3
 72
    14
 73
    10
 74
     0
 42
0.000000001
 43
0.0000000001
 40
0.9042097774649155
 40
0.9042097774649155
 40
0.9042097774653925
 40
0.9042097774653925
 40
0.9795605842949214
 40
0.9795605842949214
 40
1.054911391124927
 40
1.054911391124927
 40
1.130262213872406
 40
1.130262213872406
 40
1.205613036619886
 40
1.205613036619886
 40
1.205613036619886
 40
1.205613036619886
 10
757.9583736622694
 20
2304.510538495806
 30
0.0
 10
757.9583736622699
 20
2304.510538495806
 30
0.0
 10
758.0085784857535
 20
2304.513147241099
 30
0.0
 10
758.2126988581173
 20
2304.522577976717
 30
0.0
 10
758.3666120894775
 20
2304.52926511611
 30
0.0
 10
758.7217081478197
 20
2304.541827511603
 30
0.0
 10
758.946575533032
 20
2304.54851830172
 30
0.0
 10
759.4393218111247
 20
2304.557957385359
 30
0.0
 10
759.7072042531099
 20
2304.56056978493
 30
0.0
 10
759.9583736622682
 20
2304.56056978493
 30
0.0
  0
SPLINE
  5
88C
330
1F
100
AcDbEntity
  8
Visible (ISO)
100
AcDbSpline
210
0.0
220
0.0
230
1.0
 70
     8
 71
     3
 72
    14
 73
    10
 74
     0
 42
0.000000001
 43
0.0000000001
 40
0.0
 40
0.0
 40
0.0
 40
0.0
 40
0.0753508227474802
 40
0.0753508227474802
 40
0.1507016454949603
 40
0.1507016454949603
 40
0.2260524523249661
 40
0.2260524523249661
 40
0.3014032591549718
 40
0.3014032591549718
 40
0.3014032591549719
 40
0.3014032591549719
 10
759.9583736622681
 20
2384.460507206682
 30
0.0
 10
759.7072042531096
 20
2384.460507206682
 30
0.0
 10
759.4393218111244
 20
2384.463119606254
 30
0.0
 10
758.9465755330317
 20
2384.472558689892
 30
0.0
 10
758.7217081478193
 20
2384.47924948001
 30
0.0
 10
758.3666120894772
 20
2384.491811875503
 30
0.0
 10
758.2126988581172
 20
2384.498499014895
 30
0.0
 10
758.0085784857526
 20
2384.507929750514
 30
0.0
 10
757.9583736622689
 20
2384.510538495806
 30
0.0
 10
757.9583736622692
 20
2384.510538495806
 30
0.0
  0
SPLINE
  5
88D
330
1F
100
AcDbEntity
  8
Visible (ISO)
100
AcDbSpline
210
0.0
220
0.0
230
1.0
 70
     8
 71
     3
 72
    14
 73
    10
 74
     0
 42
0.000000001
 43
0.0000000001
 40
0.9042097774649155
 40
0.9042097774649155
 40
0.9042097774653919
 40
0.9042097774653919
 40
0.9795605842949214
 40
0.9795605842949214
 40
1.054911391124927
 40
1.054911391124927
 40
1.130262213872406
 40
1.130262213872406
 40
1.205613036619886
 40
1.205613036619886
 40
1.205613036619886
 40
1.205613036619886
 10
761.9583736622692
 20
2384.510538495806
 30
0.0
 10
761.9583736622684
 20
2384.510538495806
 30
0.0
 10
761.9081688387844
 20
2384.507929750514
 30
0.0
 10
761.7040484664199
 20
2384.498499014895
 30
0.0
 10
761.5501352350597
 20
2384.491811875503
 30
0.0
 10
761.195039176717
 20
2384.47924948001
 30
0.0
 10
760.9701717915045
 20
2384.472558689892
 30
0.0
 10
760.4774255134116
 20
2384.463119606254
 30
0.0
 10
760.2095430714263
 20
2384.460507206682
 30
0.0
 10
759.9583736622681
 20
2384.460507206682
 30
0.0
  0
LINE
  5
88E
330
1F
100
AcDbEntity
  8
Visible (ISO)
100
AcDbLine
 10
756.4583736622694
 20
2304.510538495806
 30
0.0
 11
756.4583736622692
 21
2384.510538495806
 31
0.0
  0
LINE
  5
88F
330
1F
100
AcDbEntity
  8
Visible (ISO)
100
AcDbLine
 10
756.4583736622692
 20
2384.510538495806
 30
0.0
 11
757.9583736622692
 21
2384.510538495806
 31
0.0
  0
LINE
  5
890
330
1F
100
AcDbEntity
  8
Visible (ISO)
100
AcDbLine
 10
761.9583736622692
 20
2384.510538495806
 30
0.0
 11
763.4583736622691
 21
2384.510538495806
 31
0.0
  0
LINE
  5
891
330
1F
100
AcDbEntity
  8
Visible (ISO)
100
AcDbLine
 10
756.4583736622694
 20
2304.510538495806
 30
0.0
 11
757.9583736622694
 21
2304.510538495806
 31
0.0
  0
LINE
  5
892
330
1F
100
AcDbEntity
  8
Visible (ISO)
100
AcDbLine
 10
761.9583736622693
 20
2304.510538495806
 30
0.0
 11
763.4583736622694
 21
2304.510538495806
 31
0.0
  0
LINE
  5
893
330
1F
100
AcDbEntity
  8
Visible (ISO)
100
AcDbLine
 10
763.9583736622691
 20
2389.510538495806
 30
0.0
 11
765.9583736622692
 21
2389.510538495806
 31
0.0
  0
LINE
  5
894
330
1F
100
AcDbEntity
  8
Visible (ISO)
100
AcDbLine
 10
763.9583736622694
 20
2299.510538495806
 30
0.0
 11
765.9583736622693
 21
2299.510538495806
 31
0.0
  0
MTEXT
  5
913
330
1F
100
AcDbEntity
  8
Dimension
100
AcDbMText
 10
916.3113987885452
 20
2322.515077556946
 30
0.0
 40
41.27533018968118
 41
0.0
 46
42.21876630830245
 71
     7
 72
     1
  1
{\fApercu|b0|i0|c0|p34;\W1.0004;20}
 73
     1
 44
1.0
  0
LINE
  5
914
330
1F
100
AcDbEntity
  8
Visible (ISO)
100
AcDbLine
 10
2464.016364694956
 20
2316.598163250054
 30
0.0
 11
2440.383589188559
 21
2316.598163250015
 31
0.0
  0
LINE
  5
915
330
1F
100
AcDbEntity
  8
Visible (ISO)
100
AcDbLine
 10
2476.749715583958
 20
2316.598163250063
 30
0.0
 11
2464.016364694959
 21
2316.598163250054
 31
0.0
  0
SPLINE
  5
916
330
1F
100
AcDbEntity
  8
Visible (ISO)
100
AcDbSpline
210
0.0
220
0.0
230
1.0
 70
     8
 71
     3
 72
    10
 73
     6
 74
     0
 42
0.000000001
 43
0.0000000001
 40
-6.615898421176048
 40
-6.615898421176048
 40
-6.615898421176048
 40
-6.615898421176048
 40
-6.448653623171179
 40
-6.448653623171179
 40
-5.43105261492643
 40
-5.43105261492643
 40
-5.43105261492643
 40
-5.43105261492643
 10
2634.742126709979
 20
2310.49816325002
 30
0.0
 10
2634.803893012534
 20
2310.500948857891
 30
0.0
 10
2634.86144559568
 20
2310.503706033889
 30
0.0
 10
2635.239030496603
 20
2310.523017604577
 30
0.0
 10
2635.405764331676
 20
2310.538496672616
 30
0.0
 10
2635.405660352966
 20
2310.55207499867
 30
0.0
  0
LINE
  5
917
330
1F
100
AcDbEntity
  8
Visible (ISO)
100
AcDbLine
 10
2629.306341120291
 20
2316.598163250014
 30
0.0
 11
2506.176788259503
 21
2316.59816325007
 31
0.0
  0
LINE
  5
918
330
1F
100
AcDbEntity
  8
Visible (ISO)
100
AcDbLine
 10
2506.17678825876
 20
2316.59816325007
 30
0.0
 11
2476.749715583958
 21
2316.598163250063
 31
0.0
  0
ARC
  5
919
330
1F
100
AcDbEntity
  8
Visible (ISO)
100
AcDbCircle
 10
2440.382960967668
 20
2310.498163250015
 30
0.0
 40
6.100000000000018
100
AcDbArc
 50
90.0
 51
180.0
  0
ARC
  5
91A
330
1F
100
AcDbEntity
  8
Visible (ISO)
100
AcDbCircle
 10
2629.305876206677
 20
2310.498163250014
 30
0.0
 40
6.100000000000016
100
AcDbArc
 50
0.5058510723885546
 51
90.0
  0
LINE
  5
91B
330
1F
100
AcDbEntity
  8
Visible (ISO)
100
AcDbLine
 10
2434.282960967669
 20
2310.492979088819
 30
0.0
 11
2434.282960967669
 21
2310.498163250015
 31
0.0
  0
SPLINE
  5
91C
330
1F
100
AcDbEntity
  8
Visible (ISO)
100
AcDbSpline
210
0.0
220
0.0
230
1.0
 70
     8
 71
     3
 72
    22
 73
    18
 74
     0
 42
0.000000001
 43
0.0000000001
 40
-19.17962993917913
 40
-19.17962993917913
 40
-19.17962993917913
 40
-19.17962993917913
 40
-19.15003876468498
 40
-19.15003876468498
 40
-19.11663759620516
 40
-19.11663759620516
 40
-19.07194343326407
 40
-19.07194343326407
 40
-19.00382055975327
 40
-19.00382055975327
 40
-18.90931345986491
 40
-18.90931345986491
 40
-18.80385287050224
 40
-18.80385287050224
 40
-18.6822267382603
 40
-18.6822267382603
 40
-18.57149927796941
 40
-18.57149927796941
 40
-18.57149927796941
 40
-18.57149927796941
 10
2635.405638503738
 20
2310.551993422167
 30
0.0
 10
2635.397228019404
 20
2309.160595048256
 30
0.0
 10
2635.153963315105
 20
2307.800569435272
 30
0.0
 10
2634.3475295095
 20
2305.305593522332
 30
0.0
 10
2633.764983451166
 20
2304.221518245187
 30
0.0
 10
2632.41837492269
 20
2302.22005679288
 30
0.0
 10
2631.664876572278
 20
2301.459317063221
 30
0.0
 10
2630.04696261436
 20
2300.024325723706
 30
0.0
 10
2629.30421141555
 20
2299.581427051187
 30
0.0
 10
2627.895711114071
 20
2298.796263289172
 30
0.0
 10
2627.350223275917
 20
2298.583265845485
 30
0.0
 10
2626.426113211098
 20
2298.237303074575
 30
0.0
 10
2626.080751946292
 20
2298.135337757606
 30
0.0
 10
2625.463154222663
 20
2297.963498038242
 30
0.0
 10
2625.213976499796
 20
2297.90574090672
 30
0.0
 10
2624.805269232076
 20
2297.816857254886
 30
0.0
 10
2624.641542403962
 20
2297.785061935069
 30
0.0
 10
2624.494120969693
 20
2297.758096907684
 30
0.0
  0
SPLINE
  5
91D
330
1F
100
AcDbEntity
  8
Visible (ISO)
100
AcDbSpline
210
0.0
220
0.0
230
1.0
 70
     8
 71
     3
 72
    22
 73
    18
 74
     0
 42
0.000000001
 43
0.0000000001
 40
-17.25080680406074
 40
-17.25080680406074
 40
-17.25080680406074
 40
-17.25080680406074
 40
-17.17364121163537
 40
-17.17364121163537
 40
-17.09647561921001
 40
-17.09647561921001
 40
-17.01931002678465
 40
-17.01931002678465
 40
-16.94824827224607
 40
-16.94824827224607
 40
-16.91929636978113
 40
-16.91929636978113
 40
-16.90092334407783
 40
-16.90092334407783
 40
-16.87572426742752
 40
-16.87572426742752
 40
-16.86497884193393
 40
-16.86497884193393
 40
-16.86497884193393
 40
-16.86497884193393
 10
2445.084971924585
 20
2297.663823985398
 30
0.0
 10
2444.965503122233
 20
2297.685546435506
 30
0.0
 10
2444.829600642435
 20
2297.711493649066
 30
0.0
 10
2444.491207813026
 20
2297.78346768718
 30
0.0
 10
2444.290744482208
 20
2297.828293511785
 30
0.0
 10
2443.740395008016
 20
2297.973367726752
 30
0.0
 10
2443.400069909137
 20
2298.06528507443
 30
0.0
 10
2442.342963602645
 20
2298.450783076465
 30
0.0
 10
2441.688877002761
 20
2298.659180823112
 30
0.0
 10
2439.903807990204
 20
2299.770004948467
 30
0.0
 10
2439.272590517534
 20
2300.195586254651
 30
0.0
 10
2437.982828996914
 20
2301.382225795916
 30
0.0
 10
2437.415137503262
 20
2301.968226476118
 30
0.0
 10
2435.996949263712
 20
2303.893552832652
 30
0.0
 10
2435.089376179423
 20
2305.490313079234
 30
0.0
 10
2434.402314947651
 20
2308.506732312345
 30
0.0
 10
2434.282960967669
 20
2309.490916757857
 30
0.0
 10
2434.282960967669
 20
2310.49297908882
 30
0.0
  0
ARC
  5
91E
330
1F
100
AcDbEntity
  8
Visible (ISO)
100
AcDbCircle
 10
2534.531077777677
 20
2789.598163250017
 30
0.0
 40
500.0
100
AcDbArc
 50
259.6947590750651
 51
280.3654545773775
  0
SPLINE
  5
91F
330
1F
100
AcDbEntity
  8
Visible (ISO)
100
AcDbSpline
210
0.0
220
0.0
230
1.0
 70
     8
 71
     3
 72
    24
 73
    20
 74
     0
 42
0.000000001
 43
0.0000000001
 40
-2.853151903331343
 40
-2.853151903331343
 40
-2.853151903331343
 40
-2.853151903331343
 40
-2.799429783442173
 40
-2.799429783442173
 40
-2.723117972623678
 40
-2.723117972623678
 40
-2.643317502276748
 40
-2.643317502276748
 40
-2.564974076254216
 40
-2.564974076254216
 40
-2.48846296869005
 40
-2.48846296869005
 40
-2.40794481130597
 40
-2.40794481130597
 40
-2.330501594988805
 40
-2.330501594988805
 40
-2.252312449430112
 40
-2.252312449430112
 40
-2.200501349828941
 40
-2.200501349828941
 40
-2.200501349828941
 40
-2.200501349828941
 10
2494.340788555399
 20
2336.108194079101
 30
0.0
 10
2494.330464994195
 20
2336.090403494019
 30
0.0
 10
2494.320026815475
 20
2336.096262049765
 30
0.0
 10
2494.295157529024
 20
2336.168028341739
 30
0.0
 10
2494.281471098258
 20
2336.25735380318
 30
0.0
 10
2494.254934130213
 20
2336.526735004549
 30
0.0
 10
2494.240028691602
 20
2336.708100398857
 30
0.0
 10
2494.209556724229
 20
2337.13302823737
 30
0.0
 10
2494.194294588213
 20
2337.371387485037
 30
0.0
 10
2494.165493517689
 20
2337.871123277502
 30
0.0
 10
2494.153115073902
 20
2338.127198088437
 30
0.0
 10
2494.124892029434
 20
2338.643612753732
 30
0.0
 10
2494.109399283674
 20
2338.898178627693
 30
0.0
 10
2494.078804765499
 20
2339.347935177238
 30
0.0
 10
2494.063992386956
 20
2339.540880503946
 30
0.0
 10
2494.036236448101
 20
2339.851912688752
 30
0.0
 10
2494.023453954096
 20
2339.966269605654
 30
0.0
 10
2493.999091308586
 20
2340.076141208013
 30
0.0
 10
2493.989114417741
 20
2340.09816197448
 30
0.0
 10
2493.979118927101
 20
2340.098162566071
 30
0.0
  0
SPLINE
  5
920
330
1F
100
AcDbEntity
  8
Visible (ISO)
100
AcDbSpline
210
0.0
220
0.0
230
1.0
 70
     8
 71
     3
 72
    24
 73
    20
 74
     0
 42
0.000000001
 43
0.0000000001
 40
-1.588734300105125
 40
-1.588734300105125
 40
-1.588734300105125
 40
-1.588734300105125
 40
-1.547281943470485
 40
-1.547281943470485
 40
-1.4705979298153
 40
-1.4705979298153
 40
-1.39028276355909
 40
-1.39028276355909
 40
-1.311671277772515
 40
-1.311671277772515
 40
-1.235553472510418
 40
-1.235553472510418
 40
-1.155842426081741
 40
-1.155842426081741
 40
-1.07809639620971
 40
-1.07809639620971
 40
-1.001030677775792
 40
-1.001030677775792
 40
-0.9370345530481703
 40
-0.9370345530481703
 40
-0.9370345530481703
 40
-0.9370345530481703
 10
2493.640788553582
 20
2336.108194390106
 30
0.0
 10
2493.632826902399
 20
2336.094473653625
 30
0.0
 10
2493.624784745959
 20
2336.094796724886
 30
0.0
 10
2493.601998862696
 20
2336.136309690651
 30
0.0
 10
2493.587641841453
 20
2336.211502715658
 30
0.0
 10
2493.560724632648
 20
2336.456008268377
 30
0.0
 10
2493.546481550735
 20
2336.627151995827
 30
0.0
 10
2493.516024911158
 20
2337.03706893884
 30
0.0
 10
2493.500626492384
 20
2337.270317239745
 30
0.0
 10
2493.471383363083
 20
2337.763353666947
 30
0.0
 10
2493.45861133648
 20
2338.017526966372
 30
0.0
 10
2493.43121611542
 20
2338.534112057251
 30
0.0
 10
2493.416039535562
 20
2338.791169095165
 30
0.0
 10
2493.385512398611
 20
2339.255153910456
 30
0.0
 10
2493.370459638012
 20
2339.458840375943
 30
0.0
 10
2493.342190933515
 20
2339.791279775667
 30
0.0
 10
2493.329824217458
 20
2339.917551978972
 30
0.0
 10
2493.303821357312
 20
2340.064379828864
 30
0.0
 10
2493.291498883208
 20
2340.098162276516
 30
0.0
 10
2493.279118927101
 20
2340.098163008065
 30
0.0
  0
SPLINE
  5
921
330
1F
100
AcDbEntity
  8
Visible (ISO)
100
AcDbSpline
210
0.0
220
0.0
230
1.0
 70
     8
 71
     3
 72
    16
 73
    12
 74
     0
 42
0.000000001
 43
0.0000000001
 40
-0.3257658212215615
 40
-0.3257658212215615
 40
-0.3257658212215615
 40
-0.3257658212215615
 40
-0.2954158071015413
 40
-0.2954158071015413
 40
-0.2183527480428993
 40
-0.2183527480428993
 40
-0.1395487732958611
 40
-0.1395487732958611
 40
-0.0689823054432048
 40
-0.0689823054432048
 40
-0.0000010000001142
 40
-0.0000010000001142
 40
-0.0000010000001142
 40
-0.0000010000001142
 10
2492.940788554323
 20
2336.108194263233
 30
0.0
 10
2492.934955832891
 20
2336.098142059978
 30
0.0
 10
2492.929073929732
 20
2336.095617118237
 30
0.0
 10
2492.908258983457
 20
2336.113766417829
 30
0.0
 10
2492.893607593962
 20
2336.175886084022
 30
0.0
 10
2492.866162676765
 20
2336.394059722035
 30
0.0
 10
2492.852943748714
 20
2336.550058396198
 30
0.0
 10
2492.824650924945
 20
2336.915633525263
 30
0.0
 10
2492.810860164186
 20
2337.115022597283
 30
0.0
 10
2492.784000968417
 20
2337.543978529463
 30
0.0
 10
2492.771120258856
 20
2337.769620804949
 30
0.0
 10
2492.75920194053
 20
2337.998966737335
 30
0.0
  0
LINE
  5
922
330
1F
100
AcDbEntity
  8
Visible (ISO)
100
AcDbLine
 10
2492.75920194053
 20
2337.998966737335
 30
0.0
 11
2492.75920194053
 21
2336.633749364968
 31
0.0
  0
SPLINE
  5
923
330
1F
100
AcDbEntity
  8
Visible (ISO)
100
AcDbSpline
210
0.0
220
0.0
230
1.0
 70
     8
 71
     3
 72
    24
 73
    20
 74
     0
 42
0.000000001
 43
0.0000000001
 40
-4.861167662603574
 40
-4.861167662603574
 40
-4.861167662603574
 40
-4.861167662603574
 40
-4.807976808359696
 40
-4.807976808359696
 40
-4.727878105284157
 40
-4.727878105284157
 40
-4.651262946573576
 40
-4.651262946573576
 40
-4.57165243462729
 40
-4.57165243462729
 40
-4.494294994008551
 40
-4.494294994008551
 40
-4.416778663688941
 40
-4.416778663688941
 40
-4.337117607823874
 40
-4.337117607823874
 40
-4.26098234447676
 40
-4.26098234447676
 40
-4.210077172068426
 40
-4.210077172068426
 40
-4.210077172068426
 40
-4.210077172068426
 10
2493.879949297472
 20
2340.088132437724
 30
0.0
 10
2493.890193866647
 20
2340.105786917518
 30
0.0
 10
2493.900551584684
 20
2340.100153265094
 30
0.0
 10
2493.926108757213
 20
2340.027321805049
 30
0.0
 10
2493.940267324411
 20
2339.931310728386
 30
0.0
 10
2493.967222394315
 20
2339.652459607941
 30
0.0
 10
2493.981601307614
 20
2339.476132731635
 30
0.0
 10
2494.011784168299
 20
2339.054520194993
 30
0.0
 10
2494.027326575686
 20
2338.81093261314
 30
0.0
 10
2494.056504348843
 20
2338.301956123611
 30
0.0
 10
2494.068985866702
 20
2338.042221913757
 30
0.0
 10
2494.097054706355
 20
2337.532807021343
 30
0.0
 10
2494.112017822162
 20
2337.288014736978
 30
0.0
 10
2494.14253414216
 20
2336.839708685532
 30
0.0
 10
2494.157793433265
 20
2336.64191376985
 30
0.0
 10
2494.185489974637
 20
2336.335226493363
 30
0.0
 10
2494.198053161631
 20
2336.225594355331
 30
0.0
 10
2494.221944395431
 20
2336.119531682592
 30
0.0
 10
2494.23177287092
 20
2336.098164438578
 30
0.0
 10
2494.241618927101
 20
2336.098163893661
 30
0.0
  0
SPLINE
  5
924
330
1F
100
AcDbEntity
  8
Visible (ISO)
100
AcDbSpline
210
0.0
220
0.0
230
1.0
 70
     8
 71
     3
 72
    24
 73
    20
 74
     0
 42
0.000000001
 43
0.0000000001
 40
-6.122601673701432
 40
-6.122601673701432
 40
-6.122601673701432
 40
-6.122601673701432
 40
-6.05719459879
 40
-6.05719459879
 40
-5.978578261096659
 40
-5.978578261096659
 40
-5.901569529065722
 40
-5.901569529065722
 40
-5.821521105581322
 40
-5.821521105581322
 40
-5.744944532607791
 40
-5.744944532607791
 40
-5.667040132626977
 40
-5.667040132626977
 40
-5.587435630398017
 40
-5.587435630398017
 40
-5.511416955274869
 40
-5.511416955274869
 40
-5.4717180908843
 40
-5.4717180908843
 40
-5.4717180908843
 40
-5.4717180908843
 10
2493.179949295089
 20
2340.088132845581
 30
0.0
 10
2493.192561780288
 20
2340.109868109844
 30
0.0
 10
2493.205315534446
 20
2340.096250996691
 30
0.0
 10
2493.232596965917
 20
2339.988962683952
 30
0.0
 10
2493.245753294365
 20
2339.880843761248
 30
0.0
 10
2493.273237678926
 20
2339.580884209556
 30
0.0
 10
2493.287910060141
 20
2339.393605892253
 30
0.0
 10
2493.318385410285
 20
2338.953341495739
 30
0.0
 10
2493.333908638823
 20
2338.702409325175
 30
0.0
 10
2493.362473244683
 20
2338.188410968083
 30
0.0
 10
2493.374786502099
 20
2337.931136645849
 30
0.0
 10
2493.403335035915
 20
2337.42788463577
 30
0.0
 10
2493.418503503292
 20
2337.187040070801
 30
0.0
 10
2493.449017625043
 20
2336.753453981691
 30
0.0
 10
2493.464061292598
 20
2336.566120243418
 30
0.0
 10
2493.491015908043
 20
2336.283476309041
 30
0.0
 10
2493.504199845473
 20
2336.186959315084
 30
0.0
 10
2493.52625733461
 20
2336.111166657168
 30
0.0
 10
2493.533937986479
 20
2336.098164160381
 30
0.0
 10
2493.541618927101
 20
2336.098164146012
 30
0.0
  0
SPLINE
  5
925
330
1F
100
AcDbEntity
  8
Visible (ISO)
100
AcDbSpline
210
0.0
220
0.0
230
1.0
 70
     8
 71
     3
 72
    12
 73
     8
 74
     0
 42
0.000000001
 43
0.0000000001
 40
-6.883991163792567
 40
-6.883991163792567
 40
-6.883991163792567
 40
-6.883991163792567
 40
-6.823515872944764
 40
-6.823515872944764
 40
-6.761551125312955
 40
-6.761551125312955
 40
-6.733647337106338
 40
-6.733647337106338
 40
-6.733647337106338
 40
-6.733647337106338
 10
2492.759201940519
 20
2336.633749364969
 30
0.0
 10
2492.770432868395
 20
2336.496576114713
 30
0.0
 10
2492.780520206281
 20
2336.382505441036
 30
0.0
 10
2492.801956094341
 20
2336.20600753529
 30
0.0
 10
2492.813544020579
 20
2336.146009108981
 30
0.0
 10
2492.830825183729
 20
2336.10457644269
 30
0.0
 10
2492.836224702227
 20
2336.098163628168
 30
0.0
 10
2492.841618927101
 20
2336.09816394292
 30
0.0
  0
LINE
  5
926
330
1F
100
AcDbEntity
  8
Visible (ISO)
100
AcDbLine
 10
2492.479118925246
 20
2339.698163250017
 30
0.0
 11
2492.479118925246
 21
2337.481594135558
 31
0.0
  0
SPLINE
  5
927
330
1F
100
AcDbEntity
  8
Visible (ISO)
100
AcDbSpline
210
0.0
220
0.0
230
1.0
 70
     8
 71
     3
 72
    10
 73
     6
 74
     0
 42
0.000000001
 43
0.0000000001
 40
0.0
 40
0.0
 40
0.0
 40
0.0
 40
0.045541103351271
 40
0.045541103351271
 40
0.0911428195972336
 40
0.0911428195972336
 40
0.0911428195972336
 40
0.0911428195972336
 10
2492.759201940481
 20
2336.63374936499
 30
0.0
 10
2492.717001781029
 20
2336.768314046948
 30
0.0
 10
2492.67252698804
 20
2336.908917331436
 30
0.0
 10
2492.578830786341
 20
2337.195209383096
 30
0.0
 10
2492.52997072921
 20
2337.339763093056
 30
0.0
 10
2492.479118925246
 20
2337.481594135558
 30
0.0
  0
SPLINE
  5
928
330
1F
100
AcDbEntity
  8
Visible (ISO)
100
AcDbSpline
210
0.0
220
0.0
230
1.0
 70
     8
 71
     3
 72
    20
 73
    16
 74
     0
 42
0.000000001
 43
0.0000000001
 40
-1.529809695754027
 40
-1.529809695754027
 40
-1.529809695754027
 40
-1.529809695754027
 40
-1.447337631601729
 40
-1.447337631601729
 40
-1.370444607991561
 40
-1.370444607991561
 40
-1.225137756944886
 40
-1.225137756944886
 40
-1.03518798995616
 40
-1.03518798995616
 40
-0.9410147582119805
 40
-0.9410147582119805
 40
-0.7512972602212497
 40
-0.7512972602212497
 40
-0.7159479482877954
 40
-0.7159479482877954
 40
-0.7159479482877954
 40
-0.7159479482877954
 10
2492.75920194053
 20
2337.998966737336
 30
0.0
 10
2492.756229810933
 20
2338.103528480793
 30
0.0
 10
2492.753353182243
 20
2338.20842066166
 30
0.0
 10
2492.747351168715
 20
2338.410166424458
 30
0.0
 10
2492.744355710702
 20
2338.506248669767
 30
0.0
 10
2492.735476584361
 20
2338.777879003457
 30
0.0
 10
2492.729438959639
 20
2338.946673704307
 30
0.0
 10
2492.715373574549
 20
2339.303877188845
 30
0.0
 10
2492.707425669002
 20
2339.47923605093
 30
0.0
 10
2492.696220039665
 20
2339.68756771092
 30
0.0
 10
2492.692712126272
 20
2339.748514936943
 30
0.0
 10
2492.681661112795
 20
2339.898191367237
 30
0.0
 10
2492.673571952321
 20
2339.952819591374
 30
0.0
 10
2492.663633165115
 20
2339.960003536087
 30
0.0
 10
2492.662067728633
 20
2339.959441468069
 30
0.0
 10
2492.660501123618
 20
2339.957204295171
 30
0.0
  0
LINE
  5
929
330
1F
100
AcDbEntity
  8
Visible (ISO)
100
AcDbLine
 10
2492.479118925246
 20
2337.481594135558
 30
0.0
 11
2492.479118925246
 21
2337.142234116818
 31
0.0
  0
ELLIPSE
  5
92A
330
1F
100
AcDbEntity
  8
Visible (ISO)
100
AcDbEllipse
 10
2492.478909806438
 20
2338.073707331685
 30
0.0
 11
0.0002101195527927
 21
-1.555302298607605
 31
0.0
210
0.0
220
0.0
230
0.9999999999999998
 40
0.0000133092901381
 41
0.0000105958931975
 42
0.2365644029461773
  0
LINE
  5
92B
330
1F
100
AcDbEntity
  8
Visible (ISO)
100
AcDbLine
 10
2492.479118925246
 20
2337.142234116818
 30
0.0
 11
2492.479118925243
 21
2336.561722109312
 31
0.0
  0
SPLINE
  5
92C
330
1F
100
AcDbEntity
  8
Visible (ISO)
100
AcDbSpline
210
0.0
220
0.0
230
1.0
 70
    12
 71
     2
 72
    10
 73
     7
 74
     0
 42
0.000000001
 43
0.0000000001
 40
0.5449486867104935
 40
0.5449486867104935
 40
0.5449486867104935
 40
0.5555555555555556
 40
0.5555555555555556
 40
0.5740740740740741
 40
0.5740740740740741
 40
0.583333327239072
 40
0.583333327239072
 40
0.583333327239072
 10
2494.571537892208
 20
2337.22361887809
 30
0.0
 41
0.9344316553647875
 10
2494.535459163363
 20
2337.618818439988
 30
0.0
 41
0.9232632475860548
 10
2494.504118885951
 20
2338.098163795085
 30
0.0
 41
1.0
 10
2494.445785552617
 20
2338.990364333465
 30
0.0
 41
0.8660254037844387
 10
2494.387452219284
 20
2339.43646433012
 30
0.0
 41
1.0
 10
2494.360379644165
 20
2339.643499913031
 30
0.0
 41
0.9330127459819351
 10
2494.329118927101
 20
2339.64349991303
 30
0.0
 41
0.9330127018922482
  0
SPLINE
  5
92D
330
1F
100
AcDbEntity
  8
Visible (ISO)
100
AcDbSpline
210
0.0
220
0.0
230
1.0
 70
    12
 71
     2
 72
    12
 73
     9
 74
     0
 42
0.000000001
 43
0.0000000001
 40
0.6411201034584729
 40
0.6411201034584729
 40
0.6411201034584729
 40
0.6481481481481481
 40
0.6481481481481481
 40
0.6666666666666666
 40
0.6666666666666666
 40
0.6851851851851852
 40
0.6851851851851852
 40
0.6944444383501831
 40
0.6944444383501831
 40
0.6944444383501831
 10
2493.964115561292
 20
2336.565658273589
 30
0.0
 41
0.9369024604632617
 10
2493.940984963009
 20
2336.605388979245
 30
0.0
 41
0.9491547097278546
 10
2493.920785552617
 20
2336.759862714983
 30
0.0
 41
1.0
 10
2493.862452219283
 20
2337.205963256706
 30
0.0
 41
0.8660254037844387
 10
2493.80411888595
 20
2338.098163795085
 30
0.0
 41
1.0
 10
2493.745785552616
 20
2338.990364333465
 30
0.0
 41
0.8660254037844387
 10
2493.687452219284
 20
2339.43646433012
 30
0.0
 41
1.0
 10
2493.660379644165
 20
2339.643499913031
 30
0.0
 41
0.9330127459819351
 10
2493.629118927101
 20
2339.64349991303
 30
0.0
 41
0.9330127018922482
  0
SPLINE
  5
92E
330
1F
100
AcDbEntity
  8
Visible (ISO)
100
AcDbSpline
210
0.0
220
0.0
230
1.0
 70
    12
 71
     2
 72
    12
 73
     9
 74
     0
 42
0.000000001
 43
0.0000000001
 40
0.7522312145695839
 40
0.7522312145695839
 40
0.7522312145695839
 40
0.7592592592592595
 40
0.7592592592592595
 40
0.7777777777777778
 40
0.7777777777777778
 40
0.7962962962962963
 40
0.7962962962962963
 40
0.805555549461294
 40
0.805555549461294
 40
0.805555549461294
 10
2493.264115561291
 20
2336.565658273588
 30
0.0
 41
0.9369024604632611
 10
2493.240984963008
 20
2336.605388979245
 30
0.0
 41
0.9491547097278539
 10
2493.220785552618
 20
2336.759862714983
 30
0.0
 41
1.0
 10
2493.162452219284
 20
2337.205963256706
 30
0.0
 41
0.8660254037844387
 10
2493.104118885951
 20
2338.098163795085
 30
0.0
 41
1.0
 10
2493.045785552617
 20
2338.990364333465
 30
0.0
 41
0.8660254037844387
 10
2492.987452219284
 20
2339.43646433012
 30
0.0
 41
1.0
 10
2492.960379644165
 20
2339.643499913031
 30
0.0
 41
0.9330127459819351
 10
2492.929118927101
 20
2339.64349991303
 30
0.0
 41
0.9330127018922482
  0
SPLINE
  5
92F
330
1F
100
AcDbEntity
  8
Visible (ISO)
100
AcDbSpline
210
0.0
220
0.0
230
1.0
 70
    12
 71
     2
 72
     8
 73
     5
 74
     0
 42
0.000000001
 43
0.0000000001
 40
0.8633423256806949
 40
0.8633423256806949
 40
0.8633423256806949
 40
0.8703703703703704
 40
0.8703703703703704
 40
0.8771486126783923
 40
0.8771486126783923
 40
0.8771486126783923
 10
2492.564115561291
 20
2336.565658273589
 30
0.0
 41
0.9369024604632617
 10
2492.540984963008
 20
2336.605388979245
 30
0.0
 41
0.9491547097278546
 10
2492.520785552617
 20
2336.759862714983
 30
0.0
 41
1.0
 10
2492.501341126001
 20
2336.908562759214
 30
0.0
 41
0.9509619370815014
 10
2492.479118925246
 20
2337.142234116819
 30
0.0
 41
0.9378221964229853
  0
SPLINE
  5
930
330
1F
100
AcDbEntity
  8
Visible (ISO)
100
AcDbSpline
210
0.0
220
0.0
230
1.0
 70
    12
 71
     2
 72
    12
 73
     9
 74
     0
 42
0.000000001
 43
0.0000000001
 40
0.5896579982518144
 40
0.5896579982518144
 40
0.5896579982518144
 40
0.5936170281025774
 40
0.5936170281025774
 40
0.61408658079577
 40
0.61408658079577
 40
0.634556133488962
 40
0.634556133488962
 40
0.6423246104599314
 40
0.6423246104599314
 40
0.6423246104599314
 10
2494.554289739598
 20
2336.634065629778
 30
0.0
 41
0.9581991271637644
 10
2494.543316217197
 20
2336.68315383093
 30
0.0
 41
0.9740878839117105
 10
2494.533285552617
 20
2336.759862714983
 30
0.0
 41
1.0
 10
2494.474952219283
 20
2337.205963256706
 30
0.0
 41
0.8660254037844387
 10
2494.416618885951
 20
2338.098163795085
 30
0.0
 41
1.0
 10
2494.358285552617
 20
2338.990364333465
 30
0.0
 41
0.8660254037844387
 10
2494.299952219284
 20
2339.43646433012
 30
0.0
 41
1.0
 10
2494.279752845351
 20
2339.590937598299
 30
0.0
 41
0.9491547968343418
 10
2494.256622290899
 20
2339.630668228727
 30
0.0
 41
0.9369025024436798
  0
SPLINE
  5
931
330
1F
100
AcDbEntity
  8
Visible (ISO)
100
AcDbSpline
210
0.0
220
0.0
230
1.0
 70
    12
 71
     2
 72
    12
 73
     9
 74
     0
 42
0.000000001
 43
0.0000000001
 40
0.7061995611788076
 40
0.7061995611788076
 40
0.7061995611788076
 40
0.7164343442617313
 40
0.7164343442617313
 40
0.7369038969549237
 40
0.7369038969549237
 40
0.7573734496481162
 40
0.7573734496481162
 40
0.7651419266190853
 40
0.7651419266190853
 40
0.7651419266190853
 10
2493.891618927101
 20
2336.552826587004
 30
0.0
 41
0.9330127018922484
 10
2493.860358165932
 20
2336.552826587004
 30
0.0
 41
0.933012657802503
 10
2493.833285552617
 20
2336.759862714983
 30
0.0
 41
1.0
 10
2493.774952219283
 20
2337.205963256706
 30
0.0
 41
0.8660254037844387
 10
2493.71661888595
 20
2338.098163795085
 30
0.0
 41
1.0
 10
2493.658285552616
 20
2338.990364333465
 30
0.0
 41
0.8660254037844387
 10
2493.599952219284
 20
2339.43646433012
 30
0.0
 41
1.0
 10
2493.579752845351
 20
2339.590937598299
 30
0.0
 41
0.9491547968343423
 10
2493.5566222909
 20
2339.630668228727
 30
0.0
 41
0.9369025024436799
  0
SPLINE
  5
932
330
1F
100
AcDbEntity
  8
Visible (ISO)
100
AcDbSpline
210
0.0
220
0.0
230
1.0
 70
    12
 71
     2
 72
    12
 73
     9
 74
     0
 42
0.000000001
 43
0.0000000001
 40
0.8290168773379614
 40
0.8290168773379614
 40
0.8290168773379614
 40
0.8392516604208852
 40
0.8392516604208852
 40
0.8597212131140777
 40
0.8597212131140777
 40
0.88019076580727
 40
0.88019076580727
 40
0.8879592427782393
 40
0.8879592427782393
 40
0.8879592427782393
 10
2493.191618927101
 20
2336.552826587004
 30
0.0
 41
0.9330127018922484
 10
2493.160358165932
 20
2336.552826587004
 30
0.0
 41
0.9330126578025032
 10
2493.133285552617
 20
2336.759862714983
 30
0.0
 41
1.0
 10
2493.074952219284
 20
2337.205963256706
 30
0.0
 41
0.8660254037844387
 10
2493.01661888595
 20
2338.098163795085
 30
0.0
 41
1.0
 10
2492.958285552617
 20
2338.990364333465
 30
0.0
 41
0.8660254037844387
 10
2492.899952219284
 20
2339.43646433012
 30
0.0
 41
1.0
 10
2492.879752845351
 20
2339.590937598298
 30
0.0
 41
0.9491547968343414
 10
2492.856622290899
 20
2339.630668228727
 30
0.0
 41
0.9369025024436798
  0
SPLINE
  5
933
330
1F
100
AcDbEntity
  8
Visible (ISO)
100
AcDbSpline
210
0.0
220
0.0
230
1.0
 70
    12
 71
     2
 72
     6
 73
     3
 74
     0
 42
0.000000001
 43
0.0000000001
 40
0.9518341934971154
 40
0.9518341934971154
 40
0.9518341934971154
 40
0.9538863523020287
 40
0.9538863523020287
 40
0.9538863523020287
 10
2492.491618927101
 20
2336.552826587004
 30
0.0
 41
0.9330127018922484
 10
2492.485350885723
 20
2336.552826587004
 30
0.0
 41
0.9330126930518892
 10
2492.479118925243
 20
2336.561722109312
 30
0.0
 41
0.935705816447135
  0
LINE
  5
934
330
1F
100
AcDbEntity
  8
Visible (ISO)
100
AcDbLine
 10
2494.329118927101
 20
2336.098163250017
 30
0.0
 11
2494.241618927101
 21
2336.098163250017
 31
0.0
  0
LINE
  5
935
330
1F
100
AcDbEntity
  8
Visible (ISO)
100
AcDbLine
 10
2493.629118927101
 20
2336.098163250017
 30
0.0
 11
2493.541618927101
 21
2336.098163250017
 31
0.0
  0
LINE
  5
936
330
1F
100
AcDbEntity
  8
Visible (ISO)
100
AcDbLine
 10
2492.929118927101
 20
2336.098163250017
 30
0.0
 11
2492.841618927101
 21
2336.098163250017
 31
0.0
  0
LINE
  5
937
330
1F
100
AcDbEntity
  8
Visible (ISO)
100
AcDbLine
 10
2493.979118927101
 20
2340.098163250017
 30
0.0
 11
2493.891618927101
 21
2340.098163250017
 31
0.0
  0
LINE
  5
938
330
1F
100
AcDbEntity
  8
Visible (ISO)
100
AcDbLine
 10
2493.279118927101
 20
2340.098163250017
 30
0.0
 11
2493.191618927101
 21
2340.098163250017
 31
0.0
  0
LINE
  5
939
330
1F
100
AcDbEntity
  8
Visible (ISO)
100
AcDbLine
 10
2492.479118925246
 20
2339.698163250017
 30
0.0
 11
2492.660501527307
 21
2339.957204451608
 31
0.0
  0
SPLINE
  5
93A
330
1F
100
AcDbEntity
  8
Visible (ISO)
100
AcDbSpline
210
0.0
220
0.0
230
1.0
 70
     8
 71
     3
 72
     8
 73
     4
 74
     0
 42
0.000000001
 43
0.0000000001
 40
0.0014847711265211
 40
0.0014847711265211
 40
0.0014847711265211
 40
0.0014847711265211
 40
0.0440204900097918
 40
0.0440204900097918
 40
0.0440204900097918
 40
0.0440204900097918
 10
2494.321585472748
 20
2339.64349991303
 30
0.0
 10
2494.392914635883
 20
2339.766036017103
 30
0.0
 10
2494.464147562184
 20
2339.888628789604
 30
0.0
 10
2494.535329174119
 20
2340.011251423396
 30
0.0
  0
SPLINE
  5
93B
330
1F
100
AcDbEntity
  8
Visible (ISO)
100
AcDbSpline
210
0.0
220
0.0
230
1.0
 70
     8
 71
     3
 72
     8
 73
     4
 74
     0
 42
0.000000001
 43
0.0000000001
 40
0.0014847711265222
 40
0.0014847711265222
 40
0.0014847711265222
 40
0.0014847711265222
 40
0.0529096727777917
 40
0.0529096727777917
 40
0.0529096727777917
 40
0.0529096727777917
 10
2493.621585472748
 20
2339.64349991303
 30
0.0
 10
2493.707821118821
 20
2339.791643808704
 30
0.0
 10
2493.793917859632
 20
2339.939869504505
 30
0.0
 10
2493.87994929411
 20
2340.088133013184
 30
0.0
  0
SPLINE
  5
93C
330
1F
100
AcDbEntity
  8
Visible (ISO)
100
AcDbSpline
210
0.0
220
0.0
230
1.0
 70
     8
 71
     3
 72
     8
 73
     4
 74
     0
 42
0.000000001
 43
0.0000000001
 40
0.0014847711265212
 40
0.0014847711265212
 40
0.0014847711265212
 40
0.0014847711265212
 40
0.0529096727777912
 40
0.0529096727777912
 40
0.0529096727777912
 40
0.0529096727777912
 10
2492.921585472748
 20
2339.64349991303
 30
0.0
 10
2493.007821118822
 20
2339.791643808704
 30
0.0
 10
2493.093917859631
 20
2339.939869504505
 30
0.0
 10
2493.17994929411
 20
2340.088133013184
 30
0.0
  0
SPLINE
  5
93D
330
1F
100
AcDbEntity
  8
Visible (ISO)
100
AcDbSpline
210
0.0
220
0.0
230
1.0
 70
     8
 71
     3
 72
     8
 73
     4
 74
     0
 42
0.000000001
 43
0.0000000001
 40
0.0
 40
0.0
 40
0.0
 40
0.0
 40
0.052909672777788
 40
0.052909672777788
 40
0.052909672777788
 40
0.052909672777788
 10
2494.229949294109
 20
2336.108193486851
 30
0.0
 10
2494.141433907581
 20
2336.260737749983
 30
0.0
 10
2494.052849807353
 20
2336.413242232778
 30
0.0
 10
2493.964115561292
 20
2336.565658273589
 30
0.0
  0
SPLINE
  5
93E
330
1F
100
AcDbEntity
  8
Visible (ISO)
100
AcDbSpline
210
0.0
220
0.0
230
1.0
 70
     8
 71
     3
 72
     8
 73
     4
 74
     0
 42
0.000000001
 43
0.0000000001
 40
0.0
 40
0.0
 40
0.0
 40
0.0
 40
0.0529096727777909
 40
0.0529096727777909
 40
0.0529096727777909
 40
0.0529096727777909
 10
2493.52994929411
 20
2336.108193486851
 30
0.0
 10
2493.441433907581
 20
2336.260737749983
 30
0.0
 10
2493.352849807353
 20
2336.413242232778
 30
0.0
 10
2493.264115561291
 20
2336.565658273589
 30
0.0
  0
SPLINE
  5
93F
330
1F
100
AcDbEntity
  8
Visible (ISO)
100
AcDbSpline
210
0.0
220
0.0
230
1.0
 70
     8
 71
     3
 72
     8
 73
     4
 74
     0
 42
0.000000001
 43
0.0000000001
 40
0.0
 40
0.0
 40
0.0
 40
0.0
 40
0.0529096727777917
 40
0.0529096727777917
 40
0.0529096727777917
 40
0.0529096727777917
 10
2492.829949294109
 20
2336.108193486851
 30
0.0
 10
2492.741433907581
 20
2336.260737749983
 30
0.0
 10
2492.652849807353
 20
2336.413242232778
 30
0.0
 10
2492.564115561291
 20
2336.565658273589
 30
0.0
  0
LINE
  5
940
330
1F
100
AcDbEntity
  8
Visible (ISO)
100
AcDbLine
 10
2494.249152380781
 20
2339.64349991303
 30
0.0
 11
2494.329118927101
 21
2339.64349991303
 31
0.0
  0
LINE
  5
941
330
1F
100
AcDbEntity
  8
Visible (ISO)
100
AcDbLine
 10
2493.891618927101
 20
2336.552826587004
 30
0.0
 11
2493.971585472748
 21
2336.552826587004
 31
0.0
  0
LINE
  5
942
330
1F
100
AcDbEntity
  8
Visible (ISO)
100
AcDbLine
 10
2493.549152358016
 20
2339.64349991303
 30
0.0
 11
2493.629118927101
 21
2339.64349991303
 31
0.0
  0
LINE
  5
943
330
1F
100
AcDbEntity
  8
Visible (ISO)
100
AcDbLine
 10
2493.191618927101
 20
2336.552826587004
 30
0.0
 11
2493.271585472748
 21
2336.552826587004
 31
0.0
  0
LINE
  5
944
330
1F
100
AcDbEntity
  8
Visible (ISO)
100
AcDbLine
 10
2492.849152380781
 20
2339.64349991303
 30
0.0
 11
2492.929118927101
 21
2339.64349991303
 31
0.0
  0
LINE
  5
945
330
1F
100
AcDbEntity
  8
Visible (ISO)
100
AcDbLine
 10
2492.491618927101
 20
2336.552826587004
 30
0.0
 11
2492.571585472748
 21
2336.552826587004
 31
0.0
  0
SPLINE
  5
946
330
1F
100
AcDbEntity
  8
Visible (ISO)
100
AcDbSpline
210
0.0
220
0.0
230
1.0
 70
     8
 71
     3
 72
     8
 73
     4
 74
     0
 42
0.000000001
 43
0.0000000001
 40
0.0
 40
0.0
 40
0.0
 40
0.0
 40
0.0376615451233789
 40
0.0376615451233789
 40
0.0376615451233789
 40
0.0376615451233789
 10
2492.667336644807
 20
2339.956258577672
 30
0.0
 10
2492.730376449573
 20
2339.847696033871
 30
0.0
 10
2492.793460516638
 20
2339.73915923423
 30
0.0
 10
2492.856622290899
 20
2339.630668228727
 30
0.0
  0
SPLINE
  5
947
330
1F
100
AcDbEntity
  8
Visible (ISO)
100
AcDbSpline
210
0.0
220
0.0
230
1.0
 70
     8
 71
     3
 72
     8
 73
     4
 74
     0
 42
0.000000001
 43
0.0000000001
 40
0.0
 40
0.0
 40
0.0
 40
0.0
 40
0.0529096726628233
 40
0.0529096726628233
 40
0.0529096726628233
 40
0.0529096726628233
 10
2493.990788558868
 20
2340.088133014582
 30
0.0
 10
2494.079303945157
 20
2339.935588751755
 30
0.0
 10
2494.167888045132
 20
2339.783084269259
 30
0.0
 10
2494.256622290899
 20
2339.630668228727
 30
0.0
  0
SPLINE
  5
948
330
1F
100
AcDbEntity
  8
Visible (ISO)
100
AcDbSpline
210
0.0
220
0.0
230
1.0
 70
     8
 71
     3
 72
     8
 73
     4
 74
     0
 42
0.000000001
 43
0.0000000001
 40
0.0
 40
0.0
 40
0.0
 40
0.0
 40
0.0529096726628237
 40
0.0529096726628237
 40
0.0529096726628237
 40
0.0529096726628237
 10
2493.290788558868
 20
2340.088133014582
 30
0.0
 10
2493.379303945157
 20
2339.935588751755
 30
0.0
 10
2493.467888045131
 20
2339.783084269259
 30
0.0
 10
2493.5566222909
 20
2339.630668228727
 30
0.0
  0
SPLINE
  5
949
330
1F
100
AcDbEntity
  8
Visible (ISO)
100
AcDbSpline
210
0.0
220
0.0
230
1.0
 70
     8
 71
     3
 72
     8
 73
     4
 74
     0
 42
0.000000001
 43
0.0000000001
 40
0.0117120511280963
 40
0.0117120511280963
 40
0.0117120511280963
 40
0.0117120511280963
 40
0.0529096726628245
 40
0.0529096726628245
 40
0.0529096726628245
 40
0.0529096726628245
 10
2494.54771765473
 20
2336.464429268811
 30
0.0
 10
2494.478675250443
 20
2336.345722703562
 30
0.0
 10
2494.409710236149
 20
2336.226970648322
 30
0.0
 10
2494.340788558868
 20
2336.108193485452
 30
0.0
  0
SPLINE
  5
94A
330
1F
100
AcDbEntity
  8
Visible (ISO)
100
AcDbSpline
210
0.0
220
0.0
230
1.0
 70
     8
 71
     3
 72
     8
 73
     4
 74
     0
 42
0.000000001
 43
0.0000000001
 40
0.0014847708621075
 40
0.0014847708621075
 40
0.0014847708621075
 40
0.0014847708621075
 40
0.0529096726628213
 40
0.0529096726628213
 40
0.0529096726628213
 40
0.0529096726628213
 10
2493.899152380781
 20
2336.552826587004
 30
0.0
 10
2493.812916734551
 20
2336.40468269085
 30
0.0
 10
2493.726819993551
 20
2336.256456994587
 30
0.0
 10
2493.640788558868
 20
2336.108193485452
 30
0.0
  0
SPLINE
  5
94B
330
1F
100
AcDbEntity
  8
Visible (ISO)
100
AcDbSpline
210
0.0
220
0.0
230
1.0
 70
     8
 71
     3
 72
     8
 73
     4
 74
     0
 42
0.000000001
 43
0.0000000001
 40
0.001484772021855
 40
0.001484772021855
 40
0.001484772021855
 40
0.001484772021855
 40
0.0529096726628208
 40
0.0529096726628208
 40
0.0529096726628208
 40
0.0529096726628208
 10
2493.199152358016
 20
2336.552826587004
 30
0.0
 10
2493.112916335609
 20
2336.404682918038
 30
0.0
 10
2493.02681999161
 20
2336.256456991243
 30
0.0
 10
2492.940788558868
 20
2336.108193485452
 30
0.0
  0
LINE
  5
94C
330
1F
100
AcDbEntity
  8
Visible (ISO)
100
AcDbLine
 10
2492.499153247074
 20
2336.552825895607
 30
0.0
 11
2492.479119075234
 21
2336.51840552837
 31
0.0
  0
SPLINE
  5
94D
330
1F
100
AcDbEntity
  8
Visible (ISO)
100
AcDbSpline
210
0.0
220
0.0
230
1.0
 70
     8
 71
     3
 72
    24
 73
    20
 74
     0
 42
0.000000001
 43
0.0000000001
 40
-1.587708870415336
 40
-1.587708870415336
 40
-1.587708870415336
 40
-1.587708870415336
 40
-1.547281943470485
 40
-1.547281943470485
 40
-1.4705979298153
 40
-1.4705979298153
 40
-1.39028276355909
 40
-1.39028276355909
 40
-1.311671277772515
 40
-1.311671277772515
 40
-1.235553472510418
 40
-1.235553472510418
 40
-1.155842426081741
 40
-1.155842426081741
 40
-1.07809639620971
 40
-1.07809639620971
 40
-1.001030677775792
 40
-1.001030677775792
 40
-0.9360014168073885
 40
-0.9360014168073885
 40
-0.9360014168073885
 40
-0.9360014168073885
 10
2574.585989953309
 20
2340.088122172967
 30
0.0
 10
2574.593758461185
 20
2340.101510036852
 30
0.0
 10
2574.601600542487
 20
2340.101542284284
 30
0.0
 10
2574.624188643127
 20
2340.062380373069
 30
0.0
 10
2574.638545664369
 20
2339.988453299361
 30
0.0
 10
2574.665462873176
 20
2339.746322578025
 30
0.0
 10
2574.679705955088
 20
2339.576253611113
 30
0.0
 10
2574.710162594664
 20
2339.168059891847
 30
0.0
 10
2574.725561013439
 20
2338.935451713152
 30
0.0
 10
2574.754804142741
 20
2338.443185836034
 30
0.0
 10
2574.767576169343
 20
2338.189151455158
 30
0.0
 10
2574.794971390403
 20
2337.672344407259
 30
0.0
 10
2574.810147970262
 20
2337.41490476018
 30
0.0
 10
2574.840675107211
 20
2336.949677155098
 30
0.0
 10
2574.855727867811
 20
2336.745154087978
 30
0.0
 10
2574.883996572308
 20
2336.410697108629
 30
0.0
 10
2574.896363288365
 20
2336.283266057455
 30
0.0
 10
2574.92255659333
 20
2336.133056973086
 30
0.0
 10
2574.935086621031
 20
2336.098164157785
 30
0.0
 10
2574.947668197749
 20
2336.098163457545
 30
0.0
  0
SPLINE
  5
94E
330
1F
100
AcDbEntity
  8
Visible (ISO)
100
AcDbSpline
210
0.0
220
0.0
230
1.0
 70
     8
 71
     3
 72
    16
 73
    12
 74
     0
 42
0.000000001
 43
0.0000000001
 40
-0.3247410372389039
 40
-0.3247410372389039
 40
-0.3247410372389039
 40
-0.3247410372389039
 40
-0.2954158071015413
 40
-0.2954158071015413
 40
-0.2183527480428993
 40
-0.2183527480428993
 40
-0.1395487732958611
 40
-0.1395487732958611
 40
-0.0689823054432048
 40
-0.0689823054432048
 40
-0.0000010000001142
 40
-0.0000010000001142
 40
-0.0000010000001142
 40
-0.0000010000001142
 10
2575.285989952405
 20
2340.088122335803
 30
0.0
 10
2575.291628883329
 20
2340.097840531769
 30
0.0
 10
2575.297312162939
 20
2340.100531241416
 30
0.0
 10
2575.317928522366
 20
2340.08437178588
 30
0.0
 10
2575.332579911862
 20
2340.02354383433
 30
0.0
 10
2575.360024829059
 20
2339.80779117492
 30
0.0
 10
2575.373243757109
 20
2339.652893748714
 30
0.0
 10
2575.401536580879
 20
2339.289054694284
 30
0.0
 10
2575.415327341637
 20
2339.090323420578
 30
0.0
 10
2575.442186537407
 20
2338.662287555255
 30
0.0
 10
2575.455067246966
 20
2338.436909353311
 30
0.0
 10
2575.466985565293
 20
2338.207624985797
 30
0.0
  0
LINE
  5
94F
330
1F
100
AcDbEntity
  8
Visible (ISO)
100
AcDbLine
 10
2575.466985565293
 20
2338.207624985797
 30
0.0
 11
2575.466985565293
 21
2339.569558763133
 31
0.0
  0
SPLINE
  5
950
330
1F
100
AcDbEntity
  8
Visible (ISO)
100
AcDbSpline
210
0.0
220
0.0
230
1.0
 70
     8
 71
     3
 72
    24
 73
    20
 74
     0
 42
0.000000001
 43
0.0000000001
 40
-6.123622445712928
 40
-6.123622445712928
 40
-6.123622445712928
 40
-6.123622445712928
 40
-6.05719459879
 40
-6.05719459879
 40
-5.978578261096659
 40
-5.978578261096659
 40
-5.901569529065722
 40
-5.901569529065722
 40
-5.821521105581322
 40
-5.821521105581322
 40
-5.744944532607791
 40
-5.744944532607791
 40
-5.667040132626977
 40
-5.667040132626977
 40
-5.587435630398017
 40
-5.587435630398017
 40
-5.511416955274869
 40
-5.511416955274869
 40
-5.472751136614586
 40
-5.472751136614586
 40
-5.472751136614586
 40
-5.472751136614586
 10
2575.046828613814
 20
2336.108183188315
 30
0.0
 10
2575.034023895781
 20
2336.086116477599
 30
0.0
 10
2575.021065329674
 20
2336.100531228015
 30
0.0
 10
2574.993590539906
 20
2336.210999253705
 30
0.0
 10
2574.980434211458
 20
2336.320356665607
 30
0.0
 10
2574.952949826897
 20
2336.622485153883
 30
0.0
 10
2574.938277445681
 20
2336.810679326964
 30
0.0
 10
2574.907802095538
 20
2337.252388860801
 30
0.0
 10
2574.892278867
 20
2337.50381932968
 30
0.0
 10
2574.86371426114
 20
2338.018268767669
 30
0.0
 10
2574.851401003725
 20
2338.275514462643
 30
0.0
 10
2574.822852469909
 20
2338.778209125194
 30
0.0
 10
2574.807684002531
 20
2339.018521610701
 30
0.0
 10
2574.777169880781
 20
2339.450584737977
 30
0.0
 10
2574.762126213225
 20
2339.636932739482
 30
0.0
 10
2574.73517159778
 20
2339.917339249552
 30
0.0
 10
2574.72198766035
 20
2340.012638836059
 30
0.0
 10
2574.700127085139
 20
2340.085827801703
 30
0.0
 10
2574.692649175091
 20
2340.098162386902
 30
0.0
 10
2574.685168197544
 20
2340.09816235475
 30
0.0
  0
SPLINE
  5
951
330
1F
100
AcDbEntity
  8
Visible (ISO)
100
AcDbSpline
210
0.0
220
0.0
230
1.0
 70
     8
 71
     3
 72
    12
 73
     8
 74
     0
 42
0.000000001
 43
0.0000000001
 40
-6.883991163792567
 40
-6.883991163792567
 40
-6.883991163792567
 40
-6.883991163792567
 40
-6.823515872944764
 40
-6.823515872944764
 40
-6.761551125312955
 40
-6.761551125312955
 40
-6.734681225885928
 40
-6.734681225885928
 40
-6.734681225885928
 40
-6.734681225885928
 10
2575.466985565304
 20
2339.569558763132
 30
0.0
 10
2575.455754637429
 20
2339.705972265893
 30
0.0
 10
2575.445667299542
 20
2339.819181641433
 30
0.0
 10
2575.424231411482
 20
2339.993788558245
 30
0.0
 10
2575.412643485244
 20
2340.052765211385
 30
0.0
 10
2575.395561132507
 20
2340.092215596564
 30
0.0
 10
2575.390362882201
 20
2340.098162911591
 30
0.0
 10
2575.385168197616
 20
2340.098162593019
 30
0.0
  0
LINE
  5
952
330
1F
100
AcDbEntity
  8
Visible (ISO)
100
AcDbLine
 10
2575.747068580577
 20
2336.498163250018
 30
0.0
 11
2575.747068580577
 21
2338.722312463804
 31
0.0
  0
SPLINE
  5
953
330
1F
100
AcDbEntity
  8
Visible (ISO)
100
AcDbSpline
210
0.0
220
0.0
230
1.0
 70
     8
 71
     3
 72
    10
 73
     6
 74
     0
 42
0.000000001
 43
0.0000000001
 40
0.0
 40
0.0
 40
0.0
 40
0.0
 40
0.045541103351271
 40
0.045541103351271
 40
0.0911428195972336
 40
0.0911428195972336
 40
0.0911428195972336
 40
0.0911428195972336
 10
2575.466985565343
 20
2339.569558763111
 30
0.0
 10
2575.509185724794
 20
2339.435284585059
 30
0.0
 10
2575.553660517783
 20
2339.294880788324
 30
0.0
 10
2575.647356719482
 20
2339.008792374613
 30
0.0
 10
2575.696216776613
 20
2338.864241713182
 30
0.0
 10
2575.747068580577
 20
2338.722312463804
 30
0.0
  0
SPLINE
  5
954
330
1F
100
AcDbEntity
  8
Visible (ISO)
100
AcDbSpline
210
0.0
220
0.0
230
1.0
 70
     8
 71
     3
 72
    20
 73
    16
 74
     0
 42
0.000000001
 43
0.0000000001
 40
-1.529809695754027
 40
-1.529809695754027
 40
-1.529809695754027
 40
-1.529809695754027
 40
-1.447337631601729
 40
-1.447337631601729
 40
-1.370444607991561
 40
-1.370444607991561
 40
-1.225137756944886
 40
-1.225137756944886
 40
-1.03518798995616
 40
-1.03518798995616
 40
-0.9410147582119805
 40
-0.9410147582119805
 40
-0.7512972602212497
 40
-0.7512972602212497
 40
-0.7134758956355398
 40
-0.7134758956355398
 40
-0.7134758956355398
 40
-0.7134758956355398
 10
2575.466985565293
 20
2338.207624985797
 30
0.0
 10
2575.46995769489
 20
2338.103069467948
 30
0.0
 10
2575.472834323581
 20
2337.998142224256
 30
0.0
 10
2575.478836337109
 20
2337.796242145567
 30
0.0
 10
2575.481831795121
 20
2337.700047639078
 30
0.0
 10
2575.490710921462
 20
2337.427986422218
 30
0.0
 10
2575.496748546184
 20
2337.258780576897
 30
0.0
 10
2575.510813931274
 20
2336.900358827294
 30
0.0
 10
2575.518761836821
 20
2336.724120717724
 30
0.0
 10
2575.529967466158
 20
2336.514259183071
 30
0.0
 10
2575.533475379551
 20
2336.452764001219
 30
0.0
 10
2575.544526393028
 20
2336.30136582314
 30
0.0
 10
2575.552615553502
 20
2336.24549601276
 30
0.0
 10
2575.562663504761
 20
2336.236721012983
 30
0.0
 10
2575.564338747499
 20
2336.237197724683
 30
0.0
 10
2575.566015066306
 20
2336.239591579243
 30
0.0
  0
LINE
  5
955
330
1F
100
AcDbEntity
  8
Visible (ISO)
100
AcDbLine
 10
2575.747068580577
 20
2338.722312463804
 30
0.0
 11
2575.747068580577
 21
2339.060320214899
 31
0.0
  0
ELLIPSE
  5
956
330
1F
100
AcDbEntity
  8
Visible (ISO)
100
AcDbEllipse
 10
2575.747277699385
 20
2338.121596395524
 30
0.0
 11
-0.0002102231669397
 21
1.555302298593608
 31
0.0
210
0.0
220
0.0
230
1.0
 40
0.0000126147613593
 41
0.0000135317867205
 42
0.2314248047086718
  0
LINE
  5
957
330
1F
100
AcDbEntity
  8
Visible (ISO)
100
AcDbLine
 10
2575.747068580577
 20
2339.060320214899
 30
0.0
 11
2575.747068580579
 21
2339.635435069294
 31
0.0
  0
SPLINE
  5
958
330
1F
100
AcDbEntity
  8
Visible (ISO)
100
AcDbSpline
210
0.0
220
0.0
230
1.0
 70
    12
 71
     2
 72
     8
 73
     5
 74
     0
 42
0.000000001
 43
0.0000000001
 40
0.6774668642479038
 40
0.6774668642479038
 40
0.6774668642479038
 40
0.6851851851851852
 40
0.6851851851851852
 40
0.6945332408772273
 40
0.6945332408772273
 40
0.6945332408772273
 10
2574.490786212344
 20
2337.215951153368
 30
0.0
 41
0.9348679862537714
 10
2574.516434609659
 20
2336.935909802845
 30
0.0
 41
0.9441608177241429
 10
2574.53873528654
 20
2336.763851043611
 30
0.0
 41
1.0
 10
2574.56608633941
 20
2336.552826587004
 30
0.0
 41
0.9323702927159375
 10
2574.597668197811
 20
2336.552826587004
 30
0.0
 41
0.9330188626056891
  0
SPLINE
  5
959
330
1F
100
AcDbEntity
  8
Visible (ISO)
100
AcDbSpline
210
0.0
220
0.0
230
1.0
 70
    12
 71
     2
 72
    12
 73
     9
 74
     0
 42
0.000000001
 43
0.0000000001
 40
0.7523189230636522
 40
0.7523189230636522
 40
0.7523189230636522
 40
0.7592592592592595
 40
0.7592592592592595
 40
0.7777777777777778
 40
0.7777777777777778
 40
0.7962962962962963
 40
0.7962962962962963
 40
0.8056443519883382
 40
0.8056443519883382
 40
0.8056443519883382
 10
2574.962656533524
 20
2339.63068515654
 30
0.0
 41
0.9372142820376186
 10
2574.98546795361
 20
2339.591502260435
 30
0.0
 41
0.9497892480720382
 10
2575.005401953206
 20
2339.440417311606
 30
0.0
 41
1.0
 10
2575.063735286539
 20
2338.998293861198
 30
0.0
 41
0.8660254037844387
 10
2575.122068619873
 20
2338.1061051052
 30
0.0
 41
1.0
 10
2575.180401953206
 20
2337.213916349202
 30
0.0
 41
0.8660254037844387
 10
2575.23873528654
 20
2336.763851043611
 30
0.0
 41
1.0
 10
2575.266086339411
 20
2336.552826587004
 30
0.0
 41
0.9323702927159375
 10
2575.297668197811
 20
2336.552826587004
 30
0.0
 41
0.9330188626056891
  0
SPLINE
  5
95A
330
1F
100
AcDbEntity
  8
Visible (ISO)
100
AcDbSpline
210
0.0
220
0.0
230
1.0
 70
    12
 71
     2
 72
     8
 73
     5
 74
     0
 42
0.000000001
 43
0.0000000001
 40
0.8634300341747634
 40
0.8634300341747634
 40
0.8634300341747634
 40
0.8703703703703704
 40
0.8703703703703704
 40
0.8771486126783923
 40
0.8771486126783923
 40
0.8771486126783923
 10
2575.662656533524
 20
2339.63068515654
 30
0.0
 41
0.9372142820376188
 10
2575.68546795361
 20
2339.591502260434
 30
0.0
 41
0.9497892480720386
 10
2575.705401953206
 20
2339.440417311606
 30
0.0
 41
1.0
 10
2575.724846379822
 20
2339.293042963264
 30
0.0
 41
0.9509619370815014
 10
2575.747068580577
 20
2339.060320214899
 30
0.0
 41
0.9378221964229853
  0
SPLINE
  5
95B
330
1F
100
AcDbEntity
  8
Visible (ISO)
100
AcDbSpline
210
0.0
220
0.0
230
1.0
 70
    12
 71
     2
 72
    10
 73
     7
 74
     0
 42
0.000000001
 43
0.0000000001
 40
0.7319566721391997
 40
0.7319566721391997
 40
0.7319566721391997
 40
0.7369038969549237
 40
0.7369038969549237
 40
0.7573734496481162
 40
0.7573734496481162
 40
0.7652389055969471
 40
0.7652389055969471
 40
0.7652389055969471
 10
2574.482928185037
 20
2338.485914422878
 30
0.0
 41
0.950891773896399
 10
2574.4969504652
 20
2338.299095546123
 30
0.0
 41
0.9676200815421506
 10
2574.509568619872
 20
2338.1061051052
 30
0.0
 41
1.0
 10
2574.567901953206
 20
2337.213916349202
 30
0.0
 41
0.8660254037844387
 10
2574.626235286539
 20
2336.763851043611
 30
0.0
 41
1.0
 10
2574.646700508294
 20
2336.605953564472
 30
0.0
 41
0.9485200629153771
 10
2574.670150558599
 20
2336.565674574507
 30
0.0
 41
0.9366026100195128
  0
SPLINE
  5
95C
330
1F
100
AcDbEntity
  8
Visible (ISO)
100
AcDbSpline
210
0.0
220
0.0
230
1.0
 70
    12
 71
     2
 72
    12
 73
     9
 74
     0
 42
0.000000001
 43
0.0000000001
 40
0.8291150357303187
 40
0.8291150357303187
 40
0.8291150357303187
 40
0.8392516604208852
 40
0.8392516604208852
 40
0.8597212131140777
 40
0.8597212131140777
 40
0.88019076580727
 40
0.88019076580727
 40
0.8880562217561005
 40
0.8880562217561005
 40
0.8880562217561005
 10
2575.035168197811
 20
2339.643499913031
 30
0.0
 41
0.9330188626056891
 10
2575.066107434453
 20
2339.643499913031
 30
0.0
 41
0.9336551110685016
 10
2575.092901953206
 20
2339.440417311606
 30
0.0
 41
1.0
 10
2575.151235286539
 20
2338.998293861198
 30
0.0
 41
0.8660254037844387
 10
2575.209568619872
 20
2338.1061051052
 30
0.0
 41
1.0
 10
2575.267901953206
 20
2337.213916349202
 30
0.0
 41
0.8660254037844387
 10
2575.326235286539
 20
2336.763851043611
 30
0.0
 41
1.0
 10
2575.346700508295
 20
2336.605953564472
 30
0.0
 41
0.9485200629153778
 10
2575.370150558599
 20
2336.565674574507
 30
0.0
 41
0.9366026100195131
  0
SPLINE
  5
95D
330
1F
100
AcDbEntity
  8
Visible (ISO)
100
AcDbSpline
210
0.0
220
0.0
230
1.0
 70
    12
 71
     2
 72
     6
 73
     3
 74
     0
 42
0.000000001
 43
0.0000000001
 40
0.9519323518894728
 40
0.9519323518894728
 40
0.9519323518894728
 40
0.9538863523020287
 40
0.9538863523020287
 40
0.9538863523020287
 10
2575.735168197811
 20
2339.64349991303
 30
0.0
 41
0.9330188626056894
 10
2575.741135524964
 20
2339.643499913031
 30
0.0
 41
0.9331415099164829
 10
2575.747068580579
 20
2339.635435069294
 30
0.0
 41
0.935705816447135
  0
LINE
  5
95E
330
1F
100
AcDbEntity
  8
Visible (ISO)
100
AcDbLine
 10
2574.597668197811
 20
2340.098163250017
 30
0.0
 11
2574.685168197812
 21
2340.098163250017
 31
0.0
  0
LINE
  5
95F
330
1F
100
AcDbEntity
  8
Visible (ISO)
100
AcDbLine
 10
2575.297668197811
 20
2340.098163250017
 30
0.0
 11
2575.385168197811
 21
2340.098163250017
 31
0.0
  0
LINE
  5
960
330
1F
100
AcDbEntity
  8
Visible (ISO)
100
AcDbLine
 10
2574.947668197812
 20
2336.098163250017
 30
0.0
 11
2575.035168197811
 21
2336.098163250017
 31
0.0
  0
LINE
  5
961
330
1F
100
AcDbEntity
  8
Visible (ISO)
100
AcDbLine
 10
2575.747068580577
 20
2336.498163250018
 30
0.0
 11
2575.566014619462
 21
2336.239591396338
 31
0.0
  0
SPLINE
  5
962
330
1F
100
AcDbEntity
  8
Visible (ISO)
100
AcDbSpline
210
0.0
220
0.0
230
1.0
 70
     8
 71
     3
 72
     8
 73
     4
 74
     0
 42
0.000000001
 43
0.0000000001
 40
0.0014828083895251
 40
0.0014828083895251
 40
0.0014828083895251
 40
0.0014828083895251
 40
0.0190103982940454
 40
0.0190103982940454
 40
0.0190103982940454
 40
0.0190103982940454
 10
2574.60519655866
 20
2336.552826587004
 30
0.0
 10
2574.575804364053
 20
2336.502333308936
 30
0.0
 10
2574.546428927316
 20
2336.451830159553
 30
0.0
 10
2574.517066308207
 20
2336.401319484779
 30
0.0
  0
SPLINE
  5
963
330
1F
100
AcDbEntity
  8
Visible (ISO)
100
AcDbSpline
210
0.0
220
0.0
230
1.0
 70
     8
 71
     3
 72
     8
 73
     4
 74
     0
 42
0.000000001
 43
0.0000000001
 40
0.0014828083895272
 40
0.0014828083895272
 40
0.0014828083895272
 40
0.0014828083895272
 40
0.0529088260522734
 40
0.0529088260522734
 40
0.0529088260522734
 40
0.0529088260522734
 10
2575.305196558661
 20
2336.552826587004
 30
0.0
 10
2575.218959744172
 20
2336.404679110715
 30
0.0
 10
2575.132861572581
 20
2336.256449961096
 30
0.0
 10
2575.046828614668
 20
2336.108183049318
 30
0.0
  0
SPLINE
  5
964
330
1F
100
AcDbEntity
  8
Visible (ISO)
100
AcDbSpline
210
0.0
220
0.0
230
1.0
 70
     8
 71
     3
 72
     8
 73
     4
 74
     0
 42
0.000000001
 43
0.0000000001
 40
0.0
 40
0.0
 40
0.0
 40
0.0
 40
0.0529088260522734
 40
0.0529088260522734
 40
0.0529088260522734
 40
0.0529088260522734
 10
2574.696828614668
 20
2340.088143450717
 30
0.0
 10
2574.785342231157
 20
2339.935601437916
 30
0.0
 10
2574.873924459828
 20
2339.783099149697
 30
0.0
 10
2574.962656533524
 20
2339.63068515654
 30
0.0
  0
SPLINE
  5
965
330
1F
100
AcDbEntity
  8
Visible (ISO)
100
AcDbSpline
210
0.0
220
0.0
230
1.0
 70
     8
 71
     3
 72
     8
 73
     4
 74
     0
 42
0.000000001
 43
0.0000000001
 40
0.0
 40
0.0
 40
0.0
 40
0.0
 40
0.0529088260522734
 40
0.0529088260522734
 40
0.0529088260522734
 40
0.0529088260522734
 10
2575.396828614668
 20
2340.088143450717
 30
0.0
 10
2575.485342231158
 20
2339.935601437916
 30
0.0
 10
2575.573924459828
 20
2339.783099149697
 30
0.0
 10
2575.662656533524
 20
2339.63068515654
 30
0.0
  0
LINE
  5
966
330
1F
100
AcDbEntity
  8
Visible (ISO)
100
AcDbLine
 10
2574.677630060447
 20
2336.552826587004
 30
0.0
 11
2574.597668197811
 21
2336.552826587004
 31
0.0
  0
LINE
  5
967
330
1F
100
AcDbEntity
  8
Visible (ISO)
100
AcDbLine
 10
2575.035168197811
 20
2339.643499913031
 30
0.0
 11
2574.95519655866
 21
2339.643499913031
 31
0.0
  0
LINE
  5
968
330
1F
100
AcDbEntity
  8
Visible (ISO)
100
AcDbLine
 10
2575.377630037562
 20
2336.552826587004
 30
0.0
 11
2575.297668197811
 21
2336.552826587004
 31
0.0
  0
LINE
  5
969
330
1F
100
AcDbEntity
  8
Visible (ISO)
100
AcDbLine
 10
2575.735168197811
 20
2339.643499913031
 30
0.0
 11
2575.655196558661
 21
2339.643499913031
 31
0.0
  0
SPLINE
  5
96A
330
1F
100
AcDbEntity
  8
Visible (ISO)
100
AcDbSpline
210
0.0
220
0.0
230
1.0
 70
     8
 71
     3
 72
     8
 73
     4
 74
     0
 42
0.000000001
 43
0.0000000001
 40
0.0
 40
0.0
 40
0.0
 40
0.0
 40
0.0376087881815116
 40
0.0376087881815116
 40
0.0376087881815116
 40
0.0376087881815116
 10
2575.559172457291
 20
2336.240541073534
 30
0.0
 10
2575.496220535976
 20
2336.348951308202
 30
0.0
 10
2575.433224370113
 20
2336.457335812414
 30
0.0
 10
2575.370150558599
 20
2336.565674574507
 30
0.0
  0
SPLINE
  5
96B
330
1F
100
AcDbEntity
  8
Visible (ISO)
100
AcDbSpline
210
0.0
220
0.0
230
1.0
 70
     8
 71
     3
 72
     8
 73
     4
 74
     0
 42
0.000000001
 43
0.0000000001
 40
0.0
 40
0.0
 40
0.0
 40
0.0
 40
0.052910501119643
 40
0.052910501119643
 40
0.052910501119643
 40
0.052910501119643
 10
2574.935989948263
 20
2336.108203417659
 30
0.0
 10
2574.847472839414
 20
2336.2607498877
 30
0.0
 10
2574.758886918798
 20
2336.413256523562
 30
0.0
 10
2574.670150558599
 20
2336.565674574507
 30
0.0
  0
SPLINE
  5
96C
330
1F
100
AcDbEntity
  8
Visible (ISO)
100
AcDbSpline
210
0.0
220
0.0
230
1.0
 70
     8
 71
     3
 72
     8
 73
     4
 74
     0
 42
0.000000001
 43
0.0000000001
 40
0.0408664620260819
 40
0.0408664620260819
 40
0.0408664620260819
 40
0.0408664620260819
 40
0.0529105011196408
 40
0.0529105011196408
 40
0.0529105011196408
 40
0.0529105011196408
 10
2574.525530144579
 20
2339.983957546422
 30
0.0
 10
2574.545687710374
 20
2340.018676891336
 30
0.0
 10
2574.565840762433
 20
2340.053398866769
 30
0.0
 10
2574.585989948263
 20
2340.088123082376
 30
0.0
  0
SPLINE
  5
96D
330
1F
100
AcDbEntity
  8
Visible (ISO)
100
AcDbSpline
210
0.0
220
0.0
230
1.0
 70
     8
 71
     3
 72
     8
 73
     4
 74
     0
 42
0.000000001
 43
0.0000000001
 40
0.0014866620873856
 40
0.0014866620873856
 40
0.0014866620873856
 40
0.0014866620873856
 40
0.0529105011196398
 40
0.0529105011196398
 40
0.0529105011196398
 40
0.0529105011196398
 10
2575.027630060447
 20
2339.643499913031
 30
0.0
 10
2575.113864981363
 20
2339.791640171831
 30
0.0
 10
2575.199959964409
 20
2339.939862813539
 30
0.0
 10
2575.285989948262
 20
2340.088123082376
 30
0.0
  0
LINE
  5
96E
330
1F
100
AcDbEntity
  8
Visible (ISO)
100
AcDbLine
 10
2575.727629188716
 20
2339.643500576825
 30
0.0
 11
2575.747068360574
 21
2339.67689817918
 31
0.0
  0
LINE
  5
96F
330
1F
100
AcDbEntity
  8
Visible (ISO)
100
AcDbLine
 10
2546.531077777678
 20
2331.098163250017
 30
0.0
 11
2522.531077777678
 21
2331.098163250017
 31
0.0
  0
LINE
  5
970
330
1F
100
AcDbEntity
  8
Visible (ISO)
100
AcDbLine
 10
2546.031077777678
 20
2331.598163250017
 30
0.0
 11
2546.531077777678
 21
2331.098163250017
 31
0.0
  0
LINE
  5
971
330
1F
100
AcDbEntity
  8
Visible (ISO)
100
AcDbLine
 10
2523.031077777678
 20
2331.598163250017
 30
0.0
 11
2522.531077777678
 21
2331.098163250017
 31
0.0
  0
LINE
  5
972
330
1F
100
AcDbEntity
  8
Visible (ISO)
100
AcDbLine
 10
2522.531077777678
 20
2316.598163250017
 30
0.0
 11
2522.531077777678
 21
2331.098163250017
 31
0.0
  0
LINE
  5
973
330
1F
100
AcDbEntity
  8
Visible (ISO)
100
AcDbLine
 10
2546.531077777678
 20
2316.598163250017
 30
0.0
 11
2546.531077777678
 21
2331.098163250017
 31
0.0
  0
LINE
  5
974
330
1F
100
AcDbEntity
  8
Visible (ISO)
100
AcDbLine
 10
2490.031077777678
 20
2334.598163250017
 30
0.0
 11
2579.031077777678
 21
2334.598163250017
 31
0.0
  0
LINE
  5
975
330
1F
100
AcDbEntity
  8
Visible (ISO)
100
AcDbLine
 10
2579.531077777678
 20
2334.098163250017
 30
0.0
 11
2489.531077777678
 21
2334.098163250017
 31
0.0
  0
LINE
  5
976
330
1F
100
AcDbEntity
  8
Visible (ISO)
100
AcDbLine
 10
2489.531077777678
 20
2332.098163250017
 30
0.0
 11
2579.531077777678
 21
2332.098163250017
 31
0.0
  0
LINE
  5
977
330
1F
100
AcDbEntity
  8
Visible (ISO)
100
AcDbLine
 10
2579.031077777678
 20
2331.598163250017
 30
0.0
 11
2490.031077777678
 21
2331.598163250017
 31
0.0
  0
LINE
  5
978
330
1F
100
AcDbEntity
  8
Visible (ISO)
100
AcDbLine
 10
2579.031077777678
 20
2334.598163250017
 30
0.0
 11
2579.531077777678
 21
2334.098163250017
 31
0.0
  0
LINE
  5
979
330
1F
100
AcDbEntity
  8
Visible (ISO)
100
AcDbLine
 10
2490.031077777678
 20
2334.598163250017
 30
0.0
 11
2489.531077777678
 21
2334.098163250017
 31
0.0
  0
LINE
  5
97A
330
1F
100
AcDbEntity
  8
Visible (ISO)
100
AcDbLine
 10
2490.031077777678
 20
2331.598163250017
 30
0.0
 11
2489.531077777678
 21
2332.098163250017
 31
0.0
  0
LINE
  5
97B
330
1F
100
AcDbEntity
  8
Visible (ISO)
100
AcDbLine
 10
2579.031077777678
 20
2331.598163250017
 30
0.0
 11
2579.531077777678
 21
2332.098163250017
 31
0.0
  0
SPLINE
  5
97C
330
1F
100
AcDbEntity
  8
Visible (ISO)
100
AcDbSpline
210
0.0
220
0.0
230
1.0
 70
     8
 71
     3
 72
    14
 73
    10
 74
     0
 42
0.000000001
 43
0.0000000001
 40
0.0
 40
0.0
 40
0.0
 40
0.0
 40
0.0753508227474801
 40
0.0753508227474801
 40
0.1507016454949601
 40
0.1507016454949601
 40
0.226052452324966
 40
0.226052452324966
 40
0.3014032591549719
 40
0.3014032591549719
 40
0.301403259154972
 40
0.301403259154972
 10
2494.581109066801
 20
2338.098163250018
 30
0.0
 10
2494.581109066801
 20
2337.84699384086
 30
0.0
 10
2494.578496667231
 20
2337.579111398874
 30
0.0
 10
2494.569057583592
 20
2337.086365120782
 30
0.0
 10
2494.562366793475
 20
2336.861497735569
 30
0.0
 10
2494.549804397981
 20
2336.506401677227
 30
0.0
 10
2494.543117258589
 20
2336.352488445866
 30
0.0
 10
2494.533686522971
 20
2336.148368073501
 30
0.0
 10
2494.531077777678
 20
2336.098163250017
 30
0.0
 10
2494.531077777678
 20
2336.098163250017
 30
0.0
  0
SPLINE
  5
97D
330
1F
100
AcDbEntity
  8
Visible (ISO)
100
AcDbSpline
210
0.0
220
0.0
230
1.0
 70
     8
 71
     3
 72
    14
 73
    10
 74
     0
 42
0.000000001
 43
0.0000000001
 40
0.9042097774649155
 40
0.9042097774649155
 40
0.9042097774653925
 40
0.9042097774653925
 40
0.9795605842949214
 40
0.9795605842949214
 40
1.054911391124927
 40
1.054911391124927
 40
1.130262213872406
 40
1.130262213872406
 40
1.205613036619886
 40
1.205613036619886
 40
1.205613036619886
 40
1.205613036619886
 10
2494.531077777678
 20
2340.098163250017
 30
0.0
 10
2494.531077777678
 20
2340.098163250017
 30
0.0
 10
2494.533686522971
 20
2340.047958426533
 30
0.0
 10
2494.543117258589
 20
2339.84383805417
 30
0.0
 10
2494.549804397981
 20
2339.689924822809
 30
0.0
 10
2494.562366793475
 20
2339.334828764467
 30
0.0
 10
2494.569057583592
 20
2339.109961379254
 30
0.0
 10
2494.578496667231
 20
2338.617215101161
 30
0.0
 10
2494.581109066801
 20
2338.349332659177
 30
0.0
 10
2494.581109066801
 20
2338.098163250018
 30
0.0
  0
SPLINE
  5
97E
330
1F
100
AcDbEntity
  8
Visible (ISO)
100
AcDbSpline
210
0.0
220
0.0
230
1.0
 70
     8
 71
     3
 72
    14
 73
    10
 74
     0
 42
0.000000001
 43
0.0000000001
 40
0.0
 40
0.0
 40
0.0
 40
0.0
 40
0.0753508227474802
 40
0.0753508227474802
 40
0.1507016454949603
 40
0.1507016454949603
 40
0.2260524523249661
 40
0.2260524523249661
 40
0.3014032591549718
 40
0.3014032591549718
 40
0.3014032591549719
 40
0.3014032591549719
 10
2574.481046488554
 20
2338.098163250018
 30
0.0
 10
2574.481046488554
 20
2338.349332659177
 30
0.0
 10
2574.483658888125
 20
2338.617215101162
 30
0.0
 10
2574.493097971763
 20
2339.109961379255
 30
0.0
 10
2574.499788761881
 20
2339.334828764467
 30
0.0
 10
2574.512351157375
 20
2339.689924822809
 30
0.0
 10
2574.519038296767
 20
2339.84383805417
 30
0.0
 10
2574.528469032386
 20
2340.047958426534
 30
0.0
 10
2574.531077777678
 20
2340.098163250018
 30
0.0
 10
2574.531077777678
 20
2340.098163250017
 30
0.0
  0
SPLINE
  5
97F
330
1F
100
AcDbEntity
  8
Visible (ISO)
100
AcDbSpline
210
0.0
220
0.0
230
1.0
 70
     8
 71
     3
 72
    14
 73
    10
 74
     0
 42
0.000000001
 43
0.0000000001
 40
0.9042097774649155
 40
0.9042097774649155
 40
0.9042097774653919
 40
0.9042097774653919
 40
0.9795605842949214
 40
0.9795605842949214
 40
1.054911391124927
 40
1.054911391124927
 40
1.130262213872406
 40
1.130262213872406
 40
1.205613036619886
 40
1.205613036619886
 40
1.205613036619886
 40
1.205613036619886
 10
2574.531077777678
 20
2336.098163250017
 30
0.0
 10
2574.531077777678
 20
2336.098163250018
 30
0.0
 10
2574.528469032386
 20
2336.148368073502
 30
0.0
 10
2574.519038296767
 20
2336.352488445867
 30
0.0
 10
2574.512351157375
 20
2336.506401677227
 30
0.0
 10
2574.499788761881
 20
2336.861497735569
 30
0.0
 10
2574.493097971763
 20
2337.086365120782
 30
0.0
 10
2574.483658888125
 20
2337.579111398875
 30
0.0
 10
2574.481046488554
 20
2337.846993840861
 30
0.0
 10
2574.481046488554
 20
2338.098163250018
 30
0.0
  0
LINE
  5
980
330
1F
100
AcDbEntity
  8
Visible (ISO)
100
AcDbLine
 10
2494.531077777678
 20
2341.598163250017
 30
0.0
 11
2574.531077777678
 21
2341.598163250017
 31
0.0
  0
LINE
  5
981
330
1F
100
AcDbEntity
  8
Visible (ISO)
100
AcDbLine
 10
2574.531077777678
 20
2341.598163250017
 30
0.0
 11
2574.531077777678
 21
2340.098163250017
 31
0.0
  0
LINE
  5
982
330
1F
100
AcDbEntity
  8
Visible (ISO)
100
AcDbLine
 10
2574.531077777678
 20
2336.098163250017
 30
0.0
 11
2574.531077777678
 21
2334.598163250017
 31
0.0
  0
LINE
  5
983
330
1F
100
AcDbEntity
  8
Visible (ISO)
100
AcDbLine
 10
2494.531077777678
 20
2341.598163250017
 30
0.0
 11
2494.531077777678
 21
2340.098163250017
 31
0.0
  0
LINE
  5
984
330
1F
100
AcDbEntity
  8
Visible (ISO)
100
AcDbLine
 10
2494.531077777678
 20
2336.098163250017
 30
0.0
 11
2494.531077777678
 21
2334.598163250017
 31
0.0
  0
LINE
  5
985
330
1F
100
AcDbEntity
  8
Visible (ISO)
100
AcDbLine
 10
2579.531077777678
 20
2334.098163250017
 30
0.0
 11
2579.531077777678
 21
2332.098163250017
 31
0.0
  0
LINE
  5
986
330
1F
100
AcDbEntity
  8
Visible (ISO)
100
AcDbLine
 10
2489.531077777678
 20
2334.098163250017
 30
0.0
 11
2489.531077777678
 21
2332.098163250017
 31
0.0
  0
ENDSEC
  0
SECTION
  2
OBJECTS
  0
DICTIONARY
  5
C
330
0
100
AcDbDictionary
281
     1
  3
ACAD_CIP_PREVIOUS_PRODUCT_INFO
350
1A5
  3
ACAD_COLOR
350
73
  3
ACAD_DETAILVIEWSTYLE
350
1AB
  3
ACAD_GROUP
350
D
  3
ACAD_LAYOUT
350
1A
  3
ACAD_MATERIAL
350
72
  3
ACAD_MLEADERSTYLE
350
D7
  3
ACAD_MLINESTYLE
350
17
  3
ACAD_PLOTSETTINGS
350
19
  3
ACAD_PLOTSTYLENAME
350
E
  3
ACAD_SCALELIST
350
B6
  3
ACAD_SECTIONVIEWSTYLE
350
1A8
  3
ACAD_TABLESTYLE
350
86
  3
ACAD_VISUALSTYLE
350
99
  3
ACDB_RECOMPOSE_DATA
350
9B8
  3
AcDbVariableDictionary
350
66
  3
AcDsDecomposeData
350
9BE
  0
DICTIONARY
  5
18E
330
2
100
AcDbDictionary
280
     1
281
     1
  3
ACAD_LAYERSTATES
360
18F
  0
DICTIONARY
  5
E6
330
10
100
AcDbDictionary
280
     1
281
     1
  0
DICTIONARY
  5
21C
330
21B
100
AcDbDictionary
280
     1
281
     1
  0
DICTIONARY
  5
21E
330
21D
100
AcDbDictionary
280
     1
281
     1
  0
DICTIONARY
  5
15D
330
1F
100
AcDbDictionary
280
     1
281
     1
  0
XRECORD
  5
1A5
102
{ACAD_REACTORS
330
C
102
}
330
C
100
AcDbXrecord
280
     1
300
ACD
300
2020
300

  0
DICTIONARY
  5
73
102
{ACAD_REACTORS
330
C
102
}
330
C
100
AcDbDictionary
281
     1
  0
DICTIONARY
  5
1AB
102
{ACAD_REACTORS
330
C
102
}
330
C
100
AcDbDictionary
281
     1
  3
Imperial24
350
1AC
  3
Metric50
350
728
  0
DICTIONARY
  5
D
102
{ACAD_REACTORS
330
C
102
}
330
C
100
AcDbDictionary
281
     1
  0
DICTIONARY
  5
1A
102
{ACAD_REACTORS
330
C
102
}
330
C
100
AcDbDictionary
281
     1
  3
Layout1
350
59
  3
Layout2
350
5E
  3
Model
350
22
  0
DICTIONARY
  5
72
102
{ACAD_REACTORS
330
C
102
}
330
C
100
AcDbDictionary
281
     1
  3
ByBlock
350
97
  3
ByLayer
350
96
  3
Global
350
98
  0
DICTIONARY
  5
D7
102
{ACAD_REACTORS
330
C
102
}
330
C
100
AcDbDictionary
281
     1
  3
Annotative
350
E5
  3
Standard
350
D8
  0
DICTIONARY
  5
17
102
{ACAD_REACTORS
330
C
102
}
330
C
100
AcDbDictionary
281
     1
  3
Standard
350
18
  0
DICTIONARY
  5
19
102
{ACAD_REACTORS
330
C
102
}
330
C
100
AcDbDictionary
281
     1
  0
ACDBDICTIONARYWDFLT
  5
E
102
{ACAD_REACTORS
330
C
102
}
330
C
100
AcDbDictionary
281
     1
  3
Normal
350
F
100
AcDbDictionaryWithDefault
340
F
  0
DICTIONARY
  5
B6
102
{ACAD_REACTORS
330
C
102
}
330
C
100
AcDbDictionary
281
     1
  3
A0
350
B7
  3
A1
350
124
  3
A2
350
125
  3
A3
350
126
  3
A4
350
127
  3
A5
350
128
  3
A6
350
129
  3
A7
350
12A
  3
A8
350
12B
  3
A9
350
12C
  3
B0
350
12D
  3
B1
350
12E
  3
B2
350
12F
  3
B3
350
130
  3
B4
350
131
  3
B5
350
132
  3
B6
350
133
  3
B7
350
134
  3
B8
350
135
  3
B9
350
136
  3
C0
350
137
  3
C1
350
138
  3
C2
350
139
  3
C3
350
13A
  3
C4
350
13B
  3
C5
350
13C
  3
C6
350
13D
  3
C7
350
13E
  3
C8
350
13F
  3
C9
350
140
  3
D0
350
141
  3
D1
350
142
  3
D2
350
143
  0
DICTIONARY
  5
1A8
102
{ACAD_REACTORS
330
C
102
}
330
C
100
AcDbDictionary
281
     1
  3
Imperial24
350
1AA
  3
Metric50
350
727
  0
DICTIONARY
  5
86
102
{ACAD_REACTORS
330
C
102
}
330
C
100
AcDbDictionary
281
     1
  3
Standard
350
87
  0
DICTIONARY
  5
99
102
{ACAD_REACTORS
330
C
102
}
330
C
100
AcDbDictionary
281
     1
  3
2dWireframe
350
9F
  3
Basic
350
9E
  3
Brighten
350
A5
  3
ColorChange
350
A9
  3
Conceptual
350
A2
  3
Dim
350
A4
  3
EdgeColorOff
350
175
  3
Facepattern
350
A8
  3
Flat
350
9A
  3
FlatWithEdges
350
9B
  3
Gouraud
350
9C
  3
GouraudWithEdges
350
9D
  3
Hidden
350
A1
  3
JitterOff
350
173
  3
Linepattern
350
A7
  3
OverhangOff
350
174
  3
Realistic
350
A3
  3
Shaded
350
182
  3
Shaded with edges
350
181
  3
Shades of Gray
350
17E
  3
Sketchy
350
17F
  3
Thicken
350
A6
  3
Wireframe
350
A0
  3
X-Ray
350
180
  0
XRECORD
  5
9B8
102
{ACAD_REACTORS
330
C
102
}
330
C
100
AcDbXrecord
280
     1
 90
        1
330
87
  0
DICTIONARY
  5
66
102
{ACAD_REACTORS
330
C
102
}
330
C
100
AcDbDictionary
281
     1
  3
CANNOSCALE
350
F0
  3
CMLEADERSTYLE
350
EF
  3
CTABLESTYLE
350
89
  3
CVIEWDETAILSTYLE
350
1B7
  3
CVIEWSECTIONSTYLE
350
1B8
  3
DIMASSOC
350
67
  3
HIDETEXT
350
6B
  3
LAYEREVAL
350
14D
  3
LAYERNOTIFY
350
14E
  0
DICTIONARY
  5
9BE
102
{ACAD_REACTORS
330
C
102
}
330
C
100
AcDbDictionary
281
     1
  3
AcDsRecords
350
9C0
  3
AcDsSchemas
350
9BF
1001
ACAD
1070
     2
  0
DICTIONARY
  5
18F
102
{ACAD_REACTORS
330
18E
102
}
330
18E
100
AcDbDictionary
281
     1
  0
ACDBDETAILVIEWSTYLE
  5
1AC
102
{ACAD_XDICTIONARY
360
9C3
102
}
102
{ACAD_REACTORS
330
1AB
102
}
330
1AB
100
AcDbModelDocViewStyle
 70
     0
  3
Imperial24
290
     0
100
AcDbDetailViewStyle
 70
     0
 71
     0
 90
        3
 71
     1
340
11
 62
   256
 40
0.24
340
0
 62
   256
 40
0.24
300

 40
0.36
280
     3
 71
     2
340
16
 90
       25
 62
   256
 71
     3
340
11
 62
   256
 40
0.24
 90
        1
 40
0.75
 90
        1
300
%<\AcVar ViewType \f "%tc1">% %<\AcVar ViewDetailId>%\PSCALE %<\AcVar ViewScale \f "%sn">%
 71
     4
340
16
 90
       25
 62
   256
340
16
 90
       25
 62
   256
280
     0
  0
ACDBDETAILVIEWSTYLE
  5
728
102
{ACAD_XDICTIONARY
360
9C8
102
}
102
{ACAD_REACTORS
330
1AB
102
}
330
1AB
100
AcDbModelDocViewStyle
 70
     0
  3
Metric50
290
     0
100
AcDbDetailViewStyle
 70
     0
 71
     0
 90
        3
 71
     1
340
11
 62
   256
 40
5.0
340
0
 62
   256
 40
5.0
300

 40
0.0
280
     1
 71
     2
340
16
 90
       25
 62
   256
 71
     3
340
11
 62
   256
 40
5.0
 90
        0
 40
15.0
 90
        1
300
%<\AcVar ViewDetailId>% (%<\AcVar ViewScale \f "%sn">%)
 71
     4
340
16
 90
       25
 62
   256
340
16
 90
       25
 62
   256
280
     0
  0
LAYOUT
  5
59
102
{ACAD_REACTORS
330
1A
102
}
330
1A
100
AcDbPlotSettings
  1

  2
None
  4

  6

 40
0.0
 41
0.0
 42
0.0
 43
0.0
 44
0.0
 45
0.0
 46
0.0
 47
0.0
 48
0.0
 49
0.0
140
0.0
141
0.0
142
1.0
143
1.0
 70
   688
 72
     0
 73
     0
 74
     5
  7

 75
    16
147
1.0
 76
     0
 77
     2
 78
   300
148
0.0
149
0.0
100
AcDbLayout
  1
Layout1
 70
     1
 71
     1
 10
0.0
 20
0.0
 11
12.0
 21
9.0
 12
0.0
 22
0.0
 32
0.0
 14
0.0
 24
0.0
 34
0.0
 15
0.0
 25
0.0
 35
0.0
146
0.0
 13
0.0
 23
0.0
 33
0.0
 16
1.0
 26
0.0
 36
0.0
 17
0.0
 27
1.0
 37
0.0
 76
     0
330
58
  0
LAYOUT
  5
5E
102
{ACAD_REACTORS
330
1A
102
}
330
1A
100
AcDbPlotSettings
  1

  2
None
  4

  6

 40
0.0
 41
0.0
 42
0.0
 43
0.0
 44
0.0
 45
0.0
 46
0.0
 47
0.0
 48
0.0
 49
0.0
140
0.0
141
0.0
142
1.0
143
1.0
 70
   688
 72
     0
 73
     0
 74
     5
  7

 75
    16
147
1.0
 76
     0
 77
     2
 78
   300
148
0.0
149
0.0
100
AcDbLayout
  1
Layout2
 70
     1
 71
     2
 10
0.0
 20
0.0
 11
12.0
 21
9.0
 12
0.0
 22
0.0
 32
0.0
 14
0.0
 24
0.0
 34
0.0
 15
0.0
 25
0.0
 35
0.0
146
0.0
 13
0.0
 23
0.0
 33
0.0
 16
1.0
 26
0.0
 36
0.0
 17
0.0
 27
1.0
 37
0.0
 76
     0
330
5D
  0
LAYOUT
  5
22
102
{ACAD_XDICTIONARY
360
194
102
}
102
{ACAD_REACTORS
330
1A
102
}
330
1A
100
AcDbPlotSettings
  1

  2
none_device
  4
ANSI_A_(8.50_x_11.00_Inches)
  6

 40
6.349999904632568
 41
19.04999923706055
 42
6.350006103515625
 43
19.04998779296875
 44
215.8999938964844
 45
279.3999938964844
 46
0.0
 47
0.0
 48
0.0
 49
0.0
140
0.0
141
0.0
142
1.0
143
2.584895464708373
 70
 11952
 72
     0
 73
     1
 74
     0
  7

 75
     0
147
0.3868628397755418
 76
     0
 77
     2
 78
   300
148
0.0
149
0.0
100
AcDbLayout
  1
Model
 70
     1
 71
     0
 10
0.0
 20
0.0
 11
12.0
 21
9.0
 12
0.0
 22
0.0
 32
0.0
 14
0.0
 24
0.0
 34
0.0
 15
0.0
 25
0.0
 35
0.0
146
0.0
 13
0.0
 23
0.0
 33
0.0
 16
1.0
 26
0.0
 36
0.0
 17
0.0
 27
1.0
 37
0.0
 76
     0
330
1F
331
94
  0
MATERIAL
  5
97
102
{ACAD_XDICTIONARY
360
188
102
}
102
{ACAD_REACTORS
330
72
102
}
330
72
100
AcDbMaterial
  1
ByBlock
 94
       63
  0
MATERIAL
  5
96
102
{ACAD_XDICTIONARY
360
186
102
}
102
{ACAD_REACTORS
330
72
102
}
330
72
100
AcDbMaterial
  1
ByLayer
 94
       63
  0
MATERIAL
  5
98
102
{ACAD_XDICTIONARY
360
110
102
}
102
{ACAD_REACTORS
330
72
102
}
330
72
100
AcDbMaterial
  1
Global
 43
0.0208000000566244
 43
0.0
 43
0.0
 43
0.0
 43
0.0
 43
0.0208000000566244
 43
0.0
 43
0.0
 43
0.0
 43
0.0
 43
1.0
 43
0.0
 43
0.0
 43
0.0
 43
0.0
 43
1.0
 49
0.0208000000566244
 49
0.0
 49
0.0
 49
0.0
 49
0.0
 49
0.0208000000566244
 49
0.0
 49
0.0
 49
0.0
 49
0.0
 49
1.0
 49
0.0
 49
0.0
 49
0.0
 49
0.0
 49
1.0
142
0.0208000000566244
142
0.0
142
0.0
142
0.0
142
0.0
142
0.0208000000566244
142
0.0
142
0.0
142
0.0
142
0.0
142
1.0
142
0.0
142
0.0
142
0.0
142
0.0
142
1.0
144
0.0208000000566244
144
0.0
144
0.0
144
0.0
144
0.0
144
0.0208000000566244
144
0.0
144
0.0
144
0.0
144
0.0
144
1.0
144
0.0
144
0.0
144
0.0
144
0.0
144
1.0
 94
       63
1001
ACAD
1070
    -1
1070
     3
1070
     0
1000

1071
        0
1070
     0
  0
MLEADERSTYLE
  5
E5
102
{ACAD_REACTORS
330
D7
102
}
330
D7
100
AcDbMLeaderStyle
179
     2
170
     2
171
     1
172
     0
 90
        2
 40
0.0
 41
0.0
173
     1
 91
-1056964608
340
14
 92
       -2
290
     1
 42
0.09
291
     1
 43
0.36
  3
Standard
 44
0.18
300

342
11
174
     1
178
     1
175
     1
176
     0
 93
-1056964608
 45
0.18
292
     0
297
     0
 46
0.18
 94
-1056964608
 47
1.0
 49
1.0
140
1.0
293
     1
141
0.0
294
     1
177
     0
142
1.0
295
     0
296
     1
143
0.125
271
     0
272
     9
273
     9
298
     0
  0
MLEADERSTYLE
  5
D8
102
{ACAD_REACTORS
330
D7
102
}
330
D7
100
AcDbMLeaderStyle
179
     2
170
     2
171
     1
172
     0
 90
        2
 40
0.0
 41
0.0
173
     1
 91
-1056964608
340
14
 92
       -2
290
     1
 42
0.09
291
     1
 43
0.36
  3
Standard
 44
0.18
300

342
11
174
     1
178
     1
175
     1
176
     0
 93
-1056964608
 45
0.18
292
     0
297
     0
 46
0.18
 94
-1056964608
 47
1.0
 49
1.0
140
1.0
293
     1
141
0.0
294
     1
177
     0
142
1.0
295
     0
296
     0
143
0.125
271
     0
272
     9
273
     9
298
     0
  0
MLINESTYLE
  5
18
102
{ACAD_REACTORS
330
17
102
}
330
17
100
AcDbMlineStyle
  2
STANDARD
 70
     0
  3

 62
   256
 51
90.0
 52
90.0
 71
     2
 49
0.5
 62
   256
  6
BYLAYER
 49
-0.5
 62
   256
  6
BYLAYER
  0
ACDBPLACEHOLDER
  5
F
102
{ACAD_REACTORS
330
E
102
}
330
E
  0
SCALE
  5
B7
102
{ACAD_REACTORS
330
B6
102
}
330
B6
100
AcDbScale
 70
     0
300
1:1
140
1.0
141
1.0
290
     1
  0
SCALE
  5
124
102
{ACAD_REACTORS
330
B6
102
}
330
B6
100
AcDbScale
 70
     0
300
1:2
140
1.0
141
2.0
290
     0
  0
SCALE
  5
125
102
{ACAD_REACTORS
330
B6
102
}
330
B6
100
AcDbScale
 70
     0
300
1:4
140
1.0
141
4.0
290
     0
  0
SCALE
  5
126
102
{ACAD_REACTORS
330
B6
102
}
330
B6
100
AcDbScale
 70
     0
300
1:5
140
1.0
141
5.0
290
     0
  0
SCALE
  5
127
102
{ACAD_REACTORS
330
B6
102
}
330
B6
100
AcDbScale
 70
     0
300
1:8
140
1.0
141
8.0
290
     0
  0
SCALE
  5
128
102
{ACAD_REACTORS
330
B6
102
}
330
B6
100
AcDbScale
 70
     0
300
1:10
140
1.0
141
10.0
290
     0
  0
SCALE
  5
129
102
{ACAD_REACTORS
330
B6
102
}
330
B6
100
AcDbScale
 70
     0
300
1:16
140
1.0
141
16.0
290
     0
  0
SCALE
  5
12A
102
{ACAD_REACTORS
330
B6
102
}
330
B6
100
AcDbScale
 70
     0
300
1:20
140
1.0
141
20.0
290
     0
  0
SCALE
  5
12B
102
{ACAD_REACTORS
330
B6
102
}
330
B6
100
AcDbScale
 70
     0
300
1:30
140
1.0
141
30.0
290
     0
  0
SCALE
  5
12C
102
{ACAD_REACTORS
330
B6
102
}
330
B6
100
AcDbScale
 70
     0
300
1:40
140
1.0
141
40.0
290
     0
  0
SCALE
  5
12D
102
{ACAD_REACTORS
330
B6
102
}
330
B6
100
AcDbScale
 70
     0
300
1:50
140
1.0
141
50.0
290
     0
  0
SCALE
  5
12E
102
{ACAD_REACTORS
330
B6
102
}
330
B6
100
AcDbScale
 70
     0
300
1:100
140
1.0
141
100.0
290
     0
  0
SCALE
  5
12F
102
{ACAD_REACTORS
330
B6
102
}
330
B6
100
AcDbScale
 70
     0
300
2:1
140
2.0
141
1.0
290
     0
  0
SCALE
  5
130
102
{ACAD_REACTORS
330
B6
102
}
330
B6
100
AcDbScale
 70
     0
300
4:1
140
4.0
141
1.0
290
     0
  0
SCALE
  5
131
102
{ACAD_REACTORS
330
B6
102
}
330
B6
100
AcDbScale
 70
     0
300
8:1
140
8.0
141
1.0
290
     0
  0
SCALE
  5
132
102
{ACAD_REACTORS
330
B6
102
}
330
B6
100
AcDbScale
 70
     0
300
10:1
140
10.0
141
1.0
290
     0
  0
SCALE
  5
133
102
{ACAD_REACTORS
330
B6
102
}
330
B6
100
AcDbScale
 70
     0
300
100:1
140
100.0
141
1.0
290
     0
  0
SCALE
  5
134
102
{ACAD_REACTORS
330
B6
102
}
330
B6
100
AcDbScale
 70
     0
300
1/128" = 1'-0"
140
0.0078125
141
12.0
290
     0
  0
SCALE
  5
135
102
{ACAD_REACTORS
330
B6
102
}
330
B6
100
AcDbScale
 70
     0
300
1/64" = 1'-0"
140
0.015625
141
12.0
290
     0
  0
SCALE
  5
136
102
{ACAD_REACTORS
330
B6
102
}
330
B6
100
AcDbScale
 70
     0
300
1/32" = 1'-0"
140
0.03125
141
12.0
290
     0
  0
SCALE
  5
137
102
{ACAD_REACTORS
330
B6
102
}
330
B6
100
AcDbScale
 70
     0
300
1/16" = 1'-0"
140
0.0625
141
12.0
290
     0
  0
SCALE
  5
138
102
{ACAD_REACTORS
330
B6
102
}
330
B6
100
AcDbScale
 70
     0
300
3/32" = 1'-0"
140
0.09375
141
12.0
290
     0
  0
SCALE
  5
139
102
{ACAD_REACTORS
330
B6
102
}
330
B6
100
AcDbScale
 70
     0
300
1/8" = 1'-0"
140
0.125
141
12.0
290
     0
  0
SCALE
  5
13A
102
{ACAD_REACTORS
330
B6
102
}
330
B6
100
AcDbScale
 70
     0
300
3/16" = 1'-0"
140
0.1875
141
12.0
290
     0
  0
SCALE
  5
13B
102
{ACAD_REACTORS
330
B6
102
}
330
B6
100
AcDbScale
 70
     0
300
1/4" = 1'-0"
140
0.25
141
12.0
290
     0
  0
SCALE
  5
13C
102
{ACAD_REACTORS
330
B6
102
}
330
B6
100
AcDbScale
 70
     0
300
3/8" = 1'-0"
140
0.375
141
12.0
290
     0
  0
SCALE
  5
13D
102
{ACAD_REACTORS
330
B6
102
}
330
B6
100
AcDbScale
 70
     0
300
1/2" = 1'-0"
140
0.5
141
12.0
290
     0
  0
SCALE
  5
13E
102
{ACAD_REACTORS
330
B6
102
}
330
B6
100
AcDbScale
 70
     0
300
3/4" = 1'-0"
140
0.75
141
12.0
290
     0
  0
SCALE
  5
13F
102
{ACAD_REACTORS
330
B6
102
}
330
B6
100
AcDbScale
 70
     0
300
1" = 1'-0"
140
1.0
141
12.0
290
     0
  0
SCALE
  5
140
102
{ACAD_REACTORS
330
B6
102
}
330
B6
100
AcDbScale
 70
     0
300
1-1/2" = 1'-0"
140
1.5
141
12.0
290
     0
  0
SCALE
  5
141
102
{ACAD_REACTORS
330
B6
102
}
330
B6
100
AcDbScale
 70
     0
300
3" = 1'-0"
140
3.0
141
12.0
290
     0
  0
SCALE
  5
142
102
{ACAD_REACTORS
330
B6
102
}
330
B6
100
AcDbScale
 70
     0
300
6" = 1'-0"
140
6.0
141
12.0
290
     0
  0
SCALE
  5
143
102
{ACAD_REACTORS
330
B6
102
}
330
B6
100
AcDbScale
 70
     0
300
1'-0" = 1'-0"
140
12.0
141
12.0
290
     0
  0
ACDBSECTIONVIEWSTYLE
  5
1AA
102
{ACAD_XDICTIONARY
360
9C1
102
}
102
{ACAD_REACTORS
330
1A8
102
}
330
1A8
100
AcDbModelDocViewStyle
 70
     0
  3
Imperial24
290
     0
100
AcDbSectionViewStyle
 70
     0
 71
     0
 90
       78
 71
     1
340
11
 62
   256
 40
0.24
340
0
340
0
 62
   256
 40
0.24
300
I, O, Q, S, X, Z
 40
0.48
 90
        3
 40
0.18
 90
        1
 71
     2
340
16
 90
       25
 62
   256
340
16
 90
       50
 62
   256
 40
0.24
 40
0.0
 40
0.24
 71
     3
340
11
 62
   256
 40
0.24
 90
        1
 40
0.75
 90
        1
300
%<\AcVar ViewType \f "%tc1">% %<\AcVar ViewSectionStartId>%-%<\AcVar ViewSectionEndId>%\PSCALE %<\AcVar ViewScale \f "%sn">%
 71
     4
 62
   256
 62
   257
300
ANSI31
 40
1.0
 90
        0
290
     0
290
     0
 90
        6
 40
0.0
 40
1.570796326794896
 40
0.2617993877991494
 40
1.308996938995747
 40
-0.2617993877991494
 40
1.832595714594046
  0
ACDBSECTIONVIEWSTYLE
  5
727
102
{ACAD_XDICTIONARY
360
9C6
102
}
102
{ACAD_REACTORS
330
1A8
102
}
330
1A8
100
AcDbModelDocViewStyle
 70
     0
  3
Metric50
290
     0
100
AcDbSectionViewStyle
 70
     0
 71
     0
 90
      102
 71
     1
340
11
 62
   256
 40
5.0
340
0
340
0
 62
   256
 40
5.0
300
I, O, Q, S, X, Z
 40
10.0
 90
        0
 40
2.5
 90
        0
 71
     2
340
16
 90
       25
 62
   256
340
16
 90
       50
 62
   256
 40
5.0
 40
2.5
 40
5.0
 71
     3
340
11
 62
   256
 40
5.0
 90
        0
 40
15.0
 90
        1
300
%<\AcVar ViewSectionStartId>%-%<\AcVar ViewSectionEndId>% (%<\AcVar ViewScale \f "%sn">%)
 71
     4
 62
   256
 62
   257
300
ANSI31
 40
1.0
 90
        0
290
     0
290
     0
 90
        6
 40
0.0
 40
1.570796326794896
 40
0.2617993877991494
 40
1.308996938995747
 40
-0.2617993877991494
 40
1.832595714594046
  0
TABLESTYLE
  5
87
102
{ACAD_XDICTIONARY
360
104
102
}
102
{ACAD_REACTORS
330
86
102
}
330
86
100
AcDbTableStyle
280
     0
  3
Standard
 70
     0
 71
     0
 40
0.06
 41
0.06
280
     0
281
     0
  7
Standard
140
0.18
170
     2
 62
     0
 63
     7
283
     0
 90
      512
 91
        0
  1

274
    -2
284
     1
 64
     0
275
    -2
285
     1
 65
     0
276
    -2
286
     1
 66
     0
277
    -2
287
     1
 67
     0
278
    -2
288
     1
 68
     0
279
    -2
289
     1
 69
     0
  7
Standard
140
0.25
170
     5
 62
     0
 63
     7
283
     0
 90
      512
 91
        0
  1

274
    -2
284
     1
 64
     0
275
    -2
285
     1
 65
     0
276
    -2
286
     1
 66
     0
277
    -2
287
     1
 67
     0
278
    -2
288
     1
 68
     0
279
    -2
289
     1
 69
     0
  7
Standard
140
0.18
170
     5
 62
     0
 63
     7
283
     0
 90
      512
 91
        0
  1

274
    -2
284
     1
 64
     0
275
    -2
285
     1
 65
     0
276
    -2
286
     1
 66
     0
277
    -2
287
     1
 67
     0
278
    -2
288
     1
 68
     0
279
    -2
289
     1
 69
     0
  0
VISUALSTYLE
  5
9F
102
{ACAD_REACTORS
330
99
102
}
330
99
100
AcDbVisualStyle
  2
2dWireframe
 70
     4
177
     3
291
     0
 70
    58
 90
        0
176
     1
 90
        2
176
     1
 90
        1
176
     1
 90
        0
176
     1
 40
0.6
176
     1
 40
30.0
176
     1
 62
     7
420
 16777215
176
     1
 90
        1
176
     1
 90
        4
176
     1
 62
     7
176
     1
 62
   257
176
     1
 90
        1
176
     1
 90
        1
176
     1
 40
1.0
176
     1
 90
        0
176
     1
 62
   257
176
     1
 40
1.0
176
     1
 90
        1
176
     1
 90
        6
176
     1
 90
        2
176
     1
 62
     7
176
     1
 90
        5
176
     1
 90
        0
176
     1
 90
        0
176
     1
290
     0
176
     1
 90
        1
176
     1
 40
0.0
176
     1
 90
        0
176
     1
290
     1
176
     1
290
     1
176
     1
290
     0
176
     1
290
     0
176
     1
290
     0
176
     1
290
     0
176
     1
290
     0
176
     1
290
     0
176
     1
290
     0
176
     1
 90
       50
176
     1
 40
0.0
176
     1
 40
1.0
176
     1
 90
        0
176
     1
 62
    18
420
        0
176
     1
 90
       50
176
     1
 90
        3
176
     1
 62
     5
420
      255
176
     1
290
     0
176
     1
 90
       50
176
     1
 90
       50
176
     1
 90
       50
176
     1
290
     0
176
     1
 90
       50
176
     1
 62
   256
176
     0
 40
1.0
176
     0
 90
        2
176
     1
  1
strokes_ogs.tif
176
     1
290
     0
176
     1
 40
1.0
176
     1
 40
1.0
176
     1
1001
ACAD
1000
AcDbSavedByObjectVersion
1070
     0
  0
VISUALSTYLE
  5
9E
102
{ACAD_REACTORS
330
99
102
}
330
99
100
AcDbVisualStyle
  2
Basic
 70
     7
177
     3
291
     1
 70
    58
 90
        1
176
     1
 90
        0
176
     1
 90
        1
176
     1
 90
        0
176
     1
 40
0.6
176
     1
 40
30.0
176
     1
 62
     7
420
 16777215
176
     1
 90
        0
176
     1
 90
        4
176
     1
 62
     7
176
     1
 62
   257
176
     1
 90
        1
176
     1
 90
        1
176
     1
 40
1.0
176
     1
 90
        8
176
     1
 62
     7
176
     1
 40
1.0
176
     1
 90
        1
176
     1
 90
        6
176
     1
 90
        2
176
     1
 62
     7
176
     1
 90
        5
176
     1
 90
        0
176
     1
 90
        0
176
     1
290
     0
176
     1
 90
        1
176
     1
 40
0.0
176
     1
 90
        0
176
     1
290
     0
176
     1
290
     1
176
     1
290
     1
176
     1
290
     0
176
     1
290
     0
176
     1
290
     0
176
     1
290
     0
176
     1
290
     0
176
     1
290
     0
176
     1
 90
       50
176
     1
 40
0.0
176
     1
 40
1.0
176
     1
 90
        0
176
     1
 62
    18
420
        0
176
     1
 90
       50
176
     1
 90
        3
176
     1
 62
     5
420
      255
176
     1
290
     0
176
     1
 90
       50
176
     1
 90
       50
176
     1
 90
       50
176
     1
290
     0
176
     1
 90
       50
176
     1
 62
   256
176
     0
 40
1.0
176
     0
 90
        2
176
     1
  1
strokes_ogs.tif
176
     1
290
     0
176
     1
 40
1.0
176
     1
 40
1.0
176
     1
1001
ACAD
1000
AcDbSavedByObjectVersion
1070
     0
  0
VISUALSTYLE
  5
A5
102
{ACAD_REACTORS
330
99
102
}
330
99
100
AcDbVisualStyle
  2
Brighten
 70
    12
177
     3
291
     1
 70
    58
 90
        2
176
     1
 90
        2
176
     1
 90
        1
176
     1
 90
        0
176
     1
 40
0.6
176
     1
 40
30.0
176
     1
 62
     7
420
 16777215
176
     1
 90
        1
176
     1
 90
        4
176
     1
 62
     7
176
     1
 62
   257
176
     1
 90
        1
176
     1
 90
        1
176
     1
 40
1.0
176
     1
 90
        8
176
     1
 62
     7
176
     1
 40
1.0
176
     1
 90
        1
176
     1
 90
        6
176
     1
 90
        2
176
     1
 62
     7
176
     1
 90
        5
176
     1
 90
        0
176
     1
 90
        0
176
     1
290
     0
176
     1
 90
        1
176
     1
 40
50.0
176
     1
 90
        0
176
     1
290
     0
176
     1
290
     1
176
     1
290
     1
176
     1
290
     0
176
     1
290
     0
176
     1
290
     0
176
     1
290
     0
176
     1
290
     0
176
     1
290
     0
176
     1
 90
       50
176
     1
 40
0.0
176
     1
 40
1.0
176
     1
 90
        0
176
     1
 62
    18
420
        0
176
     1
 90
       50
176
     1
 90
        3
176
     1
 62
     5
420
      255
176
     1
290
     0
176
     1
 90
       50
176
     1
 90
       50
176
     1
 90
       50
176
     1
290
     0
176
     1
 90
       50
176
     1
 62
   256
176
     0
 40
1.0
176
     0
 90
        2
176
     1
  1
strokes_ogs.tif
176
     1
290
     0
176
     1
 40
1.0
176
     1
 40
1.0
176
     1
1001
ACAD
1000
AcDbSavedByObjectVersion
1070
     0
  0
VISUALSTYLE
  5
A9
102
{ACAD_REACTORS
330
99
102
}
330
99
100
AcDbVisualStyle
  2
ColorChange
 70
    16
177
     3
291
     1
 70
    58
 90
        2
176
     1
 90
        2
176
     1
 90
        3
176
     1
 90
        0
176
     1
 40
0.6
176
     1
 40
30.0
176
     1
 62
     8
420
  8421504
176
     1
 90
        1
176
     1
 90
        4
176
     1
 62
     7
176
     1
 62
   257
176
     1
 90
        1
176
     1
 90
        1
176
     1
 40
1.0
176
     1
 90
        8
176
     1
 62
     8
420
  8421504
176
     1
 40
1.0
176
     1
 90
        1
176
     1
 90
        6
176
     1
 90
        2
176
     1
 62
     7
176
     1
 90
        5
176
     1
 90
        0
176
     1
 90
        0
176
     1
290
     0
176
     1
 90
        1
176
     1
 40
0.0
176
     1
 90
        0
176
     1
290
     0
176
     1
290
     1
176
     1
290
     1
176
     1
290
     0
176
     1
290
     0
176
     1
290
     0
176
     1
290
     0
176
     1
290
     0
176
     1
290
     0
176
     1
 90
       50
176
     1
 40
0.0
176
     1
 40
1.0
176
     1
 90
        0
176
     1
 62
    18
420
        0
176
     1
 90
       50
176
     1
 90
        3
176
     1
 62
     5
420
      255
176
     1
290
     0
176
     1
 90
       50
176
     1
 90
       50
176
     1
 90
       50
176
     1
290
     0
176
     1
 90
       50
176
     1
 62
   256
176
     0
 40
1.0
176
     0
 90
        2
176
     1
  1
strokes_ogs.tif
176
     1
290
     0
176
     1
 40
1.0
176
     1
 40
1.0
176
     1
1001
ACAD
1000
AcDbSavedByObjectVersion
1070
     0
  0
VISUALSTYLE
  5
A2
102
{ACAD_REACTORS
330
99
102
}
330
99
100
AcDbVisualStyle
  2
Conceptual
 70
     9
177
     3
291
     0
 70
    58
 90
        3
176
     1
 90
        2
176
     1
 90
        1
176
     1
 90
        0
176
     1
 40
0.6
176
     1
 40
30.0
176
     1
 62
     7
420
 16777215
176
     1
 90
        2
176
     1
 90
        2
176
     1
 62
     7
176
     1
 62
   257
176
     1
 90
        1
176
     1
 90
        1
176
     1
 40
40.0
176
     1
 90
        8
176
     1
 62
     7
176
     1
 40
1.0
176
     1
 90
        1
176
     1
 90
        6
176
     1
 90
        2
176
     1
 62
     7
176
     1
 90
        3
176
     1
 90
        0
176
     1
 90
        0
176
     1
290
     0
176
     1
 90
        1
176
     1
 40
0.0
176
     1
 90
        0
176
     1
290
     0
176
     1
290
     1
176
     1
290
     1
176
     1
290
     0
176
     1
290
     0
176
     1
290
     0
176
     1
290
     0
176
     1
290
     0
176
     1
290
     0
176
     1
 90
       50
176
     1
 40
0.0
176
     1
 40
1.0
176
     1
 90
        0
176
     1
 62
    18
420
        0
176
     1
 90
       50
176
     1
 90
        3
176
     1
 62
     5
420
      255
176
     1
290
     0
176
     1
 90
       50
176
     1
 90
       50
176
     1
 90
       50
176
     1
290
     0
176
     1
 90
       50
176
     1
 62
   256
176
     0
 40
1.0
176
     0
 90
        2
176
     1
  1
strokes_ogs.tif
176
     1
290
     0
176
     1
 40
1.0
176
     1
 40
1.0
176
     1
1001
ACAD
1000
AcDbSavedByObjectVersion
1070
     0
  0
VISUALSTYLE
  5
A4
102
{ACAD_REACTORS
330
99
102
}
330
99
100
AcDbVisualStyle
  2
Dim
 70
    11
177
     3
291
     1
 70
    58
 90
        2
176
     1
 90
        2
176
     1
 90
        1
176
     1
 90
        0
176
     1
 40
0.6
176
     1
 40
30.0
176
     1
 62
     7
420
 16777215
176
     1
 90
        1
176
     1
 90
        4
176
     1
 62
     7
176
     1
 62
   257
176
     1
 90
        1
176
     1
 90
        1
176
     1
 40
1.0
176
     1
 90
        8
176
     1
 62
     7
176
     1
 40
1.0
176
     1
 90
        1
176
     1
 90
        6
176
     1
 90
        2
176
     1
 62
     7
176
     1
 90
        5
176
     1
 90
        0
176
     1
 90
        0
176
     1
290
     0
176
     1
 90
        1
176
     1
 40
-50.0
176
     1
 90
        0
176
     1
290
     0
176
     1
290
     1
176
     1
290
     1
176
     1
290
     0
176
     1
290
     0
176
     1
290
     0
176
     1
290
     0
176
     1
290
     0
176
     1
290
     0
176
     1
 90
       50
176
     1
 40
0.0
176
     1
 40
1.0
176
     1
 90
        0
176
     1
 62
    18
420
        0
176
     1
 90
       50
176
     1
 90
        3
176
     1
 62
     5
420
      255
176
     1
290
     0
176
     1
 90
       50
176
     1
 90
       50
176
     1
 90
       50
176
     1
290
     0
176
     1
 90
       50
176
     1
 62
   256
176
     0
 40
1.0
176
     0
 90
        2
176
     1
  1
strokes_ogs.tif
176
     1
290
     0
176
     1
 40
1.0
176
     1
 40
1.0
176
     1
1001
ACAD
1000
AcDbSavedByObjectVersion
1070
     0
  0
VISUALSTYLE
  5
175
102
{ACAD_REACTORS
330
99
102
}
330
99
100
AcDbVisualStyle
  2
EdgeColorOff
 70
    22
177
     3
291
     1
 70
    58
 90
        2
176
     0
 90
        2
176
     0
 90
        0
176
     0
 90
        0
176
     0
 40
0.6
176
     0
 40
30.0
176
     0
 62
     7
420
 16777215
176
     0
 90
        1
176
     0
 90
        4
176
     0
 62
     7
176
     0
 62
   257
176
     0
 90
        1
176
     0
 90
        1
176
     0
 40
1.0
176
     0
 90
        8
176
     2
 62
     7
176
     0
 40
1.0
176
     0
 90
        1
176
     0
 90
        6
176
     0
 90
        2
176
     0
 62
     7
176
     0
 90
        5
176
     0
 90
        0
176
     0
 90
        0
176
     0
290
     0
176
     0
 90
        1
176
     0
 40
0.0
176
     0
 90
        0
176
     0
290
     0
176
     1
290
     1
176
     1
290
     1
176
     1
290
     0
176
     1
290
     0
176
     1
290
     0
176
     1
290
     0
176
     1
290
     0
176
     1
290
     0
176
     1
 90
       50
176
     1
 40
0.0
176
     1
 40
1.0
176
     1
 90
        0
176
     1
 62
    18
420
        0
176
     1
 90
       50
176
     1
 90
        3
176
     1
 62
     5
420
      255
176
     1
290
     0
176
     1
 90
       50
176
     1
 90
       50
176
     1
 90
       50
176
     1
290
     0
176
     1
 90
       50
176
     1
 62
   256
176
     0
 40
1.0
176
     0
 90
        2
176
     1
  1
strokes_ogs.tif
176
     1
290
     0
176
     1
 40
1.0
176
     1
 40
1.0
176
     1
1001
ACAD
1000
AcDbSavedByObjectVersion
1070
     0
  0
VISUALSTYLE
  5
A8
102
{ACAD_REACTORS
330
99
102
}
330
99
100
AcDbVisualStyle
  2
Facepattern
 70
    15
177
     3
291
     1
 70
    58
 90
        2
176
     1
 90
        2
176
     1
 90
        1
176
     1
 90
        0
176
     1
 40
0.6
176
     1
 40
30.0
176
     1
 62
     7
420
 16777215
176
     1
 90
        1
176
     1
 90
        4
176
     1
 62
     7
176
     1
 62
   257
176
     1
 90
        1
176
     1
 90
        1
176
     1
 40
1.0
176
     1
 90
        8
176
     1
 62
     7
176
     1
 40
1.0
176
     1
 90
        1
176
     1
 90
        6
176
     1
 90
        2
176
     1
 62
     7
176
     1
 90
        5
176
     1
 90
        0
176
     1
 90
        0
176
     1
290
     0
176
     1
 90
        1
176
     1
 40
0.0
176
     1
 90
        0
176
     1
290
     0
176
     1
290
     1
176
     1
290
     1
176
     1
290
     0
176
     1
290
     0
176
     1
290
     0
176
     1
290
     0
176
     1
290
     0
176
     1
290
     0
176
     1
 90
       50
176
     1
 40
0.0
176
     1
 40
1.0
176
     1
 90
        0
176
     1
 62
    18
420
        0
176
     1
 90
       50
176
     1
 90
        3
176
     1
 62
     5
420
      255
176
     1
290
     0
176
     1
 90
       50
176
     1
 90
       50
176
     1
 90
       50
176
     1
290
     0
176
     1
 90
       50
176
     1
 62
   256
176
     0
 40
1.0
176
     0
 90
        2
176
     1
  1
strokes_ogs.tif
176
     1
290
     0
176
     1
 40
1.0
176
     1
 40
1.0
176
     1
1001
ACAD
1000
AcDbSavedByObjectVersion
1070
     0
  0
VISUALSTYLE
  5
9A
102
{ACAD_REACTORS
330
99
102
}
330
99
100
AcDbVisualStyle
  2
Flat
 70
     0
177
     3
291
     1
 70
    58
 90
        2
176
     1
 90
        1
176
     1
 90
        1
176
     1
 90
        2
176
     1
 40
0.6
176
     1
 40
30.0
176
     1
 62
     7
420
 16777215
176
     1
 90
        0
176
     1
 90
        0
176
     1
 62
     7
176
     1
 62
   257
176
     1
 90
        1
176
     1
 90
        1
176
     1
 40
1.0
176
     1
 90
        8
176
     1
 62
     7
176
     1
 40
1.0
176
     1
 90
        1
176
     1
 90
        6
176
     1
 90
        2
176
     1
 62
     7
176
     1
 90
        5
176
     1
 90
        0
176
     1
 90
        0
176
     1
290
     0
176
     1
 90
       13
176
     1
 40
0.0
176
     1
 90
        0
176
     1
290
     0
176
     1
290
     1
176
     1
290
     1
176
     1
290
     0
176
     1
290
     0
176
     1
290
     0
176
     1
290
     0
176
     1
290
     0
176
     1
290
     0
176
     1
 90
       50
176
     1
 40
0.0
176
     1
 40
1.0
176
     1
 90
        0
176
     1
 62
    18
420
        0
176
     1
 90
       50
176
     1
 90
        3
176
     1
 62
     5
420
      255
176
     1
290
     0
176
     1
 90
       50
176
     1
 90
       50
176
     1
 90
       50
176
     1
290
     0
176
     1
 90
       50
176
     1
 62
   256
176
     0
 40
1.0
176
     0
 90
        2
176
     1
  1
strokes_ogs.tif
176
     1
290
     0
176
     1
 40
1.0
176
     1
 40
1.0
176
     1
1001
ACAD
1000
AcDbSavedByObjectVersion
1070
     0
  0
VISUALSTYLE
  5
9B
102
{ACAD_REACTORS
330
99
102
}
330
99
100
AcDbVisualStyle
  2
FlatWithEdges
 70
     1
177
     3
291
     1
 70
    58
 90
        2
176
     1
 90
        1
176
     1
 90
        1
176
     1
 90
        2
176
     1
 40
0.6
176
     1
 40
30.0
176
     1
 62
     7
420
 16777215
176
     1
 90
        1
176
     1
 90
        0
176
     1
 62
     7
176
     1
 62
   257
176
     1
 90
        1
176
     1
 90
        1
176
     1
 40
1.0
176
     1
 90
        0
176
     1
 62
   257
176
     1
 40
1.0
176
     1
 90
        1
176
     1
 90
        6
176
     1
 90
        2
176
     1
 62
     7
176
     1
 90
        5
176
     1
 90
        0
176
     1
 90
        0
176
     1
290
     0
176
     1
 90
       13
176
     1
 40
0.0
176
     1
 90
        0
176
     1
290
     0
176
     1
290
     1
176
     1
290
     1
176
     1
290
     0
176
     1
290
     0
176
     1
290
     0
176
     1
290
     0
176
     1
290
     0
176
     1
290
     0
176
     1
 90
       50
176
     1
 40
0.0
176
     1
 40
1.0
176
     1
 90
        0
176
     1
 62
    18
420
        0
176
     1
 90
       50
176
     1
 90
        3
176
     1
 62
     5
420
      255
176
     1
290
     0
176
     1
 90
       50
176
     1
 90
       50
176
     1
 90
       50
176
     1
290
     0
176
     1
 90
       50
176
     1
 62
   256
176
     0
 40
1.0
176
     0
 90
        2
176
     1
  1
strokes_ogs.tif
176
     1
290
     0
176
     1
 40
1.0
176
     1
 40
1.0
176
     1
1001
ACAD
1000
AcDbSavedByObjectVersion
1070
     0
  0
VISUALSTYLE
  5
9C
102
{ACAD_REACTORS
330
99
102
}
330
99
100
AcDbVisualStyle
  2
Gouraud
 70
     2
177
     3
291
     1
 70
    58
 90
        2
176
     1
 90
        2
176
     1
 90
        1
176
     1
 90
        2
176
     1
 40
0.6
176
     1
 40
30.0
176
     1
 62
     7
420
 16777215
176
     1
 90
        0
176
     1
 90
        0
176
     1
 62
     7
176
     1
 62
   257
176
     1
 90
        1
176
     1
 90
        1
176
     1
 40
1.0
176
     1
 90
        0
176
     1
 62
     7
176
     1
 40
1.0
176
     1
 90
        1
176
     1
 90
        6
176
     1
 90
        2
176
     1
 62
     7
176
     1
 90
        5
176
     1
 90
        0
176
     1
 90
        0
176
     1
290
     0
176
     1
 90
       13
176
     1
 40
0.0
176
     1
 90
        0
176
     1
290
     0
176
     1
290
     1
176
     1
290
     1
176
     1
290
     0
176
     1
290
     0
176
     1
290
     0
176
     1
290
     0
176
     1
290
     0
176
     1
290
     0
176
     1
 90
       50
176
     1
 40
0.0
176
     1
 40
1.0
176
     1
 90
        0
176
     1
 62
    18
420
        0
176
     1
 90
       50
176
     1
 90
        3
176
     1
 62
     5
420
      255
176
     1
290
     0
176
     1
 90
       50
176
     1
 90
       50
176
     1
 90
       50
176
     1
290
     0
176
     1
 90
       50
176
     1
 62
   256
176
     0
 40
1.0
176
     0
 90
        2
176
     1
  1
strokes_ogs.tif
176
     1
290
     0
176
     1
 40
1.0
176
     1
 40
1.0
176
     1
1001
ACAD
1000
AcDbSavedByObjectVersion
1070
     0
  0
VISUALSTYLE
  5
9D
102
{ACAD_REACTORS
330
99
102
}
330
99
100
AcDbVisualStyle
  2
GouraudWithEdges
 70
     3
177
     3
291
     1
 70
    58
 90
        2
176
     1
 90
        2
176
     1
 90
        1
176
     1
 90
        2
176
     1
 40
0.6
176
     1
 40
30.0
176
     1
 62
     7
420
 16777215
176
     1
 90
        1
176
     1
 90
        0
176
     1
 62
     7
176
     1
 62
   257
176
     1
 90
        1
176
     1
 90
        1
176
     1
 40
1.0
176
     1
 90
        0
176
     1
 62
   257
176
     1
 40
1.0
176
     1
 90
        1
176
     1
 90
        6
176
     1
 90
        2
176
     1
 62
     7
176
     1
 90
        5
176
     1
 90
        0
176
     1
 90
        0
176
     1
290
     0
176
     1
 90
       13
176
     1
 40
0.0
176
     1
 90
        0
176
     1
290
     0
176
     1
290
     1
176
     1
290
     1
176
     1
290
     0
176
     1
290
     0
176
     1
290
     0
176
     1
290
     0
176
     1
290
     0
176
     1
290
     0
176
     1
 90
       50
176
     1
 40
0.0
176
     1
 40
1.0
176
     1
 90
        0
176
     1
 62
    18
420
        0
176
     1
 90
       50
176
     1
 90
        3
176
     1
 62
     5
420
      255
176
     1
290
     0
176
     1
 90
       50
176
     1
 90
       50
176
     1
 90
       50
176
     1
290
     0
176
     1
 90
       50
176
     1
 62
   256
176
     0
 40
1.0
176
     0
 90
        2
176
     1
  1
strokes_ogs.tif
176
     1
290
     0
176
     1
 40
1.0
176
     1
 40
1.0
176
     1
1001
ACAD
1000
AcDbSavedByObjectVersion
1070
     0
  0
VISUALSTYLE
  5
A1
102
{ACAD_REACTORS
330
99
102
}
330
99
100
AcDbVisualStyle
  2
Hidden
 70
     6
177
     3
291
     0
 70
    58
 90
        1
176
     1
 90
        2
176
     1
 90
        2
176
     1
 90
        0
176
     1
 40
0.6
176
     1
 40
30.0
176
     1
 62
     7
420
 16777215
176
     1
 90
        2
176
     1
 90
        2
176
     1
 62
     7
176
     1
 62
   257
176
     1
 90
        2
176
     1
 90
        1
176
     1
 40
40.0
176
     1
 90
        0
176
     1
 62
   257
176
     1
 40
1.0
176
     1
 90
        1
176
     1
 90
        6
176
     1
 90
        2
176
     1
 62
     7
176
     1
 90
        3
176
     1
 90
        0
176
     1
 90
        0
176
     1
290
     0
176
     1
 90
        1
176
     1
 40
0.0
176
     1
 90
        0
176
     1
290
     0
176
     1
290
     1
176
     1
290
     1
176
     1
290
     0
176
     1
290
     0
176
     1
290
     0
176
     1
290
     0
176
     1
290
     0
176
     1
290
     0
176
     1
 90
       50
176
     1
 40
0.0
176
     1
 40
1.0
176
     1
 90
        0
176
     1
 62
    18
420
        0
176
     1
 90
       50
176
     1
 90
        3
176
     1
 62
     5
420
      255
176
     1
290
     0
176
     1
 90
       50
176
     1
 90
       50
176
     1
 90
       50
176
     1
290
     0
176
     1
 90
       50
176
     1
 62
   256
176
     0
 40
1.0
176
     0
 90
        2
176
     1
  1
strokes_ogs.tif
176
     1
290
     0
176
     1
 40
1.0
176
     1
 40
1.0
176
     1
1001
ACAD
1000
AcDbSavedByObjectVersion
1070
     0
  0
VISUALSTYLE
  5
173
102
{ACAD_REACTORS
330
99
102
}
330
99
100
AcDbVisualStyle
  2
JitterOff
 70
    20
177
     3
291
     1
 70
    58
 90
        2
176
     0
 90
        2
176
     0
 90
        0
176
     0
 90
        0
176
     0
 40
0.6
176
     0
 40
30.0
176
     0
 62
     7
420
 16777215
176
     0
 90
        1
176
     0
 90
        4
176
     0
 62
     7
176
     0
 62
   257
176
     0
 90
        1
176
     0
 90
        1
176
     0
 40
1.0
176
     0
 90
       10
176
     2
 62
     7
176
     0
 40
1.0
176
     0
 90
        1
176
     0
 90
        6
176
     0
 90
        2
176
     0
 62
     7
176
     0
 90
        5
176
     0
 90
        0
176
     0
 90
        0
176
     0
290
     0
176
     0
 90
        1
176
     0
 40
0.0
176
     0
 90
        0
176
     0
290
     0
176
     1
290
     1
176
     1
290
     1
176
     1
290
     0
176
     1
290
     0
176
     1
290
     0
176
     1
290
     0
176
     1
290
     0
176
     1
290
     0
176
     1
 90
       50
176
     1
 40
0.0
176
     1
 40
1.0
176
     1
 90
        0
176
     1
 62
    18
420
        0
176
     1
 90
       50
176
     1
 90
        3
176
     1
 62
     5
420
      255
176
     1
290
     0
176
     1
 90
       50
176
     1
 90
       50
176
     1
 90
       50
176
     1
290
     0
176
     1
 90
       50
176
     1
 62
   256
176
     0
 40
1.0
176
     0
 90
        2
176
     1
  1
strokes_ogs.tif
176
     1
290
     0
176
     1
 40
1.0
176
     1
 40
1.0
176
     1
1001
ACAD
1000
AcDbSavedByObjectVersion
1070
     0
  0
VISUALSTYLE
  5
A7
102
{ACAD_REACTORS
330
99
102
}
330
99
100
AcDbVisualStyle
  2
Linepattern
 70
    14
177
     3
291
     1
 70
    58
 90
        2
176
     1
 90
        2
176
     1
 90
        1
176
     1
 90
        0
176
     1
 40
0.6
176
     1
 40
30.0
176
     1
 62
     7
420
 16777215
176
     1
 90
        1
176
     1
 90
        4
176
     1
 62
     7
176
     1
 62
   257
176
     1
 90
        7
176
     1
 90
        7
176
     1
 40
1.0
176
     1
 90
        8
176
     1
 62
     7
176
     1
 40
1.0
176
     1
 90
        1
176
     1
 90
        6
176
     1
 90
        2
176
     1
 62
     7
176
     1
 90
        5
176
     1
 90
        0
176
     1
 90
        0
176
     1
290
     0
176
     1
 90
        1
176
     1
 40
0.0
176
     1
 90
        0
176
     1
290
     0
176
     1
290
     1
176
     1
290
     1
176
     1
290
     0
176
     1
290
     0
176
     1
290
     0
176
     1
290
     0
176
     1
290
     0
176
     1
290
     0
176
     1
 90
       50
176
     1
 40
0.0
176
     1
 40
1.0
176
     1
 90
        0
176
     1
 62
    18
420
        0
176
     1
 90
       50
176
     1
 90
        3
176
     1
 62
     5
420
      255
176
     1
290
     0
176
     1
 90
       50
176
     1
 90
       50
176
     1
 90
       50
176
     1
290
     0
176
     1
 90
       50
176
     1
 62
   256
176
     0
 40
1.0
176
     0
 90
        2
176
     1
  1
strokes_ogs.tif
176
     1
290
     0
176
     1
 40
1.0
176
     1
 40
1.0
176
     1
1001
ACAD
1000
AcDbSavedByObjectVersion
1070
     0
  0
VISUALSTYLE
  5
174
102
{ACAD_REACTORS
330
99
102
}
330
99
100
AcDbVisualStyle
  2
OverhangOff
 70
    21
177
     3
291
     1
 70
    58
 90
        2
176
     0
 90
        2
176
     0
 90
        0
176
     0
 90
        0
176
     0
 40
0.6
176
     0
 40
30.0
176
     0
 62
     7
420
 16777215
176
     0
 90
        1
176
     0
 90
        4
176
     0
 62
     7
176
     0
 62
   257
176
     0
 90
        1
176
     0
 90
        1
176
     0
 40
1.0
176
     0
 90
        9
176
     2
 62
     7
176
     0
 40
1.0
176
     0
 90
        1
176
     0
 90
        6
176
     0
 90
        2
176
     0
 62
     7
176
     0
 90
        5
176
     0
 90
        0
176
     0
 90
        0
176
     0
290
     0
176
     0
 90
        1
176
     0
 40
0.0
176
     0
 90
        0
176
     0
290
     0
176
     1
290
     1
176
     1
290
     1
176
     1
290
     0
176
     1
290
     0
176
     1
290
     0
176
     1
290
     0
176
     1
290
     0
176
     1
290
     0
176
     1
 90
       50
176
     1
 40
0.0
176
     1
 40
1.0
176
     1
 90
        0
176
     1
 62
    18
420
        0
176
     1
 90
       50
176
     1
 90
        3
176
     1
 62
     5
420
      255
176
     1
290
     0
176
     1
 90
       50
176
     1
 90
       50
176
     1
 90
       50
176
     1
290
     0
176
     1
 90
       50
176
     1
 62
   256
176
     0
 40
1.0
176
     0
 90
        2
176
     1
  1
strokes_ogs.tif
176
     1
290
     0
176
     1
 40
1.0
176
     1
 40
1.0
176
     1
1001
ACAD
1000
AcDbSavedByObjectVersion
1070
     0
  0
VISUALSTYLE
  5
A3
102
{ACAD_REACTORS
330
99
102
}
330
99
100
AcDbVisualStyle
  2
Realistic
 70
     8
177
     3
291
     0
 70
    58
 90
        2
176
     1
 90
        3
176
     1
 90
        0
176
     1
 90
        2
176
     1
 40
0.6
176
     1
 40
30.0
176
     1
 62
     7
420
 16777215
176
     1
 90
        0
176
     1
 90
        0
176
     1
 62
     7
176
     1
 62
   257
176
     1
 90
        1
176
     1
 90
        1
176
     1
 40
1.0
176
     1
 90
        8
176
     1
 62
   257
176
     1
 40
1.0
176
     1
 90
        1
176
     1
 90
        6
176
     1
 90
        2
176
     1
 62
     7
176
     1
 90
        3
176
     1
 90
        0
176
     1
 90
        0
176
     1
290
     0
176
     1
 90
       13
176
     1
 40
0.0
176
     1
 90
        0
176
     1
290
     0
176
     1
290
     1
176
     1
290
     1
176
     1
290
     0
176
     1
290
     0
176
     1
290
     0
176
     1
290
     0
176
     1
290
     0
176
     1
290
     0
176
     1
 90
       50
176
     1
 40
0.0
176
     1
 40
1.0
176
     1
 90
        0
176
     1
 62
    18
420
        0
176
     1
 90
       50
176
     1
 90
        3
176
     1
 62
     5
420
      255
176
     1
290
     0
176
     1
 90
       50
176
     1
 90
       50
176
     1
 90
       50
176
     1
290
     0
176
     1
 90
       50
176
     1
 62
   256
176
     0
 40
1.0
176
     0
 90
        2
176
     1
  1
strokes_ogs.tif
176
     1
290
     0
176
     1
 40
1.0
176
     1
 40
1.0
176
     1
1001
ACAD
1000
AcDbSavedByObjectVersion
1070
     0
  0
VISUALSTYLE
  5
182
102
{ACAD_REACTORS
330
99
102
}
330
99
100
AcDbVisualStyle
  2
Shaded
 70
    27
177
     3
291
     0
 70
    58
 90
        2
176
     1
 90
        2
176
     1
 90
        1
176
     1
 90
        2
176
     1
 40
0.6
176
     1
 40
30.0
176
     1
 62
     7
420
 16777215
176
     1
 90
        0
176
     1
 90
        4
176
     1
 62
     7
176
     1
 62
   257
176
     1
 90
        1
176
     1
 90
        1
176
     1
 40
1.0
176
     1
 90
        8
176
     1
 62
   257
176
     1
 40
1.0
176
     1
 90
        1
176
     1
 90
        6
176
     1
 90
        2
176
     1
 62
     8
420
  7895160
176
     1
 90
        3
176
     1
 90
        0
176
     1
 90
        0
176
     1
290
     0
176
     1
 90
        5
176
     1
 40
0.0
176
     1
 90
        0
176
     1
290
     0
176
     1
290
     1
176
     1
290
     1
176
     1
290
     0
176
     1
290
     0
176
     1
290
     0
176
     1
290
     0
176
     1
290
     0
176
     1
290
     0
176
     1
 90
       50
176
     1
 40
0.0
176
     1
 40
1.0
176
     1
 90
        0
176
     1
 62
    18
420
        0
176
     1
 90
       50
176
     1
 90
        3
176
     1
 62
     5
420
      255
176
     1
290
     0
176
     1
 90
       50
176
     1
 90
       50
176
     1
 90
       50
176
     1
290
     0
176
     1
 90
       50
176
     1
 62
   256
176
     0
 40
1.0
176
     0
 90
        2
176
     1
  1
strokes_ogs.tif
176
     1
290
     0
176
     1
 40
1.0
176
     1
 40
1.0
176
     1
1001
ACAD
1000
AcDbSavedByObjectVersion
1070
     0
  0
VISUALSTYLE
  5
181
102
{ACAD_REACTORS
330
99
102
}
330
99
100
AcDbVisualStyle
  2
Shaded with edges
 70
    26
177
     3
291
     0
 70
    58
 90
        2
176
     1
 90
        2
176
     1
 90
        1
176
     1
 90
        2
176
     1
 40
0.6
176
     1
 40
30.0
176
     1
 62
     7
420
 16777215
176
     1
 90
        1
176
     1
 90
        2
176
     1
 62
     7
176
     1
 62
   257
176
     1
 90
        2
176
     1
 90
        1
176
     1
 40
1.0
176
     1
 90
        8
176
     1
 62
   257
176
     1
 40
1.0
176
     1
 90
        1
176
     1
 90
        6
176
     1
 90
        2
176
     1
 62
     7
176
     1
 90
        3
176
     1
 90
        0
176
     1
 90
        0
176
     1
290
     0
176
     1
 90
        5
176
     1
 40
0.0
176
     1
 90
        0
176
     1
290
     0
176
     1
290
     1
176
     1
290
     1
176
     1
290
     0
176
     1
290
     0
176
     1
290
     0
176
     1
290
     0
176
     1
290
     0
176
     1
290
     0
176
     1
 90
       50
176
     1
 40
0.0
176
     1
 40
1.0
176
     1
 90
        0
176
     1
 62
    18
420
        0
176
     1
 90
       50
176
     1
 90
        3
176
     1
 62
     5
420
      255
176
     1
290
     0
176
     1
 90
       50
176
     1
 90
       50
176
     1
 90
       50
176
     1
290
     0
176
     1
 90
       50
176
     1
 62
   256
176
     0
 40
1.0
176
     0
 90
        2
176
     1
  1
strokes_ogs.tif
176
     1
290
     0
176
     1
 40
1.0
176
     1
 40
1.0
176
     1
1001
ACAD
1000
AcDbSavedByObjectVersion
1070
     0
  0
VISUALSTYLE
  5
17E
102
{ACAD_REACTORS
330
99
102
}
330
99
100
AcDbVisualStyle
  2
Shades of Gray
 70
    23
177
     3
291
     0
 70
    58
 90
        2
176
     1
 90
        2
176
     1
 90
        3
176
     1
 90
        0
176
     1
 40
0.6
176
     1
 40
30.0
176
     1
 62
     7
420
 16777215
176
     1
 90
        2
176
     1
 90
        2
176
     1
 62
     7
176
     1
 62
     7
176
     1
 90
        1
176
     1
 90
        1
176
     1
 40
40.0
176
     1
 90
        8
176
     1
 62
     7
176
     1
 40
1.0
176
     1
 90
        1
176
     1
 90
        6
176
     1
 90
        2
176
     1
 62
     7
176
     1
 90
        3
176
     1
 90
        0
176
     1
 90
        0
176
     1
290
     0
176
     1
 90
        1
176
     1
 40
0.0
176
     1
 90
        0
176
     1
290
     0
176
     1
290
     1
176
     1
290
     1
176
     1
290
     0
176
     1
290
     0
176
     1
290
     0
176
     1
290
     0
176
     1
290
     0
176
     1
290
     0
176
     1
 90
       50
176
     1
 40
0.0
176
     1
 40
1.0
176
     1
 90
        0
176
     1
 62
    18
420
        0
176
     1
 90
       50
176
     1
 90
        3
176
     1
 62
     5
420
      255
176
     1
290
     0
176
     1
 90
       50
176
     1
 90
       50
176
     1
 90
       50
176
     1
290
     0
176
     1
 90
       50
176
     1
 62
   256
176
     0
 40
1.0
176
     0
 90
        2
176
     1
  1
strokes_ogs.tif
176
     1
290
     0
176
     1
 40
1.0
176
     1
 40
1.0
176
     1
1001
ACAD
1000
AcDbSavedByObjectVersion
1070
     0
  0
VISUALSTYLE
  5
17F
102
{ACAD_REACTORS
330
99
102
}
330
99
100
AcDbVisualStyle
  2
Sketchy
 70
    24
177
     3
291
     0
 70
    58
 90
        1
176
     1
 90
        2
176
     1
 90
        2
176
     1
 90
        0
176
     1
 40
0.6
176
     1
 40
30.0
176
     1
 62
     7
420
 16777215
176
     1
 90
        2
176
     1
 90
        2
176
     1
 62
     7
176
     1
 62
     7
176
     1
 90
        1
176
     1
 90
        1
176
     1
 40
40.0
176
     1
 90
       11
176
     1
 62
     7
176
     1
 40
1.0
176
     1
 90
        1
176
     1
 90
        6
176
     1
 90
        2
176
     1
 62
     7
176
     1
 90
        6
176
     1
 90
        0
176
     1
 90
        0
176
     1
290
     0
176
     1
 90
        1
176
     1
 40
0.0
176
     1
 90
        0
176
     1
290
     0
176
     1
290
     1
176
     1
290
     1
176
     1
290
     0
176
     1
290
     0
176
     1
290
     0
176
     1
290
     0
176
     1
290
     0
176
     1
290
     0
176
     1
 90
       50
176
     1
 40
0.0
176
     1
 40
1.0
176
     1
 90
        0
176
     1
 62
    18
420
        0
176
     1
 90
       50
176
     1
 90
        3
176
     1
 62
     5
420
      255
176
     1
290
     0
176
     1
 90
       50
176
     1
 90
       50
176
     1
 90
       50
176
     1
290
     0
176
     1
 90
       50
176
     1
 62
   256
176
     0
 40
1.0
176
     0
 90
        2
176
     1
  1
strokes_ogs.tif
176
     1
290
     0
176
     1
 40
1.0
176
     1
 40
1.0
176
     1
1001
ACAD
1000
AcDbSavedByObjectVersion
1070
     0
  0
VISUALSTYLE
  5
A6
102
{ACAD_REACTORS
330
99
102
}
330
99
100
AcDbVisualStyle
  2
Thicken
 70
    13
177
     3
291
     1
 70
    58
 90
        2
176
     1
 90
        2
176
     1
 90
        1
176
     1
 90
        0
176
     1
 40
0.6
176
     1
 40
30.0
176
     1
 62
     7
420
 16777215
176
     1
 90
        1
176
     1
 90
        4
176
     1
 62
     7
176
     1
 62
   257
176
     1
 90
        1
176
     1
 90
        1
176
     1
 40
1.0
176
     1
 90
       12
176
     1
 62
     7
176
     1
 40
1.0
176
     1
 90
        1
176
     1
 90
        6
176
     1
 90
        2
176
     1
 62
     7
176
     1
 90
        5
176
     1
 90
        0
176
     1
 90
        0
176
     1
290
     0
176
     1
 90
        1
176
     1
 40
0.0
176
     1
 90
        0
176
     1
290
     0
176
     1
290
     1
176
     1
290
     1
176
     1
290
     0
176
     1
290
     0
176
     1
290
     0
176
     1
290
     0
176
     1
290
     0
176
     1
290
     0
176
     1
 90
       50
176
     1
 40
0.0
176
     1
 40
1.0
176
     1
 90
        0
176
     1
 62
    18
420
        0
176
     1
 90
       50
176
     1
 90
        3
176
     1
 62
     5
420
      255
176
     1
290
     0
176
     1
 90
       50
176
     1
 90
       50
176
     1
 90
       50
176
     1
290
     0
176
     1
 90
       50
176
     1
 62
   256
176
     0
 40
1.0
176
     0
 90
        2
176
     1
  1
strokes_ogs.tif
176
     1
290
     0
176
     1
 40
1.0
176
     1
 40
1.0
176
     1
1001
ACAD
1000
AcDbSavedByObjectVersion
1070
     0
  0
VISUALSTYLE
  5
A0
102
{ACAD_REACTORS
330
99
102
}
330
99
100
AcDbVisualStyle
  2
Wireframe
 70
     5
177
     3
291
     0
 70
    58
 90
        0
176
     1
 90
        2
176
     1
 90
        0
176
     1
 90
        0
176
     1
 40
0.6
176
     1
 40
30.0
176
     1
 62
     7
420
 16777215
176
     1
 90
        1
176
     1
 90
        4
176
     1
 62
     7
176
     1
 62
   257
176
     1
 90
        1
176
     1
 90
        1
176
     1
 40
1.0
176
     1
 90
        0
176
     1
 62
   257
176
     1
 40
1.0
176
     1
 90
        1
176
     1
 90
        6
176
     1
 90
        2
176
     1
 62
     7
176
     1
 90
        3
176
     1
 90
        0
176
     1
 90
        0
176
     1
290
     0
176
     1
 90
        1
176
     1
 40
0.0
176
     1
 90
        0
176
     1
290
     0
176
     1
290
     1
176
     1
290
     1
176
     1
290
     0
176
     1
290
     0
176
     1
290
     0
176
     1
290
     0
176
     1
290
     0
176
     1
290
     0
176
     1
 90
       50
176
     1
 40
0.0
176
     1
 40
1.0
176
     1
 90
        0
176
     1
 62
    18
420
        0
176
     1
 90
       50
176
     1
 90
        3
176
     1
 62
     5
420
      255
176
     1
290
     0
176
     1
 90
       50
176
     1
 90
       50
176
     1
 90
       50
176
     1
290
     0
176
     1
 90
       50
176
     1
 62
   256
176
     0
 40
1.0
176
     0
 90
        2
176
     1
  1
strokes_ogs.tif
176
     1
290
     0
176
     1
 40
1.0
176
     1
 40
1.0
176
     1
1001
ACAD
1000
AcDbSavedByObjectVersion
1070
     0
  0
VISUALSTYLE
  5
180
102
{ACAD_REACTORS
330
99
102
}
330
99
100
AcDbVisualStyle
  2
X-Ray
 70
    25
177
     3
291
     0
 70
    58
 90
        2
176
     1
 90
        2
176
     1
 90
        1
176
     1
 90
        1
176
     1
 40
0.5
176
     1
 40
30.0
176
     1
 62
     7
420
 16777215
176
     1
 90
        1
176
     1
 90
        0
176
     1
 62
     7
176
     1
 62
   257
176
     1
 90
        1
176
     1
 90
        1
176
     1
 40
1.0
176
     1
 90
        8
176
     1
 62
     7
176
     1
 40
1.0
176
     1
 90
        1
176
     1
 90
        6
176
     1
 90
        2
176
     1
 62
     7
176
     1
 90
        3
176
     1
 90
        0
176
     1
 90
        0
176
     1
290
     0
176
     1
 90
       13
176
     1
 40
0.0
176
     1
 90
        0
176
     1
290
     0
176
     1
290
     1
176
     1
290
     1
176
     1
290
     0
176
     1
290
     0
176
     1
290
     0
176
     1
290
     0
176
     1
290
     0
176
     1
290
     0
176
     1
 90
       50
176
     1
 40
0.0
176
     1
 40
1.0
176
     1
 90
        0
176
     1
 62
    18
420
        0
176
     1
 90
       50
176
     1
 90
        3
176
     1
 62
     5
420
      255
176
     1
290
     0
176
     1
 90
       50
176
     1
 90
       50
176
     1
 90
       50
176
     1
290
     0
176
     1
 90
       50
176
     1
 62
   256
176
     0
 40
1.0
176
     0
 90
        2
176
     1
  1
strokes_ogs.tif
176
     1
290
     0
176
     1
 40
1.0
176
     1
 40
1.0
176
     1
1001
ACAD
1000
AcDbSavedByObjectVersion
1070
     0
  0
DICTIONARYVAR
  5
F0
102
{ACAD_REACTORS
330
66
102
}
330
66
100
DictionaryVariables
280
     0
  1
1:1
  0
DICTIONARYVAR
  5
EF
102
{ACAD_REACTORS
330
66
102
}
330
66
100
DictionaryVariables
280
     0
  1
STANDARD
  0
DICTIONARYVAR
  5
89
102
{ACAD_REACTORS
330
66
102
}
330
66
100
DictionaryVariables
280
     0
  1
STANDARD
  0
DICTIONARYVAR
  5
1B7
102
{ACAD_REACTORS
330
66
102
}
330
66
100
DictionaryVariables
280
     0
  1
Imperial24
  0
DICTIONARYVAR
  5
1B8
102
{ACAD_REACTORS
330
66
102
}
330
66
100
DictionaryVariables
280
     0
  1
Imperial24
  0
DICTIONARYVAR
  5
67
102
{ACAD_REACTORS
330
66
102
}
330
66
100
DictionaryVariables
280
     0
  1
2
  0
DICTIONARYVAR
  5
6B
102
{ACAD_REACTORS
330
66
102
}
330
66
100
DictionaryVariables
280
     0
  1
1
  0
DICTIONARYVAR
  5
14D
102
{ACAD_REACTORS
330
66
102
}
330
66
100
DictionaryVariables
280
     0
  1
0
  0
DICTIONARYVAR
  5
14E
102
{ACAD_REACTORS
330
66
102
}
330
66
100
DictionaryVariables
280
     0
  1
0
  0
DICTIONARY
  5
9C0
102
{ACAD_REACTORS
330
9BE
102
}
330
9BE
100
AcDbDictionary
281
     1
  0
DICTIONARY
  5
9BF
102
{ACAD_REACTORS
330
9BE
102
}
330
9BE
100
AcDbDictionary
281
     1
  3
4537572112
350
9B9
  3
4537572128
350
9BA
  3
4537572144
350
9BB
  3
4537572160
350
9BC
  3
4537572176
350
9BD
  0
DICTIONARY
  5
9C3
330
1AC
100
AcDbDictionary
280
     1
281
     1
  3
ACAD_XREC_ROUNDTRIP
360
9C4
  0
DICTIONARY
  5
9C8
330
728
100
AcDbDictionary
280
     1
281
     1
  3
ACAD_XREC_ROUNDTRIP
360
9C9
  0
DICTIONARY
  5
194
330
22
100
AcDbDictionary
280
     1
281
     1
  0
DICTIONARY
  5
188
330
97
100
AcDbDictionary
280
     1
281
     1
  3
FBXASSET
360
189
  0
DICTIONARY
  5
186
330
96
100
AcDbDictionary
280
     1
281
     1
  3
FBXASSET
360
187
  0
DICTIONARY
  5
110
330
98
100
AcDbDictionary
280
     1
281
     1
  3
BUMPTILE
360
112
  3
DIFFUSETILE
360
111
  3
FBXASSET
360
18A
  3
OPACITYTILE
360
113
  3
REFLECTIONTILE
360
114
  0
DICTIONARY
  5
9C1
330
1AA
100
AcDbDictionary
280
     1
281
     1
  3
ACAD_XREC_ROUNDTRIP
360
9C2
  0
DICTIONARY
  5
9C6
330
727
100
AcDbDictionary
280
     1
281
     1
  3
ACAD_XREC_ROUNDTRIP
360
9C7
  0
DICTIONARY
  5
104
330
87
100
AcDbDictionary
280
     1
281
     1
  3
ACAD_ROUNDTRIP_2008_TABLESTYLE_CELLSTYLEMAP
360
9B7
  0
XRECORD
  5
9B9
102
{ACAD_REACTORS
330
9BF
102
}
330
9BF
100
AcDbXrecord
280
     1
  1
AcDb_Thumbnail_Schema
102
{ATTRRECORD
341
9BA
  2
AcDbDs::TreatedAsObjectData
280
     1
291
     1
102
ATTRRECORD}
102
{ATTRRECORD
341
9BB
  2
AcDbDs::Legacy
280
     1
291
     1
102
ATTRRECORD}
  2
AcDbDs::ID
280
    10
 91
        8
102
{ATTRRECORD
341
9BC
  2
AcDs:Indexable
280
     1
291
     1
102
ATTRRECORD}
102
{ATTRRECORD
341
9BD
  2
AcDbDs::HandleAttribute
280
     7
282
     1
102
ATTRRECORD}
  2
Thumbnail_Data
280
    15
 91
        0
  0
XRECORD
  5
9BA
102
{ACAD_REACTORS
330
9BF
102
}
330
9BF
100
AcDbXrecord
280
     1
  1
AcDbDs::TreatedAsObjectDataSchema
  2
AcDbDs::TreatedAsObjectData
280
     1
 91
        0
  0
XRECORD
  5
9BB
102
{ACAD_REACTORS
330
9BF
102
}
330
9BF
100
AcDbXrecord
280
     1
  1
AcDbDs::LegacySchema
  2
AcDbDs::Legacy
280
     1
 91
        0
  0
XRECORD
  5
9BC
102
{ACAD_REACTORS
330
9BF
102
}
330
9BF
100
AcDbXrecord
280
     1
  1
AcDbDs::IndexedPropertySchema
  2
AcDs:Indexable
280
     1
 91
        0
  0
XRECORD
  5
9BD
102
{ACAD_REACTORS
330
9BF
102
}
330
9BF
100
AcDbXrecord
280
     1
  1
AcDbDs::HandleAttributeSchema
  2
AcDbDs::HandleAttribute
280
     7
 91
        1
284
     1
  0
XRECORD
  5
9C4
102
{ACAD_REACTORS
330
9C3
102
}
330
9C3
100
AcDbXrecord
280
     1
102
DISPLAYNAME
  1
Imperial24
102
FLAGS
 90
        0
  0
XRECORD
  5
9C9
102
{ACAD_REACTORS
330
9C8
102
}
330
9C8
100
AcDbXrecord
280
     1
102
DISPLAYNAME
  1
Metric50
102
FLAGS
 90
        0
  0
XRECORD
  5
189
102
{ACAD_REACTORS
330
188
102
}
330
188
100
AcDbXrecord
280
     1
 70
     1
 90
429727718
  1
508B35C9-AEE7-456F-BE74-D52651303AC6
310
504B03040A0000080000B670623B3DEE336E79000000790000001B0000006175746F6465736B2D64657369676E2D7061636B6167652E786D6C3C3F786D6C2076657273696F6E3D22312E302220656E636F64696E673D227574662D3822203F3E3C666F726D6174733E3C666F726D61743E687474703A2F2F736368656D612E
310
6175746F6465736B2E636F6D2F64657369676E2D7061636B6167652F323030393C2F666F726D61743E3C2F666F726D6174733E504B0304140006080800B670623BD486FD9CA0000000F4000000130000005B436F6E74656E745F54797065735D2E786D6C7D8EC10E82300C865F65E91D8A1E8C310C0EEA1BF002731658846E
310
D98AC1B77784ABF1D8FE5FBFBF75BBCE937A534CCEB38643598122B6FEE978D0B0485F9C41B54DDD7D022595594E1A469170414C76A4D9A4D207E29CF43ECE46F218070CC6BECC4078ACAA135ACF422C856C0E68EA1BF5669944DDD7BCDE7B1F8E415D77AECB980613C2E4AC91FC167A2B244592486606FC29C8FD7F045B9A
310
EF7053A7E60B504B0304140006080800B670623B28ED286BEB0000007C01000008000000636F72652E786D6C8D90416EC3201045AF82665B6183218D6D61A254764FD00B204C5C94182C03558F5F9C3852BBEB6A467FFE9B197D71FA9E6FE8CBACC17AD7012D0820E3B41FAD9B3A48F1826B40272956EFE32F1B20A766D3C1
310
268314D3EAD3B24BDABB685CCCAAF3A3D94515828980F42D371D04FD696655A814B3235C8B45E9AB9A4C419F5D8653B2237A1CB163DE672FD6AC209BF3C08E0D1B30EB19C3FC9D72FCC6EB231EFA33EDE96BDD341517E5064B11EDFCBCAF57A3A2194156843498524CAA0FCA5B7268F9E185D42D21A2DCEC7FA0B48CFF8492
310
759155FBBB0F2C80A4F991FB408A72CB22977B50B96EB9C91F504B0304140006080800B670623B55019EA25F0000007C00000007000000636E782E786D6C4DCB3B0E80201045D1AD90E915ED2CF8AC45050C11660C8261F98AB1B07AC9C97D42D718D865D3E909258CFD00CCE24AC6E326A164D74DC0B4128928FF32603847
310
2BA13128B1252AC747C6BAB984FC68F0B87FE8960A5C09FE86CFB69FBA01504B0304140006080800B670623B7BC41AC871010000D40300000C0000006662782F636F72652E786D6CC553ED6E8320147D15C2DF4501B56B6D90A64BBB27D80B50A5CE54C120983EFEAE1F4DD7A56BBA5FF3879273EEE59E7310BE393735EA95
310
ED2AA333CC428A91D2B9292A5D66D8BB63B0C26823B835C67D2BC348CB46657880B1E0A535BE9DA1DC68A7B403549B42CDA0EC3AE530CA6B5864B8CB3F552343E91D5474A7B095F949962A6421D0502778E72C0840D390E18DC5F170E664C205F7BE2A66B62A605A75AC94C522DDEEE3651AEF837817C741F2CE92E02D592D
310
83FD6ECB76EC7595A651C2C9D02CB8AB9A8BBADC2AE954814544691A3016D0E883256BBA58278B17BA5A53CAC9507ED3E4DBE2C9265F691747B3DCA9ADC382819091F8E1162272A8933DE82182932144F88C09DF060D8140C84E1EEA8B8F1340BDCA9DB1093085F157AA97B557309586747CD0EF0B4EA64E983A6E0EAEEFCE
310
889E9EF17847386AA94B30211D2C0FDE0D3AF9A4610EAD5536E8DD1969631B593F67E381C33F5157F17725E5A636F6BF1491F980C8FC7B90E13E8A2F504B0304140006080800B670623B70102A487D0000009D0000000B0000006662782F636E782E786D6C4DCCD10A83201886E15B91FFDC95A5C30335ACCDFB886521330D
310
A76397BF1A1DECE883878F57749FD5A3B74D2F17830472A901D9F088930B8B849267CC01754AA418F3DF0D5018572BE160506249B16C274D761E8BCFBB7A179E27F65CB39A0F14D396184C9921B81F34C3ACA1B4B99ABB6E6F062A25AA5F69DF23ACBE504B0304140006080800B670623B3610CA3329010000120200003100
310
00006662782F42384135303843342D343331462D343546312D424341352D3532343432364645413344462F636F72652E786D6C8D515B6EC32010BC0AE22B55850D0E446E848992B43E412FE000495162B07854397EA176A4F62F3F2C9A9D991D58BEBB8F37F0AD7D30CE76905418026DA553C65E3A98E219B510EC04F7CEC5
310
3F3408EC30EA0E16180A7EF12E4D0B249D8DDAC68C5AA7F4020E21E80881BCE54B0783FCD2E3500D296646B856D320AFC34557A4CAEDCC133C449F0380794839A138B47B86DB2345744D7A44594FD0E1B867883594369BFE63BF7EEF793D0B054FC9A8456E548E63CE46FB674D8A58F068C6477CE9F510B582A2C1F80D1182
310
70F349E816B32D65AFB8DD62CCEB42FF274A937A52948C8DEB66893BCB021484D7734370E5D2E9F608A3EF93F3119479ABA0E50B14B8C298119A43CCC4FCFCECB8A18B6388CEE7EF5D5D4F994BD86CBBA182D76543B9FCAE2FD7B24DF103504B0304140006080800B670623B1B8617914E0100003303000030000000666278
310
2F42384135303843342D343331462D343546312D424341352D3532343432364645413344462F636E782E786D6CD593C16EC32010447F0571AD6CE3D489D20813A9877E410FBD62D82434182CC055F3F75D1292E692438FBD206B7698593D61BEFD1E2DF982108D773D6D6B460938E5B571FB9ECE6957AD29D90A1EBC4F7736
310
4A9C1CA1A759A682EF839FA72269D8C9D92654AD71C72206887E0E0A22CAF926B15E498B01E0AA19451807D01A34B919F16B070157417138917400F2F6FA41FCF0092A45DEE414C19BDC21783E4BD39D891265658C3D8DEA00A3ACE59CBC8678ACB54CB26EEB6BD7839D7E9348BE70AD9C8321B9BCA7F9A4A26C542347DEE0
310
50F09802D22BA6749A800A394DD62899107273365E3C82CFC6A55557BC06C10774B7ABE7AEC3B0F34CF06446280E154026D0542C187BA9DAB6628BF7B6DBB0E5A65B3EB1F58631DE64BBE083F7B65CC218087E22CABB042E51D1F2268F1FE12B3EA24D40D63E9CFE00120194D60B9D5BC67FE6D39CDF37E20AF817881F504B
310
0304140006080800B670623BBFEF2E3B690500003C100000340000006662782F42384135303843342D343331462D343546312D424341352D3532343432364645413344462F6F626A656374732E786D6CAD575D739B3814FD2B0CFB0C98D84E931D4227B6938EA793B6534F3BFB90198F0099B001899144EAECAFDF231018B0
310
D37A3FFC609090EEE7B94757C1FB7D915B2F54C88CB31BDB7727B64559CC938CA53776A576CE956DBD0F03C1B9EA2DB32D460A7A63EB693B0C52C1ABD24C257447AA5C8D66EF177F5832A68CDA569C13296F6C193FD182B8A4523CA1F2D94D88226EBADBBBBEDB2C1C8A4D05299F46424B222853B014F30C52ACC6287F389C
310
D85E1878FA7B18E87FB36AFAF62AAFF667A83F635211161F291B8999FAB3D5DDC5FCDA99CF6653677679E13B8BFBC5CAF1DF4D27CBCBE5F2FAF6EE1A8AA51290642C117467871F101B91C581D77CEA2C36869F3229E68CD1B8F61F1ED6361B89092D294B90C78C4A68EB793D190E7D1D9BDEE7A91E1B95FDE9F3BCEAEFE809
310
6A6D6F9F7D4B79F4275C90E7A04248AA51D5C4C738DAE06F72885AC4796EBE65D22A88A22223B995679120E2D50EB1542F098381188D4EA111AE3DB043FF20AF6F2B4AE3D7D83D65E5AECA730D4D3BAC91BD05FEA992B565D95F549CD6069B90AB2A63EACA38A45E4B6A87D781574F86817E4C2FCCC72690D62E2729520E37
310
9BAF234797BAF6D62B3BFC781FED37BA1E4F2B2F052FA9501A3E80569BB8F6A9A364D4FA67654E6F803383981F82F21591FF84F23D9882BC896C3FDBCF8C162508933B2E0AE4C69DD43F6BD2BE38DDDBF10BF86CB4FA784D37F3AF16075E67EC9030DECA1FC0A55373F5DFF3378C591FA9BDF485C10B0A8C8BA909E5262639
310
A8E72163488806A595734C81CB77D1DE0ED7604A303B76913CEC0272F412782FF88EFF4636D8AA56DF7B322474C4B767303F625997056C7B032C473C592B36CEBD15F3F9FF5233B7ABCDC74D257624A60F8658567497B14CE1EC3C80B76FD02011038F9EE9EB0F2E12387A9C844D3F09855125116D1D731DF8B43D2CF4E0A0
310
79A020C6BE946BCE0B7EA1E1219331CD73C228AF5A2DDD31A4B1DA918CE91350854D40A71723140BFA92E94E62B0626016CEFA5864A50E5977E8753CEDBEE1CBB7F52780D20E17AF0BA0F5F9B02A3AD07DCC732EB6D1EBB661421BE0C39E21BABF0FE16D22EA6929407C8DE596724C88B749B6DB5512BC7B228ADFD7CB7EA6
310
3A22397E690BA8D5D8D4E40CEC8CDA23C2C0B7D5898640101CEC9C6D331CE328CB93CAFBBAC70A642DF70DF95155945B52F08AA973C23469FD69ADEF84F7BB18F983A8F8C90E37F5D35980B2139A1C523540813E824EF83448CF7C72B598CE97D7CEEDDDDD3B6736BFBC771677EF66CE6A7E7139F7A793E9EDF2B2B3A8B624
310
0CDA13AA5F8388264EC4A0129909F3B7F5A16CEDF08128E97D680ACA4B9BE7B7B58BB638F0B00700EF36AE8B32A705658A68F83EE897FC2B41573190D1CCAF0B92D233A47CFEB019D9809933F67DD1A5467F8CF69AD9A5AE859342D45355448C64F968A371DC2D596ADC6E43D93D1B466F877A64E2893E54F23C4B40388995
310
525E5005DA3983ED45412510D3EFCA13737B3863F74BD30F2A12E5B4B5E489A025CE25500DB855B11ACE5BBFA185D35DD48D8DC3CE7DC69F2944DB42AA6F6CF09BCA622ADD08C7A36E7C6AE18000BAB08E040135C2D21C9D75B3A91B77BB746C403F38018DFE6EC939DD92F16B40BC05294B9CDA035AAD6D330AE27FE4786B
310
8E45145EA34A75BE1C263A676A35A8ACC6297337400BF16C54EF515F3F77CB77EB3583889C754FFA29081AA98E2222ADEF05DA3E63D2EDEA8B8756C05A7FB6CABC4A91CBF325398202CC952E70A008A830324BA200D5E5EF8F5F04C75DB4B0EE3340E071C98B823333B83577596BF3849B69F2085AA0FAFA212F26BEFF5877
310
FDE622B28D88A42E49E43326DA82D31E8CB006401E1DA726059ECEC168F97A6599036306A135688F9AD2E61A6EA178F4CD51974A9F2CCB9F36FE5EBD14601068D9C3BF01504B0304140006080000B670623B000000000000000000000000350000006662782F42384135303843342D343331462D343546312D424341352D35
310
32343432364645413344462F76657274696365732E62696E504B0304140006080800B670623BF270F1330600000004000000360000006662782F42384135303843342D343331462D343546312D424341352D3532343432364645413344462F747269616E676C65732E62696E636660600000504B0304140006080000B67062
310
3B000000000000000000000000370000006662782F42384135303843342D343331462D343546312D424341352D3532343432364645413344462F617474726962757465732E62696E504B0304140006080800B670623B08DA0BD19000000041010000360000006662782F42384135303843342D343331462D343546312D4243
310
41352D3532343432364645413344462F6469726563746F72792E786D6C858F410AC3201045AF22B36F53E9A60B35CBEEBAE80D244E44489C6234F4F835464A48035D0DF398FF9F8AF63D0E6CC63039F212F8F9020C7D47C6792B21C5FE7403D62A1188E2E60C98D7234A5830286103A55745067B9D86B8A3CF9C7F90C11DE6
310
07FB144396D7B6A82D282E9A152AD114D5EF2CB866EEE831B8EEA07A7BB5A8D7D61A2BAAEB7FD5F70921FF497D00504B0304140006080800B670623B3B4606F3FE000000A00100003B0000006662782F42384135303843342D343331462D343546312D424341352D3532343432364645413344462F7265736F75726365732F
310
636F72652E786D6C8D504B6E833010BD0A9A6D65B08134808CA354A427E8052C332156828DFCA97AFC9A40A576D7CDCCE87D344F8F9FBEE647F689CE6B6B7A6039850C8DB2A336530F315C4903D94970676DF82583CCC8197B5861107C72362E3BA4AC096842428D1D7107A5F71820538F74F4E0D50D6799CB1892C2DFF345
310
AABB9C306779A2934E701F5C0A906D4FD609C2A1B7D129F4BCD858C163D4E3AED163FAA9AF1A1D88F67CA98E6D35906AA82A52BFB39ABCD5CD915C86331BD86BD3B665CD8BD52C78D0F34F46E550061C419494B6843142CB0F5677F4D0D58717DA7494F26295FF31C565FCA7296A13AA728FBBD93C0896823C09C18BB5AFB4
310
9E65A6BD762BBE01504B010214000A0000080000B670623B3DEE336E79000000790000001B00000000000000000000000000000000006175746F6465736B2D64657369676E2D7061636B6167652E786D6C504B01021400140006080800B670623BD486FD9CA0000000F40000001300000000000000000000000000B2000000
310
5B436F6E74656E745F54797065735D2E786D6C504B01021400140006080800B670623B28ED286BEB0000007C010000080000000000000000000000000083010000636F72652E786D6C504B01021400140006080800B670623B55019EA25F0000007C000000070000000000000000000000000094020000636E782E786D6C50
310
4B01021400140006080800B670623B7BC41AC871010000D40300000C00000000000000000000000000180300006662782F636F72652E786D6C504B01021400140006080800B670623B70102A487D0000009D0000000B00000000000000000000000000B30400006662782F636E782E786D6C504B01021400140006080800B6
310
70623B3610CA3329010000120200003100000000000000000000000000590500006662782F42384135303843342D343331462D343546312D424341352D3532343432364645413344462F636F72652E786D6C504B01021400140006080800B670623B1B8617914E010000330300003000000000000000000000000000D10600
310
006662782F42384135303843342D343331462D343546312D424341352D3532343432364645413344462F636E782E786D6C504B01021400140006080800B670623BBFEF2E3B690500003C10000034000000000000000000000000006D0800006662782F42384135303843342D343331462D343546312D424341352D35323434
310
32364645413344462F6F626A656374732E786D6C504B01021400140006080000B670623B0000000000000000000000003500000000000000000000000000280E00006662782F42384135303843342D343331462D343546312D424341352D3532343432364645413344462F76657274696365732E62696E504B010214001400
310
06080800B670623BF270F133060000000400000036000000000000000000000000007B0E00006662782F42384135303843342D343331462D343546312D424341352D3532343432364645413344462F747269616E676C65732E62696E504B01021400140006080000B670623B00000000000000000000000037000000000000
310
00000000000000D50E00006662782F42384135303843342D343331462D343546312D424341352D3532343432364645413344462F617474726962757465732E62696E504B01021400140006080800B670623B08DA0BD1900000004101000036000000000000000000000000002A0F00006662782F42384135303843342D3433
310
31462D343546312D424341352D3532343432364645413344462F6469726563746F72792E786D6C504B01021400140006080800B670623B3B4606F3FE000000A00100003B000000000000000000000000000E1000006662782F42384135303843342D343331462D343546312D424341352D3532343432364645413344462F72
310
65736F75726365732F636F72652E786D6C504B0506000000000E000E0080040000651100000000
  0
XRECORD
  5
187
102
{ACAD_REACTORS
330
186
102
}
330
186
100
AcDbXrecord
280
     1
 70
     1
 90
429727718
  1
887D55A9-D0DD-414E-B741-A7DCD4DA2B4C
310
504B03040A0000080000B670623B3DEE336E79000000790000001B0000006175746F6465736B2D64657369676E2D7061636B6167652E786D6C3C3F786D6C2076657273696F6E3D22312E302220656E636F64696E673D227574662D3822203F3E3C666F726D6174733E3C666F726D61743E687474703A2F2F736368656D612E
310
6175746F6465736B2E636F6D2F64657369676E2D7061636B6167652F323030393C2F666F726D61743E3C2F666F726D6174733E504B0304140006080800B670623BD486FD9CA0000000F4000000130000005B436F6E74656E745F54797065735D2E786D6C7D8EC10E82300C865F65E91D8A1E8C310C0EEA1BF002731658846E
310
D98AC1B77784ABF1D8FE5FBFBF75BBCE937A534CCEB38643598122B6FEE978D0B0485F9C41B54DDD7D022595594E1A469170414C76A4D9A4D207E29CF43ECE46F218070CC6BECC4078ACAA135ACF422C856C0E68EA1BF5669944DDD7BCDE7B1F8E415D77AECB980613C2E4AC91FC167A2B244592486606FC29C8FD7F045B9A
310
EF7053A7E60B504B0304140006080800B670623BBC1638F5EC0000007C01000008000000636F72652E786D6C8D90416EC3201045AF82665B61836BE2D8C24471DB9CA01740401C94182C03558F5F9C3852BBEB6A467FFE9B197D7EF89E6EE8CB2CC17AD7032D0820E394D7D68D3DA478C67B4007C117EFE32F1B202727D3C3
310
2A83E0E3E2D3BC49CABB685CCCAAF3DA6CA20CC14440EA969B1E82BA98491632C5EC08D76296EA2A4753D06797E194AC468F2356E77DF66CCD02825543D50CACC62D39ED70FDC68EB8FD68F6F8787A6784342D1DDA1D2F5758F068A7E77DB518198D065111D2624A31A93E69DD11D6D5EC85EC3B4278B9DAFF4069D6FF8492
310
75F1B5DADE7D600104CD8FDC0782976B16B9DC83CA75CD4DFC00504B0304140006080800B670623B55019EA25F0000007C00000007000000636E782E786D6C4DCB3B0E80201045D1AD90E915ED2CF8AC45050C11660C8261F98AB1B07AC9C97D42D718D865D3E909258CFD00CCE24AC6E326A164D74DC0B4128928FF326038
310
472BA13128B1252AC747C6BAB984FC68F0B87FE8960A5C09FE86CFB69FBA01504B0304140006080800B670623B3586FFB671010000D40300000C0000006662782F636F72652E786D6CC553ED6E8320147D15C2DF4541A76D6D90A6DDD627D80B50A4CE54C120983EFEAE1F4DD7A55BBA5FF3879273EEE59E7310B6393735EA
310
95ED2AA3731C851423A5A5292A5DE6D8BB63B0C268C39935C67D29C3488B46E578803167A535BE9D2169B453DA01AA4DA16650749D7218C91A1639EEE4876A4428BC838AEE14B6429E44A9C228041AEA38EB9C0501681A32BC313F1ECE8C4C3867DE57C5CC56054CAB8E95B298A7F12E5EEED224C8E87E11242FE936C8DE96
310
AB60BB7F4D295D66D12E5B30323473E6AAE6A24E5A259C2A308F29CD82280A68FC1E256B9AAE93F489AED694323294DF34F9B678B0C957DA3DC7B3DCA9ADC33C022123F1CD2D44E450277AD04338234388F01913BE0D1A0281909D38D4171F27807A259DB1093085F157AA17B557309586747CD0CF0B46A64E983A6E0EAEEF
310
CE881F9EF1FB8E70D44297604238581EBC1B74B249C31C5AAB6CD0BB33D2C636A27ECCC62F0EFF445DC5DF95244D6DEC7F2922F30191F9F720C37DE49F504B0304140006080800B670623B4220A0FF7D0000009D0000000B0000006662782F636E782E786D6C4DCCD10A83201886E15B91FFDCE542CB0335D0EC3E6259C84A
310
C3E9D8E5AF46073BFAE0E1E315DD675BD1DBA5978F41C2FD4600B9F088930F8B849267CC01754AA418F3DF0D50183727E164506249B1EC174D6E1ECB9A0F5D7D785E68DB8151CD286E5A5363CA6B8A39E90D36D40E96B086F55A43A544F52B1D7B86D517504B0304140006080800B670623B2FA3FEDE290100001202000031
310
0000006662782F45374635344235342D363743322D343832342D383044432D4334454645303536354442422F636F72652E786D6C8D515B6EC32010BC0AE22B55850D2E386E848994D7097A0117488A1283C5A3CAF10BB523B57FF961D1ECCCECC0F2ED7DBC816FED8371B687A4C210682B9D32F6D2C314CFA883602BB8772E
310
FEA141608751F7B0C050F08B77695A20E96CD43666D43AA5177008414708E42D5F7A18E4971E876A483133C2B59A06791D2EBA22556E679EE021FA1C00CC43CA09C5717D6274C7286AD7FB06D1AEA1A8C3873DDAD3E3E98859CB0EBB1DAF67A1E02919B5C88DCA71CCD968FFAC49110B1ECDF8882FBD1EA256503418BF2342
310
106E3E08DD60B6A1EC15771B8C795DE8FF4469524F8A92B1F1AD59E2CEB20005E1F5DC105CB9F4797B84D1F7C9F908CABC55D0F2050A5C61CC1AD2F27A26E6E767C7962E8E213A9FBF7775FDCC5CC266DB960A5E970DE5F2BBBE5CCB36C50F504B0304140006080800B670623B1B8617914E01000033030000300000006662
310
782F45374635344235342D363743322D343832342D383044432D4334454645303536354442422F636E782E786D6CD593C16EC32010447F0571AD6CE3D489D20813A9877E410FBD62D82434182CC055F3F75D1292E692438FBD206B7698593D61BEFD1E2DF982108D773D6D6B460938E5B571FB9ECE6957AD29D90A1EBC4F77
310
364A9C1CA1A759A682EF839FA72269D8C9D92654AD71C72206887E0E0A22CAF926B15E498B01E0AA19451807D01A34B919F16B070157417138917400F2F6FA41FCF0092A45DEE414C19BDC21783E4BD39D891265658C3D8DEA00A3ACE59CBC8678ACB54CB26EEB6BD7839D7E9348BE70AD9C8321B9BCA7F9A4A26C542347DE
310
E050F09802D22BA6749A800A394DD62899107273365E3C82CFC6A55557BC06C10774B7ABE7AEC3B0F34CF06446280E154026D0542C187BA9DAB6628BF7B6DBB0E5A65B3EB1F58631DE64BBE083F7B65CC218087E22CABB042E51D1F2268F1FE12B3EA24D40D63E9CFE00120194D60B9D5BC67FE6D39CDF37E20AF817881F50
310
4B0304140006080800B670623B29652116630500003C100000340000006662782F45374635344235342D363743322D343832342D383044432D4334454645303536354442422F6F626A656374732E786D6CAD575D739B3814FD2B0CFB0C989834C90EA1639B24E3E9A6EDD4D3CE3E64C623834CD8006224913AFDF57B040203
310
B65BEF871F0C12D2FD3CF7E8CA7FBFCB33E3957291B2E2D674ED8969D02262715A24B76625B7D6B569BC0F7CCE98EC2D338D82E4F4D654D366E0279C55A59E8AE99654991CCDDECFFF3444440B6A1A514684B83545F44C7362934AB2988A173B2692D8C97667BB76B3702836E1A47C1E092D09A78584A5982F20C5688C7287
310
C389E904BEA3BE07BEFAD7ABA6A75739B53F43FD69212429A20365233153D70BEF2E2E6FAC4BCF9B5ADEBB0BD79ADFCF43CBBD9A4E16EF168B9BD9DD0D140BC921495BC2E9D60C1E101B9E46BED37CEA2CD6861F3329624541A3DA7F7858DBAC25C6B4A4458C3CA654405BCFEBC970E8AAD8F43E4FD558ABEC4F9FE7557F47
310
4F506B7BFBEC5BCA367FC105710E2AB8A00A554D7CB4A30DFE26FBA86D18CBF4B75418399194A72433B274C3097F33032C554B027F2046A1932B842B0FCCC0DDCBEBDB8AD2F835768F59B9ADB24C41D30C6A64AF817F2A456D59FA83F2E3DA60137255A585BCD60EC9B7929AC18DEFD49381AF1ED30BFDB109A4B1CD488294
310
C3CDE6EBC8D185AABD6568061FEE37BB95AAC7E3CA4BCE4ACAA5820FA0D526AE7DAA2869B5EE5999531BE0CC20E6FBA07C41E43FA27CF7A6206F3CDD793B4F6B919C1462CB788EDCD893FA674CDA17AB7B3B7C019F8D561FAEE966FED562DFE98C1D12C6A9FC015C2A35D7FF3D7FC398F591DA4B5FE0BFA2C0189FEA50AE22
310
92817A1ED3020951A03432862970F976B33383259812CC8E5D240BBA801CBCF8CE2BBEE3BF910DB6AAD5F79E05123AE2DB33981FB1ACCB02B69D00CB014FD68AB573A7627EF9BFD4CC2C5C7D58557C4B22FAA88925A4DBB44825CECE3D78FB060D1231F0E885BE7D673C86A3874958F593906B5502D1563157814FDAC3420D
310
F69A070A22EC4B98E23CFF171A1E5311D12C23056555ABA53B8614563B92D17D02AAB009E8F46284624E5F53D5490C560CCCC2591FF1B45421EB0EBD8EA7ED13BE7C5D7E0428CD60FEF60779EB13E6664FF711CB185F6FDED60D139A001FF60CD1FD6D086F1D51474901E26B2CB794A343BC8ED3EDB612E0DD2351FCB65CF4
310
33D511C9E14B5B40ADC6A6263DB0336A8F700DDF56271A024E70B0B3629DE21847591E55DED73D56206AB927E46FAABC5C939C55853C274C93D69FD6FA4E78BF8B11DF898C9ECD60553FAD39283BA6F18984AA23E8884F83F45C5F5F859797B31B2B9C84A1E5B9DE9D35BFF25C6B76152E422F9C5DCC3D847F5801ED09D5AF
310
41441327A25FF15487F9EB725FB666F048A4701E9A827292E6F97569A32DF61DEC01C0BB8DCBBCCC684E0B49147C1FD54BF685A0AB18C868E6973949E819523E3DAC463660E68C7D9F55A9D1EFA3BD7A76A16AE1A810F95CE59B82A4D968A376DC2E8B44BBDD86B27B368CDE0ED548C7137DA860591A83706223A12CA712B4
310
7306DBF39C0A20A6DF95C7FAF670C6EED7A61F946493D1D6926782963813403548A78AE470DEF80D2D9CEAA26E4D1C76F60BFE74219A06527D6B82DF641A51616F703CAAC6A7160E08A00BEB4810A0274592A1B36E3675E36E978A0DE80727A0D6DF2D39A75BD27E0D8837276589537B40ABB56D5A41F48F1C6FCD3188C4EB
310
A6929D2FFB89CE995A4D00AE813BDD032DC48B56BD437DFDDC2DD7AED70C2272D63DE9A72068A45A92F0A4BE17A8A06B9366E16707AD80B1FC649459952097E74BB23805982B55E0401150A165964402AA8BDF9F3E7386BB686EDCA780C0D382E5392BF460A6EFB2C6EA1937D3F809B440D5F5435C4C5CF7A9EEFAF54564BD
310
2182DA24162F98680B4E7930C21A0079709CEAEB99A372305ABE0C0D7D6078105A83F6A0296DAEE1068A47DD1C55A9F4C9B2FC69E3EFD44B81028E963DF81B504B0304140006080000B670623B000000000000000000000000350000006662782F45374635344235342D363743322D343832342D383044432D433445464530
310
3536354442422F76657274696365732E62696E504B0304140006080800B670623BF270F1330600000004000000360000006662782F45374635344235342D363743322D343832342D383044432D4334454645303536354442422F747269616E676C65732E62696E636660600000504B0304140006080000B670623B00000000
310
0000000000000000370000006662782F45374635344235342D363743322D343832342D383044432D4334454645303536354442422F617474726962757465732E62696E504B0304140006080800B670623B08DA0BD19000000041010000360000006662782F45374635344235342D363743322D343832342D383044432D4334
310
454645303536354442422F6469726563746F72792E786D6C858F410AC3201045AF22B36F53E9A60B35CBEEBAE80D244E44489C6234F4F835464A48035D0DF398FF9F8AF63D0E6CC63039F212F8F9020C7D47C6792B21C5FE7403D62A1188E2E60C98D7234A5830286103A55745067B9D86B8A3CF9C7F90C11DE607FB144396
310
D7B6A82D282E9A152AD114D5EF2CB866EEE831B8EEA07A7BB5A8D7D61A2BAAEB7FD5F70921FF497D00504B0304140006080800B670623B6378F24DFF000000A00100003B0000006662782F45374635344235342D363743322D343832342D383044432D4334454645303536354442422F7265736F75726365732F636F72652E
310
786D6C8D504B6E833010BD0A9A6D65B0094E42641C85B639412F6099496225D8C89FAAC7AF09546A77DDCC8CDE47F3F4C4F16B7C149FE88371B603565228D06A37187BED20C50BD9437194C23B177FC9A0B06AC40E6618A4B87A97A615D2CE46B431A3D60DB8822A048C50E8473E3A08FA86A32A558A5911EEE5A4F45D5DB1
310
6465A6B34E8A107D0E502C4FE609D26370C96B0CA25A58295232C3AA3143FE692E063D485EF7F5AEE71BD2D2F39634AFFC44DAF7DD9E9CCE6F9CD25DCBFA762BAAD92C4534E34F46ED51451C40D694B6843142EB0FD61C283F34FC85EE0F948A6A96FF31A569F8A729191B37F51A77B105902C0779125254735F793DCBCC7B
310
EE567E03504B010214000A0000080000B670623B3DEE336E79000000790000001B00000000000000000000000000000000006175746F6465736B2D64657369676E2D7061636B6167652E786D6C504B01021400140006080800B670623BD486FD9CA0000000F40000001300000000000000000000000000B20000005B436F6E
310
74656E745F54797065735D2E786D6C504B01021400140006080800B670623BBC1638F5EC0000007C010000080000000000000000000000000083010000636F72652E786D6C504B01021400140006080800B670623B55019EA25F0000007C000000070000000000000000000000000095020000636E782E786D6C504B010214
310
00140006080800B670623B3586FFB671010000D40300000C00000000000000000000000000190300006662782F636F72652E786D6C504B01021400140006080800B670623B4220A0FF7D0000009D0000000B00000000000000000000000000B40400006662782F636E782E786D6C504B01021400140006080800B670623B2F
310
A3FEDE290100001202000031000000000000000000000000005A0500006662782F45374635344235342D363743322D343832342D383044432D4334454645303536354442422F636F72652E786D6C504B01021400140006080800B670623B1B8617914E010000330300003000000000000000000000000000D2060000666278
310
2F45374635344235342D363743322D343832342D383044432D4334454645303536354442422F636E782E786D6C504B01021400140006080800B670623B29652116630500003C10000034000000000000000000000000006E0800006662782F45374635344235342D363743322D343832342D383044432D4334454645303536
310
354442422F6F626A656374732E786D6C504B01021400140006080000B670623B0000000000000000000000003500000000000000000000000000230E00006662782F45374635344235342D363743322D343832342D383044432D4334454645303536354442422F76657274696365732E62696E504B01021400140006080800
310
B670623BF270F13306000000040000003600000000000000000000000000760E00006662782F45374635344235342D363743322D343832342D383044432D4334454645303536354442422F747269616E676C65732E62696E504B01021400140006080000B670623B0000000000000000000000003700000000000000000000
310
000000D00E00006662782F45374635344235342D363743322D343832342D383044432D4334454645303536354442422F617474726962757465732E62696E504B01021400140006080800B670623B08DA0BD190000000410100003600000000000000000000000000250F00006662782F45374635344235342D363743322D34
310
3832342D383044432D4334454645303536354442422F6469726563746F72792E786D6C504B01021400140006080800B670623B6378F24DFF000000A00100003B00000000000000000000000000091000006662782F45374635344235342D363743322D343832342D383044432D4334454645303536354442422F7265736F75
310
726365732F636F72652E786D6C504B0506000000000E000E0080040000611100000000
  0
XRECORD
  5
112
102
{ACAD_REACTORS
330
110
102
}
330
110
100
AcDbXrecord
280
     1
270
     1
271
     1
  0
XRECORD
  5
111
102
{ACAD_REACTORS
330
110
102
}
330
110
100
AcDbXrecord
280
     1
270
     1
271
     1
  0
XRECORD
  5
18A
102
{ACAD_REACTORS
330
110
102
}
330
110
100
AcDbXrecord
280
     1
 70
     0
 90
1778669749
  1
9BF507EE-FAF7-4A99-A33D-4EE51894BC40
310
504B03040A0000080000B670623B3DEE336E79000000790000001B0000006175746F6465736B2D64657369676E2D7061636B6167652E786D6C3C3F786D6C2076657273696F6E3D22312E302220656E636F64696E673D227574662D3822203F3E3C666F726D6174733E3C666F726D61743E687474703A2F2F736368656D612E
310
6175746F6465736B2E636F6D2F64657369676E2D7061636B6167652F323030393C2F666F726D61743E3C2F666F726D6174733E504B0304140006080800B670623BD486FD9CA0000000F4000000130000005B436F6E74656E745F54797065735D2E786D6C7D8EC10E82300C865F65E91D8A1E8C310C0EEA1BF002731658846E
310
D98AC1B77784ABF1D8FE5FBFBF75BBCE937A534CCEB38643598122B6FEE978D0B0485F9C41B54DDD7D022595594E1A469170414C76A4D9A4D207E29CF43ECE46F218070CC6BECC4078ACAA135ACF422C856C0E68EA1BF5669944DDD7BCDE7B1F8E415D77AECB980613C2E4AC91FC167A2B244592486606FC29C8FD7F045B9A
310
EF7053A7E60B504B0304140006080800B670623BCA089DFFEC0000007C01000008000000636F72652E786D6C8D90416E83301045AF62CDB632D8402020E32882F604BD80653BC44AB011B6AB1EBF262152BBEB6A467FFE9B197D76FA9EEFE84BAFDE38DB03CD08206DA553C64E3DC470C1474027CE56E7C22F1B202B66DDC3
310
260367D3EAE2B24BD2D9A06D48AA754AEFA2F05E0740F29E9A1EBCBCEA59642286E4F0B76C11F226269DD15797E0188D42CF2346A57DE662F40ABCAEC77628C6120F654571D50C04B7F5B9C1E3997CD4F550BE3745C3F20DE62C98F9755FAE5A04AD801784B498524C8A4F5A75E4D055873772EC0861F966FF03C545FD138A
310
C686B2D8DF7D621E384D8F3C069CE55B16A93C824A75CB8DFF00504B0304140006080800B670623B55019EA25F0000007C00000007000000636E782E786D6C4DCB3B0E80201045D1AD90E915ED2CF8AC45050C11660C8261F98AB1B07AC9C97D42D718D865D3E909258CFD00CCE24AC6E326A164D74DC0B4128928FF326038
310
472BA13128B1252AC747C6BAB984FC68F0B87FE8960A5C09FE86CFB69FBA01504B0304140006080800B670623B68FC0B7272010000D40300000C0000006662782F636F72652E786D6CC5535B6E833010BC8AE5DF0A6C1E8124328E22D29EA01770C0A128602363A31CBFCB234A53A555FA553EC09AD9F5CE8C31DB5DDA060D
310
D2F4B556190E7C8A9154852E6B5565D8D993B7C668C799D1DA7E29C3488956667884316795D1AE5BA0422B2B950554E9522EA0E87B69312A1A5864B82F3E642B7CE12C54F467BF13C55954D20F7CA0A18EB3DE1A1080E621E31BF3D3F1C2C88C73E65C5D2E6C5DC2B4FA544B8379921C36797888BC3C8A032F4E73EA6D927D
310
EA1DF6F42D49F2E8350D5346C666CE6CDD5ED515460A2B4BCC434A375E1078347C0FE22D5D6DE3D50B5D6F2965642CBF6B725DF96493AB958DC245EEDCD6631E809089F8E61622B2A81703E8219C913144F84C09DF070D8140C8561C9BAB8F3340832CAC363130A576376A108D933095FA747AD0CF0B46E64E983A6D0EAE1F
310
CE089F9EF1FB8E70D44255604258581E9D1D75B259C3125A278D37D80B52DAB4A279CEC62F0EFF44DDC43F9454E8469BFF5244960322CBEF41C6FBC83F01504B0304140006080800B670623B0F71DDB67E0000009D0000000B0000006662782F636E782E786D6C4DCCD10A83201886E15B91FFDCA54DB73F502386BB8F5816
310
32D3703976F9ABD1C18E3E78F87855FB990379BBFCF2296AE02706C4C5471A7C9C349475A408A4352AA7B4FEDD80C47E761A7606A3A69CCA72D0E0C6BE8475D3E0E3F3409428EA6B27A84079A782899AA2EC1A7AE3ECCC2FD858CB2D544655BFD2B67BD87C01504B0304140006080800B670623BE134B4FB28010000120200
310
00310000006662782F38353834323741342D343835462D343034322D383541392D4331303331363839454531452F636F72652E786D6C8D515B6EC32010BC0AE22B55850D0EA424C24451959EA0172086A42831583CAA1CBF503B52FB971F16CDCECC0EACD8DFC71BF836215AEF7A481A0C817183D7D65D7A98D3197108F652
310
04EFD31F1A044E8DA6871586525C82CFD3020DDE25E352419DD76601558C264130DCCAA58771F832A36A544E8511AFCDA486ABBA988634A55D7852C4144A00300FA927949C71DABD1D28A29C7D208A6987383B6CD13BC16BB2E1DBE3911C453B0BA5C8D9EA456E758963CFD684674DAA588A64C747FC2118958C86B2C3788B
310
0841B8FB247487D98EB257CC77188BB6D2FF89F2A49F1465EBD2BA5BE2CEB2082511EDDC9042FB7CBA3DC298FBE4430275DE2A9AE1054ADC60CC08E3A29D89E5F9C5714317C7987C28DFBBBA9E0A97B0D97643A568EB864AF95D5FA9759BF207504B0304140006080800B670623B1B8617914E010000330300003000000066
310
62782F38353834323741342D343835462D343034322D383541392D4331303331363839454531452F636E782E786D6CD593C16EC32010447F0571AD6CE3D489D20813A9877E410FBD62D82434182CC055F3F75D1292E692438FBD206B7698593D61BEFD1E2DF982108D773D6D6B460938E5B571FB9ECE6957AD29D90A1EBC4F
310
77364A9C1CA1A759A682EF839FA72269D8C9D92654AD71C72206887E0E0A22CAF926B15E498B01E0AA19451807D01A34B919F16B070157417138917400F2F6FA41FCF0092A45DEE414C19BDC21783E4BD39D891265658C3D8DEA00A3ACE59CBC8678ACB54CB26EEB6BD7839D7E9348BE70AD9C8321B9BCA7F9A4A26C542347
310
DEE050F09802D22BA6749A800A394DD62899107273365E3C82CFC6A55557BC06C10774B7ABE7AEC3B0F34CF06446280E154026D0542C187BA9DAB6628BF7B6DBB0E5A65B3EB1F58631DE64BBE083F7B65CC218087E22CABB042E51D1F2268F1FE12B3EA24D40D63E9CFE00120194D60B9D5BC67FE6D39CDF37E20AF817881F
310
504B0304140006080800B670623B5933D422630500003B100000340000006662782F38353834323741342D343835462D343034322D383541392D4331303331363839454531452F6F626A656374732E786D6CAD575B6FA33814FE2B887D0642934E9B156594264D158D3A534DD4D13E548A0C38942D60649B4EBABF7E3F8321
310
40924EF6928780CDF1B97EE762EFF32E4B8D37CA45C2F21BD3B547A641F39045491EDF98A5DC5AD7A6F1D9F73863B243661A39C9E88DA9B64DDF8B392B0BBD15D12D295339D85DDEFE618890E6D434C2940871638AF08566C426A5641115AF764424B1E3EDCE76ED9AB0CF36E6A47819302D08A7B984A6D8CFC1C5A89572FB
310
CB91E9F89EA3BEFB9EFAD754E3D3544E654F5F7E920B49F2F040D880CDD89D2CEE2E2EA7D6E56432B6269F2E5CEB7679BBB0DCABF168FE693E9FCEEEA6102C240727AD09A75BD3BF876F78127A4EFDA9D5582B7E4CA590E5390D2BFB6161A5B3E618D182E611E2985001691DAB47FDA5AB7CD3F93C566B2DB2BB7D9E55DD13
310
1D468DEECDB3AB290BFE8409E21C54704115AA6AFF68436BFC8DF65E0B184BF5B74418199194272435D224E084BF9B3E481589EFF5D828747285706581E9BB7B7E5D5D911ABFC6EE312DB7659A2A689A7E85EC0DF04FA5A8344BFEA2FCB834E8845895492EAFB541F2BDA0A63FF59C6AD3F7D4637CA13FD68E34B629891172
310
98597F1D183A57B9B75A98FE9765B05BAB7C3C2EBCE0ACA05C2AF8005A4DE09AA7F29216EB9E15397500C6F47CBE77CA7778FE2BD277AF0AE2C693DD6437D1522427B9D8329E2136F6A8FA19A3E6C56ADF0E5F50CF06D48734EDCEBF22F69C56D97EC138153F804B85E6FABFC7AFEFB32E523BE1F3BD372418E363EDCA7548
310
52949E8724474014288D94610BB57C1BEC4C7F854A89CA8E5324F55B871CBC78CE1BBEE3BFE68D6A5589EF3C730474506FCFA8FCF0659516D0ED04580EEA6425581B77CAE797FF4BCECC16EB2FEB926F49481F746159D06D922712BD730FDEAE42BD40F42C7AA5EF3F198F60E86110D6DD20645A9480B795CF95E3E3A659A8
310
C55E724F408873315335CFFB8584874484344D494E59D94869DB90C26A5B64F49C802CAC1D3ABE18A098D3B7444D123D8A9E5AE8F5214F0AE5B2B6E9B575DA3E61CBD3EA2B4009FA940524DD1305FB6A1FB294F14DF0BEA90BA109ECE1481FDC3FFAE8D60E75141700BE82725371B4873751B2DD960265F788137FACE6DD40
310
B575E4F0A5C99F46629D92131467A41EE11ABD8D4CCC039CA0AFB37C93A08B232B8F0AEFCA1E0A1015DF13FC83322B362463652ECF71D3A8B1A7D1BE65DE1D62C44F22C317D35F574FEB16153BA2D13E543D10A80E74C4A65E78A6B7CBCBD1D5DD9DB59C2DAFACC96C3AB566E3F1C29ADCDD5DBAD7D3C9ED7C822ED74F80A6
310
41755310DE4443F44A9E68373FADF6596BFA0F440AE7BECE2727AE9F4F2B1B53B1E7E00CF0DD1E5C65454A339A4BA2D0FBA05ED2EF0443458F47BDBFCA484CCFE0F2ED7E3DD0013B679C7B5499467F0ECEEADDB9CA85A34CE44B99053949D2C1416DB85DE4B136BB7165FBAC0B7AB3542BED4F8CA182A549847A1319316519
310
95A83A67147B9E5101C47487F2485F1ECE38FD568F839204296D3479219888530154036E6528FBFBC66F98E0D4107563A2D7D9AFF8D389681A08F58D89F22693900A3B407754734FC51C10C010D6D640809EE4718AC1BA3ED4AEDB53CA37283F68805A7E4B72CEB0A4EDEAD5DD8C14059A76AFAA56BA6901E13F32BC51C720
310
12AF41295B5BF61BAD3195181FB506E6B40F4C10AF5AF40EF9F5B159AE5DD1F43C72D635E94310D45C2D49785C5D0B94D3B54AB3C5A38349C0587D338AB48C11CBF339599C02CCA54A70A008A8D03C0B2201D5F9EFCF8F9CE12A9A19CB0410789EB32C63B95ECCF455D658BFE0621A3DA32C5075FB101723D77DAE867E7D0F
310
D90444509B44E2151B4DC2290B065803200FBAA9BE9D392A0603F2D5C2D00D6302A615680F66D2FA166E2079D4C551A54AB758161FCEFD4E450A14704CECFEDF504B0304140006080000B670623B000000000000000000000000350000006662782F38353834323741342D343835462D343034322D383541392D4331303331
310
363839454531452F76657274696365732E62696E504B0304140006080800B670623BF270F1330600000004000000360000006662782F38353834323741342D343835462D343034322D383541392D4331303331363839454531452F747269616E676C65732E62696E636660600000504B0304140006080000B670623B000000
310
000000000000000000370000006662782F38353834323741342D343835462D343034322D383541392D4331303331363839454531452F617474726962757465732E62696E504B0304140006080800B670623B08DA0BD19000000041010000360000006662782F38353834323741342D343835462D343034322D383541392D43
310
31303331363839454531452F6469726563746F72792E786D6C858F410AC3201045AF22B36F53E9A60B35CBEEBAE80D244E44489C6234F4F835464A48035D0DF398FF9F8AF63D0E6CC63039F212F8F9020C7D47C6792B21C5FE7403D62A1188E2E60C98D7234A5830286103A55745067B9D86B8A3CF9C7F90C11DE607FB1443
310
96D7B6A82D282E9A152AD114D5EF2CB866EEE831B8EEA07A7BB5A8D7D61A2BAAEB7FD5F70921FF497D00504B0304140006080800B670623BD9A3B367FE000000A00100003B0000006662782F38353834323741342D343835462D343034322D383541392D4331303331363839454531452F7265736F75726365732F636F7265
310
2E786D6C8D504B6E833010BD0A9A6D65B01D0201194711694FD00B586642AD043BF2A7EAF16B122AB5BB6E6646EFA3797AE2F8B5DC8A4FF4C1383B002B291468B59B8C9D0748F1420E501CA5F0CEC55F3228AC5A708015062966EFD27D83B4B3116DCCA875136EA00A012314FA968F0182FEC045952AC5AC08D7F2AEF455CD
310
58B232D3592745883E07289E4FD609D26370C96B0CA27AB252A464A64D63A6FCD35C0C7A904D73EE467EE664DCD58CD4ED4849D79C5A723ED1B7A61977AF2D6F45B59AA58866F9C9A83DAA8813484E6947182394BFB3BAA7FBBEDEBFD0434FA9A856F91F53BA4FFF342563E38E6F719FB60092E5200F428A6AED2BAF479979
310
AFDDCA6F504B010214000A0000080000B670623B3DEE336E79000000790000001B00000000000000000000000000000000006175746F6465736B2D64657369676E2D7061636B6167652E786D6C504B01021400140006080800B670623BD486FD9CA0000000F40000001300000000000000000000000000B20000005B436F6E
310
74656E745F54797065735D2E786D6C504B01021400140006080800B670623BCA089DFFEC0000007C010000080000000000000000000000000083010000636F72652E786D6C504B01021400140006080800B670623B55019EA25F0000007C000000070000000000000000000000000095020000636E782E786D6C504B010214
310
00140006080800B670623B68FC0B7272010000D40300000C00000000000000000000000000190300006662782F636F72652E786D6C504B01021400140006080800B670623B0F71DDB67E0000009D0000000B00000000000000000000000000B50400006662782F636E782E786D6C504B01021400140006080800B670623BE1
310
34B4FB280100001202000031000000000000000000000000005C0500006662782F38353834323741342D343835462D343034322D383541392D4331303331363839454531452F636F72652E786D6C504B01021400140006080800B670623B1B8617914E010000330300003000000000000000000000000000D3060000666278
310
2F38353834323741342D343835462D343034322D383541392D4331303331363839454531452F636E782E786D6C504B01021400140006080800B670623B5933D422630500003B10000034000000000000000000000000006F0800006662782F38353834323741342D343835462D343034322D383541392D4331303331363839
310
454531452F6F626A656374732E786D6C504B01021400140006080000B670623B0000000000000000000000003500000000000000000000000000240E00006662782F38353834323741342D343835462D343034322D383541392D4331303331363839454531452F76657274696365732E62696E504B01021400140006080800
310
B670623BF270F13306000000040000003600000000000000000000000000770E00006662782F38353834323741342D343835462D343034322D383541392D4331303331363839454531452F747269616E676C65732E62696E504B01021400140006080000B670623B0000000000000000000000003700000000000000000000
310
000000D10E00006662782F38353834323741342D343835462D343034322D383541392D4331303331363839454531452F617474726962757465732E62696E504B01021400140006080800B670623B08DA0BD190000000410100003600000000000000000000000000260F00006662782F38353834323741342D343835462D34
310
3034322D383541392D4331303331363839454531452F6469726563746F72792E786D6C504B01021400140006080800B670623BD9A3B367FE000000A00100003B000000000000000000000000000A1000006662782F38353834323741342D343835462D343034322D383541392D4331303331363839454531452F7265736F75
310
726365732F636F72652E786D6C504B0506000000000E000E0080040000611100000000
  0
XRECORD
  5
113
102
{ACAD_REACTORS
330
110
102
}
330
110
100
AcDbXrecord
280
     1
270
     1
271
     1
  0
XRECORD
  5
114
102
{ACAD_REACTORS
330
110
102
}
330
110
100
AcDbXrecord
280
     1
270
     1
271
     1
  0
XRECORD
  5
9C2
102
{ACAD_REACTORS
330
9C1
102
}
330
9C1
100
AcDbXrecord
280
     1
102
DISPLAYNAME
  1
Imperial24
102
FLAGS
 90
        0
  0
XRECORD
  5
9C7
102
{ACAD_REACTORS
330
9C6
102
}
330
9C6
100
AcDbXrecord
280
     1
102
DISPLAYNAME
  1
Metric50
102
FLAGS
 90
        0
  0
CELLSTYLEMAP
  5
9B7
102
{ACAD_REACTORS
330
104
102
}
330
104
100
AcDbCellStyleMap
 90
        3
300
CELLSTYLE
  1
TABLEFORMAT_BEGIN
 90
        5
170
     1
 91
        0
 92
    32768
 62
   257
 93
        1
300
CONTENTFORMAT
  1
CONTENTFORMAT_BEGIN
 90
        0
 91
        0
 92
      512
 93
        0
300

 40
0.0
140
1.0
 94
        5
 62
     0
340
11
144
0.25
309
CONTENTFORMAT_END
171
     1
301
MARGIN
  1
CELLMARGIN_BEGIN
 40
0.06
 40
0.06
 40
0.06
 40
0.06
 40
0.18
 40
0.18
309
CELLMARGIN_END
 94
        6
 95
        1
302
GRIDFORMAT
  1
GRIDFORMAT_BEGIN
 90
        0
 91
        1
 62
     0
 92
       -2
340
0
 93
        0
 40
0.045
309
GRIDFORMAT_END
 95
        2
302
GRIDFORMAT
  1
GRIDFORMAT_BEGIN
 90
        0
 91
        1
 62
     0
 92
       -2
340
0
 93
        0
 40
0.045
309
GRIDFORMAT_END
 95
        4
302
GRIDFORMAT
  1
GRIDFORMAT_BEGIN
 90
        0
 91
        1
 62
     0
 92
       -2
340
0
 93
        0
 40
0.045
309
GRIDFORMAT_END
 95
        8
302
GRIDFORMAT
  1
GRIDFORMAT_BEGIN
 90
        0
 91
        1
 62
     0
 92
       -2
340
0
 93
        0
 40
0.045
309
GRIDFORMAT_END
 95
       16
302
GRIDFORMAT
  1
GRIDFORMAT_BEGIN
 90
        0
 91
        1
 62
     0
 92
       -2
340
0
 93
        0
 40
0.045
309
GRIDFORMAT_END
 95
       32
302
GRIDFORMAT
  1
GRIDFORMAT_BEGIN
 90
        0
 91
        1
 62
     0
 92
       -2
340
0
 93
        0
 40
0.045
309
GRIDFORMAT_END
309
TABLEFORMAT_END
  1
CELLSTYLE_BEGIN
 90
        1
 91
        1
300
_TITLE
309
CELLSTYLE_END
300
CELLSTYLE
  1
TABLEFORMAT_BEGIN
 90
        5
170
     1
 91
        0
 92
        0
 62
   257
 93
        1
300
CONTENTFORMAT
  1
CONTENTFORMAT_BEGIN
 90
        0
 91
        0
 92
      512
 93
        0
300

 40
0.0
140
1.0
 94
        5
 62
     0
340
11
144
0.18
309
CONTENTFORMAT_END
171
     1
301
MARGIN
  1
CELLMARGIN_BEGIN
 40
0.06
 40
0.06
 40
0.06
 40
0.06
 40
0.18
 40
0.18
309
CELLMARGIN_END
 94
        6
 95
        1
302
GRIDFORMAT
  1
GRIDFORMAT_BEGIN
 90
        0
 91
        1
 62
     0
 92
       -2
340
0
 93
        0
 40
0.045
309
GRIDFORMAT_END
 95
        2
302
GRIDFORMAT
  1
GRIDFORMAT_BEGIN
 90
        0
 91
        1
 62
     0
 92
       -2
340
0
 93
        0
 40
0.045
309
GRIDFORMAT_END
 95
        4
302
GRIDFORMAT
  1
GRIDFORMAT_BEGIN
 90
        0
 91
        1
 62
     0
 92
       -2
340
0
 93
        0
 40
0.045
309
GRIDFORMAT_END
 95
        8
302
GRIDFORMAT
  1
GRIDFORMAT_BEGIN
 90
        0
 91
        1
 62
     0
 92
       -2
340
0
 93
        0
 40
0.045
309
GRIDFORMAT_END
 95
       16
302
GRIDFORMAT
  1
GRIDFORMAT_BEGIN
 90
        0
 91
        1
 62
     0
 92
       -2
340
0
 93
        0
 40
0.045
309
GRIDFORMAT_END
 95
       32
302
GRIDFORMAT
  1
GRIDFORMAT_BEGIN
 90
        0
 91
        1
 62
     0
 92
       -2
340
0
 93
        0
 40
0.045
309
GRIDFORMAT_END
309
TABLEFORMAT_END
  1
CELLSTYLE_BEGIN
 90
        2
 91
        1
300
_HEADER
309
CELLSTYLE_END
300
CELLSTYLE
  1
TABLEFORMAT_BEGIN
 90
        5
170
     1
 91
        0
 92
        0
 62
   257
 93
        1
300
CONTENTFORMAT
  1
CONTENTFORMAT_BEGIN
 90
        0
 91
        0
 92
      512
 93
        0
300

 40
0.0
140
1.0
 94
        2
 62
     0
340
11
144
0.18
309
CONTENTFORMAT_END
171
     1
301
MARGIN
  1
CELLMARGIN_BEGIN
 40
0.06
 40
0.06
 40
0.06
 40
0.06
 40
0.18
 40
0.18
309
CELLMARGIN_END
 94
        6
 95
        1
302
GRIDFORMAT
  1
GRIDFORMAT_BEGIN
 90
        0
 91
        1
 62
     0
 92
       -2
340
0
 93
        0
 40
0.045
309
GRIDFORMAT_END
 95
        2
302
GRIDFORMAT
  1
GRIDFORMAT_BEGIN
 90
        0
 91
        1
 62
     0
 92
       -2
340
0
 93
        0
 40
0.045
309
GRIDFORMAT_END
 95
        4
302
GRIDFORMAT
  1
GRIDFORMAT_BEGIN
 90
        0
 91
        1
 62
     0
 92
       -2
340
0
 93
        0
 40
0.045
309
GRIDFORMAT_END
 95
        8
302
GRIDFORMAT
  1
GRIDFORMAT_BEGIN
 90
        0
 91
        1
 62
     0
 92
       -2
340
0
 93
        0
 40
0.045
309
GRIDFORMAT_END
 95
       16
302
GRIDFORMAT
  1
GRIDFORMAT_BEGIN
 90
        0
 91
        1
 62
     0
 92
       -2
340
0
 93
        0
 40
0.045
309
GRIDFORMAT_END
 95
       32
302
GRIDFORMAT
  1
GRIDFORMAT_BEGIN
 90
        0
 91
        1
 62
     0
 92
       -2
340
0
 93
        0
 40
0.045
309
GRIDFORMAT_END
309
TABLEFORMAT_END
  1
CELLSTYLE_BEGIN
 90
        3
 91
        2
300
_DATA
309
CELLSTYLE_END
  0
ENDSEC
  0
SECTION
  2
ACDSDATA
 70
     2
 71
     8
  0
ACDSSCHEMA
 90
        0
  1
AcDb_Thumbnail_Schema
  2
AcDbDs::ID
280
    10
 91
        8
  2
Thumbnail_Data
280
    15
 91
        0
101
ACDSRECORD
 95
        0
 90
        1
  2
AcDbDs::TreatedAsObjectData
280
     1
291
     1
101
ACDSRECORD
 95
        0
 90
        2
  2
AcDbDs::Legacy
280
     1
291
     1
101
ACDSRECORD
  1
AcDbDs::ID
 90
        3
  2
AcDs:Indexable
280
     1
291
     1
101
ACDSRECORD
  1
AcDbDs::ID
 90
        4
  2
AcDbDs::HandleAttribute
280
     7
282
     1
  0
ACDSSCHEMA
 90
        1
  1
AcDbDs::TreatedAsObjectDataSchema
  2
AcDbDs::TreatedAsObjectData
280
     1
 91
        0
  0
ACDSSCHEMA
 90
        2
  1
AcDbDs::LegacySchema
  2
AcDbDs::Legacy
280
     1
 91
        0
  0
ACDSSCHEMA
 90
        3
  1
AcDbDs::IndexedPropertySchema
  2
AcDs:Indexable
280
     1
 91
        0
  0
ACDSSCHEMA
 90
        4
  1
AcDbDs::HandleAttributeSchema
  2
AcDbDs::HandleAttribute
280
     7
 91
        1
284
     1
  0
ACDSRECORD
 90
        0
  2
AcDbDs::ID
280
    10
320
22
  2
Thumbnail_Data
280
    15
 94
      982
310
89504E470D0A1A0A0000000D4948445200000100000000890803000000F46416F000000300504C5445212830FFFFFF2128300000000000000000000000000000000000000000000000000000330000660000990000CC0000FF0033000033330033660033990033CC0033FF0066000066330066660066990066CC0066FF0099
310
000099330099660099990099CC0099FF00CC0000CC3300CC6600CC9900CCCC00CCFF00FF0000FF3300FF6600FF9900FFCC00FFFF3300003300333300663300993300CC3300FF3333003333333333663333993333CC3333FF3366003366333366663366993366CC3366FF3399003399333399663399993399CC3399FF33CC00
310
33CC3333CC6633CC9933CCCC33CCFF33FF0033FF3333FF6633FF9933FFCC33FFFF6600006600336600666600996600CC6600FF6633006633336633666633996633CC6633FF6666006666336666666666996666CC6666FF6699006699336699666699996699CC6699FF66CC0066CC3366CC6666CC9966CCCC66CCFF66FF0066
310
FF3366FF6666FF9966FFCC66FFFF9900009900339900669900999900CC9900FF9933009933339933669933999933CC9933FF9966009966339966669966999966CC9966FF9999009999339999669999999999CC9999FF99CC0099CC3399CC6699CC9999CCCC99CCFF99FF0099FF3399FF6699FF9999FFCC99FFFFCC0000CC00
310
33CC0066CC0099CC00CCCC00FFCC3300CC3333CC3366CC3399CC33CCCC33FFCC6600CC6633CC6666CC6699CC66CCCC66FFCC9900CC9933CC9966CC9999CC99CCCC99FFCCCC00CCCC33CCCC66CCCC99CCCCCCCCCCFFCCFF00CCFF33CCFF66CCFF99CCFFCCCCFFFFFF0000FF0033FF0066FF0099FF00CCFF00FFFF3300FF3333
310
FF3366FF3399FF33CCFF33FFFF6600FF6633FF6666FF6699FF66CCFF66FFFF9900FF9933FF9966FF9999FF99CCFF99FFFFCC00FFCC33FFCC66FFCC99FFCCCCFFCCFFFFFF00FFFF33FFFF66FFFF99FFFFCCFFFFFF0000000D0D0D1A1A1A2828283535354343435050505D5D5D6B6B6B787878868686939393A1A1A1AEAEAEBB
310
BBBBC9C9C9D6D6D6E4E4E4F1F1F1FFFFFF0000000000000000000000000000000000000000000000000000000000002E4550F1000000914944415478DAEDDA310A80300C40D1DEFFBED945C18250885D4492F70607373F34CDE01800000000000000F0525C0480C64740005C8337010480D647E013A2C3FF66800002003047
310
63FBE5607155B40EB078D72EC0F9C822948914CF8F8D24C05CA6AA06C88E40CD00AD87205884F6EEB76A134200231FD819197EB5B32A03000000000000000000000000000000B0ED00B92B0FDC4F6829780000000049454E44AE426082
  0
ENDSEC
  0
EOF
