  0
SECTION
  2
HEADER
  9
$ACADVER
  1
AC1027
  9
$ACADMAINTVER
 70
   125
  9
$DWGCODEPAGE
  3
ANSI_1252
  9
$LASTSAVEDBY
  1
lou.burridge
  9
$REQUIREDVERSIONS
160
                 0
  9
$INSBASE
 10
0.0
 20
0.0
 30
0.0
  9
$EXTMIN
 10
55.13856451977838
 20
2897.929297610785
 30
0.0
  9
$EXTMAX
 10
20710.12315103084
 20
21584.48782798886
 30
0.0
  9
$LIMMIN
 10
0.0
 20
0.0
  9
$LIMMAX
 10
12.0
 20
9.0
  9
$ORTHOMODE
 70
     0
  9
$REGENMODE
 70
     1
  9
$FILLMODE
 70
     1
  9
$QTEXTMODE
 70
     0
  9
$MIRRTEXT
 70
     0
  9
$LTSCALE
 40
1.0
  9
$ATTMODE
 70
     1
  9
$TEXTSIZE
 40
0.2
  9
$TRACEWID
 40
0.05
  9
$TEXTSTYLE
  7
Standard
  9
$CLAYER
  8
0
  9
$CELTYPE
  6
ByLayer
  9
$CECOLOR
 62
   256
  9
$CELTSCALE
 40
1.0
  9
$DISPSILH
 70
     0
  9
$DIMSCALE
 40
1.0
  9
$DIMASZ
 40
0.18
  9
$DIMEXO
 40
0.0625
  9
$DIMDLI
 40
0.38
  9
$DIMRND
 40
0.0
  9
$DIMDLE
 40
0.0
  9
$DIMEXE
 40
0.18
  9
$DIMTP
 40
0.0
  9
$DIMTM
 40
0.0
  9
$DIMTXT
 40
0.18
  9
$DIMCEN
 40
0.09
  9
$DIMTSZ
 40
0.0
  9
$DIMTOL
 70
     0
  9
$DIMLIM
 70
     0
  9
$DIMTIH
 70
     1
  9
$DIMTOH
 70
     1
  9
$DIMSE1
 70
     0
  9
$DIMSE2
 70
     0
  9
$DIMTAD
 70
     0
  9
$DIMZIN
 70
     0
  9
$DIMBLK
  1

  9
$DIMASO
 70
     1
  9
$DIMSHO
 70
     1
  9
$DIMPOST
  1

  9
$DIMAPOST
  1

  9
$DIMALT
 70
     0
  9
$DIMALTD
 70
     2
  9
$DIMALTF
 40
25.4
  9
$DIMLFAC
 40
1.0
  9
$DIMTOFL
 70
     0
  9
$DIMTVP
 40
0.0
  9
$DIMTIX
 70
     0
  9
$DIMSOXD
 70
     0
  9
$DIMSAH
 70
     0
  9
$DIMBLK1
  1

  9
$DIMBLK2
  1

  9
$DIMSTYLE
  2
Standard
  9
$DIMCLRD
 70
     0
  9
$DIMCLRE
 70
     0
  9
$DIMCLRT
 70
     0
  9
$DIMTFAC
 40
1.0
  9
$DIMGAP
 40
0.09
  9
$DIMJUST
 70
     0
  9
$DIMSD1
 70
     0
  9
$DIMSD2
 70
     0
  9
$DIMTOLJ
 70
     1
  9
$DIMTZIN
 70
     0
  9
$DIMALTZ
 70
     0
  9
$DIMALTTZ
 70
     0
  9
$DIMUPT
 70
     0
  9
$DIMDEC
 70
     4
  9
$DIMTDEC
 70
     4
  9
$DIMALTU
 70
     2
  9
$DIMALTTD
 70
     2
  9
$DIMTXSTY
  7
Standard
  9
$DIMAUNIT
 70
     0
  9
$DIMADEC
 70
     0
  9
$DIMALTRND
 40
0.0
  9
$DIMAZIN
 70
     0
  9
$DIMDSEP
 70
    46
  9
$DIMATFIT
 70
     3
  9
$DIMFRAC
 70
     0
  9
$DIMLDRBLK
  1

  9
$DIMLUNIT
 70
     2
  9
$DIMLWD
 70
    -2
  9
$DIMLWE
 70
    -2
  9
$DIMTMOVE
 70
     0
  9
$DIMFXL
 40
1.0
  9
$DIMFXLON
 70
     0
  9
$DIMJOGANG
 40
0.7853981633974483
  9
$DIMTFILL
 70
     0
  9
$DIMTFILLCLR
 70
     0
  9
$DIMARCSYM
 70
     0
  9
$DIMLTYPE
  6

  9
$DIMLTEX1
  6

  9
$DIMLTEX2
  6

  9
$DIMTXTDIRECTION
 70
     0
  9
$LUNITS
 70
     2
  9
$LUPREC
 70
     4
  9
$SKETCHINC
 40
0.1
  9
$FILLETRAD
 40
0.0
  9
$AUNITS
 70
     0
  9
$AUPREC
 70
     0
  9
$MENU
  1
.
  9
$ELEVATION
 40
0.0
  9
$PELEVATION
 40
0.0
  9
$THICKNESS
 40
0.0
  9
$LIMCHECK
 70
     0
  9
$CHAMFERA
 40
0.0
  9
$CHAMFERB
 40
0.0
  9
$CHAMFERC
 40
0.0
  9
$CHAMFERD
 40
0.0
  9
$SKPOLY
 70
     0
  9
$TDCREATE
 40
2459102.376759259
  9
$TDUCREATE
 40
2459101.960092592
  9
$TDUPDATE
 40
2459150.562523148
  9
$TDUUPDATE
 40
2459150.104189815
  9
$TDINDWG
 40
0.1723726852
  9
$TDUSRTIMER
 40
0.1723726852
  9
$USRTIMER
 70
     1
  9
$ANGBASE
 50
0.0
  9
$ANGDIR
 70
     0
  9
$PDMODE
 70
     0
  9
$PDSIZE
 40
0.0
  9
$PLINEWID
 40
0.0
  9
$SPLFRAME
 70
     0
  9
$SPLINETYPE
 70
     6
  9
$SPLINESEGS
 70
     8
  9
$HANDSEED
  5
2538
  9
$SURFTAB1
 70
     6
  9
$SURFTAB2
 70
     6
  9
$SURFTYPE
 70
     6
  9
$SURFU
 70
     6
  9
$SURFV
 70
     6
  9
$UCSBASE
  2

  9
$UCSNAME
  2

  9
$UCSORG
 10
0.0
 20
0.0
 30
0.0
  9
$UCSXDIR
 10
1.0
 20
0.0
 30
0.0
  9
$UCSYDIR
 10
0.0
 20
1.0
 30
0.0
  9
$UCSORTHOREF
  2

  9
$UCSORTHOVIEW
 70
     0
  9
$UCSORGTOP
 10
0.0
 20
0.0
 30
0.0
  9
$UCSORGBOTTOM
 10
0.0
 20
0.0
 30
0.0
  9
$UCSORGLEFT
 10
0.0
 20
0.0
 30
0.0
  9
$UCSORGRIGHT
 10
0.0
 20
0.0
 30
0.0
  9
$UCSORGFRONT
 10
0.0
 20
0.0
 30
0.0
  9
$UCSORGBACK
 10
0.0
 20
0.0
 30
0.0
  9
$PUCSBASE
  2

  9
$PUCSNAME
  2

  9
$PUCSORG
 10
0.0
 20
0.0
 30
0.0
  9
$PUCSXDIR
 10
1.0
 20
0.0
 30
0.0
  9
$PUCSYDIR
 10
0.0
 20
1.0
 30
0.0
  9
$PUCSORTHOREF
  2

  9
$PUCSORTHOVIEW
 70
     0
  9
$PUCSORGTOP
 10
0.0
 20
0.0
 30
0.0
  9
$PUCSORGBOTTOM
 10
0.0
 20
0.0
 30
0.0
  9
$PUCSORGLEFT
 10
0.0
 20
0.0
 30
0.0
  9
$PUCSORGRIGHT
 10
0.0
 20
0.0
 30
0.0
  9
$PUCSORGFRONT
 10
0.0
 20
0.0
 30
0.0
  9
$PUCSORGBACK
 10
0.0
 20
0.0
 30
0.0
  9
$USERI1
 70
     0
  9
$USERI2
 70
     0
  9
$USERI3
 70
     0
  9
$USERI4
 70
     0
  9
$USERI5
 70
     0
  9
$USERR1
 40
0.0
  9
$USERR2
 40
0.0
  9
$USERR3
 40
0.0
  9
$USERR4
 40
0.0
  9
$USERR5
 40
0.0
  9
$WORLDVIEW
 70
     1
  9
$SHADEDGE
 70
     3
  9
$SHADEDIF
 70
    70
  9
$TILEMODE
 70
     1
  9
$MAXACTVP
 70
    64
  9
$PINSBASE
 10
0.0
 20
0.0
 30
0.0
  9
$PLIMCHECK
 70
     0
  9
$PEXTMIN
 10
0.0
 20
0.0
 30
0.0
  9
$PEXTMAX
 10
0.0
 20
0.0
 30
0.0
  9
$PLIMMIN
 10
0.0
 20
0.0
  9
$PLIMMAX
 10
12.0
 20
9.0
  9
$UNITMODE
 70
     0
  9
$VISRETAIN
 70
     1
  9
$PLINEGEN
 70
     0
  9
$PSLTSCALE
 70
     1
  9
$TREEDEPTH
 70
  3020
  9
$CMLSTYLE
  2
Standard
  9
$CMLJUST
 70
     0
  9
$CMLSCALE
 40
1.0
  9
$PROXYGRAPHICS
 70
     1
  9
$MEASUREMENT
 70
     0
  9
$CELWEIGHT
370
    -1
  9
$ENDCAPS
280
     0
  9
$JOINSTYLE
280
     0
  9
$LWDISPLAY
290
     0
  9
$INSUNITS
 70
     1
  9
$HYPERLINKBASE
  1

  9
$STYLESHEET
  1

  9
$XEDIT
290
     1
  9
$CEPSNTYPE
380
     0
  9
$PSTYLEMODE
290
     1
  9
$FINGERPRINTGUID
  2
{100BCD00-3357-CE47-8F34-A6BB90811583}
  9
$VERSIONGUID
  2
{37F09E9F-5BB2-1841-AE81-FE07FF482798}
  9
$EXTNAMES
290
     1
  9
$PSVPSCALE
 40
0.0
  9
$OLESTARTUP
290
     0
  9
$SORTENTS
280
   127
  9
$INDEXCTL
280
     0
  9
$HIDETEXT
280
     1
  9
$XCLIPFRAME
280
     2
  9
$HALOGAP
280
     0
  9
$OBSCOLOR
 70
   257
  9
$OBSLTYPE
280
     0
  9
$INTERSECTIONDISPLAY
280
     0
  9
$INTERSECTIONCOLOR
 70
   257
  9
$DIMASSOC
280
     2
  9
$PROJECTNAME
  1

  9
$CAMERADISPLAY
290
     0
  9
$LENSLENGTH
 40
50.0
  9
$CAMERAHEIGHT
 40
0.0
  9
$STEPSPERSEC
 40
2.0
  9
$STEPSIZE
 40
6.0
  9
$3DDWFPREC
 40
2.0
  9
$PSOLWIDTH
 40
0.25
  9
$PSOLHEIGHT
 40
4.0
  9
$LOFTANG1
 40
1.570796326794896
  9
$LOFTANG2
 40
1.570796326794896
  9
$LOFTMAG1
 40
0.0
  9
$LOFTMAG2
 40
0.0
  9
$LOFTPARAM
 70
     7
  9
$LOFTNORMALS
280
     1
  9
$LATITUDE
 40
37.795
  9
$LONGITUDE
 40
-122.394
  9
$NORTHDIRECTION
 40
0.0
  9
$TIMEZONE
 70
 -8000
  9
$LIGHTGLYPHDISPLAY
280
     1
  9
$TILEMODELIGHTSYNCH
280
     1
  9
$CMATERIAL
347
96
  9
$SOLIDHIST
280
     0
  9
$SHOWHIST
280
     1
  9
$DWFFRAME
280
     2
  9
$DGNFRAME
280
     0
  9
$REALWORLDSCALE
290
     1
  9
$INTERFERECOLOR
 62
     1
  9
$INTERFEREOBJVS
345
A3
  9
$INTERFEREVPVS
346
A0
  9
$CSHADOW
280
     0
  9
$SHADOWPLANELOCATION
 40
0.0
  0
ENDSEC
  0
SECTION
  2
CLASSES
  0
CLASS
  1
ACDBDICTIONARYWDFLT
  2
AcDbDictionaryWithDefault
  3
ObjectDBX Classes
 90
        0
 91
        1
280
     0
281
     0
  0
CLASS
  1
DICTIONARYVAR
  2
AcDbDictionaryVar
  3
ObjectDBX Classes
 90
        0
 91
        9
280
     0
281
     0
  0
CLASS
  1
TABLESTYLE
  2
AcDbTableStyle
  3
ObjectDBX Classes
 90
     4095
 91
        1
280
     0
281
     0
  0
CLASS
  1
MATERIAL
  2
AcDbMaterial
  3
ObjectDBX Classes
 90
     1153
 91
        3
280
     0
281
     0
  0
CLASS
  1
VISUALSTYLE
  2
AcDbVisualStyle
  3
ObjectDBX Classes
 90
     4095
 91
       24
280
     0
281
     0
  0
CLASS
  1
SCALE
  2
AcDbScale
  3
ObjectDBX Classes
 90
     1153
 91
       33
280
     0
281
     0
  0
CLASS
  1
MLEADERSTYLE
  2
AcDbMLeaderStyle
  3
ACDB_MLEADERSTYLE_CLASS
 90
     4095
 91
        2
280
     0
281
     0
  0
CLASS
  1
CELLSTYLEMAP
  2
AcDbCellStyleMap
  3
ObjectDBX Classes
 90
     1152
 91
        1
280
     0
281
     0
  0
CLASS
  1
EXACXREFPANELOBJECT
  2
ExAcXREFPanelObject
  3
EXAC_ESW
 90
     1025
 91
        1
280
     0
281
     0
  0
CLASS
  1
NPOCOLLECTION
  2
AcDbImpNonPersistentObjectsCollection
  3
ObjectDBX Classes
 90
     1153
 91
        1
280
     0
281
     0
  0
CLASS
  1
LAYER_INDEX
  2
AcDbLayerIndex
  3
ObjectDBX Classes
 90
        0
 91
        0
280
     0
281
     0
  0
CLASS
  1
SPATIAL_INDEX
  2
AcDbSpatialIndex
  3
ObjectDBX Classes
 90
        0
 91
        0
280
     0
281
     0
  0
CLASS
  1
IDBUFFER
  2
AcDbIdBuffer
  3
ObjectDBX Classes
 90
        0
 91
        0
280
     0
281
     0
  0
CLASS
  1
ACDBSECTIONVIEWSTYLE
  2
AcDbSectionViewStyle
  3
ObjectDBX Classes
 90
     1025
 91
        2
280
     0
281
     0
  0
CLASS
  1
ACDBDETAILVIEWSTYLE
  2
AcDbDetailViewStyle
  3
ObjectDBX Classes
 90
     1025
 91
        2
280
     0
281
     0
  0
CLASS
  1
SORTENTSTABLE
  2
AcDbSortentsTable
  3
ObjectDBX Classes
 90
        0
 91
        0
280
     0
281
     0
  0
ENDSEC
  0
SECTION
  2
TABLES
  0
TABLE
  2
VPORT
  5
8
330
0
100
AcDbSymbolTable
 70
     1
1001
ACAD
1000
DbSaveVer
1071
      208
  0
VPORT
  5
94
330
8
100
AcDbSymbolTableRecord
100
AcDbViewportTableRecord
  2
*Active
 70
     0
 10
0.0
 20
0.0
 11
1.0
 21
1.0
 12
9463.156411774042
 22
8462.826109302936
 13
0.0
 23
0.0
 14
0.5
 24
0.5
 15
0.5
 25
0.5
 16
0.0
 26
0.0
 36
1.0
 17
0.0
 27
0.0
 37
0.0
 40
19498.90350299371
 41
2.483072916666666
 42
50.0
 43
0.0
 44
0.0
 50
0.0
 51
0.0
 71
     0
 72
  1000
 73
     1
 74
     3
 75
     0
 76
     1
 77
     0
 78
     0
281
     0
 65
     1
110
0.0
120
0.0
130
0.0
111
1.0
121
0.0
131
0.0
112
0.0
122
1.0
132
0.0
 79
     0
146
0.0
348
9F
 60
     3
 61
     5
292
     1
282
     1
141
0.0
142
0.0
 63
   250
421
  3355443
1001
ACAD_NAV_VCDISPLAY
1070
     3
  0
ENDTAB
  0
TABLE
  2
LTYPE
  5
5
330
0
100
AcDbSymbolTable
 70
     2
  0
LTYPE
  5
14
330
5
100
AcDbSymbolTableRecord
100
AcDbLinetypeTableRecord
  2
ByBlock
 70
     0
  3

 72
    65
 73
     0
 40
0.0
  0
LTYPE
  5
15
330
5
100
AcDbSymbolTableRecord
100
AcDbLinetypeTableRecord
  2
ByLayer
 70
     0
  3

 72
    65
 73
     0
 40
0.0
  0
LTYPE
  5
16
330
5
100
AcDbSymbolTableRecord
100
AcDbLinetypeTableRecord
  2
Continuous
 70
     0
  3
Solid line
 72
    65
 73
     0
 40
0.0
  0
ENDTAB
  0
TABLE
  2
LAYER
  5
2
102
{ACAD_XDICTIONARY
360
18E
102
}
330
0
100
AcDbSymbolTable
 70
     8
  0
LAYER
  5
10
102
{ACAD_XDICTIONARY
360
E6
102
}
330
2
100
AcDbSymbolTableRecord
100
AcDbLayerTableRecord
  2
0
 70
     0
 62
     7
  6
Continuous
370
    -3
390
F
347
98
348
0
  0
LAYER
  5
21A
330
2
100
AcDbSymbolTableRecord
100
AcDbLayerTableRecord
  2
LINE
 70
     0
 62
     7
  6
Continuous
370
     5
390
F
347
98
348
0
1001
AcAecLayerStandard
1000

1000

1001
AcCmTransparency
1071
        0
  0
LAYER
  5
21B
330
2
100
AcDbSymbolTableRecord
100
AcDbLayerTableRecord
  2
Visible (ANSI)
 70
     0
 62
     7
  6
Continuous
370
    50
390
F
347
98
348
0
  0
LAYER
  5
7DF
330
2
100
AcDbSymbolTableRecord
100
AcDbLayerTableRecord
  2
Dimension (ISO)
 70
     0
 62
     7
  6
Continuous
370
     5
390
F
347
98
348
0
  0
LAYER
  5
7E0
330
2
100
AcDbSymbolTableRecord
100
AcDbLayerTableRecord
  2
Visible (ISO)
 70
     0
 62
     7
  6
Continuous
370
     5
390
F
347
98
348
0
  0
LAYER
  5
7E1
330
2
100
AcDbSymbolTableRecord
100
AcDbLayerTableRecord
  2
Defpoints
 70
     0
 62
     7
  6
Continuous
290
     0
370
    -3
390
F
347
98
348
0
  0
LAYER
  5
8CA
330
2
100
AcDbSymbolTableRecord
100
AcDbLayerTableRecord
  2
Detail Boundary (ISO)
 70
     0
 62
     7
  6
Continuous
370
     5
390
F
347
98
348
0
  0
LAYER
  5
9DC
330
2
100
AcDbSymbolTableRecord
100
AcDbLayerTableRecord
  2
Sketch Geometry (ANSI)
 70
     0
 62
     7
  6
Continuous
370
    25
390
F
347
98
348
0
  0
ENDTAB
  0
TABLE
  2
STYLE
  5
3
330
0
100
AcDbSymbolTable
 70
     3
  0
STYLE
  5
11
330
3
100
AcDbSymbolTableRecord
100
AcDbTextStyleTableRecord
  2
Standard
 70
     0
 40
0.0
 41
1.0
 50
0.0
 71
     0
 42
0.2
  3
arial.ttf
  4

1001
ACAD
1000
Arial
1071
       34
  0
STYLE
  5
DC
330
3
100
AcDbSymbolTableRecord
100
AcDbTextStyleTableRecord
  2
Annotative
 70
     0
 40
0.0
 41
1.0
 50
0.0
 71
     0
 42
0.2
  3
arial.ttf
  4

1001
AcadAnnotative
1000
AnnotativeData
1002
{
1070
     1
1070
     1
1002
}
1001
ACAD
1000
Arial
1071
       34
  0
STYLE
  5
7B9
330
3
100
AcDbSymbolTableRecord
100
AcDbTextStyleTableRecord
  2
Jardan Text - 3.05mm
 70
     0
 40
0.0
 41
1.0
 50
0.0
 71
     0
 42
0.2
  3
apercu_regular-webfont.ttf
  4

1001
ACAD
1000
Apercu
1071
      256
  0
ENDTAB
  0
TABLE
  2
VIEW
  5
6
330
0
100
AcDbSymbolTable
 70
     1
  0
ENDTAB
  0
TABLE
  2
UCS
  5
7
330
0
100
AcDbSymbolTable
 70
     0
  0
ENDTAB
  0
TABLE
  2
APPID
  5
9
330
0
100
AcDbSymbolTable
 70
    11
  0
APPID
  5
12
330
9
100
AcDbSymbolTableRecord
100
AcDbRegAppTableRecord
  2
ACAD
 70
     0
  0
APPID
  5
DD
330
9
100
AcDbSymbolTableRecord
100
AcDbRegAppTableRecord
  2
AcadAnnoPO
 70
     0
  0
APPID
  5
DE
330
9
100
AcDbSymbolTableRecord
100
AcDbRegAppTableRecord
  2
AcadAnnotative
 70
     0
  0
APPID
  5
DF
330
9
100
AcDbSymbolTableRecord
100
AcDbRegAppTableRecord
  2
ACAD_DSTYLE_DIMJAG
 70
     0
  0
APPID
  5
E0
330
9
100
AcDbSymbolTableRecord
100
AcDbRegAppTableRecord
  2
ACAD_DSTYLE_DIMTALN
 70
     0
  0
APPID
  5
107
330
9
100
AcDbSymbolTableRecord
100
AcDbRegAppTableRecord
  2
ACAD_MLEADERVER
 70
     0
  0
APPID
  5
1A6
330
9
100
AcDbSymbolTableRecord
100
AcDbRegAppTableRecord
  2
ACAD_NAV_VCDISPLAY
 70
     0
  0
APPID
  5
21C
330
9
100
AcDbSymbolTableRecord
100
AcDbRegAppTableRecord
  2
AcAecLayerStandard
 70
     0
  0
APPID
  5
21D
330
9
100
AcDbSymbolTableRecord
100
AcDbRegAppTableRecord
  2
AcCmTransparency
 70
     0
  0
APPID
  5
7B3
330
9
100
AcDbSymbolTableRecord
100
AcDbRegAppTableRecord
  2
ACAD_EXEMPT_FROM_CAD_STANDARDS
 70
     0
  0
APPID
  5
9DD
330
9
100
AcDbSymbolTableRecord
100
AcDbRegAppTableRecord
  2
ACAD_DSTYLE_DIMRADIAL_EXTENSION
 70
     0
  0
ENDTAB
  0
TABLE
  2
DIMSTYLE
  5
A
330
0
100
AcDbSymbolTable
 70
     4
100
AcDbDimStyleTable
 71
     2
340
27
340
E1
  0
DIMSTYLE
105
27
330
A
100
AcDbSymbolTableRecord
100
AcDbDimStyleTableRecord
  2
Standard
 70
     0
340
11
  0
DIMSTYLE
105
E1
330
A
100
AcDbSymbolTableRecord
100
AcDbDimStyleTableRecord
  2
Annotative
 70
     0
 40
0.0
340
11
1001
AcadAnnotative
1000
AnnotativeData
1002
{
1070
     1
1070
     1
1002
}
1001
ACAD_DSTYLE_DIMJAG
1070
   388
1040
1.5
1001
ACAD_DSTYLE_DIMTALN
1070
   392
1070
     0
  0
DIMSTYLE
105
7BA
330
A
100
AcDbSymbolTableRecord
100
AcDbDimStyleTableRecord
  2
Default - mm (ANSI)
 70
     0
 41
2.5
 42
1.6002
 43
6.0
 44
3.174999999999999
 78
    12
 79
     1
140
3.04800009727478
143
1.0
147
0.8
171
     0
176
   256
177
   256
178
   256
271
     1
272
     2
274
     1
284
     4
285
     4
340
7B9
342
7B5
345
15
346
15
347
15
371
    -1
372
    -1
  0
DIMSTYLE
105
7E2
330
A
100
AcDbSymbolTableRecord
100
AcDbDimStyleTableRecord
  2
Jardan Dimension Style
 70
     0
 40
8.0
 41
2.5
 42
1.587499999999999
 43
5.999999999999999
 44
3.174999999999998
 45
0.00000001
 73
     0
 78
    12
 79
     3
140
3.050000190734863
143
1.0
146
0.9993442296981811
147
0.8
171
     1
176
   256
177
   256
178
   256
271
     1
272
     2
274
     1
284
     4
285
    12
340
7B9
342
7B5
371
    -1
372
    -1
  0
ENDTAB
  0
TABLE
  2
BLOCK_RECORD
  5
1
330
0
100
AcDbSymbolTable
 70
     7
  0
BLOCK_RECORD
  5
1F
102
{ACAD_XDICTIONARY
360
15D
102
}
330
1
100
AcDbSymbolTableRecord
100
AcDbBlockTableRecord
  2
*Model_Space
340
22
 70
     0
280
     1
281
     0
  0
BLOCK_RECORD
  5
58
330
1
100
AcDbSymbolTableRecord
100
AcDbBlockTableRecord
  2
*Paper_Space
340
59
 70
     0
280
     1
281
     0
  0
BLOCK_RECORD
  5
5D
330
1
100
AcDbSymbolTableRecord
100
AcDbBlockTableRecord
  2
*Paper_Space0
340
5E
 70
     0
280
     1
281
     0
  0
BLOCK_RECORD
  5
7B5
330
1
100
AcDbSymbolTableRecord
100
AcDbBlockTableRecord
  2
_Oblique
340
0
 70
     0
280
     1
281
     0
  0
BLOCK_RECORD
  5
7BD
330
1
100
AcDbSymbolTableRecord
100
AcDbBlockTableRecord
  2
A$Ccc117ca1
340
0
 70
     4
280
     1
281
     0
  0
BLOCK_RECORD
  5
8A2
330
1
100
AcDbSymbolTableRecord
100
AcDbBlockTableRecord
  2
2dDetail0
340
0
 70
     0
280
     1
281
     0
  0
BLOCK_RECORD
  5
9CB
330
1
100
AcDbSymbolTableRecord
100
AcDbBlockTableRecord
  2
Grain Direction Vertical
340
0
 70
     0
280
     1
281
     0
  0
BLOCK_RECORD
  5
C3E
330
1
100
AcDbSymbolTableRecord
100
AcDbBlockTableRecord
  2
Grain Direction Horizontal
340
0
 70
     0
280
     1
281
     0
  0
BLOCK_RECORD
  5
133B
330
1
100
AcDbSymbolTableRecord
100
AcDbBlockTableRecord
  2
Grain Direction 45 Right
340
0
 70
     0
280
     1
281
     0
  0
ENDTAB
  0
ENDSEC
  0
SECTION
  2
BLOCKS
  0
BLOCK
  5
20
330
1F
100
AcDbEntity
  8
0
100
AcDbBlockBegin
  2
*Model_Space
 70
     0
 10
0.0
 20
0.0
 30
0.0
  3
*Model_Space
  1

  0
ENDBLK
  5
21
330
1F
100
AcDbEntity
  8
0
100
AcDbBlockEnd
  0
BLOCK
  5
5A
330
58
100
AcDbEntity
 67
     1
  8
0
100
AcDbBlockBegin
  2
*Paper_Space
 70
     0
 10
0.0
 20
0.0
 30
0.0
  3
*Paper_Space
  1

  0
ENDBLK
  5
5B
330
58
100
AcDbEntity
 67
     1
  8
0
100
AcDbBlockEnd
  0
BLOCK
  5
5F
330
5D
100
AcDbEntity
 67
     1
  8
0
100
AcDbBlockBegin
  2
*Paper_Space0
 70
     0
 10
0.0
 20
0.0
 30
0.0
  3
*Paper_Space0
  1

  0
ENDBLK
  5
60
330
5D
100
AcDbEntity
 67
     1
  8
0
100
AcDbBlockEnd
  0
BLOCK
  5
7B6
330
7B5
100
AcDbEntity
  8
0
100
AcDbBlockBegin
  2
_Oblique
 70
     0
 10
0.0
 20
0.0
 30
0.0
  3
_Oblique
  1

  0
LINE
  5
7B7
330
7B5
100
AcDbEntity
  8
0
  6
ByBlock
 62
     0
370
    -2
100
AcDbLine
 10
-0.5
 20
-0.5
 30
0.0
 11
0.5
 21
0.5
 31
0.0
  0
ENDBLK
  5
7B8
330
7B5
100
AcDbEntity
  8
0
100
AcDbBlockEnd
  0
BLOCK
  5
7BE
330
7BD
100
AcDbEntity
  8
0
100
AcDbBlockBegin
  2
A$Ccc117ca1
 70
     0
 10
0.0
 20
0.0
 30
0.0
  3
A$Ccc117ca1
  1

  0
ENDBLK
  5
7BF
330
7BD
100
AcDbEntity
  8
0
100
AcDbBlockEnd
  0
BLOCK
  5
8A3
330
8A2
100
AcDbEntity
  8
0
100
AcDbBlockBegin
  2
2dDetail0
 70
     0
 10
0.0
 20
0.0
 30
0.0
  3
2dDetail0
  1

  0
MTEXT
  5
8A4
330
8A2
100
AcDbEntity
  8
Detail Boundary (ISO)
100
AcDbMText
 10
198.975660056905
 20
176.2836125995785
 30
0.0
 40
3.050000071525573
 41
0.0
 46
0.0
 71
     7
 72
     1
  1
A
  7
Jardan Text - 3.05mm
 73
     1
 44
1.0
  0
LINE
  5
8A5
330
8A2
100
AcDbEntity
  8
Detail Boundary (ISO)
  6
Continuous
100
AcDbLine
 10
205.7428156104223
 20
174.9667570386182
 30
0.0
 11
204.2865574298708
 21
176.9988279309782
 31
0.0
  0
POLYLINE
  5
8A6
330
8A2
100
AcDbEntity
  8
Detail Boundary (ISO)
  6
Continuous
100
AcDb2dPolyline
 66
     1
 10
0.0
 20
0.0
 30
0.0
 70
   128
  0
VERTEX
  5
8A7
330
8A6
100
AcDbEntity
  8
Detail Boundary (ISO)
  6
Continuous
100
AcDbVertex
100
AcDb2dVertex
 10
206.1492347717285
 20
175.2580070495605
 30
0.0
  0
VERTEX
  5
8A8
330
8A6
100
AcDbEntity
  8
Detail Boundary (ISO)
  6
Continuous
100
AcDbVertex
100
AcDb2dVertex
 10
204.2865562438965
 20
176.9988250732422
 30
0.0
  0
VERTEX
  5
8A9
330
8A6
100
AcDbEntity
  8
Detail Boundary (ISO)
  6
Continuous
100
AcDbVertex
100
AcDb2dVertex
 10
205.3363990783692
 20
174.6755027770996
 30
0.0
  0
VERTEX
  5
8AA
330
8A6
100
AcDbEntity
  8
Detail Boundary (ISO)
  6
Continuous
100
AcDbVertex
100
AcDb2dVertex
 10
206.1492347717285
 20
175.2580070495605
 30
0.0
  0
SEQEND
  5
8AB
330
8A6
100
AcDbEntity
  8
Detail Boundary (ISO)
  6
Continuous
  0
SOLID
  5
8AC
330
8A2
100
AcDbEntity
  8
Detail Boundary (ISO)
100
AcDbTrace
 10
206.1492347717285
 20
175.2580070495605
 30
0.0
 11
204.2865562438965
 21
176.9988250732422
 31
0.0
 12
205.3363990783692
 22
174.6755027770996
 32
0.0
 13
206.1492347717285
 23
175.2580070495605
 33
0.0
  0
LINE
  5
8AD
330
8A2
100
AcDbEntity
  8
Detail Boundary (ISO)
  6
Continuous
100
AcDbLine
 10
206.1492297888943
 20
175.2580086747285
 30
0.0
 11
204.2865574298708
 21
176.9988279309782
 31
0.0
  0
LINE
  5
8AE
330
8A2
100
AcDbEntity
  8
Detail Boundary (ISO)
  6
Continuous
100
AcDbLine
 10
204.2865574298708
 20
176.9988279309782
 30
0.0
 11
205.3364014319503
 21
174.6755054025079
 31
0.0
  0
LINE
  5
8AF
330
8A2
100
AcDbEntity
  8
Detail Boundary (ISO)
  6
Continuous
100
AcDbLine
 10
205.3364014319503
 20
174.6755054025079
 30
0.0
 11
206.1492297888943
 21
175.2580086747285
 31
0.0
  0
LINE
  5
8B0
330
8A2
100
AcDbEntity
  8
Detail Boundary (ISO)
  6
Continuous
100
AcDbLine
 10
194.6810380222619
 20
174.9667570386182
 30
0.0
 11
196.1372962028134
 21
176.9988279309782
 31
0.0
  0
POLYLINE
  5
8B1
330
8A2
100
AcDbEntity
  8
Detail Boundary (ISO)
  6
Continuous
100
AcDb2dPolyline
 66
     1
 10
0.0
 20
0.0
 30
0.0
 70
   128
  0
VERTEX
  5
8B2
330
8B1
100
AcDbEntity
  8
Detail Boundary (ISO)
  6
Continuous
100
AcDbVertex
100
AcDb2dVertex
 10
195.0874519348144
 20
174.6755027770996
 30
0.0
  0
VERTEX
  5
8B3
330
8B1
100
AcDbEntity
  8
Detail Boundary (ISO)
  6
Continuous
100
AcDbVertex
100
AcDb2dVertex
 10
196.1372947692871
 20
176.9988250732422
 30
0.0
  0
VERTEX
  5
8B4
330
8B1
100
AcDbEntity
  8
Detail Boundary (ISO)
  6
Continuous
100
AcDbVertex
100
AcDb2dVertex
 10
194.274616241455
 20
175.2580070495605
 30
0.0
  0
VERTEX
  5
8B5
330
8B1
100
AcDbEntity
  8
Detail Boundary (ISO)
  6
Continuous
100
AcDbVertex
100
AcDb2dVertex
 10
195.0874519348144
 20
174.6755027770996
 30
0.0
  0
SEQEND
  5
8B6
330
8B1
100
AcDbEntity
  8
Detail Boundary (ISO)
  6
Continuous
  0
SOLID
  5
8B7
330
8A2
100
AcDbEntity
  8
Detail Boundary (ISO)
100
AcDbTrace
 10
195.0874519348144
 20
174.6755027770996
 30
0.0
 11
196.1372947692871
 21
176.9988250732422
 31
0.0
 12
194.274616241455
 22
175.2580070495605
 32
0.0
 13
195.0874519348144
 23
174.6755027770996
 33
0.0
  0
LINE
  5
8B8
330
8A2
100
AcDbEntity
  8
Detail Boundary (ISO)
  6
Continuous
100
AcDbLine
 10
195.0874522007339
 20
174.6755054025079
 30
0.0
 11
196.1372962028134
 21
176.9988279309782
 31
0.0
  0
LINE
  5
8B9
330
8A2
100
AcDbEntity
  8
Detail Boundary (ISO)
  6
Continuous
100
AcDbLine
 10
196.1372962028134
 20
176.9988279309782
 30
0.0
 11
194.2746238437899
 21
175.2580086747285
 31
0.0
  0
LINE
  5
8BA
330
8A2
100
AcDbEntity
  8
Detail Boundary (ISO)
  6
Continuous
100
AcDbLine
 10
194.2746238437899
 20
175.2580086747285
 30
0.0
 11
195.0874522007339
 21
174.6755054025079
 31
0.0
  0
ARC
  5
8BB
330
8A2
100
AcDbEntity
  8
Detail Boundary (ISO)
100
AcDbCircle
 10
200.2119268163421
 20
171.0031147846095
 30
0.0
 40
6.804497833804142
100
AcDbArc
 50
144.3731972291683
 51
35.62680277083171
  0
ENDBLK
  5
8BC
330
8A2
100
AcDbEntity
  8
0
100
AcDbBlockEnd
  0
BLOCK
  5
9CC
330
9CB
100
AcDbEntity
  8
0
100
AcDbBlockBegin
  2
Grain Direction Vertical
 70
     0
 10
0.0
 20
0.0
 30
0.0
  3
Grain Direction Vertical
  1

  0
LINE
  5
9CD
330
9CB
100
AcDbEntity
  8
Sketch Geometry (ANSI)
100
AcDbLine
 10
-0.0177173911663786
 20
12.25398860301084
 30
0.0
 11
-0.0177173911663786
 21
-12.25398860301084
 31
0.0
  0
LINE
  5
9CE
330
9CB
100
AcDbEntity
  8
Sketch Geometry (ANSI)
100
AcDbLine
 10
-0.0177173911663786
 20
-12.25398860301084
 30
0.0
 11
3.726556757962348
 21
-7.488548590728854
 31
0.0
  0
LINE
  5
9CF
330
9CB
100
AcDbEntity
  8
Sketch Geometry (ANSI)
100
AcDbLine
 10
-0.0177173911663786
 20
12.25398860301084
 30
0.0
 11
-3.726556757962339
 21
7.533647406368294
 31
0.0
  0
ENDBLK
  5
9D0
330
9CB
100
AcDbEntity
  8
0
100
AcDbBlockEnd
  0
BLOCK
  5
C3F
330
C3E
100
AcDbEntity
  8
0
100
AcDbBlockBegin
  2
Grain Direction Horizontal
 70
     0
 10
0.0
 20
0.0
 30
0.0
  3
Grain Direction Horizontal
  1

  0
LINE
  5
C40
330
C3E
100
AcDbEntity
  8
Sketch Geometry (ANSI)
100
AcDbLine
 10
17.18962223009089
 20
0.0848950090080436
 30
0.0
 11
-17.18962223009089
 21
0.0848950090080436
 31
0.0
  0
LINE
  5
C41
330
C3E
100
AcDbEntity
  8
Sketch Geometry (ANSI)
100
AcDbLine
 10
-17.18962223009089
 20
0.0848950090080436
 30
0.0
 11
-12.08379384491538
 21
-4.680545003273976
 31
0.0
  0
LINE
  5
C42
330
C3E
100
AcDbEntity
  8
Sketch Geometry (ANSI)
100
AcDbLine
 10
17.18962223009089
 20
0.0848950090080436
 30
0.0
 11
12.26571171425623
 21
4.680545003273976
 31
0.0
  0
ENDBLK
  5
C43
330
C3E
100
AcDbEntity
  8
0
100
AcDbBlockEnd
  0
BLOCK
  5
133C
330
133B
100
AcDbEntity
  8
0
100
AcDbBlockBegin
  2
Grain Direction 45 Right
 70
     0
 10
0.0
 20
0.0
 30
0.0
  3
Grain Direction 45 Right
  1

  0
LINE
  5
133D
330
133B
100
AcDbEntity
  8
Sketch Geometry (ANSI)
100
AcDbLine
 10
-5.303300858899121
 20
-5.303300858899113
 30
0.0
 11
5.303300858899113
 21
5.303300858899078
 31
0.0
  0
LINE
  5
133E
330
133B
100
AcDbEntity
  8
Sketch Geometry (ANSI)
100
AcDbLine
 10
-5.303300858899121
 20
-5.303300858899113
 30
0.0
 11
-2.303300858899123
 21
-5.303300858899113
 31
0.0
  0
LINE
  5
133F
330
133B
100
AcDbEntity
  8
Sketch Geometry (ANSI)
100
AcDbLine
 10
5.303300858899113
 20
5.303300858899078
 30
0.0
 11
2.303300858899115
 21
5.303300858899113
 31
0.0
  0
ENDBLK
  5
1340
330
133B
100
AcDbEntity
  8
0
100
AcDbBlockEnd
  0
ENDSEC
  0
SECTION
  2
ENTITIES
  0
TEXT
  5
53E
330
1F
100
AcDbEntity
  8
LINE
100
AcDbText
 10
55.13856451978043
 20
18856.86102892969
 30
0.0
 40
233.9816249415046
  1
Side Tables
 41
1.000399999999999
100
AcDbText
  0
LINE
  5
53F
330
1F
100
AcDbEntity
  8
LINE
370
     9
100
AcDbLine
 10
55.13856451978043
 20
19597.30789471137
 30
0.0
 11
20710.12315103084
 21
19597.30789471137
 31
0.0
  0
TEXT
  5
540
330
1F
100
AcDbEntity
  8
LINE
100
AcDbText
 10
55.13856451978043
 20
21340.79843480285
 30
0.0
 40
192.6907499518273
  1
OTIS
 41
1.000399999999999
100
AcDbText
  0
TEXT
  5
541
330
1F
100
AcDbEntity
  8
LINE
100
AcDbText
 10
55.13856451978043
 20
20738.17546644765
 30
0.0
 40
192.6907499518273
  1
—
 41
1.000399999999999
100
AcDbText
  0
TEXT
  5
542
330
1F
100
AcDbEntity
  8
LINE
100
AcDbText
 10
55.13856451978053
 20
20063.20495056918
 30
0.0
 40
233.9816249415046
  1
DIMENSIONS
 41
1.000399999999999
100
AcDbText
  0
TEXT
  5
559
330
1F
100
AcDbEntity
  8
LINE
100
AcDbText
 10
10713.27650582665
 20
17548.64499468666
 30
0.0
 40
233.9816249415046
  1
OI50
 41
1.000399999999999
100
AcDbText
  0
TEXT
  5
572
330
1F
100
AcDbEntity
  8
LINE
100
AcDbText
 10
10877.58819197148
 20
13572.30256340922
 30
0.0
 40
233.9816249415046
  1
OI80
 41
1.000399999999999
100
AcDbText
  0
TEXT
  5
734
330
1F
100
AcDbEntity
  8
LINE
100
AcDbText
 10
10913.13396607179
 20
18867.04342229137
 30
0.0
 40
233.9816249415046
  1
50
 41
1.000399999999999
100
AcDbText
  0
MTEXT
  5
73C
330
1F
100
AcDbEntity
  8
0
100
AcDbMText
 10
11604.9772303736
 20
18489.16317284017
 30
0.0
 40
233.9816249415046
 41
351.4273130132687
 46
0.0
 71
     1
 72
     1
  1
50
 73
     1
 44
1.0
  0
MTEXT
  5
741
330
1F
100
AcDbEntity
  8
0
100
AcDbMText
 10
11842.4825941651
 20
14474.23970171596
 30
0.0
 40
233.9816249415046
 41
351.4273130132687
 46
0.0
 71
     1
 72
     1
  1
80
 73
     1
 44
1.0
  0
MTEXT
  5
743
330
1F
100
AcDbEntity
  8
0
100
AcDbMText
 10
11145.2850130501
 20
15175.29020913817
 30
0.0
 40
233.9816249415046
 41
351.4273130132687
 46
0.0
 71
     1
 72
     1
  1
80
 73
     1
 44
1.0
  0
MTEXT
  5
744
330
1F
100
AcDbEntity
  8
0
100
AcDbMText
 10
4874.490263816337
 20
18382.04906192293
 30
0.0
 40
233.9816249415046
 41
351.4273130132687
 46
0.0
 71
     1
 72
     1
  1
45
 73
     1
 44
1.0
  0
LINE
  5
7B1
330
1F
100
AcDbEntity
  8
0
100
AcDbLine
 10
55.13856451977929
 20
16298.66653062523
 30
0.0
 11
20710.12315103084
 21
16298.66653062523
 31
0.0
  0
TEXT
  5
7B2
330
1F
100
AcDbEntity
  8
LINE
100
AcDbText
 10
88.58291636030983
 20
15416.12180956797
 30
0.0
 40
233.9816249415046
  1
Coffee Tables
 41
1.000399999999999
100
AcDbText
  0
LINE
  5
810
330
1F
100
AcDbEntity
  8
Visible (ISO)
100
AcDbLine
 10
4305.666291099814
 20
18516.98686512719
 30
0.0
 11
4096.666291099808
 21
18516.98686512719
 31
0.0
  0
LINE
  5
811
330
1F
100
AcDbEntity
  8
Visible (ISO)
100
AcDbLine
 10
4556.666291099809
 20
18516.98686512719
 30
0.0
 11
4347.666291099815
 21
18516.98686512719
 31
0.0
  0
LINE
  5
812
330
1F
100
AcDbEntity
  8
Visible (ISO)
100
AcDbLine
 10
4305.666291099815
 20
18536.98686512719
 30
0.0
 11
4076.666291099809
 21
18536.98686512719
 31
0.0
  0
LINE
  5
813
330
1F
100
AcDbEntity
  8
Visible (ISO)
100
AcDbLine
 10
4576.666291099808
 20
18536.98686512719
 30
0.0
 11
4347.666291099815
 21
18536.98686512719
 31
0.0
  0
ARC
  5
814
330
1F
100
AcDbEntity
  8
Visible (ISO)
100
AcDbCircle
 10
4556.666291099808
 20
18536.98686512719
 30
0.0
 40
20.0
100
AcDbArc
 50
270.0
 51
0.0
  0
ARC
  5
815
330
1F
100
AcDbEntity
  8
Visible (ISO)
100
AcDbCircle
 10
4096.666291099809
 20
18536.98686512719
 30
0.0
 40
20.0
100
AcDbArc
 50
180.0
 51
270.0
  0
ELLIPSE
  5
816
330
1F
100
AcDbEntity
  8
Visible (ISO)
100
AcDbEllipse
 10
4422.036780670683
 20
18491.98686512719
 30
0.0
 11
-0.0000000000003036
 21
-5.000000000000044
 31
0.0
210
0.0
220
0.0
230
1.0
 40
0.8660254037844458
 41
0.0
 42
6.283185307179585
  0
ELLIPSE
  5
817
330
1F
100
AcDbEntity
  8
Visible (ISO)
100
AcDbEllipse
 10
4231.295801528933
 20
18491.98686512719
 30
0.0
 11
0.0000000000003242
 21
-5.000000000000044
 31
0.0
210
0.0
220
0.0
230
1.0
 40
0.8660254037844424
 41
0.0
 42
6.283185307179585
  0
LINE
  5
818
330
1F
100
AcDbEntity
  8
Visible (ISO)
100
AcDbLine
 10
4411.211521111527
 20
18466.98686512719
 30
0.0
 11
4347.666291099808
 21
18466.98686512719
 31
0.0
  0
LINE
  5
819
330
1F
100
AcDbEntity
  8
Visible (ISO)
100
AcDbLine
 10
4411.211521111527
 20
18516.98686512719
 30
0.0
 11
4411.211521111527
 21
18466.98686512719
 31
0.0
  0
LINE
  5
81A
330
1F
100
AcDbEntity
  8
Visible (ISO)
100
AcDbLine
 10
4305.666291099807
 20
18466.98686512719
 30
0.0
 11
4242.121119076238
 21
18466.98686512719
 31
0.0
  0
LINE
  5
81B
330
1F
100
AcDbEntity
  8
Visible (ISO)
100
AcDbLine
 10
4242.121119076238
 20
18466.98686512719
 30
0.0
 11
4242.121119076238
 21
18516.98686512719
 31
0.0
  0
LINE
  5
81C
330
1F
100
AcDbEntity
  8
Visible (ISO)
100
AcDbLine
 10
4305.666291099815
 20
18536.98686512719
 30
0.0
 11
4305.666291099815
 21
18086.98686512719
 31
0.0
  0
LINE
  5
81D
330
1F
100
AcDbEntity
  8
Visible (ISO)
100
AcDbLine
 10
4347.666291099815
 20
18086.98686512719
 30
0.0
 11
4347.666291099815
 21
18536.98686512719
 31
0.0
  0
LINE
  5
81E
330
1F
100
AcDbEntity
  8
Visible (ISO)
100
AcDbLine
 10
4347.666291099815
 20
18086.98686512719
 30
0.0
 11
4305.666291099815
 21
18086.98686512719
 31
0.0
  0
LINE
  5
81F
330
1F
100
AcDbEntity
  8
Visible (ISO)
100
AcDbLine
 10
4305.666291099815
 20
18536.98686512719
 30
0.0
 11
4347.666291099815
 21
18536.98686512719
 31
0.0
  0
ELLIPSE
  5
820
330
1F
100
AcDbEntity
  8
Visible (ISO)
100
AcDbEllipse
 10
4531.056493332564
 20
18505.98686512719
 30
0.0
 11
0.0000000000002231
 21
11.00000000000108
 31
0.0
210
0.0
220
0.0
230
1.0
 40
0.8660254037844271
 41
5.814355973145792
 42
6.283185307179588
  0
ELLIPSE
  5
821
330
1F
100
AcDbEntity
  8
Visible (ISO)
100
AcDbEllipse
 10
4539.665244342521
 20
18525.61301795273
 30
0.0
 11
-0.00000000000001
 21
-10.9999999999998
 31
0.0
210
0.0
220
0.0
230
1.0
 40
0.8660254037844271
 41
5.814355973145732
 42
6.607652889071117
  0
LINE
  5
822
330
1F
100
AcDbEntity
  8
Visible (ISO)
100
AcDbLine
 10
4411.211463123378
 20
18516.98686512719
 30
0.0
 11
4411.211463123378
 21
18466.98686512719
 31
0.0
  0
LINE
  5
823
330
1F
100
AcDbEntity
  8
Visible (ISO)
100
AcDbLine
 10
4411.211463123378
 20
18466.98686512719
 30
0.0
 11
4429.39799660285
 21
18466.98686512719
 31
0.0
  0
LINE
  5
824
330
1F
100
AcDbEntity
  8
Visible (ISO)
100
AcDbLine
 10
4429.39799660285
 20
18086.98686512719
 30
0.0
 11
4557.569756362945
 21
18086.98686512719
 31
0.0
  0
ELLIPSE
  5
825
330
1F
100
AcDbEntity
  8
Visible (ISO)
100
AcDbEllipse
 10
4536.35213397023
 20
18536.98686512719
 30
0.0
 11
0.0
 21
-22.99999999999345
 31
0.0
210
0.0
220
0.0
230
1.0
 40
0.8660254037844273
 41
0.3244675818914695
 42
0.5164751408468549
  0
ELLIPSE
  5
826
330
1F
100
AcDbEntity
  8
Visible (ISO)
100
AcDbEllipse
 10
4422.036780670683
 20
18491.98686512719
 30
0.0
 11
0.0
 21
4.999999999999999
 31
0.0
210
0.0
220
0.0
230
1.0
 40
0.8660254037844273
 41
0.0
 42
6.283185307179585
  0
LINE
  5
827
330
1F
100
AcDbEntity
  8
Visible (ISO)
100
AcDbLine
 10
4429.39799660285
 20
18086.98686512719
 30
0.0
 11
4397.89799660285
 21
18086.98686512719
 31
0.0
  0
LINE
  5
828
330
1F
100
AcDbEntity
  8
Visible (ISO)
100
AcDbLine
 10
4568.069756362945
 20
18086.98686512719
 30
0.0
 11
4557.569756362945
 21
18086.98686512719
 31
0.0
  0
LINE
  5
829
330
1F
100
AcDbEntity
  8
Visible (ISO)
100
AcDbLine
 10
4397.89799660285
 20
18086.98686512719
 30
0.0
 11
4397.89799660285
 21
18466.98686512719
 31
0.0
  0
LINE
  5
82A
330
1F
100
AcDbEntity
  8
Visible (ISO)
100
AcDbLine
 10
4568.069756362945
 20
18086.98686512719
 30
0.0
 11
4568.069756362945
 21
18520.55637578596
 31
0.0
  0
ELLIPSE
  5
82B
330
1F
100
AcDbEntity
  8
Visible (ISO)
100
AcDbEllipse
 10
4122.276088867049
 20
18505.98686512719
 30
0.0
 11
0.0000000000000028
 21
11.00000000000108
 31
0.0
210
0.0
220
0.0
230
1.0
 40
0.86602540378445
 41
0.0
 42
0.4688293340338358
  0
ELLIPSE
  5
82C
330
1F
100
AcDbEntity
  8
Visible (ISO)
100
AcDbEllipse
 10
4113.667337857091
 20
18525.61301795273
 30
0.0
 11
0.0000000000000006
 21
-10.9999999999998
 31
0.0
210
0.0
220
0.0
230
1.0
 40
0.86602540378445
 41
5.958717725288071
 42
6.752014641213442
  0
ELLIPSE
  5
82D
330
1F
100
AcDbEntity
  8
Visible (ISO)
100
AcDbEllipse
 10
4231.295801528933
 20
18491.98686512719
 30
0.0
 11
0.0
 21
-4.999999999999999
 31
0.0
210
0.0
220
0.0
230
1.0
 40
0.8660254037844499
 41
0.0
 42
6.283185307179585
  0
LINE
  5
82E
330
1F
100
AcDbEntity
  8
Visible (ISO)
100
AcDbLine
 10
4242.121119076238
 20
18516.98686512719
 30
0.0
 11
4242.121119076238
 21
18466.98686512719
 31
0.0
  0
LINE
  5
82F
330
1F
100
AcDbEntity
  8
Visible (ISO)
100
AcDbLine
 10
4242.121119076238
 20
18466.98686512719
 30
0.0
 11
4223.934585596765
 21
18466.98686512719
 31
0.0
  0
LINE
  5
830
330
1F
100
AcDbEntity
  8
Visible (ISO)
100
AcDbLine
 10
4255.434585596765
 20
18086.98686512719
 30
0.0
 11
4223.934585596765
 21
18086.98686512719
 31
0.0
  0
LINE
  5
831
330
1F
100
AcDbEntity
  8
Visible (ISO)
100
AcDbLine
 10
4095.762825836667
 20
18086.98686512719
 30
0.0
 11
4085.262825836665
 21
18086.98686512719
 31
0.0
  0
LINE
  5
832
330
1F
100
AcDbEntity
  8
Visible (ISO)
100
AcDbLine
 10
4255.434585596765
 20
18086.98686512719
 30
0.0
 11
4255.434585596765
 21
18466.98686512719
 31
0.0
  0
LINE
  5
833
330
1F
100
AcDbEntity
  8
Visible (ISO)
100
AcDbLine
 10
4085.262825836665
 20
18086.98686512719
 30
0.0
 11
4085.262825836665
 21
18520.55637578596
 31
0.0
  0
ELLIPSE
  5
834
330
1F
100
AcDbEntity
  8
Visible (ISO)
100
AcDbEllipse
 10
4116.980448229383
 20
18536.98686512719
 30
0.0
 11
0.0
 21
-22.9999999999931
 31
0.0
210
0.0
220
0.0
230
1.0
 40
0.8660254037844502
 41
5.766710166332728
 42
5.958717725288112
  0
LINE
  5
835
330
1F
100
AcDbEntity
  8
Visible (ISO)
100
AcDbLine
 10
4095.762825836667
 20
18086.98686512719
 30
0.0
 11
4223.934585596765
 21
18086.98686512719
 31
0.0
  0
LINE
  5
904
330
1F
100
AcDbEntity
  8
Visible (ISO)
100
AcDbLine
 10
8771.140567665055
 20
18516.98686512719
 30
0.0
 11
8689.39056766511
 21
18516.98686512719
 31
0.0
  0
LINE
  5
905
330
1F
100
AcDbEntity
  8
Visible (ISO)
100
AcDbLine
 10
8643.632942531446
 20
18516.98686512719
 30
0.0
 11
8311.140567665054
 21
18516.98686512719
 31
0.0
  0
LINE
  5
906
330
1F
100
AcDbEntity
  8
Visible (ISO)
100
AcDbLine
 10
8791.140567665054
 20
18536.98686512719
 30
0.0
 11
8689.390567665119
 21
18536.98686512719
 31
0.0
  0
LINE
  5
907
330
1F
100
AcDbEntity
  8
Visible (ISO)
100
AcDbLine
 10
8649.454034185653
 20
18536.98686512719
 30
0.0
 11
8291.140567665054
 21
18536.98686512719
 31
0.0
  0
ARC
  5
908
330
1F
100
AcDbEntity
  8
Visible (ISO)
100
AcDbCircle
 10
8771.140567665055
 20
18536.98686512719
 30
0.0
 40
20.0
100
AcDbArc
 50
270.0
 51
0.0
  0
ARC
  5
909
330
1F
100
AcDbEntity
  8
Visible (ISO)
100
AcDbCircle
 10
8311.140567665054
 20
18536.98686512719
 30
0.0
 40
20.0
100
AcDbArc
 50
180.0
 51
270.0
  0
CIRCLE
  5
90A
330
1F
100
AcDbEntity
  8
Visible (ISO)
100
AcDbCircle
 10
8443.140567665059
 20
18491.98686512719
 30
0.0
 40
5.000000000000108
  0
ELLIPSE
  5
90B
330
1F
100
AcDbEntity
  8
Visible (ISO)
100
AcDbEllipse
 10
8571.95403418561
 20
18491.98686512719
 30
0.0
 11
-0.0000000000000665
 21
-5.000000000000044
 31
0.0
210
0.0
220
0.0
230
1.0
 40
0.5000000000002577
 41
0.0
 42
6.283185307179584
  0
LINE
  5
90C
330
1F
100
AcDbEntity
  8
Visible (ISO)
100
AcDbLine
 10
8529.016212012079
 20
18516.98686512719
 30
0.0
 11
8529.016212012079
 21
18466.98686512719
 31
0.0
  0
LINE
  5
90D
330
1F
100
AcDbEntity
  8
Visible (ISO)
100
AcDbLine
 10
8565.704067665079
 20
18466.98686512719
 30
0.0
 11
8529.016212012079
 21
18466.98686512719
 31
0.0
  0
LINE
  5
90E
330
1F
100
AcDbEntity
  8
Visible (ISO)
100
AcDbLine
 10
8565.704067665079
 20
18516.98686512719
 30
0.0
 11
8565.704067665079
 21
18466.98686512719
 31
0.0
  0
LINE
  5
90F
330
1F
100
AcDbEntity
  8
Visible (ISO)
100
AcDbLine
 10
8529.016212012079
 20
18466.98686512719
 30
0.0
 11
8455.64056766506
 21
18466.98686512719
 31
0.0
  0
LINE
  5
910
330
1F
100
AcDbEntity
  8
Visible (ISO)
100
AcDbLine
 10
8455.64056766506
 20
18466.98686512719
 30
0.0
 11
8455.64056766506
 21
18516.98686512719
 31
0.0
  0
ARC
  5
911
330
1F
100
AcDbEntity
  8
Visible (ISO)
100
AcDbCircle
 10
8317.255446760432
 20
18505.98686512719
 30
0.0
 40
11.00000000000108
100
AcDbArc
 50
90.0
 51
116.8619421520715
  0
ARC
  5
912
330
1F
100
AcDbEntity
  8
Visible (ISO)
100
AcDbCircle
 10
8307.314917334464
 20
18525.61301795273
 30
0.0
 40
10.99999999999981
100
AcDbArc
 50
251.4093769687565
 51
296.8619421520715
  0
CIRCLE
  5
913
330
1F
100
AcDbEntity
  8
Visible (ISO)
100
AcDbCircle
 10
8443.140567665061
 20
18491.98686512719
 30
0.0
 40
4.999999999999999
  0
LINE
  5
914
330
1F
100
AcDbEntity
  8
Visible (ISO)
100
AcDbLine
 10
8455.640567665062
 20
18516.98686512719
 30
0.0
 11
8455.640567665062
 21
18466.98686512719
 31
0.0
  0
LINE
  5
916
330
1F
100
AcDbEntity
  8
Visible (ISO)
100
AcDbLine
 10
8455.640567665055
 20
18086.98686512719
 30
0.0
 11
8434.640567665061
 21
18086.98686512719
 31
0.0
  0
LINE
  5
917
330
1F
100
AcDbEntity
  8
Visible (ISO)
100
AcDbLine
 10
8286.640567665061
 20
18086.98686512719
 30
0.0
 11
8265.640567665053
 21
18086.98686512719
 31
0.0
  0
LINE
  5
918
330
1F
100
AcDbEntity
  8
Visible (ISO)
100
AcDbLine
 10
8265.640567665053
 20
18536.98686512719
 30
0.0
 11
8286.640567665061
 21
18536.98686512719
 31
0.0
  0
LINE
  5
919
330
1F
100
AcDbEntity
  8
Visible (ISO)
100
AcDbLine
 10
8455.640567665055
 20
18086.98686512719
 30
0.0
 11
8455.640567665055
 21
18466.98686512719
 31
0.0
  0
LINE
  5
91A
330
1F
100
AcDbEntity
  8
Visible (ISO)
100
AcDbLine
 10
8265.640567665053
 20
18086.98686512719
 30
0.0
 11
8265.640567665053
 21
18536.98686512719
 31
0.0
  0
ARC
  5
91B
330
1F
100
AcDbEntity
  8
Visible (ISO)
100
AcDbCircle
 10
8311.140567665061
 20
18536.98686512719
 30
0.0
 40
22.99999999999984
100
AcDbArc
 50
180.0
 51
251.4093769687565
  0
LINE
  5
91C
330
1F
100
AcDbEntity
  8
Visible (ISO)
100
AcDbLine
 10
8286.640567665061
 20
18536.98686512719
 30
0.0
 11
8288.140567665061
 21
18536.98686512719
 31
0.0
  0
LINE
  5
91D
330
1F
100
AcDbEntity
  8
Visible (ISO)
100
AcDbLine
 10
8286.640567665061
 20
18086.98686512719
 30
0.0
 11
8434.640567665061
 21
18086.98686512719
 31
0.0
  0
ELLIPSE
  5
91E
330
1F
100
AcDbEntity
  8
Visible (ISO)
100
AcDbEllipse
 10
8634.896594637959
 20
18505.98686512719
 30
0.0
 11
0.0000000000001288
 21
11.00000000000108
 31
0.0
210
0.0
220
0.0
230
1.0
 40
0.5000000000002767
 41
5.814355973145962
 42
6.283185307179782
  0
ELLIPSE
  5
91F
330
1F
100
AcDbEntity
  8
Visible (ISO)
100
AcDbEllipse
 10
8639.866859350949
 20
18525.61301795273
 30
0.0
 11
-0.0000000000000019
 21
-10.9999999999998
 31
0.0
210
0.0
220
0.0
230
1.0
 40
0.5000000000002767
 41
5.814355973145726
 42
6.607652889071115
  0
LINE
  5
920
330
1F
100
AcDbEntity
  8
Visible (ISO)
100
AcDbLine
 10
8565.704034185609
 20
18516.98686512719
 30
0.0
 11
8565.704034185609
 21
18466.98686512719
 31
0.0
  0
LINE
  5
921
330
1F
100
AcDbEntity
  8
Visible (ISO)
100
AcDbLine
 10
8565.704034185609
 20
18466.98686512719
 30
0.0
 11
8573.390567665084
 21
18466.98686512719
 31
0.0
  0
LINE
  5
922
330
1F
100
AcDbEntity
  8
Visible (ISO)
100
AcDbLine
 10
8576.204034185613
 20
18086.98686512719
 30
0.0
 11
8650.204034185655
 21
18086.98686512719
 31
0.0
  0
LINE
  5
923
330
1F
100
AcDbEntity
  8
Visible (ISO)
100
AcDbLine
 10
8649.454034185653
 20
18536.98686512719
 30
0.0
 11
8650.204034185655
 21
18536.98686512719
 31
0.0
  0
ELLIPSE
  5
924
330
1F
100
AcDbEntity
  8
Visible (ISO)
100
AcDbEllipse
 10
8637.954034185648
 20
18536.98686512719
 30
0.0
 11
-0.0000000000000678
 21
-22.99999999999985
 31
0.0
210
0.0
220
0.0
230
1.0
 40
0.5000000000002775
 41
0.3244675818915219
 42
1.570796326794898
  0
ELLIPSE
  5
925
330
1F
100
AcDbEntity
  8
Visible (ISO)
100
AcDbEllipse
 10
8571.95403418561
 20
18491.98686512719
 30
0.0
 11
0.0
 21
4.999999999999999
 31
0.0
210
0.0
220
0.0
230
1.0
 40
0.5000000000002768
 41
0.0
 42
6.283185307179584
  0
LINE
  5
926
330
1F
100
AcDbEntity
  8
Visible (ISO)
100
AcDbLine
 10
8576.204034185613
 20
18086.98686512719
 30
0.0
 11
8573.390567665084
 21
18086.98686512719
 31
0.0
  0
LINE
  5
927
330
1F
100
AcDbEntity
  8
Visible (ISO)
100
AcDbLine
 10
8689.390567665125
 20
18086.98686512719
 30
0.0
 11
8650.204034185653
 21
18086.98686512719
 31
0.0
  0
LINE
  5
928
330
1F
100
AcDbEntity
  8
Visible (ISO)
100
AcDbLine
 10
8650.204034185653
 20
18536.98686512719
 30
0.0
 11
8689.390567665125
 21
18536.98686512719
 31
0.0
  0
LINE
  5
929
330
1F
100
AcDbEntity
  8
Visible (ISO)
100
AcDbLine
 10
8573.390567665084
 20
18086.98686512719
 30
0.0
 11
8573.390567665084
 21
18466.98686512719
 31
0.0
  0
LINE
  5
92A
330
1F
100
AcDbEntity
  8
Visible (ISO)
100
AcDbLine
 10
8689.390567665125
 20
18086.98686512719
 30
0.0
 11
8689.390567665125
 21
18536.98686512719
 31
0.0
  0
LINE
  5
92B
330
1F
100
AcDbEntity
  8
Visible (ISO)
100
AcDbLine
 10
8756.140567665067
 20
18515.98686512719
 30
0.0
 11
8752.140567665067
 21
18515.98686512719
 31
0.0
  0
LINE
  5
92C
330
1F
100
AcDbEntity
  8
Visible (ISO)
100
AcDbLine
 10
8735.140567665068
 20
18515.98686512719
 30
0.0
 11
8731.140567665066
 21
18515.98686512719
 31
0.0
  0
LINE
  5
92D
330
1F
100
AcDbEntity
  8
Visible (ISO)
100
AcDbLine
 10
8731.140567665066
 20
18516.98686512719
 30
0.0
 11
8731.140567665066
 21
18515.98686512719
 31
0.0
  0
LINE
  5
92E
330
1F
100
AcDbEntity
  8
Visible (ISO)
100
AcDbLine
 10
8756.140567665067
 20
18515.98686512719
 30
0.0
 11
8756.140567665067
 21
18516.98686512719
 31
0.0
  0
LINE
  5
92F
330
1F
100
AcDbEntity
  8
Visible (ISO)
100
AcDbLine
 10
8752.140567665067
 20
18515.98686512719
 30
0.0
 11
8735.140567665068
 21
18515.98686512719
 31
0.0
  0
LINE
  5
930
330
1F
100
AcDbEntity
  8
Visible (ISO)
100
AcDbLine
 10
8745.745567665066
 20
18515.48686512719
 30
0.0
 11
8741.535567665065
 21
18515.48686512719
 31
0.0
  0
ARC
  5
931
330
1F
100
AcDbEntity
  8
Visible (ISO)
100
AcDbCircle
 10
8743.640567665066
 20
18519.66789012719
 30
0.0
 40
4.681024999999995
100
AcDbArc
 50
243.2763424370235
 51
296.7236575629764
  0
LINE
  5
932
330
1F
100
AcDbEntity
  8
Visible (ISO)
100
AcDbLine
 10
8741.535567665065
 20
18515.48686512719
 30
0.0
 11
8741.535567665065
 21
18515.98686512719
 31
0.0
  0
LINE
  5
933
330
1F
100
AcDbEntity
  8
Visible (ISO)
100
AcDbLine
 10
8745.745567665066
 20
18515.48686512719
 30
0.0
 11
8745.745567665066
 21
18515.98686512719
 31
0.0
  0
CIRCLE
  5
9F7
330
1F
100
AcDbEntity
  8
Visible (ISO)
100
AcDbCircle
 10
11120.89716762683
 20
18339.98686512719
 30
0.0
 40
250.0
  0
LINE
  5
9F8
330
1F
100
AcDbEntity
  8
Visible (ISO)
100
AcDbLine
 10
11099.89716762683
 20
18086.98686512719
 30
0.0
 11
11099.89716762683
 21
18085.48686512718
 31
0.0
  0
LINE
  5
9F9
330
1F
100
AcDbEntity
  8
Visible (ISO)
100
AcDbLine
 10
11141.89716762683
 20
18085.48686512719
 30
0.0
 11
11141.89716762683
 21
18086.98686512719
 31
0.0
  0
LINE
  5
9FA
330
1F
100
AcDbEntity
  8
Visible (ISO)
100
AcDbLine
 10
11099.89716762683
 20
18086.98686512719
 30
0.0
 11
11099.89716762683
 21
18090.87042648854
 31
0.0
  0
LINE
  5
9FB
330
1F
100
AcDbEntity
  8
Visible (ISO)
100
AcDbLine
 10
11141.89716762683
 20
18086.98686512719
 30
0.0
 11
11099.89716762683
 21
18086.98686512719
 31
0.0
  0
LINE
  5
9FC
330
1F
100
AcDbEntity
  8
Visible (ISO)
100
AcDbLine
 10
11141.89716762683
 20
18090.87042648854
 30
0.0
 11
11141.89716762683
 21
18086.98686512719
 31
0.0
  0
ARC
  5
9FD
330
1F
100
AcDbEntity
  8
Visible (ISO)
100
AcDbCircle
 10
11120.89716762683
 20
18085.48686512719
 30
0.0
 40
21.00000000000001
100
AcDbArc
 50
180.0
 51
0.0
  0
LINE
  5
9FE
330
1F
100
AcDbEntity
  8
Visible (ISO)
100
AcDbLine
 10
11350.50159478429
 20
18448.30033164772
 30
0.0
 11
11351.80063288997
 21
18449.05033164772
 31
0.0
  0
LINE
  5
9FF
330
1F
100
AcDbEntity
  8
Visible (ISO)
100
AcDbLine
 10
11330.80063288997
 20
18485.42339860666
 30
0.0
 11
11329.50159478429
 21
18484.67339860666
 31
0.0
  0
LINE
  5
A00
330
1F
100
AcDbEntity
  8
Visible (ISO)
100
AcDbLine
 10
11350.50159478429
 20
18448.30033164772
 30
0.0
 11
11347.1383319882
 21
18446.35855096704
 31
0.0
  0
LINE
  5
A01
330
1F
100
AcDbEntity
  8
Visible (ISO)
100
AcDbLine
 10
11329.50159478429
 20
18484.67339860666
 30
0.0
 11
11350.50159478429
 21
18448.30033164772
 31
0.0
  0
LINE
  5
A02
330
1F
100
AcDbEntity
  8
Visible (ISO)
100
AcDbLine
 10
11326.1383319882
 20
18482.73161792598
 30
0.0
 11
11329.50159478429
 21
18484.67339860666
 31
0.0
  0
ARC
  5
A03
330
1F
100
AcDbEntity
  8
Visible (ISO)
100
AcDbCircle
 10
11341.30063288997
 20
18467.23686512719
 30
0.0
 40
21.00000000000001
100
AcDbArc
 50
299.9999999999476
 51
119.9999999999477
  0
LINE
  5
A04
330
1F
100
AcDbEntity
  8
Visible (ISO)
100
AcDbLine
 10
10912.29274046936
 20
18484.67339860666
 30
0.0
 11
10910.99370236369
 21
18485.42339860665
 31
0.0
  0
LINE
  5
A05
330
1F
100
AcDbEntity
  8
Visible (ISO)
100
AcDbLine
 10
10889.99370236369
 20
18449.05033164771
 30
0.0
 11
10891.29274046936
 21
18448.30033164771
 31
0.0
  0
LINE
  5
A06
330
1F
100
AcDbEntity
  8
Visible (ISO)
100
AcDbLine
 10
10912.29274046936
 20
18484.67339860666
 30
0.0
 11
10915.65600326546
 21
18482.73161792597
 31
0.0
  0
LINE
  5
A07
330
1F
100
AcDbEntity
  8
Visible (ISO)
100
AcDbLine
 10
10891.29274046936
 20
18448.30033164771
 30
0.0
 11
10912.29274046936
 21
18484.67339860666
 31
0.0
  0
LINE
  5
A08
330
1F
100
AcDbEntity
  8
Visible (ISO)
100
AcDbLine
 10
10894.65600326546
 20
18446.35855096703
 30
0.0
 11
10891.29274046936
 21
18448.30033164771
 31
0.0
  0
ARC
  5
A09
330
1F
100
AcDbEntity
  8
Visible (ISO)
100
AcDbCircle
 10
10900.49370236369
 20
18467.23686512718
 30
0.0
 40
21.00000000000001
100
AcDbArc
 50
60.00000000005233
 51
240.0000000000523
  0
LINE
  5
AAE
330
1F
100
AcDbEntity
  8
Visible (ISO)
100
AcDbLine
 10
4449.80842672354
 20
14348.2171241181
 30
0.0
 11
4090.80842672354
 21
14348.2171241181
 31
0.0
  0
LINE
  5
AAF
330
1F
100
AcDbEntity
  8
Visible (ISO)
100
AcDbLine
 10
4850.808426723541
 20
14348.2171241181
 30
0.0
 11
4491.80842672354
 21
14348.2171241181
 31
0.0
  0
LINE
  5
AB0
330
1F
100
AcDbEntity
  8
Visible (ISO)
100
AcDbLine
 10
4449.80842672354
 20
14368.2171241181
 30
0.0
 11
4070.80842672354
 21
14368.2171241181
 31
0.0
  0
LINE
  5
AB1
330
1F
100
AcDbEntity
  8
Visible (ISO)
100
AcDbLine
 10
4870.808426723541
 20
14368.2171241181
 30
0.0
 11
4491.80842672354
 21
14368.2171241181
 31
0.0
  0
ARC
  5
AB2
330
1F
100
AcDbEntity
  8
Visible (ISO)
100
AcDbCircle
 10
4850.808426723541
 20
14368.2171241181
 30
0.0
 40
20.0
100
AcDbArc
 50
270.0
 51
0.0
  0
ARC
  5
AB3
330
1F
100
AcDbEntity
  8
Visible (ISO)
100
AcDbCircle
 10
4090.80842672354
 20
14368.2171241181
 30
0.0
 40
20.0
100
AcDbArc
 50
180.0
 51
270.0
  0
ELLIPSE
  5
AB4
330
1F
100
AcDbEntity
  8
Visible (ISO)
100
AcDbEllipse
 10
4245.534126584998
 20
14318.2171241181
 30
0.0
 11
-0.0000000000000527
 21
-5.000000000000006
 31
0.0
210
0.0
220
0.0
230
1.0
 40
0.866025403784447
 41
0.0
 42
6.283185307179585
  0
ELLIPSE
  5
AB5
330
1F
100
AcDbEntity
  8
Visible (ISO)
100
AcDbEllipse
 10
4696.082726862085
 20
14318.2171241181
 30
0.0
 11
-0.0000000000000323
 21
-5.000000000000004
 31
0.0
210
0.0
220
0.0
230
1.0
 40
0.866025403784447
 41
0.0
 42
6.283185307179585
  0
LINE
  5
AB6
330
1F
100
AcDbEntity
  8
Visible (ISO)
100
AcDbLine
 10
4685.257409314778
 20
14288.2171241181
 30
0.0
 11
4685.257409314778
 21
14348.2171241181
 31
0.0
  0
LINE
  5
AB7
330
1F
100
AcDbEntity
  8
Visible (ISO)
100
AcDbLine
 10
4665.945060641433
 20
14288.2171241181
 30
0.0
 11
4685.257409314778
 21
14288.2171241181
 31
0.0
  0
LINE
  5
AB8
330
1F
100
AcDbEntity
  8
Visible (ISO)
100
AcDbLine
 10
4256.359444132304
 20
14288.2171241181
 30
0.0
 11
4256.359444132304
 21
14348.2171241181
 31
0.0
  0
LINE
  5
AB9
330
1F
100
AcDbEntity
  8
Visible (ISO)
100
AcDbLine
 10
4256.359444132304
 20
14288.2171241181
 30
0.0
 11
4275.671792805648
 21
14288.2171241181
 31
0.0
  0
LINE
  5
ABA
330
1F
100
AcDbEntity
  8
Visible (ISO)
100
AcDbLine
 10
4449.80842672354
 20
14368.2171241181
 30
0.0
 11
4449.80842672354
 21
14068.2171241181
 31
0.0
  0
LINE
  5
ABB
330
1F
100
AcDbEntity
  8
Visible (ISO)
100
AcDbLine
 10
4491.80842672354
 20
14068.2171241181
 30
0.0
 11
4491.80842672354
 21
14368.2171241181
 31
0.0
  0
LINE
  5
ABC
330
1F
100
AcDbEntity
  8
Visible (ISO)
100
AcDbLine
 10
4491.80842672354
 20
14068.2171241181
 30
0.0
 11
4449.80842672354
 21
14068.2171241181
 31
0.0
  0
LINE
  5
ABD
330
1F
100
AcDbEntity
  8
Visible (ISO)
100
AcDbLine
 10
4449.80842672354
 20
14368.2171241181
 30
0.0
 11
4491.80842672354
 21
14368.2171241181
 31
0.0
  0
ELLIPSE
  5
ABE
330
1F
100
AcDbEntity
  8
Visible (ISO)
100
AcDbEllipse
 10
4804.599749918745
 20
14337.2171241181
 30
0.0
 11
0.0000000000000463
 21
11.00000000000009
 31
0.0
210
0.0
220
0.0
230
1.0
 40
0.8660254037844461
 41
5.802991974349991
 42
6.283185307179592
  0
ELLIPSE
  5
ABF
330
1F
100
AcDbEntity
  8
Visible (ISO)
100
AcDbEllipse
 10
4813.401091919964
 20
14356.72904795892
 30
0.0
 11
-0.0000000000000021
 21
-10.99999999999988
 31
0.0
210
0.0
220
0.0
230
1.0
 40
0.8660254037844461
 41
5.80299197434997
 42
6.576330785828519
  0
LINE
  5
AC0
330
1F
100
AcDbEntity
  8
Visible (ISO)
100
AcDbLine
 10
4685.257409314778
 20
14348.2171241181
 30
0.0
 11
4685.257409314778
 21
14288.2171241181
 31
0.0
  0
LINE
  5
AC1
330
1F
100
AcDbEntity
  8
Visible (ISO)
100
AcDbLine
 10
4685.257409314778
 20
14288.2171241181
 30
0.0
 11
4703.44394279425
 21
14288.2171241181
 31
0.0
  0
LINE
  5
AC2
330
1F
100
AcDbEntity
  8
Visible (ISO)
100
AcDbLine
 10
4703.44394279425
 20
14068.2171241181
 30
0.0
 11
4831.615702554349
 21
14068.2171241181
 31
0.0
  0
ELLIPSE
  5
AC3
330
1F
100
AcDbEntity
  8
Visible (ISO)
100
AcDbEllipse
 10
4810.398080161631
 20
14368.2171241181
 30
0.0
 11
-0.0000000000000056
 21
-22.99999999999673
 31
0.0
210
0.0
220
0.0
230
1.0
 40
0.866025403784446
 41
0.2931454786489072
 42
0.5164751408468577
  0
ELLIPSE
  5
AC4
330
1F
100
AcDbEntity
  8
Visible (ISO)
100
AcDbEllipse
 10
4696.082726862082
 20
14318.2171241181
 30
0.0
 11
0.0
 21
4.75
 31
0.0
210
0.0
220
0.0
230
1.0
 40
0.8660254037844461
 41
0.0
 42
6.283185307179585
  0
LINE
  5
AC5
330
1F
100
AcDbEntity
  8
Visible (ISO)
100
AcDbLine
 10
4703.44394279425
 20
14068.2171241181
 30
0.0
 11
4671.943942794251
 21
14068.2171241181
 31
0.0
  0
LINE
  5
AC6
330
1F
100
AcDbEntity
  8
Visible (ISO)
100
AcDbLine
 10
4842.115702554349
 20
14068.2171241181
 30
0.0
 11
4831.615702554349
 21
14068.2171241181
 31
0.0
  0
LINE
  5
AC7
330
1F
100
AcDbEntity
  8
Visible (ISO)
100
AcDbLine
 10
4671.943942794251
 20
14068.2171241181
 30
0.0
 11
4671.943942794251
 21
14288.2171241181
 31
0.0
  0
LINE
  5
AC8
330
1F
100
AcDbEntity
  8
Visible (ISO)
100
AcDbLine
 10
4842.115702554349
 20
14068.2171241181
 30
0.0
 11
4842.115702554349
 21
14348.2171241181
 31
0.0
  0
ELLIPSE
  5
AC9
330
1F
100
AcDbEntity
  8
Visible (ISO)
100
AcDbEllipse
 10
4137.017103528336
 20
14337.2171241181
 30
0.0
 11
0.0000000000000035
 21
11.00000000000005
 31
0.0
210
0.0
220
0.0
230
1.0
 40
0.8660254037844458
 41
0.0
 42
0.4801933328296011
  0
ELLIPSE
  5
ACA
330
1F
100
AcDbEntity
  8
Visible (ISO)
100
AcDbEllipse
 10
4128.215761527115
 20
14356.72904795892
 30
0.0
 11
0.0000000000000042
 21
-10.99999999999993
 31
0.0
210
0.0
220
0.0
230
1.0
 40
0.8660254037844458
 41
5.990039828530652
 42
6.763378640009177
  0
ELLIPSE
  5
ACB
330
1F
100
AcDbEntity
  8
Visible (ISO)
100
AcDbEllipse
 10
4245.534126584998
 20
14318.2171241181
 30
0.0
 11
0.0
 21
-4.75
 31
0.0
210
0.0
220
0.0
230
1.0
 40
0.8660254037844456
 41
0.0
 42
6.283185307179585
  0
LINE
  5
ACC
330
1F
100
AcDbEntity
  8
Visible (ISO)
100
AcDbLine
 10
4256.359444132304
 20
14288.2171241181
 30
0.0
 11
4256.359444132304
 21
14348.2171241181
 31
0.0
  0
LINE
  5
ACD
330
1F
100
AcDbEntity
  8
Visible (ISO)
100
AcDbLine
 10
4238.172910652829
 20
14288.2171241181
 30
0.0
 11
4256.359444132304
 21
14288.2171241181
 31
0.0
  0
LINE
  5
ACE
330
1F
100
AcDbEntity
  8
Visible (ISO)
100
AcDbLine
 10
4269.672910652829
 20
14068.2171241181
 30
0.0
 11
4238.172910652829
 21
14068.2171241181
 31
0.0
  0
LINE
  5
ACF
330
1F
100
AcDbEntity
  8
Visible (ISO)
100
AcDbLine
 10
4110.00115089273
 20
14068.2171241181
 30
0.0
 11
4099.501150892731
 21
14068.2171241181
 31
0.0
  0
LINE
  5
AD0
330
1F
100
AcDbEntity
  8
Visible (ISO)
100
AcDbLine
 10
4269.672910652831
 20
14068.2171241181
 30
0.0
 11
4269.672910652831
 21
14288.2171241181
 31
0.0
  0
LINE
  5
AD1
330
1F
100
AcDbEntity
  8
Visible (ISO)
100
AcDbLine
 10
4099.501150892731
 20
14068.2171241181
 30
0.0
 11
4099.501150892731
 21
14348.2171241181
 31
0.0
  0
ELLIPSE
  5
AD2
330
1F
100
AcDbEntity
  8
Visible (ISO)
100
AcDbEllipse
 10
4131.218773285451
 20
14368.2171241181
 30
0.0
 11
-0.0000000000000007
 21
-22.99999999999958
 31
0.0
210
0.0
220
0.0
230
1.0
 40
0.8660254037844458
 41
5.766710166332734
 42
5.990039828530662
  0
LINE
  5
AD3
330
1F
100
AcDbEntity
  8
Visible (ISO)
100
AcDbLine
 10
4110.00115089273
 20
14068.2171241181
 30
0.0
 11
4238.172910652829
 21
14068.2171241181
 31
0.0
  0
LINE
  5
AD4
330
1F
100
AcDbEntity
  8
Visible (ISO)
100
AcDbLine
 10
4449.80842672354
 20
14288.2171241181
 30
0.0
 11
4275.671792805648
 21
14288.2171241181
 31
0.0
  0
LINE
  5
AD5
330
1F
100
AcDbEntity
  8
Visible (ISO)
100
AcDbLine
 10
4275.671792805648
 20
14288.2171241181
 30
0.0
 11
4275.671792805648
 21
14348.2171241181
 31
0.0
  0
LINE
  5
AD6
330
1F
100
AcDbEntity
  8
Visible (ISO)
100
AcDbLine
 10
4665.945060641433
 20
14288.2171241181
 30
0.0
 11
4491.80842672354
 21
14288.2171241181
 31
0.0
  0
LINE
  5
AD7
330
1F
100
AcDbEntity
  8
Visible (ISO)
100
AcDbLine
 10
4665.945060641433
 20
14288.2171241181
 30
0.0
 11
4665.945060641433
 21
14348.2171241181
 31
0.0
  0
LINE
  5
BEA
330
1F
100
AcDbEntity
  8
Visible (ISO)
100
AcDbLine
 10
8962.408071216401
 20
14348.2171241181
 30
0.0
 11
8805.658071216493
 21
14348.2171241181
 31
0.0
  0
LINE
  5
BEB
330
1F
100
AcDbEntity
  8
Visible (ISO)
100
AcDbLine
 10
8759.900446082827
 20
14348.2171241181
 30
0.0
 11
8202.408071216401
 21
14348.2171241181
 31
0.0
  0
LINE
  5
BEC
330
1F
100
AcDbEntity
  8
Visible (ISO)
100
AcDbLine
 10
8982.408071216402
 20
14368.2171241181
 30
0.0
 11
8805.658071216502
 21
14368.2171241181
 31
0.0
  0
LINE
  5
BED
330
1F
100
AcDbEntity
  8
Visible (ISO)
100
AcDbLine
 10
8765.721537737034
 20
14368.2171241181
 30
0.0
 11
8182.408071216398
 21
14368.2171241181
 31
0.0
  0
ARC
  5
BEE
330
1F
100
AcDbEntity
  8
Visible (ISO)
100
AcDbCircle
 10
8962.408071216401
 20
14368.2171241181
 30
0.0
 40
20.0
100
AcDbArc
 50
270.0
 51
0.0
  0
ARC
  5
BEF
330
1F
100
AcDbEntity
  8
Visible (ISO)
100
AcDbCircle
 10
8202.408071216401
 20
14368.2171241181
 30
0.0
 40
20.0
100
AcDbArc
 50
180.0
 51
270.0
  0
CIRCLE
  5
BF0
330
1F
100
AcDbEntity
  8
Visible (ISO)
100
AcDbCircle
 10
8334.408071216406
 20
14318.2171241181
 30
0.0
 40
5.000000000000028
  0
ELLIPSE
  5
BF1
330
1F
100
AcDbEntity
  8
Visible (ISO)
100
AcDbEllipse
 10
8688.221537736994
 20
14318.2171241181
 30
0.0
 11
0.0000000000000375
 21
-5.000000000000004
 31
0.0
210
0.0
220
0.0
230
1.0
 40
0.5000000000002634
 41
0.0
 42
6.283185307179584
  0
LINE
  5
BF2
330
1F
100
AcDbEntity
  8
Visible (ISO)
100
AcDbLine
 10
8346.908071216406
 20
14288.2171241181
 30
0.0
 11
8369.208050626884
 21
14288.2171241181
 31
0.0
  0
LINE
  5
BF3
330
1F
100
AcDbEntity
  8
Visible (ISO)
100
AcDbLine
 10
8346.908071216406
 20
14288.2171241181
 30
0.0
 11
8346.908071216406
 21
14348.2171241181
 31
0.0
  0
LINE
  5
BF4
330
1F
100
AcDbEntity
  8
Visible (ISO)
100
AcDbLine
 10
8681.971537736991
 20
14288.2171241181
 30
0.0
 11
8681.971537736991
 21
14348.2171241181
 31
0.0
  0
LINE
  5
BF5
330
1F
100
AcDbEntity
  8
Visible (ISO)
100
AcDbLine
 10
8670.821548031746
 20
14288.2171241181
 30
0.0
 11
8681.971537736991
 21
14288.2171241181
 31
0.0
  0
ARC
  5
BF6
330
1F
100
AcDbEntity
  8
Visible (ISO)
100
AcDbCircle
 10
8209.103406269564
 20
14337.2171241181
 30
0.0
 40
11.00000000000013
100
AcDbArc
 50
90.0
 51
117.5130513214197
  0
ARC
  5
BF7
330
1F
100
AcDbEntity
  8
Visible (ISO)
100
AcDbCircle
 10
8198.940491922295
 20
14356.72904795892
 30
0.0
 40
11.00000000000002
100
AcDbArc
 50
253.2040012900924
 51
297.5130513214196
  0
CIRCLE
  5
BF8
330
1F
100
AcDbEntity
  8
Visible (ISO)
100
AcDbCircle
 10
8334.408071216406
 20
14318.2171241181
 30
0.0
 40
4.750000000000042
  0
LINE
  5
BF9
330
1F
100
AcDbEntity
  8
Visible (ISO)
100
AcDbLine
 10
8346.908071216406
 20
14288.2171241181
 30
0.0
 11
8346.908071216406
 21
14348.2171241181
 31
0.0
  0
LINE
  5
BFA
330
1F
100
AcDbEntity
  8
Visible (ISO)
100
AcDbLine
 10
8325.908071216405
 20
14288.2171241181
 30
0.0
 11
8346.908071216406
 21
14288.2171241181
 31
0.0
  0
LINE
  5
BFB
330
1F
100
AcDbEntity
  8
Visible (ISO)
100
AcDbLine
 10
8346.908071216397
 20
14068.2171241181
 30
0.0
 11
8325.908071216405
 21
14068.2171241181
 31
0.0
  0
LINE
  5
BFC
330
1F
100
AcDbEntity
  8
Visible (ISO)
100
AcDbLine
 10
8177.908071216403
 20
14068.2171241181
 30
0.0
 11
8156.908071216397
 21
14068.2171241181
 31
0.0
  0
LINE
  5
BFD
330
1F
100
AcDbEntity
  8
Visible (ISO)
100
AcDbLine
 10
8156.908071216397
 20
14368.2171241181
 30
0.0
 11
8177.908071216403
 21
14368.2171241181
 31
0.0
  0
LINE
  5
BFE
330
1F
100
AcDbEntity
  8
Visible (ISO)
100
AcDbLine
 10
8346.908071216397
 20
14068.2171241181
 30
0.0
 11
8346.908071216397
 21
14288.2171241181
 31
0.0
  0
LINE
  5
BFF
330
1F
100
AcDbEntity
  8
Visible (ISO)
100
AcDbLine
 10
8156.908071216397
 20
14068.2171241181
 30
0.0
 11
8156.908071216397
 21
14368.2171241181
 31
0.0
  0
ARC
  5
C00
330
1F
100
AcDbEntity
  8
Visible (ISO)
100
AcDbCircle
 10
8202.408071216405
 20
14368.2171241181
 30
0.0
 40
23.00000000000024
100
AcDbArc
 50
180.0
 51
253.2040012900924
  0
LINE
  5
C01
330
1F
100
AcDbEntity
  8
Visible (ISO)
100
AcDbLine
 10
8177.908071216403
 20
14368.2171241181
 30
0.0
 11
8179.408071216405
 21
14368.2171241181
 31
0.0
  0
LINE
  5
C02
330
1F
100
AcDbEntity
  8
Visible (ISO)
100
AcDbLine
 10
8177.908071216403
 20
14068.2171241181
 30
0.0
 11
8325.908071216405
 21
14068.2171241181
 31
0.0
  0
ELLIPSE
  5
C03
330
1F
100
AcDbEntity
  8
Visible (ISO)
100
AcDbEllipse
 10
8750.873870210448
 20
14337.2171241181
 30
0.0
 11
0.0000000000000265
 21
11.00000000000009
 31
0.0
210
0.0
220
0.0
230
1.0
 40
0.5000000000002612
 41
5.802991974350027
 42
6.283185307179605
  0
ELLIPSE
  5
C04
330
1F
100
AcDbEntity
  8
Visible (ISO)
100
AcDbEllipse
 10
8755.955327384084
 20
14356.72904795892
 30
0.0
 11
-0.0000000000000003
 21
-10.99999999999988
 31
0.0
210
0.0
220
0.0
230
1.0
 40
0.5000000000002612
 41
5.802991974350012
 42
6.576330785828524
  0
LINE
  5
C05
330
1F
100
AcDbEntity
  8
Visible (ISO)
100
AcDbLine
 10
8681.971537736991
 20
14348.2171241181
 30
0.0
 11
8681.971537736991
 21
14288.2171241181
 31
0.0
  0
LINE
  5
C06
330
1F
100
AcDbEntity
  8
Visible (ISO)
100
AcDbLine
 10
8681.971537736991
 20
14288.2171241181
 30
0.0
 11
8692.471537736997
 21
14288.2171241181
 31
0.0
  0
LINE
  5
C07
330
1F
100
AcDbEntity
  8
Visible (ISO)
100
AcDbLine
 10
8692.471537736997
 20
14068.2171241181
 30
0.0
 11
8766.471537737036
 21
14068.2171241181
 31
0.0
  0
LINE
  5
C08
330
1F
100
AcDbEntity
  8
Visible (ISO)
100
AcDbLine
 10
8765.721537737036
 20
14368.2171241181
 30
0.0
 11
8766.471537737036
 21
14368.2171241181
 31
0.0
  0
ELLIPSE
  5
C09
330
1F
100
AcDbEntity
  8
Visible (ISO)
100
AcDbEllipse
 10
8754.221537737029
 20
14368.2171241181
 30
0.0
 11
-0.0000000000002629
 21
-22.99999999999997
 31
0.0
210
0.0
220
0.0
230
1.0
 40
0.5000000000002613
 41
0.2931454786489764
 42
1.57079632679484
  0
ELLIPSE
  5
C0A
330
1F
100
AcDbEntity
  8
Visible (ISO)
100
AcDbEllipse
 10
8688.221537736996
 20
14318.2171241181
 30
0.0
 11
-0.0000000000000001
 21
4.75
 31
0.0
210
0.0
220
0.0
230
1.0
 40
0.5000000000002613
 41
0.0
 42
6.283185307179584
  0
LINE
  5
C0B
330
1F
100
AcDbEntity
  8
Visible (ISO)
100
AcDbLine
 10
8692.471537736997
 20
14068.2171241181
 30
0.0
 11
8689.658071216467
 21
14068.2171241181
 31
0.0
  0
LINE
  5
C0C
330
1F
100
AcDbEntity
  8
Visible (ISO)
100
AcDbLine
 10
8805.658071216507
 20
14068.2171241181
 30
0.0
 11
8766.471537737036
 21
14068.2171241181
 31
0.0
  0
LINE
  5
C0D
330
1F
100
AcDbEntity
  8
Visible (ISO)
100
AcDbLine
 10
8766.471537737036
 20
14368.2171241181
 30
0.0
 11
8805.658071216507
 21
14368.2171241181
 31
0.0
  0
LINE
  5
C0E
330
1F
100
AcDbEntity
  8
Visible (ISO)
100
AcDbLine
 10
8689.658071216467
 20
14068.2171241181
 30
0.0
 11
8689.658071216467
 21
14288.2171241181
 31
0.0
  0
LINE
  5
C0F
330
1F
100
AcDbEntity
  8
Visible (ISO)
100
AcDbLine
 10
8805.658071216507
 20
14068.2171241181
 30
0.0
 11
8805.658071216507
 21
14368.2171241181
 31
0.0
  0
LINE
  5
C10
330
1F
100
AcDbEntity
  8
Visible (ISO)
100
AcDbLine
 10
8670.821548031746
 20
14288.2171241181
 30
0.0
 11
8369.208050626884
 21
14288.2171241181
 31
0.0
  0
LINE
  5
C11
330
1F
100
AcDbEntity
  8
Visible (ISO)
100
AcDbLine
 10
8670.821548031746
 20
14288.2171241181
 30
0.0
 11
8670.821548031746
 21
14348.2171241181
 31
0.0
  0
LINE
  5
C12
330
1F
100
AcDbEntity
  8
Visible (ISO)
100
AcDbLine
 10
8369.208050626884
 20
14288.2171241181
 30
0.0
 11
8369.208050626884
 21
14348.2171241181
 31
0.0
  0
LINE
  5
C13
330
1F
100
AcDbEntity
  8
Visible (ISO)
100
AcDbLine
 10
8947.408071216413
 20
14347.2171241181
 30
0.0
 11
8943.408071216415
 21
14347.2171241181
 31
0.0
  0
LINE
  5
C14
330
1F
100
AcDbEntity
  8
Visible (ISO)
100
AcDbLine
 10
8926.408071216414
 20
14347.2171241181
 30
0.0
 11
8922.408071216414
 21
14347.2171241181
 31
0.0
  0
LINE
  5
C15
330
1F
100
AcDbEntity
  8
Visible (ISO)
100
AcDbLine
 10
8922.408071216413
 20
14348.2171241181
 30
0.0
 11
8922.408071216413
 21
14347.2171241181
 31
0.0
  0
LINE
  5
C16
330
1F
100
AcDbEntity
  8
Visible (ISO)
100
AcDbLine
 10
8947.408071216413
 20
14347.2171241181
 30
0.0
 11
8947.408071216413
 21
14348.2171241181
 31
0.0
  0
LINE
  5
C17
330
1F
100
AcDbEntity
  8
Visible (ISO)
100
AcDbLine
 10
8943.408071216415
 20
14347.2171241181
 30
0.0
 11
8926.408071216414
 21
14347.2171241181
 31
0.0
  0
LINE
  5
C18
330
1F
100
AcDbEntity
  8
Visible (ISO)
100
AcDbLine
 10
8937.01307121641
 20
14346.7171241181
 30
0.0
 11
8932.80307121641
 21
14346.7171241181
 31
0.0
  0
ARC
  5
C19
330
1F
100
AcDbEntity
  8
Visible (ISO)
100
AcDbCircle
 10
8934.90807121641
 20
14350.8981491181
 30
0.0
 40
4.681024999999991
100
AcDbArc
 50
243.2763424370237
 51
296.7236575629764
  0
LINE
  5
C1A
330
1F
100
AcDbEntity
  8
Visible (ISO)
100
AcDbLine
 10
8932.80307121641
 20
14346.7171241181
 30
0.0
 11
8932.80307121641
 21
14347.2171241181
 31
0.0
  0
LINE
  5
C1B
330
1F
100
AcDbEntity
  8
Visible (ISO)
100
AcDbLine
 10
8937.01307121641
 20
14346.7171241181
 30
0.0
 11
8937.01307121641
 21
14347.2171241181
 31
0.0
  0
CIRCLE
  5
C76
330
1F
100
AcDbEntity
  8
Visible (ISO)
100
AcDbCircle
 10
11270.89716762683
 20
14384.7019192175
 30
0.0
 40
400.0
  0
LINE
  5
C77
330
1F
100
AcDbEntity
  8
Visible (ISO)
100
AcDbLine
 10
11249.89716762683
 20
13981.7019192175
 30
0.0
 11
11249.89716762683
 21
13980.2019192175
 31
0.0
  0
LINE
  5
C78
330
1F
100
AcDbEntity
  8
Visible (ISO)
100
AcDbLine
 10
11291.89716762683
 20
13980.2019192175
 30
0.0
 11
11291.89716762683
 21
13981.7019192175
 31
0.0
  0
LINE
  5
C79
330
1F
100
AcDbEntity
  8
Visible (ISO)
100
AcDbLine
 10
11249.89716762683
 20
13981.7019192175
 30
0.0
 11
11249.89716762683
 21
13985.25354958758
 31
0.0
  0
LINE
  5
C7A
330
1F
100
AcDbEntity
  8
Visible (ISO)
100
AcDbLine
 10
11291.89716762683
 20
13981.7019192175
 30
0.0
 11
11249.89716762683
 21
13981.7019192175
 31
0.0
  0
LINE
  5
C7B
330
1F
100
AcDbEntity
  8
Visible (ISO)
100
AcDbLine
 10
11291.89716762683
 20
13985.25354958758
 30
0.0
 11
11291.89716762683
 21
13981.7019192175
 31
0.0
  0
ARC
  5
C7C
330
1F
100
AcDbEntity
  8
Visible (ISO)
100
AcDbCircle
 10
11270.89716762683
 20
13980.2019192175
 30
0.0
 40
21.00000000000022
100
AcDbArc
 50
180.0
 51
0.0
  0
LINE
  5
C7D
330
1F
100
AcDbEntity
  8
Visible (ISO)
100
AcDbLine
 10
11630.40540535196
 20
14568.01538573803
 30
0.0
 11
11631.70444345764
 21
14568.76538573803
 31
0.0
  0
LINE
  5
C7E
330
1F
100
AcDbEntity
  8
Visible (ISO)
100
AcDbLine
 10
11610.70444345764
 20
14605.13845269697
 30
0.0
 11
11609.40540535196
 21
14604.38845269698
 31
0.0
  0
LINE
  5
C7F
330
1F
100
AcDbEntity
  8
Visible (ISO)
100
AcDbLine
 10
11630.40540535196
 20
14568.01538573803
 30
0.0
 11
11627.32960322662
 21
14566.23957055298
 31
0.0
  0
LINE
  5
C80
330
1F
100
AcDbEntity
  8
Visible (ISO)
100
AcDbLine
 10
11609.40540535196
 20
14604.38845269698
 30
0.0
 11
11630.40540535196
 21
14568.01538573803
 31
0.0
  0
LINE
  5
C81
330
1F
100
AcDbEntity
  8
Visible (ISO)
100
AcDbLine
 10
11606.32960322661
 20
14602.61263751193
 30
0.0
 11
11609.40540535196
 21
14604.38845269698
 31
0.0
  0
ARC
  5
C82
330
1F
100
AcDbEntity
  8
Visible (ISO)
100
AcDbCircle
 10
11621.20444345764
 20
14586.9519192175
 30
0.0
 40
21.00000000000021
100
AcDbArc
 50
299.9999999999611
 51
119.9999999999611
  0
LINE
  5
C83
330
1F
100
AcDbEntity
  8
Visible (ISO)
100
AcDbLine
 10
10932.3889299017
 20
14604.38845269698
 30
0.0
 11
10931.08989179602
 21
14605.13845269697
 31
0.0
  0
LINE
  5
C84
330
1F
100
AcDbEntity
  8
Visible (ISO)
100
AcDbLine
 10
10910.08989179602
 20
14568.76538573803
 30
0.0
 11
10911.3889299017
 21
14568.01538573803
 31
0.0
  0
LINE
  5
C85
330
1F
100
AcDbEntity
  8
Visible (ISO)
100
AcDbLine
 10
10932.3889299017
 20
14604.38845269698
 30
0.0
 11
10935.46473202704
 21
14602.61263751193
 31
0.0
  0
LINE
  5
C86
330
1F
100
AcDbEntity
  8
Visible (ISO)
100
AcDbLine
 10
10911.3889299017
 20
14568.01538573803
 30
0.0
 11
10932.3889299017
 21
14604.38845269698
 31
0.0
  0
LINE
  5
C87
330
1F
100
AcDbEntity
  8
Visible (ISO)
100
AcDbLine
 10
10914.46473202704
 20
14566.23957055298
 30
0.0
 11
10911.3889299017
 21
14568.01538573803
 31
0.0
  0
ARC
  5
C88
330
1F
100
AcDbEntity
  8
Visible (ISO)
100
AcDbCircle
 10
10920.58989179602
 20
14586.9519192175
 30
0.0
 40
21.00000000000021
100
AcDbArc
 50
60.00000000003886
 51
240.0000000000388
  0
CIRCLE
  5
ECC
330
1F
100
AcDbEntity
  8
Visible (ISO)
100
AcDbCircle
 10
14183.05155122338
 20
14484.7019192175
 30
0.0
 40
499.9999999999998
  0
LINE
  5
ECD
330
1F
100
AcDbEntity
  8
Visible (ISO)
100
AcDbLine
 10
14162.05155122338
 20
13981.7019192175
 30
0.0
 11
14162.05155122338
 21
13980.2019192175
 31
0.0
  0
LINE
  5
ECE
330
1F
100
AcDbEntity
  8
Visible (ISO)
100
AcDbLine
 10
14204.05155122338
 20
13980.2019192175
 30
0.0
 11
14204.05155122338
 21
13981.7019192175
 31
0.0
  0
LINE
  5
ECF
330
1F
100
AcDbEntity
  8
Visible (ISO)
100
AcDbLine
 10
14162.05155122338
 20
13981.7019192175
 30
0.0
 11
14162.05155122338
 21
13985.14311387021
 31
0.0
  0
LINE
  5
ED0
330
1F
100
AcDbEntity
  8
Visible (ISO)
100
AcDbLine
 10
14204.05155122338
 20
13981.7019192175
 30
0.0
 11
14162.05155122338
 21
13981.7019192175
 31
0.0
  0
LINE
  5
ED1
330
1F
100
AcDbEntity
  8
Visible (ISO)
100
AcDbLine
 10
14204.05155122338
 20
13985.14311387021
 30
0.0
 11
14204.05155122338
 21
13981.7019192175
 31
0.0
  0
ARC
  5
ED2
330
1F
100
AcDbEntity
  8
Visible (ISO)
100
AcDbCircle
 10
14183.05155122338
 20
13980.2019192175
 30
0.0
 40
21.00000000000003
100
AcDbArc
 50
180.0
 51
0.0
  0
LINE
  5
ED3
330
1F
100
AcDbEntity
  8
Visible (ISO)
100
AcDbLine
 10
14629.16232932695
 20
14718.01538573802
 30
0.0
 11
14630.46136743263
 21
14718.76538573802
 31
0.0
  0
LINE
  5
ED4
330
1F
100
AcDbEntity
  8
Visible (ISO)
100
AcDbLine
 10
14609.46136743263
 20
14755.13845269697
 30
0.0
 11
14608.16232932695
 21
14754.38845269697
 31
0.0
  0
LINE
  5
ED5
330
1F
100
AcDbEntity
  8
Visible (ISO)
100
AcDbLine
 10
14629.16232932695
 20
14718.01538573802
 30
0.0
 11
14626.18216733833
 21
14716.29478841166
 31
0.0
  0
LINE
  5
ED6
330
1F
100
AcDbEntity
  8
Visible (ISO)
100
AcDbLine
 10
14608.16232932695
 20
14754.38845269697
 30
0.0
 11
14629.16232932695
 21
14718.01538573802
 31
0.0
  0
LINE
  5
ED7
330
1F
100
AcDbEntity
  8
Visible (ISO)
100
AcDbLine
 10
14605.18216733833
 20
14752.66785537061
 30
0.0
 11
14608.16232932695
 21
14754.38845269697
 31
0.0
  0
ARC
  5
ED8
330
1F
100
AcDbEntity
  8
Visible (ISO)
100
AcDbCircle
 10
14619.96136743263
 20
14736.9519192175
 30
0.0
 40
21.00000000000003
100
AcDbArc
 50
299.9999999999391
 51
119.9999999999391
  0
LINE
  5
ED9
330
1F
100
AcDbEntity
  8
Visible (ISO)
100
AcDbLine
 10
13757.94077311981
 20
14754.38845269697
 30
0.0
 11
13756.64173501413
 21
14755.13845269697
 31
0.0
  0
LINE
  5
EDA
330
1F
100
AcDbEntity
  8
Visible (ISO)
100
AcDbLine
 10
13735.64173501413
 20
14718.76538573802
 30
0.0
 11
13736.94077311981
 21
14718.01538573802
 31
0.0
  0
LINE
  5
EDB
330
1F
100
AcDbEntity
  8
Visible (ISO)
100
AcDbLine
 10
13757.94077311981
 20
14754.38845269697
 30
0.0
 11
13760.92093510843
 21
14752.66785537061
 31
0.0
  0
LINE
  5
EDC
330
1F
100
AcDbEntity
  8
Visible (ISO)
100
AcDbLine
 10
13736.94077311981
 20
14718.01538573802
 30
0.0
 11
13757.94077311981
 21
14754.38845269697
 31
0.0
  0
LINE
  5
EDD
330
1F
100
AcDbEntity
  8
Visible (ISO)
100
AcDbLine
 10
13739.92093510843
 20
14716.29478841166
 30
0.0
 11
13736.94077311981
 21
14718.01538573802
 31
0.0
  0
ARC
  5
EDE
330
1F
100
AcDbEntity
  8
Visible (ISO)
100
AcDbCircle
 10
13746.14173501413
 20
14736.9519192175
 30
0.0
 40
21.00000000000002
100
AcDbArc
 50
60.00000000006092
 51
240.0000000000609
  0
MTEXT
  5
F0C
330
1F
100
AcDbEntity
  8
0
100
AcDbMText
 10
13905.99795946431
 20
15375.29020913817
 30
0.0
 40
233.9816249415046
 41
351.4273130132687
 46
0.0
 71
     1
 72
     1
  1
100
 73
     1
 44
1.0
  0
MTEXT
  5
F0D
330
1F
100
AcDbEntity
  8
0
100
AcDbMText
 10
14854.63697776165
 20
14574.23970171595
 30
0.0
 40
233.9816249415046
 41
351.4273130132687
 46
0.0
 71
     1
 72
     1
  1
100
 73
     1
 44
1.0
  0
TEXT
  5
F0E
330
1F
100
AcDbEntity
  8
LINE
100
AcDbText
 10
13634.02679346889
 20
13572.30256340922
 30
0.0
 40
233.9816249415046
  1
OI100
 41
1.000399999999999
100
AcDbText
  0
CIRCLE
  5
1131
330
1F
100
AcDbEntity
  8
Visible (ISO)
100
AcDbCircle
 10
16838.31207784445
 20
14521.41231129515
 30
0.0
 40
600.0
  0
LINE
  5
1132
330
1F
100
AcDbEntity
  8
Visible (ISO)
100
AcDbLine
 10
16817.31207784444
 20
13918.41231129515
 30
0.0
 11
16817.31207784444
 21
13916.91231129515
 31
0.0
  0
LINE
  5
1133
330
1F
100
AcDbEntity
  8
Visible (ISO)
100
AcDbLine
 10
16859.31207784444
 20
13916.91231129515
 30
0.0
 11
16859.31207784444
 21
13918.41231129515
 31
0.0
  0
LINE
  5
1134
330
1F
100
AcDbEntity
  8
Visible (ISO)
100
AcDbLine
 10
16817.31207784444
 20
13918.41231129515
 30
0.0
 11
16817.31207784444
 21
13921.77992391101
 31
0.0
  0
LINE
  5
1135
330
1F
100
AcDbEntity
  8
Visible (ISO)
100
AcDbLine
 10
16859.31207784444
 20
13918.41231129515
 30
0.0
 11
16817.31207784444
 21
13918.41231129515
 31
0.0
  0
LINE
  5
1136
330
1F
100
AcDbEntity
  8
Visible (ISO)
100
AcDbLine
 10
16859.31207784444
 20
13921.77992391101
 30
0.0
 11
16859.31207784444
 21
13918.41231129515
 31
0.0
  0
ARC
  5
1137
330
1F
100
AcDbEntity
  8
Visible (ISO)
100
AcDbCircle
 10
16838.31207784444
 20
13916.91231129515
 30
0.0
 40
21.0000000000001
100
AcDbArc
 50
180.0
 51
0.0
  0
LINE
  5
1138
330
1F
100
AcDbEntity
  8
Visible (ISO)
100
AcDbLine
 10
17371.02539632647
 20
14804.72577781569
 30
0.0
 11
17372.32443443214
 21
14805.47577781569
 31
0.0
  0
LINE
  5
1139
330
1F
100
AcDbEntity
  8
Visible (ISO)
100
AcDbLine
 10
17351.32443443214
 20
14841.84884477463
 30
0.0
 11
17350.02539632647
 21
14841.09884477463
 31
0.0
  0
LINE
  5
113A
330
1F
100
AcDbEntity
  8
Visible (ISO)
100
AcDbLine
 10
17371.02539632647
 20
14804.72577781569
 30
0.0
 11
17368.10895825103
 21
14803.04197150775
 31
0.0
  0
LINE
  5
113B
330
1F
100
AcDbEntity
  8
Visible (ISO)
100
AcDbLine
 10
17350.02539632647
 20
14841.09884477463
 30
0.0
 11
17371.02539632647
 21
14804.72577781569
 31
0.0
  0
LINE
  5
113C
330
1F
100
AcDbEntity
  8
Visible (ISO)
100
AcDbLine
 10
17347.10895825103
 20
14839.4150384667
 30
0.0
 11
17350.02539632647
 21
14841.09884477463
 31
0.0
  0
ARC
  5
113D
330
1F
100
AcDbEntity
  8
Visible (ISO)
100
AcDbCircle
 10
17361.82443443214
 20
14823.66231129516
 30
0.0
 40
21.00000000000011
100
AcDbArc
 50
300.0000000000083
 51
120.0000000000083
  0
LINE
  5
113E
330
1F
100
AcDbEntity
  8
Visible (ISO)
100
AcDbLine
 10
16326.59875936243
 20
14841.09884477463
 30
0.0
 11
16325.29972125676
 21
14841.84884477463
 31
0.0
  0
LINE
  5
113F
330
1F
100
AcDbEntity
  8
Visible (ISO)
100
AcDbLine
 10
16304.29972125676
 20
14805.47577781568
 30
0.0
 11
16305.59875936243
 21
14804.72577781568
 31
0.0
  0
LINE
  5
1140
330
1F
100
AcDbEntity
  8
Visible (ISO)
100
AcDbLine
 10
16326.59875936243
 20
14841.09884477463
 30
0.0
 11
16329.51519743788
 21
14839.41503846669
 31
0.0
  0
LINE
  5
1141
330
1F
100
AcDbEntity
  8
Visible (ISO)
100
AcDbLine
 10
16305.59875936243
 20
14804.72577781568
 30
0.0
 11
16326.59875936243
 21
14841.09884477463
 31
0.0
  0
LINE
  5
1142
330
1F
100
AcDbEntity
  8
Visible (ISO)
100
AcDbLine
 10
16308.51519743788
 20
14803.04197150775
 30
0.0
 11
16305.59875936243
 21
14804.72577781568
 31
0.0
  0
ARC
  5
1143
330
1F
100
AcDbEntity
  8
Visible (ISO)
100
AcDbCircle
 10
16314.79972125676
 20
14823.66231129516
 30
0.0
 40
21.00000000000011
100
AcDbArc
 50
59.99999999999173
 51
239.9999999999917
  0
TEXT
  5
1189
330
1F
100
AcDbEntity
  8
LINE
100
AcDbText
 10
16289.28732008996
 20
13509.01295548688
 30
0.0
 40
233.9816249415046
  1
OI120
 41
1.000399999999999
100
AcDbText
  0
MTEXT
  5
118A
330
1F
100
AcDbEntity
  8
0
100
AcDbMText
 10
17609.89750438272
 20
14610.95009379361
 30
0.0
 40
233.9816249415046
 41
351.4273130132687
 46
0.0
 71
     1
 72
     1
  1
120
 73
     1
 44
1.0
  0
MTEXT
  5
118B
330
1F
100
AcDbEntity
  8
0
100
AcDbMText
 10
16551.52151372468
 20
15511.92158882106
 30
0.0
 40
233.9816249415046
 41
351.4273130132687
 46
0.0
 71
     1
 72
     1
  1
120
 73
     1
 44
1.0
  0
LINE
  5
11A2
330
1F
100
AcDbEntity
  8
0
100
AcDbLine
 10
55.13856451977838
 20
11925.1244297108
 30
0.0
 11
20710.12315103084
 21
11925.1244297108
 31
0.0
  0
TEXT
  5
11A3
330
1F
100
AcDbEntity
  8
LINE
100
AcDbText
 10
88.58291636030893
 20
11042.57970865354
 30
0.0
 40
233.9816249415046
  1
Dining Tables
 41
1.000399999999999
100
AcDbText
  0
LINE
  5
1218
330
1F
100
AcDbEntity
  8
Visible (ISO)
100
AcDbLine
 10
4673.808426723539
 20
9952.675023203665
 30
0.0
 11
5196.198547458074
 21
9952.675023203665
 31
0.0
  0
LINE
  5
1219
330
1F
100
AcDbEntity
  8
Visible (ISO)
100
AcDbLine
 10
4096.418305989013
 20
9952.675023203665
 30
0.0
 11
4618.808426723541
 21
9952.675023203665
 31
0.0
  0
LINE
  5
121A
330
1F
100
AcDbEntity
  8
Visible (ISO)
100
AcDbLine
 10
4619.470952922903
 20
9979.675023203665
 30
0.0
 11
4046.308426723543
 21
9979.675023203665
 31
0.0
  0
LINE
  5
121B
330
1F
100
AcDbEntity
  8
Visible (ISO)
100
AcDbLine
 10
5246.308426723544
 20
9979.675023203665
 30
0.0
 11
4673.145900524175
 21
9979.675023203665
 31
0.0
  0
ARC
  5
121C
330
1F
100
AcDbEntity
  8
Visible (ISO)
100
AcDbCircle
 10
4096.418305989013
 20
10012.67502320366
 30
0.0
 40
60.0
100
AcDbArc
 50
213.3670129691819
 51
270.0
  0
ARC
  5
121D
330
1F
100
AcDbEntity
  8
Visible (ISO)
100
AcDbCircle
 10
5196.198547458074
 20
10012.67502320366
 30
0.0
 40
60.0
100
AcDbArc
 50
270.0
 51
326.6329870308181
  0
LINE
  5
121E
330
1F
100
AcDbEntity
  8
Visible (ISO)
100
AcDbLine
 10
5246.308426723544
 20
9994.675023203665
 30
0.0
 11
4673.145900524179
 21
9994.675023203665
 31
0.0
  0
LINE
  5
121F
330
1F
100
AcDbEntity
  8
Visible (ISO)
100
AcDbLine
 10
4619.4709529229
 20
9994.675023203665
 30
0.0
 11
4046.308426723543
 21
9994.675023203665
 31
0.0
  0
LINE
  5
1220
330
1F
100
AcDbEntity
  8
Visible (ISO)
100
AcDbLine
 10
4046.308426723543
 20
9979.675023203665
 30
0.0
 11
4046.308426723543
 21
9994.675023203665
 31
0.0
  0
LINE
  5
1221
330
1F
100
AcDbEntity
  8
Visible (ISO)
100
AcDbLine
 10
5246.308426723543
 20
9979.675023203665
 30
0.0
 11
5246.308426723543
 21
9994.675023203665
 31
0.0
  0
LINE
  5
1222
330
1F
100
AcDbEntity
  8
Visible (ISO)
100
AcDbLine
 10
5135.808426723542
 20
9882.675023203665
 30
0.0
 11
5062.717156376145
 21
9882.675023203665
 31
0.0
  0
LINE
  5
1223
330
1F
100
AcDbEntity
  8
Visible (ISO)
100
AcDbLine
 10
4229.899697070941
 20
9882.675023203665
 30
0.0
 11
4156.808426723545
 21
9882.675023203665
 31
0.0
  0
LINE
  5
1224
330
1F
100
AcDbEntity
  8
Visible (ISO)
100
AcDbLine
 10
5135.808426723542
 20
9952.675023203665
 30
0.0
 11
5135.808426723542
 21
9882.675023203665
 31
0.0
  0
LINE
  5
1225
330
1F
100
AcDbEntity
  8
Visible (ISO)
100
AcDbLine
 10
4156.808426723545
 20
9952.675023203665
 30
0.0
 11
4156.808426723545
 21
9882.675023203665
 31
0.0
  0
LINE
  5
1226
330
1F
100
AcDbEntity
  8
Visible (ISO)
100
AcDbLine
 10
4229.89969707094
 20
9882.675023203665
 30
0.0
 11
4229.89969707094
 21
9952.675023203665
 31
0.0
  0
LINE
  5
1227
330
1F
100
AcDbEntity
  8
Visible (ISO)
100
AcDbLine
 10
4618.808426723542
 20
9882.675023203665
 30
0.0
 11
4229.89969707094
 21
9882.675023203665
 31
0.0
  0
LINE
  5
1228
330
1F
100
AcDbEntity
  8
Visible (ISO)
100
AcDbLine
 10
5062.717156376145
 20
9882.675023203665
 30
0.0
 11
4673.808426723543
 21
9882.675023203665
 31
0.0
  0
LINE
  5
1229
330
1F
100
AcDbEntity
  8
Visible (ISO)
100
AcDbLine
 10
5062.717156376145
 20
9952.675023203665
 30
0.0
 11
5062.717156376145
 21
9882.675023203665
 31
0.0
  0
CIRCLE
  5
122A
330
1F
100
AcDbEntity
  8
Visible (ISO)
100
AcDbCircle
 10
4144.308426723545
 20
9917.675023203665
 30
0.0
 40
4.749999999999995
  0
ARC
  5
122B
330
1F
100
AcDbEntity
  8
Visible (ISO)
100
AcDbCircle
 10
4099.639354459485
 20
9941.67502320367
 30
0.0
 40
10.99999999999709
100
AcDbArc
 50
90.0
 51
117.7204974342065
  0
ARC
  5
122C
330
1F
100
AcDbEntity
  8
Visible (ISO)
100
AcDbCircle
 10
4089.405861662089
 20
9961.15002320792
 30
0.0
 40
11.00000000000071
100
AcDbArc
 50
262.2497821007481
 51
297.7204974342064
  0
ARC
  5
122D
330
1F
100
AcDbEntity
  8
Visible (ISO)
100
AcDbCircle
 10
4096.418305989013
 20
10012.67502320366
 30
0.0
 40
63.00000000000032
100
AcDbArc
 50
221.6019183035111
 51
262.2497821007481
  0
SPLINE
  5
122E
330
1F
100
AcDbEntity
  8
Visible (ISO)
100
AcDbSpline
210
0.0
220
0.0
230
1.0
 70
     8
 71
     3
 72
     8
 73
     4
 74
     0
 42
0.000000001
 43
0.0000000001
 40
22.71964887812294
 40
22.71964887812294
 40
22.71964887812294
 40
22.71964887812294
 40
23.69928095869392
 40
23.69928095869392
 40
23.69928095869392
 40
23.69928095869392
 10
4049.308426723544
 20
9970.846094510802
 30
0.0
 10
4047.136091772673
 20
9973.292689258926
 30
0.0
 10
4045.116040879771
 20
9975.954852869676
 30
0.0
 10
4043.308426723543
 20
9978.787846803092
 30
0.0
  0
LINE
  5
122F
330
1F
100
AcDbEntity
  8
Visible (ISO)
100
AcDbLine
 10
4043.308426723543
 20
9978.787846803092
 30
0.0
 11
4043.308426723544
 21
9994.675023203665
 31
0.0
  0
LINE
  5
1230
330
1F
100
AcDbEntity
  8
Visible (ISO)
100
AcDbLine
 10
4129.308426723544
 20
9254.675023203665
 30
0.0
 11
4049.308426723544
 21
9254.675023203665
 31
0.0
  0
LINE
  5
1231
330
1F
100
AcDbEntity
  8
Visible (ISO)
100
AcDbLine
 10
4043.308426723544
 20
9994.675023203665
 30
0.0
 11
4021.808426723544
 21
9994.675023203665
 31
0.0
  0
LINE
  5
1232
330
1F
100
AcDbEntity
  8
Visible (ISO)
100
AcDbLine
 10
4129.308426723544
 20
9254.675023203665
 30
0.0
 11
4156.808426723545
 21
9254.675023203665
 31
0.0
  0
LINE
  5
1233
330
1F
100
AcDbEntity
  8
Visible (ISO)
100
AcDbLine
 10
4021.808426723544
 20
9254.675023203665
 30
0.0
 11
4049.308426723544
 21
9254.675023203665
 31
0.0
  0
LINE
  5
1234
330
1F
100
AcDbEntity
  8
Visible (ISO)
100
AcDbLine
 10
4156.808426723545
 20
9254.675023203665
 30
0.0
 11
4156.808426723545
 21
9882.675023203665
 31
0.0
  0
LINE
  5
1235
330
1F
100
AcDbEntity
  8
Visible (ISO)
100
AcDbLine
 10
4021.808426723544
 20
9254.675023203665
 30
0.0
 11
4021.808426723544
 21
9994.675023203665
 31
0.0
  0
LINE
  5
1237
330
1F
100
AcDbEntity
  8
Visible (ISO)
100
AcDbLine
 10
4156.808426723545
 20
9952.675023203665
 30
0.0
 11
4156.808426723545
 21
9882.675023203665
 31
0.0
  0
LINE
  5
1238
330
1F
100
AcDbEntity
  8
Visible (ISO)
100
AcDbLine
 10
4673.808426723541
 20
9254.675023203665
 30
0.0
 11
4673.808426723541
 21
9970.846094510802
 31
0.0
  0
LINE
  5
1239
330
1F
100
AcDbEntity
  8
Visible (ISO)
100
AcDbLine
 10
4673.145900524179
 20
9994.675023203665
 30
0.0
 11
4619.470952922902
 21
9994.675023203665
 31
0.0
  0
LINE
  5
123A
330
1F
100
AcDbEntity
  8
Visible (ISO)
100
AcDbLine
 10
4618.808426723541
 20
9254.675023203665
 30
0.0
 11
4618.808426723541
 21
9970.846094510802
 31
0.0
  0
LINE
  5
123B
330
1F
100
AcDbEntity
  8
Visible (ISO)
100
AcDbLine
 10
4618.808426723541
 20
9254.675023203665
 30
0.0
 11
4673.808426723541
 21
9254.675023203665
 31
0.0
  0
SPLINE
  5
123C
330
1F
100
AcDbEntity
  8
Visible (ISO)
100
AcDbSpline
210
0.0
220
0.0
230
1.0
 70
     8
 71
     3
 72
     8
 73
     4
 74
     0
 42
0.000000001
 43
0.0000000001
 40
12.52341825774861
 40
12.52341825774861
 40
12.52341825774861
 40
12.52341825774861
 40
13.50305033831955
 40
13.50305033831955
 40
13.50305033831955
 40
13.50305033831955
 10
4619.470952922902
 20
9978.787846803092
 30
0.0
 10
4619.066829341698
 20
9975.954860291651
 30
0.0
 10
4618.808426763812
 20
9973.292696269593
 30
0.0
 10
4618.808426723541
 20
9970.846094510802
 30
0.0
  0
SPLINE
  5
123D
330
1F
100
AcDbEntity
  8
Visible (ISO)
100
AcDbSpline
210
0.0
220
0.0
230
1.0
 70
     8
 71
     3
 72
     8
 73
     4
 74
     0
 42
0.000000001
 43
0.0000000001
 40
22.71964887812294
 40
22.71964887812294
 40
22.71964887812294
 40
22.71964887812294
 40
23.69928095869392
 40
23.69928095869392
 40
23.69928095869392
 40
23.69928095869392
 10
4673.808426723541
 20
9970.846094510802
 30
0.0
 10
4673.808426723541
 20
9973.292689258926
 30
0.0
 10
4673.550025132606
 20
9975.954852869676
 30
0.0
 10
4673.145900524179
 20
9978.787846803092
 30
0.0
  0
LINE
  5
123E
330
1F
100
AcDbEntity
  8
Visible (ISO)
100
AcDbLine
 10
4619.470952922902
 20
9994.675023203665
 30
0.0
 11
4619.470952922902
 21
9978.787846803092
 31
0.0
  0
LINE
  5
123F
330
1F
100
AcDbEntity
  8
Visible (ISO)
100
AcDbLine
 10
4673.145900524179
 20
9978.787846803092
 30
0.0
 11
4673.145900524179
 21
9994.675023203665
 31
0.0
  0
CIRCLE
  5
1240
330
1F
100
AcDbEntity
  8
Visible (ISO)
100
AcDbCircle
 10
5148.308426723541
 20
9917.675023203665
 30
0.0
 40
4.749999999999995
  0
ARC
  5
1241
330
1F
100
AcDbEntity
  8
Visible (ISO)
100
AcDbCircle
 10
5192.977498987602
 20
9941.67502320367
 30
0.0
 40
10.99999999999709
100
AcDbArc
 50
62.27950256579351
 51
90.0
  0
ARC
  5
1242
330
1F
100
AcDbEntity
  8
Visible (ISO)
100
AcDbCircle
 10
5203.210991784995
 20
9961.15002320792
 30
0.0
 40
11.0000000000007
100
AcDbArc
 50
242.2795025657934
 51
277.7502178992518
  0
ARC
  5
1243
330
1F
100
AcDbEntity
  8
Visible (ISO)
100
AcDbCircle
 10
5196.19854745807
 20
10012.67502320366
 30
0.0
 40
63.0000000000003
100
AcDbArc
 50
277.7502178992518
 51
318.3980816964889
  0
SPLINE
  5
1244
330
1F
100
AcDbEntity
  8
Visible (ISO)
100
AcDbSpline
210
0.0
220
0.0
230
1.0
 70
     8
 71
     3
 72
     8
 73
     4
 74
     0
 42
0.000000001
 43
0.0000000001
 40
12.52341825774861
 40
12.52341825774861
 40
12.52341825774861
 40
12.52341825774861
 40
13.50305033831955
 40
13.50305033831955
 40
13.50305033831955
 40
13.50305033831955
 10
5249.308426723542
 20
9978.787846803092
 30
0.0
 10
5247.500817386422
 20
9975.954860291651
 30
0.0
 10
5245.480767845869
 20
9973.292696269593
 30
0.0
 10
5243.30842672354
 20
9970.846094510802
 30
0.0
  0
LINE
  5
1245
330
1F
100
AcDbEntity
  8
Visible (ISO)
100
AcDbLine
 10
5249.308426723542
 20
9994.675023203665
 30
0.0
 11
5249.308426723542
 21
9978.787846803092
 31
0.0
  0
LINE
  5
1246
330
1F
100
AcDbEntity
  8
Visible (ISO)
100
AcDbLine
 10
5270.80842672354
 20
9994.675023203665
 30
0.0
 11
5249.308426723542
 21
9994.675023203665
 31
0.0
  0
LINE
  5
1247
330
1F
100
AcDbEntity
  8
Visible (ISO)
100
AcDbLine
 10
5243.30842672354
 20
9254.675023203665
 30
0.0
 11
5163.308426723541
 21
9254.675023203665
 31
0.0
  0
LINE
  5
1248
330
1F
100
AcDbEntity
  8
Visible (ISO)
100
AcDbLine
 10
5135.808426723541
 20
9254.675023203665
 30
0.0
 11
5163.308426723541
 21
9254.675023203665
 31
0.0
  0
LINE
  5
1249
330
1F
100
AcDbEntity
  8
Visible (ISO)
100
AcDbLine
 10
5243.30842672354
 20
9254.675023203665
 30
0.0
 11
5270.80842672354
 21
9254.675023203665
 31
0.0
  0
LINE
  5
124A
330
1F
100
AcDbEntity
  8
Visible (ISO)
100
AcDbLine
 10
5135.808426723541
 20
9254.675023203665
 30
0.0
 11
5135.808426723541
 21
9882.675023203665
 31
0.0
  0
LINE
  5
124B
330
1F
100
AcDbEntity
  8
Visible (ISO)
100
AcDbLine
 10
5270.80842672354
 20
9254.675023203665
 30
0.0
 11
5270.80842672354
 21
9994.675023203665
 31
0.0
  0
LINE
  5
124C
330
1F
100
AcDbEntity
  8
Visible (ISO)
100
AcDbLine
 10
5135.808426723541
 20
9952.675023203665
 30
0.0
 11
5135.808426723541
 21
9882.675023203665
 31
0.0
  0
CIRCLE
  5
124E
330
1F
100
AcDbEntity
  8
Visible (ISO)
100
AcDbCircle
 10
4144.308426723545
 20
9917.675023203665
 30
0.0
 40
5.0
  0
CIRCLE
  5
124F
330
1F
100
AcDbEntity
  8
Visible (ISO)
100
AcDbCircle
 10
5148.308426723541
 20
9917.675023203665
 30
0.0
 40
5.0
  0
MTEXT
  5
1302
330
1F
100
AcDbEntity
  8
0
100
AcDbMText
 10
5446.478904208294
 20
9734.449850808822
 30
0.0
 40
233.9816249415046
 41
351.4273130132687
 46
0.0
 71
     1
 72
     1
  1
63
 73
     1
 44
1.0
  0
LINE
  5
1303
330
1F
100
AcDbEntity
  8
Visible (ISO)
100
AcDbLine
 10
8808.908071216391
 20
9952.675023203665
 30
0.0
 11
9331.298191950924
 21
9952.675023203665
 31
0.0
  0
LINE
  5
1304
330
1F
100
AcDbEntity
  8
Visible (ISO)
100
AcDbLine
 10
8231.517950481864
 20
9952.675023203665
 30
0.0
 11
8753.908071216391
 21
9952.675023203665
 31
0.0
  0
LINE
  5
1305
330
1F
100
AcDbEntity
  8
Visible (ISO)
100
AcDbLine
 10
8754.570597415755
 20
9979.675023203665
 30
0.0
 11
8181.408071216393
 21
9979.675023203665
 31
0.0
  0
LINE
  5
1306
330
1F
100
AcDbEntity
  8
Visible (ISO)
100
AcDbLine
 10
9381.408071216394
 20
9979.675023203665
 30
0.0
 11
8808.245545017026
 21
9979.675023203665
 31
0.0
  0
ARC
  5
1307
330
1F
100
AcDbEntity
  8
Visible (ISO)
100
AcDbCircle
 10
8231.517950481864
 20
10012.67502320366
 30
0.0
 40
60.0
100
AcDbArc
 50
213.3670129691817
 51
270.0
  0
ARC
  5
1308
330
1F
100
AcDbEntity
  8
Visible (ISO)
100
AcDbCircle
 10
9331.298191950924
 20
10012.67502320366
 30
0.0
 40
60.0
100
AcDbArc
 50
270.0
 51
326.6329870308183
  0
LINE
  5
1309
330
1F
100
AcDbEntity
  8
Visible (ISO)
100
AcDbLine
 10
9381.408071216394
 20
9994.675023203665
 30
0.0
 11
8808.245545017028
 21
9994.675023203665
 31
0.0
  0
LINE
  5
130A
330
1F
100
AcDbEntity
  8
Visible (ISO)
100
AcDbLine
 10
8754.570597415751
 20
9994.675023203665
 30
0.0
 11
8181.408071216393
 21
9994.675023203665
 31
0.0
  0
LINE
  5
130B
330
1F
100
AcDbEntity
  8
Visible (ISO)
100
AcDbLine
 10
8181.408071216393
 20
9979.675023203665
 30
0.0
 11
8181.408071216393
 21
9994.675023203665
 31
0.0
  0
LINE
  5
130C
330
1F
100
AcDbEntity
  8
Visible (ISO)
100
AcDbLine
 10
9381.408071216394
 20
9979.675023203665
 30
0.0
 11
9381.408071216394
 21
9994.675023203665
 31
0.0
  0
LINE
  5
130D
330
1F
100
AcDbEntity
  8
Visible (ISO)
100
AcDbLine
 10
9270.908071216394
 20
9882.675023203669
 30
0.0
 11
9197.816800868997
 21
9882.675023203669
 31
0.0
  0
LINE
  5
130E
330
1F
100
AcDbEntity
  8
Visible (ISO)
100
AcDbLine
 10
8364.999341563793
 20
9882.675023203669
 30
0.0
 11
8291.908071216395
 21
9882.675023203669
 31
0.0
  0
LINE
  5
130F
330
1F
100
AcDbEntity
  8
Visible (ISO)
100
AcDbLine
 10
9270.908071216394
 20
9952.675023203665
 30
0.0
 11
9270.908071216394
 21
9882.675023203669
 31
0.0
  0
LINE
  5
1310
330
1F
100
AcDbEntity
  8
Visible (ISO)
100
AcDbLine
 10
8291.908071216395
 20
9952.675023203665
 30
0.0
 11
8291.908071216395
 21
9882.675023203669
 31
0.0
  0
LINE
  5
1311
330
1F
100
AcDbEntity
  8
Visible (ISO)
100
AcDbLine
 10
8364.999341563791
 20
9882.675023203669
 30
0.0
 11
8364.999341563791
 21
9952.675023203665
 31
0.0
  0
LINE
  5
1312
330
1F
100
AcDbEntity
  8
Visible (ISO)
100
AcDbLine
 10
8753.908071216393
 20
9882.675023203669
 30
0.0
 11
8364.999341563791
 21
9882.675023203669
 31
0.0
  0
LINE
  5
1313
330
1F
100
AcDbEntity
  8
Visible (ISO)
100
AcDbLine
 10
9197.816800868997
 20
9882.675023203669
 30
0.0
 11
8808.908071216395
 21
9882.675023203669
 31
0.0
  0
LINE
  5
1314
330
1F
100
AcDbEntity
  8
Visible (ISO)
100
AcDbLine
 10
9197.816800868997
 20
9952.675023203665
 30
0.0
 11
9197.816800868997
 21
9882.675023203669
 31
0.0
  0
CIRCLE
  5
1315
330
1F
100
AcDbEntity
  8
Visible (ISO)
100
AcDbCircle
 10
8279.408071216394
 20
9917.675023203665
 30
0.0
 40
4.749999999999995
  0
ARC
  5
1316
330
1F
100
AcDbEntity
  8
Visible (ISO)
100
AcDbCircle
 10
8234.738998952336
 20
9941.675023203671
 30
0.0
 40
10.99999999999709
100
AcDbArc
 50
90.0
 51
117.720497434176
  0
ARC
  5
1317
330
1F
100
AcDbEntity
  8
Visible (ISO)
100
AcDbCircle
 10
8224.505506154939
 20
9961.15002320792
 30
0.0
 40
11.00000000000071
100
AcDbArc
 50
262.2497821007448
 51
297.7204974341761
  0
ARC
  5
1318
330
1F
100
AcDbEntity
  8
Visible (ISO)
100
AcDbCircle
 10
8231.517950481864
 20
10012.67502320367
 30
0.0
 40
63.00000000000032
100
AcDbArc
 50
221.6019183035115
 51
262.2497821007448
  0
SPLINE
  5
1319
330
1F
100
AcDbEntity
  8
Visible (ISO)
100
AcDbSpline
210
0.0
220
0.0
230
1.0
 70
     8
 71
     3
 72
     8
 73
     4
 74
     0
 42
0.000000001
 43
0.0000000001
 40
22.71964887812294
 40
22.71964887812294
 40
22.71964887812294
 40
22.71964887812294
 40
23.69928095869392
 40
23.69928095869392
 40
23.69928095869392
 40
23.69928095869392
 10
8184.408071216395
 20
9970.846094510802
 30
0.0
 10
8182.235736265523
 20
9973.292689258927
 30
0.0
 10
8180.215685372621
 20
9975.95485286968
 30
0.0
 10
8178.408071216393
 20
9978.787846803092
 30
0.0
  0
LINE
  5
131A
330
1F
100
AcDbEntity
  8
Visible (ISO)
100
AcDbLine
 10
8178.408071216393
 20
9978.787846803092
 30
0.0
 11
8178.408071216393
 21
9994.675023203665
 31
0.0
  0
LINE
  5
131B
330
1F
100
AcDbEntity
  8
Visible (ISO)
100
AcDbLine
 10
8264.408071216394
 20
9254.675023203665
 30
0.0
 11
8184.408071216395
 21
9254.675023203665
 31
0.0
  0
LINE
  5
131C
330
1F
100
AcDbEntity
  8
Visible (ISO)
100
AcDbLine
 10
8178.408071216393
 20
9994.675023203665
 30
0.0
 11
8156.908071216395
 21
9994.675023203665
 31
0.0
  0
LINE
  5
131D
330
1F
100
AcDbEntity
  8
Visible (ISO)
100
AcDbLine
 10
8264.408071216394
 20
9254.675023203665
 30
0.0
 11
8291.908071216395
 21
9254.675023203665
 31
0.0
  0
LINE
  5
131E
330
1F
100
AcDbEntity
  8
Visible (ISO)
100
AcDbLine
 10
8156.908071216395
 20
9254.675023203665
 30
0.0
 11
8184.408071216395
 21
9254.675023203665
 31
0.0
  0
LINE
  5
131F
330
1F
100
AcDbEntity
  8
Visible (ISO)
100
AcDbLine
 10
8291.908071216395
 20
9254.675023203665
 30
0.0
 11
8291.908071216395
 21
9882.675023203669
 31
0.0
  0
LINE
  5
1320
330
1F
100
AcDbEntity
  8
Visible (ISO)
100
AcDbLine
 10
8156.908071216395
 20
9254.675023203665
 30
0.0
 11
8156.908071216395
 21
9994.675023203665
 31
0.0
  0
LINE
  5
1321
330
1F
100
AcDbEntity
  8
Visible (ISO)
100
AcDbLine
 10
8291.908071216395
 20
9952.675023203665
 30
0.0
 11
8291.908071216395
 21
9882.675023203669
 31
0.0
  0
LINE
  5
1322
330
1F
100
AcDbEntity
  8
Visible (ISO)
100
AcDbLine
 10
8808.908071216391
 20
9254.675023203665
 30
0.0
 11
8808.908071216391
 21
9970.846094510802
 31
0.0
  0
LINE
  5
1323
330
1F
100
AcDbEntity
  8
Visible (ISO)
100
AcDbLine
 10
8808.245545017028
 20
9994.675023203665
 30
0.0
 11
8754.570597415751
 21
9994.675023203665
 31
0.0
  0
LINE
  5
1324
330
1F
100
AcDbEntity
  8
Visible (ISO)
100
AcDbLine
 10
8753.908071216391
 20
9254.675023203665
 30
0.0
 11
8753.908071216391
 21
9970.846094510802
 31
0.0
  0
LINE
  5
1325
330
1F
100
AcDbEntity
  8
Visible (ISO)
100
AcDbLine
 10
8753.908071216391
 20
9254.675023203665
 30
0.0
 11
8808.908071216391
 21
9254.675023203665
 31
0.0
  0
SPLINE
  5
1326
330
1F
100
AcDbEntity
  8
Visible (ISO)
100
AcDbSpline
210
0.0
220
0.0
230
1.0
 70
     8
 71
     3
 72
     8
 73
     4
 74
     0
 42
0.000000001
 43
0.0000000001
 40
12.52341825774861
 40
12.52341825774861
 40
12.52341825774861
 40
12.52341825774861
 40
13.50305033831955
 40
13.50305033831955
 40
13.50305033831955
 40
13.50305033831955
 10
8754.570597415751
 20
9978.787846803092
 30
0.0
 10
8754.166473834549
 20
9975.954860291656
 30
0.0
 10
8753.908071256663
 20
9973.292696269597
 30
0.0
 10
8753.908071216391
 20
9970.846094510802
 30
0.0
  0
SPLINE
  5
1327
330
1F
100
AcDbEntity
  8
Visible (ISO)
100
AcDbSpline
210
0.0
220
0.0
230
1.0
 70
     8
 71
     3
 72
     8
 73
     4
 74
     0
 42
0.000000001
 43
0.0000000001
 40
22.71964887812294
 40
22.71964887812294
 40
22.71964887812294
 40
22.71964887812294
 40
23.69928095869392
 40
23.69928095869392
 40
23.69928095869392
 40
23.69928095869392
 10
8808.908071216391
 20
9970.846094510802
 30
0.0
 10
8808.908071216391
 20
9973.292689258927
 30
0.0
 10
8808.649669625458
 20
9975.95485286968
 30
0.0
 10
8808.245545017028
 20
9978.787846803092
 30
0.0
  0
LINE
  5
1328
330
1F
100
AcDbEntity
  8
Visible (ISO)
100
AcDbLine
 10
8754.570597415751
 20
9994.675023203665
 30
0.0
 11
8754.570597415751
 21
9978.787846803092
 31
0.0
  0
LINE
  5
1329
330
1F
100
AcDbEntity
  8
Visible (ISO)
100
AcDbLine
 10
8808.245545017028
 20
9978.787846803092
 30
0.0
 11
8808.245545017028
 21
9994.675023203665
 31
0.0
  0
CIRCLE
  5
132A
330
1F
100
AcDbEntity
  8
Visible (ISO)
100
AcDbCircle
 10
9283.40807121639
 20
9917.675023203665
 30
0.0
 40
4.749999999999995
  0
ARC
  5
132B
330
1F
100
AcDbEntity
  8
Visible (ISO)
100
AcDbCircle
 10
9328.077143480452
 20
9941.675023203671
 30
0.0
 40
10.99999999999709
100
AcDbArc
 50
62.27950256582398
 51
90.0
  0
ARC
  5
132C
330
1F
100
AcDbEntity
  8
Visible (ISO)
100
AcDbCircle
 10
9338.310636277848
 20
9961.15002320792
 30
0.0
 40
11.0000000000007
100
AcDbArc
 50
242.2795025658239
 51
277.7502178992551
  0
ARC
  5
132D
330
1F
100
AcDbEntity
  8
Visible (ISO)
100
AcDbCircle
 10
9331.298191950919
 20
10012.67502320367
 30
0.0
 40
63.0000000000003
100
AcDbArc
 50
277.7502178992551
 51
318.3980816964885
  0
SPLINE
  5
132E
330
1F
100
AcDbEntity
  8
Visible (ISO)
100
AcDbSpline
210
0.0
220
0.0
230
1.0
 70
     8
 71
     3
 72
     8
 73
     4
 74
     0
 42
0.000000001
 43
0.0000000001
 40
12.52341825774861
 40
12.52341825774861
 40
12.52341825774861
 40
12.52341825774861
 40
13.50305033831955
 40
13.50305033831955
 40
13.50305033831955
 40
13.50305033831955
 10
9384.408071216395
 20
9978.787846803092
 30
0.0
 10
9382.600461879272
 20
9975.954860291656
 30
0.0
 10
9380.580412338719
 20
9973.292696269597
 30
0.0
 10
9378.408071216391
 20
9970.846094510802
 30
0.0
  0
LINE
  5
132F
330
1F
100
AcDbEntity
  8
Visible (ISO)
100
AcDbLine
 10
9384.408071216395
 20
9994.675023203665
 30
0.0
 11
9384.408071216395
 21
9978.787846803092
 31
0.0
  0
LINE
  5
1330
330
1F
100
AcDbEntity
  8
Visible (ISO)
100
AcDbLine
 10
9405.908071216391
 20
9994.675023203665
 30
0.0
 11
9384.408071216395
 21
9994.675023203665
 31
0.0
  0
LINE
  5
1331
330
1F
100
AcDbEntity
  8
Visible (ISO)
100
AcDbLine
 10
9378.408071216391
 20
9254.675023203665
 30
0.0
 11
9298.408071216391
 21
9254.675023203665
 31
0.0
  0
LINE
  5
1332
330
1F
100
AcDbEntity
  8
Visible (ISO)
100
AcDbLine
 10
9270.908071216391
 20
9254.675023203665
 30
0.0
 11
9298.408071216391
 21
9254.675023203665
 31
0.0
  0
LINE
  5
1333
330
1F
100
AcDbEntity
  8
Visible (ISO)
100
AcDbLine
 10
9378.408071216391
 20
9254.675023203665
 30
0.0
 11
9405.908071216391
 21
9254.675023203665
 31
0.0
  0
LINE
  5
1334
330
1F
100
AcDbEntity
  8
Visible (ISO)
100
AcDbLine
 10
9270.908071216391
 20
9254.675023203665
 30
0.0
 11
9270.908071216391
 21
9882.675023203669
 31
0.0
  0
LINE
  5
1335
330
1F
100
AcDbEntity
  8
Visible (ISO)
100
AcDbLine
 10
9405.908071216391
 20
9254.675023203665
 30
0.0
 11
9405.908071216391
 21
9994.675023203665
 31
0.0
  0
LINE
  5
1336
330
1F
100
AcDbEntity
  8
Visible (ISO)
100
AcDbLine
 10
9270.908071216391
 20
9952.675023203665
 30
0.0
 11
9270.908071216391
 21
9882.675023203669
 31
0.0
  0
CIRCLE
  5
1337
330
1F
100
AcDbEntity
  8
Visible (ISO)
100
AcDbCircle
 10
8279.408071216394
 20
9917.675023203665
 30
0.0
 40
5.0
  0
CIRCLE
  5
1338
330
1F
100
AcDbEntity
  8
Visible (ISO)
100
AcDbCircle
 10
9283.40807121639
 20
9917.675023203665
 30
0.0
 40
5.0
  0
CIRCLE
  5
1371
330
1F
100
AcDbEntity
  8
Visible (ISO)
100
AcDbCircle
 10
11495.39716762683
 20
9879.175023203664
 30
0.0
 40
600.0
  0
SPLINE
  5
1372
330
1F
100
AcDbEntity
  8
Visible (ISO)
100
AcDbSpline
210
0.0
220
0.0
230
1.0
 70
     8
 71
     3
 72
     8
 73
     4
 74
     0
 42
0.000000001
 43
0.0000000001
 40
12.52341825774861
 40
12.52341825774861
 40
12.52341825774861
 40
12.52341825774861
 40
13.13609939213638
 40
13.13609939213638
 40
13.13609939213638
 40
13.13609939213638
 10
11522.23464142747
 20
10482.17502320365
 30
0.0
 10
11522.48738824852
 20
10481.04450883897
 30
0.0
 10
11522.68313634067
 20
10479.83089854928
 30
0.0
 10
11522.79432011477
 20
10478.54890665491
 30
0.0
  0
SPLINE
  5
1373
330
1F
100
AcDbEntity
  8
Visible (ISO)
100
AcDbSpline
210
0.0
220
0.0
230
1.0
 70
     8
 71
     3
 72
     8
 73
     4
 74
     0
 42
0.000000001
 43
0.0000000001
 40
23.08660045685593
 40
23.08660045685593
 40
23.08660045685593
 40
23.08660045685593
 40
23.69928095869392
 40
23.69928095869392
 40
23.69928095869392
 40
23.69928095869392
 10
11468.00001519513
 20
10478.54890664427
 30
0.0
 10
11468.11119882013
 20
10479.8308963833
 30
0.0
 10
11468.30694662364
 20
10481.04450699218
 30
0.0
 10
11468.55969382619
 20
10482.17502320365
 30
0.0
  0
LINE
  5
1374
330
1F
100
AcDbEntity
  8
Visible (ISO)
100
AcDbLine
 10
11468.55969382619
 20
10482.17502320366
 30
0.0
 11
11522.23464142747
 21
10482.17502320366
 31
0.0
  0
ARC
  5
1375
330
1F
100
AcDbEntity
  8
Visible (ISO)
100
AcDbCircle
 10
11495.39716762683
 20
10476.17502320366
 30
0.0
 40
27.49999999999995
100
AcDbArc
 50
12.6022648414534
 51
167.3977351585466
  0
SPLINE
  5
1376
330
1F
100
AcDbEntity
  8
Visible (ISO)
100
AcDbSpline
210
0.0
220
0.0
230
1.0
 70
     8
 71
     3
 72
     8
 73
     4
 74
     0
 42
0.000000001
 43
0.0000000001
 40
12.52341825774861
 40
12.52341825774861
 40
12.52341825774861
 40
12.52341825774861
 40
13.13609939213639
 40
13.13609939213639
 40
13.13609939213639
 40
13.13609939213639
 10
10892.39716762683
 20
9906.012497004304
 30
0.0
 10
10893.52768199152
 20
9906.265243825354
 30
0.0
 10
10894.74129228121
 20
9906.460991917505
 30
0.0
 10
10896.02328417557
 20
9906.572175691611
 30
0.0
  0
SPLINE
  5
1377
330
1F
100
AcDbEntity
  8
Visible (ISO)
100
AcDbSpline
210
0.0
220
0.0
230
1.0
 70
     8
 71
     3
 72
     8
 73
     4
 74
     0
 42
0.000000001
 43
0.0000000001
 40
23.08660045685591
 40
23.08660045685591
 40
23.08660045685591
 40
23.08660045685591
 40
23.69928095869392
 40
23.69928095869392
 40
23.69928095869392
 40
23.69928095869392
 10
10896.02328418622
 20
9851.777870771956
 30
0.0
 10
10894.74129444718
 20
9851.889054396965
 30
0.0
 10
10893.5276838383
 20
9852.084802200472
 30
0.0
 10
10892.39716762683
 20
9852.337549403026
 30
0.0
  0
LINE
  5
1378
330
1F
100
AcDbEntity
  8
Visible (ISO)
100
AcDbLine
 10
10892.39716762683
 20
9852.337549403026
 30
0.0
 11
10892.39716762683
 21
9906.012497004308
 31
0.0
  0
ARC
  5
1379
330
1F
100
AcDbEntity
  8
Visible (ISO)
100
AcDbCircle
 10
10898.39716762683
 20
9879.17502320367
 30
0.0
 40
27.49999999999996
100
AcDbArc
 50
102.6022648414556
 51
257.3977351585444
  0
SPLINE
  5
137A
330
1F
100
AcDbEntity
  8
Visible (ISO)
100
AcDbSpline
210
0.0
220
0.0
230
1.0
 70
     8
 71
     3
 72
     8
 73
     4
 74
     0
 42
0.000000001
 43
0.0000000001
 40
12.52341825774861
 40
12.52341825774861
 40
12.52341825774861
 40
12.52341825774861
 40
13.13609939213636
 40
13.13609939213636
 40
13.13609939213636
 40
13.13609939213636
 10
11468.55969382619
 20
9276.175023203665
 30
0.0
 10
11468.30694700513
 20
9277.305537568354
 30
0.0
 10
11468.11119891298
 20
9278.519147858046
 30
0.0
 10
11468.00001513888
 20
9279.801139752402
 30
0.0
  0
SPLINE
  5
137B
330
1F
100
AcDbEntity
  8
Visible (ISO)
100
AcDbSpline
210
0.0
220
0.0
230
1.0
 70
     8
 71
     3
 72
     8
 73
     4
 74
     0
 42
0.000000001
 43
0.0000000001
 40
23.08660045685596
 40
23.08660045685596
 40
23.08660045685596
 40
23.08660045685596
 40
23.69928095869392
 40
23.69928095869392
 40
23.69928095869392
 40
23.69928095869392
 10
11522.79432005853
 20
9279.801139763048
 30
0.0
 10
11522.68313643352
 20
9278.519150024019
 30
0.0
 10
11522.48738863002
 20
9277.305539415138
 30
0.0
 10
11522.23464142746
 20
9276.175023203661
 30
0.0
  0
LINE
  5
137C
330
1F
100
AcDbEntity
  8
Visible (ISO)
100
AcDbLine
 10
11522.23464142746
 20
9276.175023203665
 30
0.0
 11
11468.55969382619
 21
9276.175023203665
 31
0.0
  0
ARC
  5
137D
330
1F
100
AcDbEntity
  8
Visible (ISO)
100
AcDbCircle
 10
11495.39716762682
 20
9282.175023203668
 30
0.0
 40
27.49999999999995
100
AcDbArc
 50
192.6022648414534
 51
347.3977351585466
  0
SPLINE
  5
137E
330
1F
100
AcDbEntity
  8
Visible (ISO)
100
AcDbSpline
210
0.0
220
0.0
230
1.0
 70
     8
 71
     3
 72
     8
 73
     4
 74
     0
 42
0.000000001
 43
0.0000000001
 40
12.52341825774861
 40
12.52341825774861
 40
12.52341825774861
 40
12.52341825774861
 40
13.13609939213636
 40
13.13609939213636
 40
13.13609939213636
 40
13.13609939213636
 10
12098.39716762683
 20
9852.337549403019
 30
0.0
 10
12097.26665326213
 20
9852.084802581964
 30
0.0
 10
12096.05304297244
 20
9851.889054489816
 30
0.0
 10
12094.77105107808
 20
9851.777870715713
 30
0.0
  0
SPLINE
  5
137F
330
1F
100
AcDbEntity
  8
Visible (ISO)
100
AcDbSpline
210
0.0
220
0.0
230
1.0
 70
     8
 71
     3
 72
     8
 73
     4
 74
     0
 42
0.000000001
 43
0.0000000001
 40
23.08660045685594
 40
23.08660045685594
 40
23.08660045685594
 40
23.08660045685594
 40
23.69928095869392
 40
23.69928095869392
 40
23.69928095869392
 40
23.69928095869392
 10
12094.77105106744
 20
9906.572175635361
 30
0.0
 10
12096.05304080647
 20
9906.460992010353
 30
0.0
 10
12097.26665141535
 20
9906.265244206849
 30
0.0
 10
12098.39716762683
 20
9906.012497004297
 30
0.0
  0
LINE
  5
1380
330
1F
100
AcDbEntity
  8
Visible (ISO)
100
AcDbLine
 10
12098.39716762683
 20
9906.012497004304
 30
0.0
 11
12098.39716762683
 21
9852.337549403026
 31
0.0
  0
ARC
  5
1381
330
1F
100
AcDbEntity
  8
Visible (ISO)
100
AcDbCircle
 10
12092.39716762682
 20
9879.175023203664
 30
0.0
 40
27.49999999999995
100
AcDbArc
 50
282.6022648414394
 51
77.39773515854444
  0
MTEXT
  5
13AF
330
1F
100
AcDbEntity
  8
0
100
AcDbMText
 10
12266.9825941651
 20
9968.712805702125
 30
0.0
 40
233.9816249415046
 41
351.4273130132687
 46
0.0
 71
     1
 72
     1
  1
120
 73
     1
 44
1.0
  0
MTEXT
  5
13B0
330
1F
100
AcDbEntity
  8
0
100
AcDbMText
 10
11208.60660350705
 20
10869.68430072957
 30
0.0
 40
233.9816249415046
 41
351.4273130132687
 46
0.0
 71
     1
 72
     1
  1
120
 73
     1
 44
1.0
  0
TEXT
  5
13B3
330
1F
100
AcDbEntity
  8
LINE
100
AcDbText
 10
10946.37240987233
 20
8867.775667395392
 30
0.0
 40
233.9816249415046
  1
OI120_1
 41
1.000399999999999
100
AcDbText
  0
MTEXT
  5
13C4
330
1F
100
AcDbEntity
  8
0
100
AcDbMText
 10
5046.478904208292
 20
14419.71986472965
 30
0.0
 40
233.9816249415046
 41
351.4273130132687
 46
0.0
 71
     1
 72
     1
  1
30
 73
     1
 44
1.0
  0
CIRCLE
  5
1562
330
1F
100
AcDbEntity
  8
Visible (ISO)
100
AcDbCircle
 10
14714.83042704855
 20
9952.814212655447
 30
0.0
 40
700.0000000000003
  0
SPLINE
  5
1563
330
1F
100
AcDbEntity
  8
Visible (ISO)
100
AcDbSpline
210
0.0
220
0.0
230
1.0
 70
     8
 71
     3
 72
     8
 73
     4
 74
     0
 42
0.000000001
 43
0.0000000001
 40
12.52341825774861
 40
12.52341825774861
 40
12.52341825774861
 40
12.52341825774861
 40
13.12177895314369
 40
13.12177895314369
 40
13.12177895314369
 40
13.12177895314369
 10
14741.66790084919
 20
10655.81421265544
 30
0.0
 10
14741.91474011862
 20
10654.71012225107
 30
0.0
 10
14742.10721402761
 20
10653.52677499308
 30
0.0
 10
14742.2196450648
 20
10652.27787735899
 30
0.0
  0
SPLINE
  5
1564
330
1F
100
AcDbEntity
  8
Visible (ISO)
100
AcDbSpline
210
0.0
220
0.0
230
1.0
 70
     8
 71
     3
 72
     8
 73
     4
 74
     0
 42
0.000000001
 43
0.0000000001
 40
23.10092090435345
 40
23.10092090435345
 40
23.10092090435345
 40
23.10092090435345
 40
23.69928095869392
 40
23.69928095869392
 40
23.69928095869392
 40
23.69928095869392
 10
14687.44120909101
 20
10652.27787734708
 30
0.0
 10
14687.5536399785
 20
10653.52677293498
 30
0.0
 10
14687.74611361551
 20
10654.71012049043
 30
0.0
 10
14687.99295324791
 20
10655.81421265544
 30
0.0
  0
LINE
  5
1565
330
1F
100
AcDbEntity
  8
Visible (ISO)
100
AcDbLine
 10
14687.99295324791
 20
10655.81421265544
 30
0.0
 11
14741.66790084919
 21
10655.81421265544
 31
0.0
  0
ARC
  5
1566
330
1F
100
AcDbEntity
  8
Visible (ISO)
100
AcDbCircle
 10
14714.83042704855
 20
10649.81421265544
 30
0.0
 40
27.49999999999995
100
AcDbArc
 50
12.60226484145341
 51
167.3977351585466
  0
SPLINE
  5
1567
330
1F
100
AcDbEntity
  8
Visible (ISO)
100
AcDbSpline
210
0.0
220
0.0
230
1.0
 70
     8
 71
     3
 72
     8
 73
     4
 74
     0
 42
0.000000001
 43
0.0000000001
 40
12.52341825774861
 40
12.52341825774861
 40
12.52341825774861
 40
12.52341825774861
 40
13.12177895314373
 40
13.12177895314373
 40
13.12177895314373
 40
13.12177895314373
 10
14011.83042704855
 20
9979.651686456078
 30
0.0
 10
14012.93451745291
 20
9979.898525725504
 30
0.0
 10
14014.1178647109
 20
9980.090999634498
 30
0.0
 10
14015.366762345
 20
9980.203430671682
 30
0.0
  0
SPLINE
  5
1568
330
1F
100
AcDbEntity
  8
Visible (ISO)
100
AcDbSpline
210
0.0
220
0.0
230
1.0
 70
     8
 71
     3
 72
     8
 73
     4
 74
     0
 42
0.000000001
 43
0.0000000001
 40
23.1009209043534
 40
23.1009209043534
 40
23.1009209043534
 40
23.1009209043534
 40
23.69928095869392
 40
23.69928095869392
 40
23.69928095869392
 40
23.69928095869392
 10
14015.36676235691
 20
9925.424994697889
 30
0.0
 10
14014.117866769
 20
9925.537425585382
 30
0.0
 10
14012.93451921356
 20
9925.729899222396
 30
0.0
 10
14011.83042704855
 20
9925.976738854799
 30
0.0
  0
LINE
  5
1569
330
1F
100
AcDbEntity
  8
Visible (ISO)
100
AcDbLine
 10
14011.83042704855
 20
9925.976738854807
 30
0.0
 11
14011.83042704855
 21
9979.651686456085
 31
0.0
  0
ARC
  5
156A
330
1F
100
AcDbEntity
  8
Visible (ISO)
100
AcDbCircle
 10
14017.83042704855
 20
9952.814212655447
 30
0.0
 40
27.49999999999996
100
AcDbArc
 50
102.6022648414557
 51
257.3977351585443
  0
SPLINE
  5
156B
330
1F
100
AcDbEntity
  8
Visible (ISO)
100
AcDbSpline
210
0.0
220
0.0
230
1.0
 70
     8
 71
     3
 72
     8
 73
     4
 74
     0
 42
0.000000001
 43
0.0000000001
 40
12.52341825774861
 40
12.52341825774861
 40
12.52341825774861
 40
12.52341825774861
 40
13.12177895314376
 40
13.12177895314376
 40
13.12177895314376
 40
13.12177895314376
 10
14687.99295324791
 20
9249.814212655438
 30
0.0
 10
14687.74611397849
 20
9250.918303059799
 30
0.0
 10
14687.55364006949
 20
9252.101650317788
 30
0.0
 10
14687.4412090323
 20
9253.350547951887
 30
0.0
  0
SPLINE
  5
156C
330
1F
100
AcDbEntity
  8
Visible (ISO)
100
AcDbSpline
210
0.0
220
0.0
230
1.0
 70
     8
 71
     3
 72
     8
 73
     4
 74
     0
 42
0.000000001
 43
0.0000000001
 40
23.10092090435338
 40
23.10092090435338
 40
23.10092090435338
 40
23.10092090435338
 40
23.69928095869392
 40
23.69928095869392
 40
23.69928095869392
 40
23.69928095869392
 10
14742.2196450061
 20
9253.350547963789
 30
0.0
 10
14742.1072141186
 20
9252.101652375884
 30
0.0
 10
14741.91474048159
 20
9250.918304820443
 30
0.0
 10
14741.66790084919
 20
9249.814212655438
 30
0.0
  0
LINE
  5
156D
330
1F
100
AcDbEntity
  8
Visible (ISO)
100
AcDbLine
 10
14741.66790084919
 20
9249.814212655445
 30
0.0
 11
14687.99295324791
 21
9249.814212655445
 31
0.0
  0
ARC
  5
156E
330
1F
100
AcDbEntity
  8
Visible (ISO)
100
AcDbCircle
 10
14714.83042704855
 20
9255.814212655444
 30
0.0
 40
27.49999999999996
100
AcDbArc
 50
192.6022648414534
 51
347.3977351585466
  0
SPLINE
  5
156F
330
1F
100
AcDbEntity
  8
Visible (ISO)
100
AcDbSpline
210
0.0
220
0.0
230
1.0
 70
     8
 71
     3
 72
     8
 73
     4
 74
     0
 42
0.000000001
 43
0.0000000001
 40
12.52341825774861
 40
12.52341825774861
 40
12.52341825774861
 40
12.52341825774861
 40
13.12177895314371
 40
13.12177895314371
 40
13.12177895314371
 40
13.12177895314371
 10
15417.83042704855
 20
9925.976738854799
 30
0.0
 10
15416.72633664419
 20
9925.729899585371
 30
0.0
 10
15415.5429893862
 20
9925.537425676383
 30
0.0
 10
15414.2940917521
 20
9925.424994639186
 30
0.0
  0
SPLINE
  5
1570
330
1F
100
AcDbEntity
  8
Visible (ISO)
100
AcDbSpline
210
0.0
220
0.0
230
1.0
 70
     8
 71
     3
 72
     8
 73
     4
 74
     0
 42
0.000000001
 43
0.0000000001
 40
23.10092090435343
 40
23.10092090435343
 40
23.10092090435343
 40
23.10092090435343
 40
23.69928095869392
 40
23.69928095869392
 40
23.69928095869392
 40
23.69928095869392
 10
15414.2940917402
 20
9980.203430612981
 30
0.0
 10
15415.54298732811
 20
9980.090999725494
 30
0.0
 10
15416.72633488355
 20
9979.898526088481
 30
0.0
 10
15417.83042704855
 20
9979.651686456078
 30
0.0
  0
LINE
  5
1571
330
1F
100
AcDbEntity
  8
Visible (ISO)
100
AcDbLine
 10
15417.83042704855
 20
9979.651686456078
 30
0.0
 11
15417.83042704855
 21
9925.976738854799
 31
0.0
  0
ARC
  5
1572
330
1F
100
AcDbEntity
  8
Visible (ISO)
100
AcDbCircle
 10
15411.83042704855
 20
9952.814212655438
 30
0.0
 40
27.49999999999996
100
AcDbArc
 50
282.6022648414557
 51
77.39773515854429
  0
TEXT
  5
15AF
330
1F
100
AcDbEntity
  8
LINE
100
AcDbText
 10
14165.80566929406
 20
8841.414856847171
 30
0.0
 40
233.9816249415046
  1
OI140
 41
1.000399999999999
100
AcDbText
  0
MTEXT
  5
15B0
330
1F
100
AcDbEntity
  8
0
100
AcDbMText
 10
15586.41585358682
 20
10042.3519951539
 30
0.0
 40
233.9816249415046
 41
351.4273130132687
 46
0.0
 71
     1
 72
     1
  1
140
 73
     1
 44
1.0
  0
MTEXT
  5
15B1
330
1F
100
AcDbEntity
  8
0
100
AcDbMText
 10
14428.03986292878
 20
11043.32349018135
 30
0.0
 40
233.9816249415046
 41
351.4273130132687
 46
0.0
 71
     1
 72
     1
  1
140
 73
     1
 44
1.0
  0
LINE
  5
164E
330
1F
100
AcDbEntity
  8
Visible (ISO)
100
AcDbLine
 10
5561.808426723544
 20
6661.726570345106
 30
0.0
 11
5871.698547458074
 21
6661.726570345106
 31
0.0
  0
ARC
  5
164F
330
1F
100
AcDbEntity
  8
Visible (ISO)
100
AcDbCircle
 10
5871.698547458073
 20
6721.726570345104
 30
0.0
 40
60.00000000000042
100
AcDbArc
 50
270.0
 51
326.6329870307557
  0
LINE
  5
1650
330
1F
100
AcDbEntity
  8
Visible (ISO)
100
AcDbLine
 10
5921.808426723544
 20
6688.726570345103
 30
0.0
 11
5561.808426723544
 21
6688.726570345103
 31
0.0
  0
LINE
  5
1651
330
1F
100
AcDbEntity
  8
Visible (ISO)
100
AcDbLine
 10
5506.808426723546
 20
6661.726570345106
 30
0.0
 11
4436.808426723544
 21
6661.726570345106
 31
0.0
  0
LINE
  5
1652
330
1F
100
AcDbEntity
  8
Visible (ISO)
100
AcDbLine
 10
4381.808426723543
 20
6688.726570345105
 30
0.0
 11
4382.470952922906
 21
6688.726570345105
 31
0.0
  0
LINE
  5
1653
330
1F
100
AcDbEntity
  8
Visible (ISO)
100
AcDbLine
 10
4436.145900524183
 20
6688.726570345105
 30
0.0
 11
5507.470952922906
 21
6688.726570345105
 31
0.0
  0
LINE
  5
1654
330
1F
100
AcDbEntity
  8
Visible (ISO)
100
AcDbLine
 10
5561.145900524184
 20
6688.726570345105
 30
0.0
 11
5561.808426723544
 21
6688.726570345105
 31
0.0
  0
ARC
  5
1655
330
1F
100
AcDbEntity
  8
Visible (ISO)
100
AcDbCircle
 10
4071.918305989014
 20
6721.726570345104
 30
0.0
 40
60.00000000000042
100
AcDbArc
 50
213.3670129692442
 51
270.0
  0
LINE
  5
1656
330
1F
100
AcDbEntity
  8
Visible (ISO)
100
AcDbLine
 10
4071.918305989014
 20
6661.726570345106
 30
0.0
 11
4381.808426723543
 21
6661.726570345106
 31
0.0
  0
LINE
  5
1657
330
1F
100
AcDbEntity
  8
Visible (ISO)
100
AcDbLine
 10
4381.808426723543
 20
6688.726570345103
 30
0.0
 11
4021.808426723543
 21
6688.726570345103
 31
0.0
  0
LINE
  5
1658
330
1F
100
AcDbEntity
  8
Visible (ISO)
100
AcDbLine
 10
4381.808426723543
 20
6703.726570345105
 30
0.0
 11
4382.470952922904
 21
6703.726570345105
 31
0.0
  0
LINE
  5
1659
330
1F
100
AcDbEntity
  8
Visible (ISO)
100
AcDbLine
 10
4436.145900524183
 20
6703.726570345105
 30
0.0
 11
5507.470952922906
 21
6703.726570345105
 31
0.0
  0
LINE
  5
165A
330
1F
100
AcDbEntity
  8
Visible (ISO)
100
AcDbLine
 10
5561.145900524184
 20
6703.726570345105
 30
0.0
 11
5561.808426723544
 21
6703.726570345105
 31
0.0
  0
LINE
  5
165B
330
1F
100
AcDbEntity
  8
Visible (ISO)
100
AcDbLine
 10
5921.808426723544
 20
6688.726570345105
 30
0.0
 11
5921.808426723544
 21
6703.726570345105
 31
0.0
  0
LINE
  5
165C
330
1F
100
AcDbEntity
  8
Visible (ISO)
100
AcDbLine
 10
5921.808426723544
 20
6703.726570345105
 30
0.0
 11
5561.808426723544
 21
6703.726570345105
 31
0.0
  0
LINE
  5
165D
330
1F
100
AcDbEntity
  8
Visible (ISO)
100
AcDbLine
 10
4381.808426723543
 20
6703.726570345105
 30
0.0
 11
4021.808426723543
 21
6703.726570345105
 31
0.0
  0
LINE
  5
165E
330
1F
100
AcDbEntity
  8
Visible (ISO)
100
AcDbLine
 10
4021.808426723543
 20
6688.726570345105
 30
0.0
 11
4021.808426723543
 21
6703.726570345105
 31
0.0
  0
LINE
  5
165F
330
1F
100
AcDbEntity
  8
Visible (ISO)
100
AcDbLine
 10
4436.808426723544
 20
6591.726570345104
 30
0.0
 11
5506.808426723546
 21
6591.726570345104
 31
0.0
  0
LINE
  5
1660
330
1F
100
AcDbEntity
  8
Visible (ISO)
100
AcDbLine
 10
5561.808426723547
 20
5963.726570345103
 30
0.0
 11
5561.808426723547
 21
6679.897641652238
 31
0.0
  0
LINE
  5
1661
330
1F
100
AcDbEntity
  8
Visible (ISO)
100
AcDbLine
 10
5561.145900524184
 20
6703.726570345103
 30
0.0
 11
5507.470952922907
 21
6703.726570345103
 31
0.0
  0
LINE
  5
1662
330
1F
100
AcDbEntity
  8
Visible (ISO)
100
AcDbLine
 10
5506.808426723546
 20
5963.726570345103
 30
0.0
 11
5506.808426723546
 21
6679.897641652238
 31
0.0
  0
LINE
  5
1663
330
1F
100
AcDbEntity
  8
Visible (ISO)
100
AcDbLine
 10
5506.808426723546
 20
5963.726570345103
 30
0.0
 11
5561.808426723547
 21
5963.726570345103
 31
0.0
  0
SPLINE
  5
1664
330
1F
100
AcDbEntity
  8
Visible (ISO)
100
AcDbSpline
210
0.0
220
0.0
230
1.0
 70
     8
 71
     3
 72
     8
 73
     4
 74
     0
 42
0.000000001
 43
0.0000000001
 40
12.52341825774861
 40
12.52341825774861
 40
12.52341825774861
 40
12.52341825774861
 40
13.50305033831955
 40
13.50305033831955
 40
13.50305033831955
 40
13.50305033831955
 10
5507.470952922907
 20
6687.83939394453
 30
0.0
 10
5507.066829341702
 20
6685.00640743309
 30
0.0
 10
5506.808426763817
 20
6682.344243411034
 30
0.0
 10
5506.808426723546
 20
6679.897641652238
 30
0.0
  0
SPLINE
  5
1665
330
1F
100
AcDbEntity
  8
Visible (ISO)
100
AcDbSpline
210
0.0
220
0.0
230
1.0
 70
     8
 71
     3
 72
     8
 73
     4
 74
     0
 42
0.000000001
 43
0.0000000001
 40
22.71964887812294
 40
22.71964887812294
 40
22.71964887812294
 40
22.71964887812294
 40
23.69928095869392
 40
23.69928095869392
 40
23.69928095869392
 40
23.69928095869392
 10
5561.808426723547
 20
6679.897641652238
 30
0.0
 10
5561.808426723547
 20
6682.344236400364
 30
0.0
 10
5561.550025132612
 20
6685.006400011116
 30
0.0
 10
5561.145900524184
 20
6687.83939394453
 30
0.0
  0
LINE
  5
1666
330
1F
100
AcDbEntity
  8
Visible (ISO)
100
AcDbLine
 10
5507.470952922907
 20
6703.726570345103
 30
0.0
 11
5507.470952922907
 21
6687.83939394453
 31
0.0
  0
LINE
  5
1667
330
1F
100
AcDbEntity
  8
Visible (ISO)
100
AcDbLine
 10
5561.145900524184
 20
6687.83939394453
 30
0.0
 11
5561.145900524184
 21
6703.726570345103
 31
0.0
  0
LINE
  5
1668
330
1F
100
AcDbEntity
  8
Visible (ISO)
100
AcDbLine
 10
4436.808426723544
 20
5963.726570345105
 30
0.0
 11
4436.808426723544
 21
6679.897641652238
 31
0.0
  0
LINE
  5
1669
330
1F
100
AcDbEntity
  8
Visible (ISO)
100
AcDbLine
 10
4436.145900524183
 20
6703.726570345103
 30
0.0
 11
4382.470952922906
 21
6703.726570345103
 31
0.0
  0
LINE
  5
166A
330
1F
100
AcDbEntity
  8
Visible (ISO)
100
AcDbLine
 10
4381.808426723543
 20
5963.726570345105
 30
0.0
 11
4381.808426723544
 21
6679.897641652238
 31
0.0
  0
LINE
  5
166B
330
1F
100
AcDbEntity
  8
Visible (ISO)
100
AcDbLine
 10
4381.808426723543
 20
5963.726570345105
 30
0.0
 11
4436.808426723544
 21
5963.726570345105
 31
0.0
  0
SPLINE
  5
166C
330
1F
100
AcDbEntity
  8
Visible (ISO)
100
AcDbSpline
210
0.0
220
0.0
230
1.0
 70
     8
 71
     3
 72
     8
 73
     4
 74
     0
 42
0.000000001
 43
0.0000000001
 40
12.52341825774861
 40
12.52341825774861
 40
12.52341825774861
 40
12.52341825774861
 40
13.50305033831955
 40
13.50305033831955
 40
13.50305033831955
 40
13.50305033831955
 10
4382.470952922906
 20
6687.83939394453
 30
0.0
 10
4382.066829341701
 20
6685.00640743309
 30
0.0
 10
4381.808426763814
 20
6682.344243411034
 30
0.0
 10
4381.808426723544
 20
6679.897641652238
 30
0.0
  0
SPLINE
  5
166D
330
1F
100
AcDbEntity
  8
Visible (ISO)
100
AcDbSpline
210
0.0
220
0.0
230
1.0
 70
     8
 71
     3
 72
     8
 73
     4
 74
     0
 42
0.000000001
 43
0.0000000001
 40
22.71964887812294
 40
22.71964887812294
 40
22.71964887812294
 40
22.71964887812294
 40
23.69928095869392
 40
23.69928095869392
 40
23.69928095869392
 40
23.69928095869392
 10
4436.808426723544
 20
6679.897641652238
 30
0.0
 10
4436.808426723544
 20
6682.344236400364
 30
0.0
 10
4436.550025132611
 20
6685.006400011116
 30
0.0
 10
4436.145900524183
 20
6687.83939394453
 30
0.0
  0
LINE
  5
166E
330
1F
100
AcDbEntity
  8
Visible (ISO)
100
AcDbLine
 10
4382.470952922906
 20
6703.726570345103
 30
0.0
 11
4382.470952922906
 21
6687.83939394453
 31
0.0
  0
LINE
  5
166F
330
1F
100
AcDbEntity
  8
Visible (ISO)
100
AcDbLine
 10
4436.145900524183
 20
6687.83939394453
 30
0.0
 11
4436.145900524183
 21
6703.726570345103
 31
0.0
  0
MTEXT
  5
175F
330
1F
100
AcDbEntity
  8
0
100
AcDbMText
 10
6097.478904208298
 20
6431.586933603828
 30
0.0
 40
233.9816249415046
 41
351.4273130132687
 46
0.0
 71
     1
 72
     1
  1
74
 73
     1
 44
1.0
  0
ARC
  5
17C9
330
1F
100
AcDbEntity
  8
Visible (ISO)
100
AcDbCircle
 10
8231.517950481872
 20
6721.726570345109
 30
0.0
 40
59.99999999999993
100
AcDbArc
 50
213.3670129692442
 51
270.0
  0
LINE
  5
17CA
330
1F
100
AcDbEntity
  8
Visible (ISO)
100
AcDbLine
 10
8231.517950481872
 20
6661.726570345108
 30
0.0
 11
8541.408071216496
 21
6661.726570345108
 31
0.0
  0
LINE
  5
17CB
330
1F
100
AcDbEntity
  8
Visible (ISO)
100
AcDbLine
 10
8541.40807121651
 20
6688.726570345107
 30
0.0
 11
8181.408071216404
 21
6688.726570345107
 31
0.0
  0
ARC
  5
17CC
330
1F
100
AcDbEntity
  8
Visible (ISO)
100
AcDbCircle
 10
8891.298191950935
 20
6721.726570345109
 30
0.0
 40
59.99999999999993
100
AcDbArc
 50
270.0
 51
326.6329870307557
  0
LINE
  5
17CD
330
1F
100
AcDbEntity
  8
Visible (ISO)
100
AcDbLine
 10
8581.408071216497
 20
6661.726570345108
 30
0.0
 11
8891.298191950935
 21
6661.726570345108
 31
0.0
  0
LINE
  5
17CE
330
1F
100
AcDbEntity
  8
Visible (ISO)
100
AcDbLine
 10
8941.408071216404
 20
6688.726570345109
 30
0.0
 11
8581.408071216511
 21
6688.726570345109
 31
0.0
  0
LINE
  5
17CF
330
1F
100
AcDbEntity
  8
Visible (ISO)
100
AcDbLine
 10
8581.408071216497
 20
6661.726570345108
 30
0.0
 11
8541.408071216496
 21
6661.726570345108
 31
0.0
  0
LINE
  5
17D0
330
1F
100
AcDbEntity
  8
Visible (ISO)
100
AcDbLine
 10
8541.40807121651
 20
6688.726570345109
 30
0.0
 11
8581.408071216511
 21
6688.726570345109
 31
0.0
  0
LINE
  5
17D1
330
1F
100
AcDbEntity
  8
Visible (ISO)
100
AcDbLine
 10
8181.408071216404
 20
6688.726570345109
 30
0.0
 11
8181.408071216404
 21
6703.726570345108
 31
0.0
  0
LINE
  5
17D2
330
1F
100
AcDbEntity
  8
Visible (ISO)
100
AcDbLine
 10
8541.408071216514
 20
6703.726570345108
 30
0.0
 11
8181.408071216404
 21
6703.726570345108
 31
0.0
  0
LINE
  5
17D3
330
1F
100
AcDbEntity
  8
Visible (ISO)
100
AcDbLine
 10
8541.40807121651
 20
6703.726570345108
 30
0.0
 11
8581.408071216511
 21
6703.726570345108
 31
0.0
  0
LINE
  5
17D4
330
1F
100
AcDbEntity
  8
Visible (ISO)
100
AcDbLine
 10
8941.408071216404
 20
6688.726570345109
 30
0.0
 11
8941.408071216404
 21
6703.726570345108
 31
0.0
  0
LINE
  5
17D5
330
1F
100
AcDbEntity
  8
Visible (ISO)
100
AcDbLine
 10
8941.408071216404
 20
6703.726570345108
 30
0.0
 11
8581.408071216511
 21
6703.726570345108
 31
0.0
  0
LINE
  5
17D6
330
1F
100
AcDbEntity
  8
Visible (ISO)
100
AcDbLine
 10
8830.908071216404
 20
6661.726570345108
 30
0.0
 11
8830.908071216404
 21
6591.726570345106
 31
0.0
  0
LINE
  5
17D7
330
1F
100
AcDbEntity
  8
Visible (ISO)
100
AcDbLine
 10
8291.908071216404
 20
6591.726570345106
 30
0.0
 11
8291.908071216404
 21
6661.726570345108
 31
0.0
  0
LINE
  5
17D8
330
1F
100
AcDbEntity
  8
Visible (ISO)
100
AcDbLine
 10
8830.908071216404
 20
6591.726570345106
 30
0.0
 11
8291.908071216404
 21
6591.726570345106
 31
0.0
  0
CIRCLE
  5
17D9
330
1F
100
AcDbEntity
  8
Visible (ISO)
100
AcDbCircle
 10
8279.408071216405
 20
6626.726570345109
 30
0.0
 40
4.75
  0
ARC
  5
17DA
330
1F
100
AcDbEntity
  8
Visible (ISO)
100
AcDbCircle
 10
8234.738998952344
 20
6650.726570345111
 30
0.0
 40
10.9999999999971
100
AcDbArc
 50
90.0
 51
117.7204974341737
  0
ARC
  5
17DB
330
1F
100
AcDbEntity
  8
Visible (ISO)
100
AcDbCircle
 10
8224.505506154947
 20
6670.201570349362
 30
0.0
 40
11.00000000000072
100
AcDbArc
 50
262.2497821007451
 51
297.7204974341737
  0
ARC
  5
17DC
330
1F
100
AcDbEntity
  8
Visible (ISO)
100
AcDbCircle
 10
8231.517950481876
 20
6721.726570345109
 30
0.0
 40
63.00000000000039
100
AcDbArc
 50
221.601918303511
 51
262.2497821007451
  0
SPLINE
  5
17DD
330
1F
100
AcDbEntity
  8
Visible (ISO)
100
AcDbSpline
210
0.0
220
0.0
230
1.0
 70
     8
 71
     3
 72
     8
 73
     4
 74
     0
 42
0.000000001
 43
0.0000000001
 40
22.71964887812294
 40
22.71964887812294
 40
22.71964887812294
 40
22.71964887812294
 40
23.69928095869392
 40
23.69928095869392
 40
23.69928095869392
 40
23.69928095869392
 10
8184.408071216404
 20
6679.897641652242
 30
0.0
 10
8182.235736265532
 20
6682.344236400368
 30
0.0
 10
8180.215685372631
 20
6685.00640001112
 30
0.0
 10
8178.408071216402
 20
6687.839393944535
 30
0.0
  0
LINE
  5
17DE
330
1F
100
AcDbEntity
  8
Visible (ISO)
100
AcDbLine
 10
8178.408071216402
 20
6687.839393944535
 30
0.0
 11
8178.408071216402
 21
6703.726570345107
 31
0.0
  0
LINE
  5
17DF
330
1F
100
AcDbEntity
  8
Visible (ISO)
100
AcDbLine
 10
8264.408071216406
 20
5963.726570345107
 30
0.0
 11
8184.408071216404
 21
5963.726570345107
 31
0.0
  0
LINE
  5
17E0
330
1F
100
AcDbEntity
  8
Visible (ISO)
100
AcDbLine
 10
8178.408071216402
 20
6703.726570345107
 30
0.0
 11
8156.908071216397
 21
6703.726570345107
 31
0.0
  0
LINE
  5
17E1
330
1F
100
AcDbEntity
  8
Visible (ISO)
100
AcDbLine
 10
8264.408071216406
 20
5963.726570345107
 30
0.0
 11
8291.908071216395
 21
5963.726570345107
 31
0.0
  0
LINE
  5
17E2
330
1F
100
AcDbEntity
  8
Visible (ISO)
100
AcDbLine
 10
8156.908071216397
 20
5963.726570345107
 30
0.0
 11
8184.408071216404
 21
5963.726570345107
 31
0.0
  0
LINE
  5
17E3
330
1F
100
AcDbEntity
  8
Visible (ISO)
100
AcDbLine
 10
8291.908071216395
 20
5963.726570345107
 30
0.0
 11
8291.908071216395
 21
6591.726570345106
 31
0.0
  0
LINE
  5
17E4
330
1F
100
AcDbEntity
  8
Visible (ISO)
100
AcDbLine
 10
8156.908071216397
 20
5963.726570345107
 30
0.0
 11
8156.908071216397
 21
6703.726570345107
 31
0.0
  0
LINE
  5
17E6
330
1F
100
AcDbEntity
  8
Visible (ISO)
100
AcDbLine
 10
8291.908071216404
 20
6661.726570345108
 30
0.0
 11
8291.908071216404
 21
6591.726570345106
 31
0.0
  0
CIRCLE
  5
17E7
330
1F
100
AcDbEntity
  8
Visible (ISO)
100
AcDbCircle
 10
8843.408071216401
 20
6626.726570345109
 30
0.0
 40
4.75
  0
ARC
  5
17E8
330
1F
100
AcDbEntity
  8
Visible (ISO)
100
AcDbCircle
 10
8888.077143480462
 20
6650.726570345111
 30
0.0
 40
10.9999999999971
100
AcDbArc
 50
62.27950256582626
 51
90.0
  0
ARC
  5
17E9
330
1F
100
AcDbEntity
  8
Visible (ISO)
100
AcDbCircle
 10
8898.310636277859
 20
6670.201570349362
 30
0.0
 40
11.00000000000071
100
AcDbArc
 50
242.2795025658263
 51
277.7502178992548
  0
ARC
  5
17EA
330
1F
100
AcDbEntity
  8
Visible (ISO)
100
AcDbCircle
 10
8891.29819195093
 20
6721.726570345109
 30
0.0
 40
63.00000000000039
100
AcDbArc
 50
277.7502178992548
 51
318.3980816964888
  0
SPLINE
  5
17EB
330
1F
100
AcDbEntity
  8
Visible (ISO)
100
AcDbSpline
210
0.0
220
0.0
230
1.0
 70
     8
 71
     3
 72
     8
 73
     4
 74
     0
 42
0.000000001
 43
0.0000000001
 40
12.52341825774861
 40
12.52341825774861
 40
12.52341825774861
 40
12.52341825774861
 40
13.50305033831955
 40
13.50305033831955
 40
13.50305033831955
 40
13.50305033831955
 10
8944.408071216404
 20
6687.839393944535
 30
0.0
 10
8942.600461879283
 20
6685.006407433093
 30
0.0
 10
8940.58041233873
 20
6682.344243411036
 30
0.0
 10
8938.408071216404
 20
6679.897641652242
 30
0.0
  0
LINE
  5
17EC
330
1F
100
AcDbEntity
  8
Visible (ISO)
100
AcDbLine
 10
8944.408071216404
 20
6703.726570345108
 30
0.0
 11
8944.408071216404
 21
6687.839393944535
 31
0.0
  0
LINE
  5
17ED
330
1F
100
AcDbEntity
  8
Visible (ISO)
100
AcDbLine
 10
8965.908071216393
 20
6703.726570345108
 30
0.0
 11
8944.408071216404
 21
6703.726570345108
 31
0.0
  0
LINE
  5
17EE
330
1F
100
AcDbEntity
  8
Visible (ISO)
100
AcDbLine
 10
8938.408071216404
 20
5963.726570345109
 30
0.0
 11
8858.4080712164
 21
5963.726570345109
 31
0.0
  0
LINE
  5
17EF
330
1F
100
AcDbEntity
  8
Visible (ISO)
100
AcDbLine
 10
8830.908071216397
 20
5963.726570345109
 30
0.0
 11
8858.4080712164
 21
5963.726570345109
 31
0.0
  0
LINE
  5
17F0
330
1F
100
AcDbEntity
  8
Visible (ISO)
100
AcDbLine
 10
8938.408071216402
 20
5963.726570345109
 30
0.0
 11
8965.908071216393
 21
5963.726570345109
 31
0.0
  0
LINE
  5
17F1
330
1F
100
AcDbEntity
  8
Visible (ISO)
100
AcDbLine
 10
8830.908071216397
 20
5963.726570345109
 30
0.0
 11
8830.908071216397
 21
6591.726570345108
 31
0.0
  0
LINE
  5
17F2
330
1F
100
AcDbEntity
  8
Visible (ISO)
100
AcDbLine
 10
8965.908071216393
 20
5963.726570345109
 30
0.0
 11
8965.908071216393
 21
6703.726570345108
 31
0.0
  0
LINE
  5
17F3
330
1F
100
AcDbEntity
  8
Visible (ISO)
100
AcDbLine
 10
8830.908071216404
 20
6661.726570345108
 30
0.0
 11
8830.908071216404
 21
6591.726570345108
 31
0.0
  0
LINE
  5
18A7
330
1F
100
AcDbEntity
  8
Visible (ISO)
100
AcDbLine
 10
11170.76189064083
 20
5988.226570345108
 30
0.0
 11
12350.76189064083
 21
5988.226570345108
 31
0.0
  0
ARC
  5
18A8
330
1F
100
AcDbEntity
  8
Visible (ISO)
100
AcDbCircle
 10
12350.76189064083
 20
6348.226570345108
 30
0.0
 40
360.0000000000002
100
AcDbArc
 50
270.0
 51
0.0
  0
LINE
  5
18A9
330
1F
100
AcDbEntity
  8
Visible (ISO)
100
AcDbLine
 10
12710.76189064083
 20
6348.226570345108
 30
0.0
 11
12710.76189064083
 21
6388.226570345109
 31
0.0
  0
ARC
  5
18AA
330
1F
100
AcDbEntity
  8
Visible (ISO)
100
AcDbCircle
 10
12350.76189064083
 20
6388.226570345109
 30
0.0
 40
360.0
100
AcDbArc
 50
0.0
 51
90.0
  0
ARC
  5
18AB
330
1F
100
AcDbEntity
  8
Visible (ISO)
100
AcDbCircle
 10
11170.76189064083
 20
6348.226570345108
 30
0.0
 40
360.0000000000002
100
AcDbArc
 50
180.0
 51
270.0
  0
LINE
  5
18AC
330
1F
100
AcDbEntity
  8
Visible (ISO)
100
AcDbLine
 10
10810.76189064083
 20
6388.226570345109
 30
0.0
 11
10810.76189064083
 21
6348.226570345108
 31
0.0
  0
ARC
  5
18AD
330
1F
100
AcDbEntity
  8
Visible (ISO)
100
AcDbCircle
 10
11170.76189064083
 20
6388.226570345109
 30
0.0
 40
360.0
100
AcDbArc
 50
90.0
 51
180.0
  0
LINE
  5
18AE
330
1F
100
AcDbEntity
  8
Visible (ISO)
100
AcDbLine
 10
12350.76189064083
 20
6748.226570345109
 30
0.0
 11
11170.76189064083
 21
6748.226570345109
 31
0.0
  0
SPLINE
  5
18AF
330
1F
100
AcDbEntity
  8
Visible (ISO)
100
AcDbSpline
210
0.0
220
0.0
230
1.0
 70
     8
 71
     3
 72
     8
 73
     4
 74
     0
 42
0.000000001
 43
0.0000000001
 40
12.52341825774861
 40
12.52341825774861
 40
12.52341825774861
 40
12.52341825774861
 40
13.03551624363841
 40
13.03551624363841
 40
13.03551624363841
 40
13.03551624363841
 10
12296.42441684019
 20
5985.226570345105
 30
0.0
 10
12296.21316317048
 20
5986.171489482781
 30
0.0
 10
12296.04172959568
 20
5987.174460575007
 30
0.0
 10
12295.9262123009
 20
5988.226891589762
 30
0.0
  0
SPLINE
  5
18B0
330
1F
100
AcDbEntity
  8
Visible (ISO)
100
AcDbSpline
210
0.0
220
0.0
230
1.0
 70
     8
 71
     3
 72
     8
 73
     4
 74
     0
 42
0.000000001
 43
0.0000000001
 40
23.18718364053514
 40
23.18718364053514
 40
23.18718364053514
 40
23.18718364053514
 40
23.69928095869392
 40
23.69928095869392
 40
23.69928095869392
 40
23.69928095869392
 10
12350.59756891157
 20
5988.226891608883
 30
0.0
 10
12350.48205176248
 20
5987.174462050425
 30
0.0
 10
12350.3106183727
 20
5986.171490769855
 30
0.0
 10
12350.09936444147
 20
5985.226570345105
 30
0.0
  0
LINE
  5
18B1
330
1F
100
AcDbEntity
  8
Visible (ISO)
100
AcDbLine
 10
12350.09936444147
 20
5985.226570345112
 30
0.0
 11
12296.42441684019
 21
5985.226570345112
 31
0.0
  0
ARC
  5
18B2
330
1F
100
AcDbEntity
  8
Visible (ISO)
100
AcDbCircle
 10
12323.26189064083
 20
5991.226570345112
 30
0.0
 40
27.5
100
AcDbArc
 50
192.6022648414534
 51
347.3977351585466
  0
SPLINE
  5
18B3
330
1F
100
AcDbEntity
  8
Visible (ISO)
100
AcDbSpline
210
0.0
220
0.0
230
1.0
 70
     8
 71
     3
 72
     8
 73
     4
 74
     0
 42
0.000000001
 43
0.0000000001
 40
12.52341825774861
 40
12.52341825774861
 40
12.52341825774861
 40
12.52341825774861
 40
13.0355162436386
 40
13.0355162436386
 40
13.0355162436386
 40
13.0355162436386
 10
11225.09936444147
 20
6751.226570345107
 30
0.0
 10
11225.31061811118
 20
6750.281651207427
 30
0.0
 10
11225.48205168599
 20
6749.278680115203
 30
0.0
 10
11225.59756898076
 20
6748.226249100446
 30
0.0
  0
SPLINE
  5
18B4
330
1F
100
AcDbEntity
  8
Visible (ISO)
100
AcDbSpline
210
0.0
220
0.0
230
1.0
 70
     8
 71
     3
 72
     8
 73
     4
 74
     0
 42
0.000000001
 43
0.0000000001
 40
23.18718364053495
 40
23.18718364053495
 40
23.18718364053495
 40
23.18718364053495
 40
23.69928095869392
 40
23.69928095869392
 40
23.69928095869392
 40
23.69928095869392
 10
11170.92621237009
 20
6748.226249081326
 30
0.0
 10
11171.04172951919
 20
6749.278678639784
 30
0.0
 10
11171.21316290896
 20
6750.281649920359
 30
0.0
 10
11171.42441684019
 20
6751.226570345107
 30
0.0
  0
LINE
  5
18B5
330
1F
100
AcDbEntity
  8
Visible (ISO)
100
AcDbLine
 10
11171.42441684019
 20
6751.226570345112
 30
0.0
 11
11225.09936444147
 21
6751.226570345112
 31
0.0
  0
ARC
  5
18B6
330
1F
100
AcDbEntity
  8
Visible (ISO)
100
AcDbCircle
 10
11198.26189064083
 20
6745.226570345109
 30
0.0
 40
27.5
100
AcDbArc
 50
12.6022648414534
 51
167.3977351585466
  0
SPLINE
  5
18B7
330
1F
100
AcDbEntity
  8
Visible (ISO)
100
AcDbSpline
210
0.0
220
0.0
230
1.0
 70
     8
 71
     3
 72
     8
 73
     4
 74
     0
 42
0.000000001
 43
0.0000000001
 40
12.52341825774861
 40
12.52341825774861
 40
12.52341825774861
 40
12.52341825774861
 40
13.03551624363844
 40
13.03551624363844
 40
13.03551624363844
 40
13.03551624363844
 10
12350.09936444147
 20
6751.226570345105
 30
0.0
 10
12350.31061811118
 20
6750.281651207427
 30
0.0
 10
12350.48205168599
 20
6749.278680115203
 30
0.0
 10
12350.59756898076
 20
6748.226249100446
 30
0.0
  0
SPLINE
  5
18B8
330
1F
100
AcDbEntity
  8
Visible (ISO)
100
AcDbSpline
210
0.0
220
0.0
230
1.0
 70
     8
 71
     3
 72
     8
 73
     4
 74
     0
 42
0.000000001
 43
0.0000000001
 40
23.18718364053512
 40
23.18718364053512
 40
23.18718364053512
 40
23.18718364053512
 40
23.69928095869392
 40
23.69928095869392
 40
23.69928095869392
 40
23.69928095869392
 10
12295.9262123701
 20
6748.226249081326
 30
0.0
 10
12296.04172951919
 20
6749.278678639784
 30
0.0
 10
12296.21316290896
 20
6750.281649920359
 30
0.0
 10
12296.42441684019
 20
6751.226570345105
 30
0.0
  0
LINE
  5
18B9
330
1F
100
AcDbEntity
  8
Visible (ISO)
100
AcDbLine
 10
12296.42441684019
 20
6751.226570345109
 30
0.0
 11
12350.09936444147
 21
6751.226570345109
 31
0.0
  0
ARC
  5
18BA
330
1F
100
AcDbEntity
  8
Visible (ISO)
100
AcDbCircle
 10
12323.26189064083
 20
6745.226570345109
 30
0.0
 40
27.50000000000005
100
AcDbArc
 50
12.6022648414534
 51
167.3977351585466
  0
SPLINE
  5
18BB
330
1F
100
AcDbEntity
  8
Visible (ISO)
100
AcDbSpline
210
0.0
220
0.0
230
1.0
 70
     8
 71
     3
 72
     8
 73
     4
 74
     0
 42
0.000000001
 43
0.0000000001
 40
12.52341825774861
 40
12.52341825774861
 40
12.52341825774861
 40
12.52341825774861
 40
13.0355162436388
 40
13.0355162436388
 40
13.0355162436388
 40
13.0355162436388
 10
11171.42441684019
 20
5985.226570345101
 30
0.0
 10
11171.21316317048
 20
5986.171489482781
 30
0.0
 10
11171.04172959568
 20
5987.174460575007
 30
0.0
 10
11170.9262123009
 20
5988.226891589762
 30
0.0
  0
SPLINE
  5
18BC
330
1F
100
AcDbEntity
  8
Visible (ISO)
100
AcDbSpline
210
0.0
220
0.0
230
1.0
 70
     8
 71
     3
 72
     8
 73
     4
 74
     0
 42
0.000000001
 43
0.0000000001
 40
23.18718364053475
 40
23.18718364053475
 40
23.18718364053475
 40
23.18718364053475
 40
23.69928095869392
 40
23.69928095869392
 40
23.69928095869392
 40
23.69928095869392
 10
11225.59756891157
 20
5988.226891608883
 30
0.0
 10
11225.48205176248
 20
5987.174462050425
 30
0.0
 10
11225.3106183727
 20
5986.171490769851
 30
0.0
 10
11225.09936444147
 20
5985.226570345101
 30
0.0
  0
LINE
  5
18BD
330
1F
100
AcDbEntity
  8
Visible (ISO)
100
AcDbLine
 10
11225.09936444147
 20
5985.226570345108
 30
0.0
 11
11171.42441684019
 21
5985.226570345108
 31
0.0
  0
ARC
  5
18BE
330
1F
100
AcDbEntity
  8
Visible (ISO)
100
AcDbCircle
 10
11198.26189064083
 20
5991.226570345109
 30
0.0
 40
27.50000000000007
100
AcDbArc
 50
192.6022648414534
 51
347.3977351585466
  0
TEXT
  5
1916
330
1F
100
AcDbEntity
  8
LINE
100
AcDbText
 10
11342.76443880159
 20
5576.827214536832
 30
0.0
 40
233.9816249415046
  1
OI190
 41
1.000399999999999
100
AcDbText
  0
MTEXT
  5
1917
330
1F
100
AcDbEntity
  8
0
100
AcDbMText
 10
12857.8473171791
 20
6437.764352843569
 30
0.0
 40
233.9816249415046
 41
351.4273130132687
 46
0.0
 71
     1
 72
     1
  1
76
 73
     1
 44
1.0
  0
MTEXT
  5
1918
330
1F
100
AcDbEntity
  8
0
100
AcDbMText
 10
11473.97132652105
 20
7114.235847871023
 30
0.0
 40
233.9816249415046
 41
351.4273130132687
 46
0.0
 71
     1
 72
     1
  1
190
 73
     1
 44
1.0
  0
LINE
  5
1BAC
330
1F
100
AcDbEntity
  8
Visible (ISO)
100
AcDbLine
 10
14506.24640198679
 20
5991.22657034511
 30
0.0
 11
15746.24640198679
 21
5991.22657034511
 31
0.0
  0
ARC
  5
1BAD
330
1F
100
AcDbEntity
  8
Visible (ISO)
100
AcDbCircle
 10
15746.24640198679
 20
6471.226570345111
 30
0.0
 40
480.0000000000004
100
AcDbArc
 50
270.0
 51
0.0
  0
LINE
  5
1BAE
330
1F
100
AcDbEntity
  8
Visible (ISO)
100
AcDbLine
 10
16226.24640198679
 20
6471.226570345111
 30
0.0
 11
16226.24640198679
 21
6511.22657034511
 31
0.0
  0
ARC
  5
1BAF
330
1F
100
AcDbEntity
  8
Visible (ISO)
100
AcDbCircle
 10
15746.24640198679
 20
6511.22657034511
 30
0.0
 40
479.9999999999996
100
AcDbArc
 50
0.0
 51
90.0
  0
ARC
  5
1BB0
330
1F
100
AcDbEntity
  8
Visible (ISO)
100
AcDbCircle
 10
14506.24640198679
 20
6471.226570345111
 30
0.0
 40
479.9999999999998
100
AcDbArc
 50
180.0
 51
270.0
  0
LINE
  5
1BB1
330
1F
100
AcDbEntity
  8
Visible (ISO)
100
AcDbLine
 10
14026.24640198679
 20
6511.22657034511
 30
0.0
 11
14026.24640198679
 21
6471.226570345111
 31
0.0
  0
ARC
  5
1BB2
330
1F
100
AcDbEntity
  8
Visible (ISO)
100
AcDbCircle
 10
14506.24640198679
 20
6511.22657034511
 30
0.0
 40
479.9999999999997
100
AcDbArc
 50
90.0
 51
180.0
  0
LINE
  5
1BB3
330
1F
100
AcDbEntity
  8
Visible (ISO)
100
AcDbLine
 10
15746.24640198679
 20
6991.226570345109
 30
0.0
 11
14506.24640198679
 21
6991.226570345109
 31
0.0
  0
SPLINE
  5
1BB4
330
1F
100
AcDbEntity
  8
Visible (ISO)
100
AcDbSpline
210
0.0
220
0.0
230
1.0
 70
     8
 71
     3
 72
     8
 73
     4
 74
     0
 42
0.000000001
 43
0.0000000001
 40
12.52341825774861
 40
12.52341825774861
 40
12.52341825774861
 40
12.52341825774861
 40
13.03551624363815
 40
13.03551624363815
 40
13.03551624363815
 40
13.03551624363815
 10
15691.90892818615
 20
5988.226570345108
 30
0.0
 10
15691.69767451644
 20
5989.171489482785
 30
0.0
 10
15691.52624094163
 20
5990.174460575007
 30
0.0
 10
15691.41072364686
 20
5991.226891589764
 30
0.0
  0
SPLINE
  5
1BB5
330
1F
100
AcDbEntity
  8
Visible (ISO)
100
AcDbSpline
210
0.0
220
0.0
230
1.0
 70
     8
 71
     3
 72
     8
 73
     4
 74
     0
 42
0.000000001
 43
0.0000000001
 40
23.18718364053541
 40
23.18718364053541
 40
23.18718364053541
 40
23.18718364053541
 40
23.69928095869392
 40
23.69928095869392
 40
23.69928095869392
 40
23.69928095869392
 10
15746.08208025753
 20
5991.226891608883
 30
0.0
 10
15745.96656310843
 20
5990.174462050426
 30
0.0
 10
15745.79512971866
 20
5989.171490769855
 30
0.0
 10
15745.58387578743
 20
5988.226570345108
 30
0.0
  0
LINE
  5
1BB6
330
1F
100
AcDbEntity
  8
Visible (ISO)
100
AcDbLine
 10
15745.58387578743
 20
5988.226570345112
 30
0.0
 11
15691.90892818615
 21
5988.226570345112
 31
0.0
  0
ARC
  5
1BB7
330
1F
100
AcDbEntity
  8
Visible (ISO)
100
AcDbCircle
 10
15718.74640198679
 20
5994.226570345116
 30
0.0
 40
27.5
100
AcDbArc
 50
192.6022648414546
 51
347.3977351585466
  0
SPLINE
  5
1BB8
330
1F
100
AcDbEntity
  8
Visible (ISO)
100
AcDbSpline
210
0.0
220
0.0
230
1.0
 70
     8
 71
     3
 72
     8
 73
     4
 74
     0
 42
0.000000001
 43
0.0000000001
 40
12.52341825774861
 40
12.52341825774861
 40
12.52341825774861
 40
12.52341825774861
 40
13.03551624363828
 40
13.03551624363828
 40
13.03551624363828
 40
13.03551624363828
 10
14560.58387578743
 20
6994.226570345105
 30
0.0
 10
14560.79512945714
 20
6993.281651207428
 30
0.0
 10
14560.96656303195
 20
6992.278680115202
 30
0.0
 10
14561.08208032672
 20
6991.226249100446
 30
0.0
  0
SPLINE
  5
1BB9
330
1F
100
AcDbEntity
  8
Visible (ISO)
100
AcDbSpline
210
0.0
220
0.0
230
1.0
 70
     8
 71
     3
 72
     8
 73
     4
 74
     0
 42
0.000000001
 43
0.0000000001
 40
23.18718364053527
 40
23.18718364053527
 40
23.18718364053527
 40
23.18718364053527
 40
23.69928095869392
 40
23.69928095869392
 40
23.69928095869392
 40
23.69928095869392
 10
14506.41072371605
 20
6991.226249081326
 30
0.0
 10
14506.52624086515
 20
6992.278678639784
 30
0.0
 10
14506.69767425492
 20
6993.281649920357
 30
0.0
 10
14506.90892818615
 20
6994.226570345105
 30
0.0
  0
LINE
  5
1BBA
330
1F
100
AcDbEntity
  8
Visible (ISO)
100
AcDbLine
 10
14506.90892818615
 20
6994.226570345109
 30
0.0
 11
14560.58387578743
 21
6994.226570345109
 31
0.0
  0
ARC
  5
1BBB
330
1F
100
AcDbEntity
  8
Visible (ISO)
100
AcDbCircle
 10
14533.74640198679
 20
6988.226570345108
 30
0.0
 40
27.5
100
AcDbArc
 50
12.60226484145468
 51
167.3977351585466
  0
SPLINE
  5
1BBC
330
1F
100
AcDbEntity
  8
Visible (ISO)
100
AcDbSpline
210
0.0
220
0.0
230
1.0
 70
     8
 71
     3
 72
     8
 73
     4
 74
     0
 42
0.000000001
 43
0.0000000001
 40
12.52341825774861
 40
12.52341825774861
 40
12.52341825774861
 40
12.52341825774861
 40
13.03551624363859
 40
13.03551624363859
 40
13.03551624363859
 40
13.03551624363859
 10
15745.58387578743
 20
6994.226570345109
 30
0.0
 10
15745.79512945714
 20
6993.281651207428
 30
0.0
 10
15745.96656303195
 20
6992.278680115203
 30
0.0
 10
15746.08208032672
 20
6991.226249100446
 30
0.0
  0
SPLINE
  5
1BBD
330
1F
100
AcDbEntity
  8
Visible (ISO)
100
AcDbSpline
210
0.0
220
0.0
230
1.0
 70
     8
 71
     3
 72
     8
 73
     4
 74
     0
 42
0.000000001
 43
0.0000000001
 40
23.18718364053497
 40
23.18718364053497
 40
23.18718364053497
 40
23.18718364053497
 40
23.69928095869392
 40
23.69928095869392
 40
23.69928095869392
 40
23.69928095869392
 10
15691.41072371605
 20
6991.226249081326
 30
0.0
 10
15691.52624086515
 20
6992.278678639785
 30
0.0
 10
15691.69767425492
 20
6993.281649920358
 30
0.0
 10
15691.90892818615
 20
6994.226570345109
 30
0.0
  0
LINE
  5
1BBE
330
1F
100
AcDbEntity
  8
Visible (ISO)
100
AcDbLine
 10
15691.90892818615
 20
6994.226570345112
 30
0.0
 11
15745.58387578743
 21
6994.226570345112
 31
0.0
  0
ARC
  5
1BBF
330
1F
100
AcDbEntity
  8
Visible (ISO)
100
AcDbCircle
 10
15718.74640198679
 20
6988.226570345111
 30
0.0
 40
27.50000000000006
100
AcDbArc
 50
12.60226484145468
 51
167.3977351585466
  0
SPLINE
  5
1BC0
330
1F
100
AcDbEntity
  8
Visible (ISO)
100
AcDbSpline
210
0.0
220
0.0
230
1.0
 70
     8
 71
     3
 72
     8
 73
     4
 74
     0
 42
0.000000001
 43
0.0000000001
 40
12.52341825774861
 40
12.52341825774861
 40
12.52341825774861
 40
12.52341825774861
 40
13.03551624363924
 40
13.03551624363924
 40
13.03551624363924
 40
13.03551624363924
 10
14506.90892818615
 20
5988.2265703451
 30
0.0
 10
14506.69767451644
 20
5989.171489482778
 30
0.0
 10
14506.52624094163
 20
5990.174460575005
 30
0.0
 10
14506.41072364686
 20
5991.226891589762
 30
0.0
  0
SPLINE
  5
1BC1
330
1F
100
AcDbEntity
  8
Visible (ISO)
100
AcDbSpline
210
0.0
220
0.0
230
1.0
 70
     8
 71
     3
 72
     8
 73
     4
 74
     0
 42
0.000000001
 43
0.0000000001
 40
23.18718364053431
 40
23.18718364053431
 40
23.18718364053431
 40
23.18718364053431
 40
23.69928095869392
 40
23.69928095869392
 40
23.69928095869392
 40
23.69928095869392
 10
14561.08208025753
 20
5991.226891608883
 30
0.0
 10
14560.96656310843
 20
5990.174462050423
 30
0.0
 10
14560.79512971866
 20
5989.17149076985
 30
0.0
 10
14560.58387578743
 20
5988.2265703451
 30
0.0
  0
LINE
  5
1BC2
330
1F
100
AcDbEntity
  8
Visible (ISO)
100
AcDbLine
 10
14560.58387578743
 20
5988.226570345105
 30
0.0
 11
14506.90892818615
 21
5988.226570345105
 31
0.0
  0
ARC
  5
1BC3
330
1F
100
AcDbEntity
  8
Visible (ISO)
100
AcDbCircle
 10
14533.74640198679
 20
5994.226570345105
 30
0.0
 40
27.50000000000007
100
AcDbArc
 50
192.6022648414546
 51
347.3977351585466
  0
TEXT
  5
1C1C
330
1F
100
AcDbEntity
  8
LINE
100
AcDbText
 10
14708.24895014755
 20
5579.827214536832
 30
0.0
 40
233.9816249415046
  1
OI220
 41
1.000399999999999
100
AcDbText
  0
MTEXT
  5
1C1D
330
1F
100
AcDbEntity
  8
0
100
AcDbMText
 10
16373.33182852506
 20
6560.764352843571
 30
0.0
 40
233.9816249415046
 41
351.4273130132687
 46
0.0
 71
     1
 72
     1
  1
100
 73
     1
 44
1.0
  0
MTEXT
  5
1C1E
330
1F
100
AcDbEntity
  8
0
100
AcDbMText
 10
14839.45583786701
 20
7357.235847871026
 30
0.0
 40
233.9816249415046
 41
351.4273130132687
 46
0.0
 71
     1
 72
     1
  1
220
 73
     1
 44
1.0
  0
LINE
  5
1EAB
330
1F
100
AcDbEntity
  8
Visible (ISO)
100
AcDbLine
 10
18005.70397289547
 20
5991.22657034511
 30
0.0
 11
19445.70397289547
 21
5991.22657034511
 31
0.0
  0
ARC
  5
1EAC
330
1F
100
AcDbEntity
  8
Visible (ISO)
100
AcDbCircle
 10
19445.70397289547
 20
6471.226570345113
 30
0.0
 40
480.0000000000005
100
AcDbArc
 50
270.0
 51
0.0
  0
LINE
  5
1EAD
330
1F
100
AcDbEntity
  8
Visible (ISO)
100
AcDbLine
 10
19925.70397289547
 20
6471.226570345111
 30
0.0
 11
19925.70397289547
 21
6511.22657034511
 31
0.0
  0
ARC
  5
1EAE
330
1F
100
AcDbEntity
  8
Visible (ISO)
100
AcDbCircle
 10
19445.70397289547
 20
6511.22657034511
 30
0.0
 40
479.9999999999998
100
AcDbArc
 50
0.0
 51
90.0
  0
ARC
  5
1EAF
330
1F
100
AcDbEntity
  8
Visible (ISO)
100
AcDbCircle
 10
18005.70397289547
 20
6471.226570345111
 30
0.0
 40
479.9999999999998
100
AcDbArc
 50
180.0
 51
270.0
  0
LINE
  5
1EB0
330
1F
100
AcDbEntity
  8
Visible (ISO)
100
AcDbLine
 10
17525.70397289547
 20
6511.22657034511
 30
0.0
 11
17525.70397289547
 21
6471.226570345111
 31
0.0
  0
ARC
  5
1EB1
330
1F
100
AcDbEntity
  8
Visible (ISO)
100
AcDbCircle
 10
18005.70397289547
 20
6511.22657034511
 30
0.0
 40
479.9999999999998
100
AcDbArc
 50
90.0
 51
180.0
  0
LINE
  5
1EB2
330
1F
100
AcDbEntity
  8
Visible (ISO)
100
AcDbLine
 10
19445.70397289547
 20
6991.226570345109
 30
0.0
 11
18005.70397289547
 21
6991.226570345109
 31
0.0
  0
SPLINE
  5
1EB3
330
1F
100
AcDbEntity
  8
Visible (ISO)
100
AcDbSpline
210
0.0
220
0.0
230
1.0
 70
     8
 71
     3
 72
     8
 73
     4
 74
     0
 42
0.000000001
 43
0.0000000001
 40
12.52341825774861
 40
12.52341825774861
 40
12.52341825774861
 40
12.52341825774861
 40
13.03551624363882
 40
13.03551624363882
 40
13.03551624363882
 40
13.03551624363882
 10
19391.36649909483
 20
5988.226570345105
 30
0.0
 10
19391.15524542512
 20
5989.171489482782
 30
0.0
 10
19390.98381185031
 20
5990.174460575007
 30
0.0
 10
19390.86829455554
 20
5991.226891589762
 30
0.0
  0
SPLINE
  5
1EB4
330
1F
100
AcDbEntity
  8
Visible (ISO)
100
AcDbSpline
210
0.0
220
0.0
230
1.0
 70
     8
 71
     3
 72
     8
 73
     4
 74
     0
 42
0.000000001
 43
0.0000000001
 40
23.18718364053473
 40
23.18718364053473
 40
23.18718364053473
 40
23.18718364053473
 40
23.69928095869392
 40
23.69928095869392
 40
23.69928095869392
 40
23.69928095869392
 10
19445.53965116621
 20
5991.226891608883
 30
0.0
 10
19445.42413401712
 20
5990.174462050426
 30
0.0
 10
19445.25270062734
 20
5989.171490769852
 30
0.0
 10
19445.04144669611
 20
5988.226570345105
 30
0.0
  0
LINE
  5
1EB5
330
1F
100
AcDbEntity
  8
Visible (ISO)
100
AcDbLine
 10
19445.04144669611
 20
5988.226570345108
 30
0.0
 11
19391.36649909483
 21
5988.226570345108
 31
0.0
  0
ARC
  5
1EB6
330
1F
100
AcDbEntity
  8
Visible (ISO)
100
AcDbCircle
 10
19418.20397289547
 20
5994.226570345109
 30
0.0
 40
27.50000000000001
100
AcDbArc
 50
192.6022648414534
 51
347.3977351585466
  0
SPLINE
  5
1EB7
330
1F
100
AcDbEntity
  8
Visible (ISO)
100
AcDbSpline
210
0.0
220
0.0
230
1.0
 70
     8
 71
     3
 72
     8
 73
     4
 74
     0
 42
0.000000001
 43
0.0000000001
 40
12.52341825774861
 40
12.52341825774861
 40
12.52341825774861
 40
12.52341825774861
 40
13.03551624363842
 40
13.03551624363842
 40
13.03551624363842
 40
13.03551624363842
 10
18060.04144669611
 20
6994.226570345105
 30
0.0
 10
18060.25270036582
 20
6993.281651207428
 30
0.0
 10
18060.42413394063
 20
6992.278680115202
 30
0.0
 10
18060.5396512354
 20
6991.226249100446
 30
0.0
  0
SPLINE
  5
1EB8
330
1F
100
AcDbEntity
  8
Visible (ISO)
100
AcDbSpline
210
0.0
220
0.0
230
1.0
 70
     8
 71
     3
 72
     8
 73
     4
 74
     0
 42
0.000000001
 43
0.0000000001
 40
23.18718364053514
 40
23.18718364053514
 40
23.18718364053514
 40
23.18718364053514
 40
23.69928095869392
 40
23.69928095869392
 40
23.69928095869392
 40
23.69928095869392
 10
18005.86829462473
 20
6991.226249081325
 30
0.0
 10
18005.98381177383
 20
6992.278678639784
 30
0.0
 10
18006.1552451636
 20
6993.281649920358
 30
0.0
 10
18006.36649909483
 20
6994.226570345105
 30
0.0
  0
LINE
  5
1EB9
330
1F
100
AcDbEntity
  8
Visible (ISO)
100
AcDbLine
 10
18006.36649909483
 20
6994.226570345109
 30
0.0
 11
18060.04144669611
 21
6994.226570345109
 31
0.0
  0
ARC
  5
1EBA
330
1F
100
AcDbEntity
  8
Visible (ISO)
100
AcDbCircle
 10
18033.20397289547
 20
6988.226570345108
 30
0.0
 40
27.5
100
AcDbArc
 50
12.6022648414534
 51
167.3977351585466
  0
SPLINE
  5
1EBB
330
1F
100
AcDbEntity
  8
Visible (ISO)
100
AcDbSpline
210
0.0
220
0.0
230
1.0
 70
     8
 71
     3
 72
     8
 73
     4
 74
     0
 42
0.000000001
 43
0.0000000001
 40
12.52341825774861
 40
12.52341825774861
 40
12.52341825774861
 40
12.52341825774861
 40
13.03551624363788
 40
13.03551624363788
 40
13.03551624363788
 40
13.03551624363788
 10
19445.04144669611
 20
6994.226570345102
 30
0.0
 10
19445.25270036582
 20
6993.281651207424
 30
0.0
 10
19445.42413394063
 20
6992.278680115202
 30
0.0
 10
19445.5396512354
 20
6991.226249100446
 30
0.0
  0
SPLINE
  5
1EBC
330
1F
100
AcDbEntity
  8
Visible (ISO)
100
AcDbSpline
210
0.0
220
0.0
230
1.0
 70
     8
 71
     3
 72
     8
 73
     4
 74
     0
 42
0.000000001
 43
0.0000000001
 40
23.1871836405357
 40
23.1871836405357
 40
23.1871836405357
 40
23.1871836405357
 40
23.69928095869392
 40
23.69928095869392
 40
23.69928095869392
 40
23.69928095869392
 10
19390.86829462474
 20
6991.226249081326
 30
0.0
 10
19390.98381177383
 20
6992.278678639784
 30
0.0
 10
19391.1552451636
 20
6993.281649920355
 30
0.0
 10
19391.36649909483
 20
6994.226570345102
 30
0.0
  0
LINE
  5
1EBD
330
1F
100
AcDbEntity
  8
Visible (ISO)
100
AcDbLine
 10
19391.36649909483
 20
6994.226570345109
 30
0.0
 11
19445.04144669611
 21
6994.226570345109
 31
0.0
  0
ARC
  5
1EBE
330
1F
100
AcDbEntity
  8
Visible (ISO)
100
AcDbCircle
 10
19418.20397289547
 20
6988.226570345108
 30
0.0
 40
27.50000000000006
100
AcDbArc
 50
12.6022648414534
 51
167.3977351585466
  0
SPLINE
  5
1EBF
330
1F
100
AcDbEntity
  8
Visible (ISO)
100
AcDbSpline
210
0.0
220
0.0
230
1.0
 70
     8
 71
     3
 72
     8
 73
     4
 74
     0
 42
0.000000001
 43
0.0000000001
 40
12.52341825774861
 40
12.52341825774861
 40
12.52341825774861
 40
12.52341825774861
 40
13.03551624363909
 40
13.03551624363909
 40
13.03551624363909
 40
13.03551624363909
 10
18006.36649909483
 20
5988.2265703451
 30
0.0
 10
18006.15524542512
 20
5989.171489482782
 30
0.0
 10
18005.98381185031
 20
5990.174460575005
 30
0.0
 10
18005.86829455554
 20
5991.226891589762
 30
0.0
  0
SPLINE
  5
1EC0
330
1F
100
AcDbEntity
  8
Visible (ISO)
100
AcDbSpline
210
0.0
220
0.0
230
1.0
 70
     8
 71
     3
 72
     8
 73
     4
 74
     0
 42
0.000000001
 43
0.0000000001
 40
23.18718364053447
 40
23.18718364053447
 40
23.18718364053447
 40
23.18718364053447
 40
23.69928095869392
 40
23.69928095869392
 40
23.69928095869392
 40
23.69928095869392
 10
18060.53965116621
 20
5991.226891608883
 30
0.0
 10
18060.42413401712
 20
5990.174462050423
 30
0.0
 10
18060.25270062734
 20
5989.17149076985
 30
0.0
 10
18060.04144669611
 20
5988.2265703451
 30
0.0
  0
LINE
  5
1EC1
330
1F
100
AcDbEntity
  8
Visible (ISO)
100
AcDbLine
 10
18060.04144669611
 20
5988.226570345105
 30
0.0
 11
18006.36649909483
 21
5988.226570345105
 31
0.0
  0
ARC
  5
1EC2
330
1F
100
AcDbEntity
  8
Visible (ISO)
100
AcDbCircle
 10
18033.20397289547
 20
5994.226570345107
 30
0.0
 40
27.50000000000007
100
AcDbArc
 50
192.6022648414534
 51
347.3977351585466
  0
TEXT
  5
1F1A
330
1F
100
AcDbEntity
  8
LINE
100
AcDbText
 10
18307.70652105623
 20
5579.827214536832
 30
0.0
 40
233.9816249415046
  1
OI240
 41
1.000399999999999
100
AcDbText
  0
MTEXT
  5
1F1B
330
1F
100
AcDbEntity
  8
0
100
AcDbMText
 10
20072.78939943375
 20
6580.76435284357
 30
0.0
 40
233.9816249415046
 41
351.4273130132687
 46
0.0
 71
     1
 72
     1
  1
100
 73
     1
 44
1.0
  0
MTEXT
  5
1F1C
330
1F
100
AcDbEntity
  8
0
100
AcDbMText
 10
18438.9134087757
 20
7357.235847871026
 30
0.0
 40
233.9816249415046
 41
351.4273130132687
 46
0.0
 71
     1
 72
     1
  1
240
 73
     1
 44
1.0
  0
LINE
  5
21DD
330
1F
100
AcDbEntity
  8
Visible (ISO)
100
AcDbLine
 10
11290.76189064083
 20
3400.115983477153
 30
0.0
 11
13130.76189064083
 21
3400.115983477155
 31
0.0
  0
ARC
  5
21DE
330
1F
100
AcDbEntity
  8
Visible (ISO)
100
AcDbCircle
 10
13130.76189064083
 20
3880.115983477153
 30
0.0
 40
479.9999999999991
100
AcDbArc
 50
270.0
 51
0.0
  0
LINE
  5
21DF
330
1F
100
AcDbEntity
  8
Visible (ISO)
100
AcDbLine
 10
13610.76189064083
 20
3880.115983477153
 30
0.0
 11
13610.76189064083
 21
3920.115983477154
 31
0.0
  0
ARC
  5
21E0
330
1F
100
AcDbEntity
  8
Visible (ISO)
100
AcDbCircle
 10
13130.76189064083
 20
3920.115983477154
 30
0.0
 40
479.9999999999996
100
AcDbArc
 50
0.0
 51
90.0
  0
ARC
  5
21E1
330
1F
100
AcDbEntity
  8
Visible (ISO)
100
AcDbCircle
 10
11290.76189064083
 20
3880.115983477153
 30
0.0
 40
480.0
100
AcDbArc
 50
180.0
 51
270.0
  0
LINE
  5
21E2
330
1F
100
AcDbEntity
  8
Visible (ISO)
100
AcDbLine
 10
10810.76189064083
 20
3920.115983477154
 30
0.0
 11
10810.76189064083
 21
3880.115983477153
 31
0.0
  0
ARC
  5
21E3
330
1F
100
AcDbEntity
  8
Visible (ISO)
100
AcDbCircle
 10
11290.76189064083
 20
3920.115983477154
 30
0.0
 40
480.0
100
AcDbArc
 50
90.0
 51
180.0
  0
LINE
  5
21E4
330
1F
100
AcDbEntity
  8
Visible (ISO)
100
AcDbLine
 10
13130.76189064083
 20
4400.115983477153
 30
0.0
 11
11290.76189064083
 21
4400.115983477153
 31
0.0
  0
SPLINE
  5
21E5
330
1F
100
AcDbEntity
  8
Visible (ISO)
100
AcDbSpline
210
0.0
220
0.0
230
1.0
 70
     8
 71
     3
 72
     8
 73
     4
 74
     0
 42
0.000000001
 43
0.0000000001
 40
12.52341825774861
 40
12.52341825774861
 40
12.52341825774861
 40
12.52341825774861
 40
13.03551624363845
 40
13.03551624363845
 40
13.03551624363845
 40
13.03551624363845
 10
11291.42441684019
 20
3397.115983477148
 30
0.0
 10
11291.21316317048
 20
3398.060902614826
 30
0.0
 10
11291.04172959567
 20
3399.063873707051
 30
0.0
 10
11290.9262123009
 20
3400.116304721807
 30
0.0
  0
SPLINE
  5
21E6
330
1F
100
AcDbEntity
  8
Visible (ISO)
100
AcDbSpline
210
0.0
220
0.0
230
1.0
 70
     8
 71
     3
 72
     8
 73
     4
 74
     0
 42
0.000000001
 43
0.0000000001
 40
23.18718364053511
 40
23.18718364053511
 40
23.18718364053511
 40
23.18718364053511
 40
23.69928095869392
 40
23.69928095869392
 40
23.69928095869392
 40
23.69928095869392
 10
11345.59756891156
 20
3400.116304740929
 30
0.0
 10
11345.48205176247
 20
3399.06387518247
 30
0.0
 10
11345.3106183727
 20
3398.060903901898
 30
0.0
 10
11345.09936444147
 20
3397.115983477148
 30
0.0
  0
LINE
  5
21E7
330
1F
100
AcDbEntity
  8
Visible (ISO)
100
AcDbLine
 10
11345.09936444147
 20
3397.115983477156
 30
0.0
 11
11291.42441684019
 21
3397.115983477156
 31
0.0
  0
ARC
  5
21E8
330
1F
100
AcDbEntity
  8
Visible (ISO)
100
AcDbCircle
 10
11318.26189064083
 20
3403.115983477155
 30
0.0
 40
27.49999999999995
100
AcDbArc
 50
192.6022648414534
 51
347.3977351585466
  0
SPLINE
  5
21E9
330
1F
100
AcDbEntity
  8
Visible (ISO)
100
AcDbSpline
210
0.0
220
0.0
230
1.0
 70
     8
 71
     3
 72
     8
 73
     4
 74
     0
 42
0.000000001
 43
0.0000000001
 40
12.52341825774861
 40
12.52341825774861
 40
12.52341825774861
 40
12.52341825774861
 40
13.0355162436382
 40
13.0355162436382
 40
13.0355162436382
 40
13.0355162436382
 10
13076.42441684019
 20
3397.11598347715
 30
0.0
 10
13076.21316317048
 20
3398.060902614829
 30
0.0
 10
13076.04172959567
 20
3399.063873707051
 30
0.0
 10
13075.9262123009
 20
3400.116304721807
 30
0.0
  0
SPLINE
  5
21EA
330
1F
100
AcDbEntity
  8
Visible (ISO)
100
AcDbSpline
210
0.0
220
0.0
230
1.0
 70
     8
 71
     3
 72
     8
 73
     4
 74
     0
 42
0.000000001
 43
0.0000000001
 40
23.18718364053535
 40
23.18718364053535
 40
23.18718364053535
 40
23.18718364053535
 40
23.69928095869392
 40
23.69928095869392
 40
23.69928095869392
 40
23.69928095869392
 10
13130.59756891157
 20
3400.116304740929
 30
0.0
 10
13130.48205176247
 20
3399.06387518247
 30
0.0
 10
13130.3106183727
 20
3398.060903901898
 30
0.0
 10
13130.09936444147
 20
3397.11598347715
 30
0.0
  0
LINE
  5
21EB
330
1F
100
AcDbEntity
  8
Visible (ISO)
100
AcDbLine
 10
13130.09936444147
 20
3397.115983477156
 30
0.0
 11
13076.42441684019
 21
3397.115983477156
 31
0.0
  0
ARC
  5
21EC
330
1F
100
AcDbEntity
  8
Visible (ISO)
100
AcDbCircle
 10
13103.26189064083
 20
3403.115983477157
 30
0.0
 40
27.50000000000005
100
AcDbArc
 50
192.6022648414534
 51
347.3977351585466
  0
SPLINE
  5
21ED
330
1F
100
AcDbEntity
  8
Visible (ISO)
100
AcDbSpline
210
0.0
220
0.0
230
1.0
 70
     8
 71
     3
 72
     8
 73
     4
 74
     0
 42
0.000000001
 43
0.0000000001
 40
12.52341825774861
 40
12.52341825774861
 40
12.52341825774861
 40
12.52341825774861
 40
13.03551624363832
 40
13.03551624363832
 40
13.03551624363832
 40
13.03551624363832
 10
11345.09936444147
 20
4403.11598347715
 30
0.0
 10
11345.31061811118
 20
4402.171064339468
 30
0.0
 10
11345.48205168599
 20
4401.168093247246
 30
0.0
 10
11345.59756898076
 20
4400.115662232489
 30
0.0
  0
SPLINE
  5
21EE
330
1F
100
AcDbEntity
  8
Visible (ISO)
100
AcDbSpline
210
0.0
220
0.0
230
1.0
 70
     8
 71
     3
 72
     8
 73
     4
 74
     0
 42
0.000000001
 43
0.0000000001
 40
23.18718364053524
 40
23.18718364053524
 40
23.18718364053524
 40
23.18718364053524
 40
23.69928095869392
 40
23.69928095869392
 40
23.69928095869392
 40
23.69928095869392
 10
11290.92621237009
 20
4400.115662213368
 30
0.0
 10
11291.04172951919
 20
4401.168091771828
 30
0.0
 10
11291.21316290896
 20
4402.171063052399
 30
0.0
 10
11291.42441684019
 20
4403.11598347715
 30
0.0
  0
LINE
  5
21EF
330
1F
100
AcDbEntity
  8
Visible (ISO)
100
AcDbLine
 10
11291.42441684019
 20
4403.115983477153
 30
0.0
 11
11345.09936444147
 21
4403.115983477153
 31
0.0
  0
ARC
  5
21F0
330
1F
100
AcDbEntity
  8
Visible (ISO)
100
AcDbCircle
 10
11318.26189064083
 20
4397.115983477153
 30
0.0
 40
27.49999999999995
100
AcDbArc
 50
12.6022648414534
 51
167.3977351585466
  0
SPLINE
  5
21F1
330
1F
100
AcDbEntity
  8
Visible (ISO)
100
AcDbSpline
210
0.0
220
0.0
230
1.0
 70
     8
 71
     3
 72
     8
 73
     4
 74
     0
 42
0.000000001
 43
0.0000000001
 40
12.52341825774861
 40
12.52341825774861
 40
12.52341825774861
 40
12.52341825774861
 40
13.03551624363901
 40
13.03551624363901
 40
13.03551624363901
 40
13.03551624363901
 10
13130.09936444147
 20
4403.115983477153
 30
0.0
 10
13130.31061811118
 20
4402.171064339472
 30
0.0
 10
13130.48205168599
 20
4401.168093247248
 30
0.0
 10
13130.59756898076
 20
4400.11566223249
 30
0.0
  0
SPLINE
  5
21F2
330
1F
100
AcDbEntity
  8
Visible (ISO)
100
AcDbSpline
210
0.0
220
0.0
230
1.0
 70
     8
 71
     3
 72
     8
 73
     4
 74
     0
 42
0.000000001
 43
0.0000000001
 40
23.18718364053456
 40
23.18718364053456
 40
23.18718364053456
 40
23.18718364053456
 40
23.69928095869392
 40
23.69928095869392
 40
23.69928095869392
 40
23.69928095869392
 10
13075.92621237009
 20
4400.115662213369
 30
0.0
 10
13076.04172951919
 20
4401.168091771829
 30
0.0
 10
13076.21316290896
 20
4402.171063052403
 30
0.0
 10
13076.42441684019
 20
4403.115983477153
 30
0.0
  0
LINE
  5
21F3
330
1F
100
AcDbEntity
  8
Visible (ISO)
100
AcDbLine
 10
13076.42441684019
 20
4403.115983477157
 30
0.0
 11
13130.09936444147
 21
4403.115983477157
 31
0.0
  0
ARC
  5
21F4
330
1F
100
AcDbEntity
  8
Visible (ISO)
100
AcDbCircle
 10
13103.26189064083
 20
4397.115983477156
 30
0.0
 40
27.50000000000009
100
AcDbArc
 50
12.6022648414534
 51
167.3977351585466
  0
TEXT
  5
224C
330
1F
100
AcDbEntity
  8
LINE
100
AcDbText
 10
11792.76443880159
 20
2988.716627668877
 30
0.0
 40
233.9816249415046
  1
OI280
 41
1.000399999999999
100
AcDbText
  0
MTEXT
  5
224D
330
1F
100
AcDbEntity
  8
0
100
AcDbMText
 10
13757.84731717911
 20
3969.653765975614
 30
0.0
 40
233.9816249415046
 41
351.4273130132687
 46
0.0
 71
     1
 72
     1
  1
100
 73
     1
 44
1.0
  0
MTEXT
  5
224E
330
1F
100
AcDbEntity
  8
0
100
AcDbMText
 10
11923.97132652106
 20
4766.125261003067
 30
0.0
 40
233.9816249415046
 41
351.4273130132687
 46
0.0
 71
     1
 72
     1
  1
280
 73
     1
 44
1.0
  0
LINE
  5
2448
330
1F
100
AcDbEntity
  8
Visible (ISO)
100
AcDbLine
 10
15449.14574276702
 20
3378.597429152087
 30
0.0
 11
17489.14574276702
 21
3378.597429152087
 31
0.0
  0
ARC
  5
2449
330
1F
100
AcDbEntity
  8
Visible (ISO)
100
AcDbCircle
 10
17489.14574276702
 20
3858.597429152087
 30
0.0
 40
480.0000000000006
100
AcDbArc
 50
270.0
 51
0.0
  0
LINE
  5
244A
330
1F
100
AcDbEntity
  8
Visible (ISO)
100
AcDbLine
 10
17969.14574276702
 20
3858.597429152087
 30
0.0
 11
17969.14574276702
 21
3898.597429152087
 31
0.0
  0
ARC
  5
244B
330
1F
100
AcDbEntity
  8
Visible (ISO)
100
AcDbCircle
 10
17489.14574276702
 20
3898.597429152089
 30
0.0
 40
479.9999999999996
100
AcDbArc
 50
0.0
 51
90.0
  0
ARC
  5
244C
330
1F
100
AcDbEntity
  8
Visible (ISO)
100
AcDbCircle
 10
15449.14574276702
 20
3858.597429152087
 30
0.0
 40
480.0
100
AcDbArc
 50
180.0
 51
270.0
  0
LINE
  5
244D
330
1F
100
AcDbEntity
  8
Visible (ISO)
100
AcDbLine
 10
14969.14574276702
 20
3898.597429152087
 30
0.0
 11
14969.14574276702
 21
3858.597429152087
 31
0.0
  0
ARC
  5
244E
330
1F
100
AcDbEntity
  8
Visible (ISO)
100
AcDbCircle
 10
15449.14574276702
 20
3898.597429152087
 30
0.0
 40
479.9999999999997
100
AcDbArc
 50
90.0
 51
180.0
  0
LINE
  5
244F
330
1F
100
AcDbEntity
  8
Visible (ISO)
100
AcDbLine
 10
17489.14574276702
 20
4378.597429152087
 30
0.0
 11
15449.14574276702
 21
4378.597429152087
 31
0.0
  0
SPLINE
  5
2450
330
1F
100
AcDbEntity
  8
Visible (ISO)
100
AcDbSpline
210
0.0
220
0.0
230
1.0
 70
     8
 71
     3
 72
     8
 73
     4
 74
     0
 42
0.000000001
 43
0.0000000001
 40
12.52341825774861
 40
12.52341825774861
 40
12.52341825774861
 40
12.52341825774861
 40
13.03551624363805
 40
13.03551624363805
 40
13.03551624363805
 40
13.03551624363805
 10
17434.80826896638
 20
3375.597429152085
 30
0.0
 10
17434.59701529667
 20
3376.54234828976
 30
0.0
 10
17434.42558172186
 20
3377.545319381985
 30
0.0
 10
17434.31006442709
 20
3378.597750396741
 30
0.0
  0
SPLINE
  5
2451
330
1F
100
AcDbEntity
  8
Visible (ISO)
100
AcDbSpline
210
0.0
220
0.0
230
1.0
 70
     8
 71
     3
 72
     8
 73
     4
 74
     0
 42
0.000000001
 43
0.0000000001
 40
23.1871836405355
 40
23.1871836405355
 40
23.1871836405355
 40
23.1871836405355
 40
23.69928095869392
 40
23.69928095869392
 40
23.69928095869392
 40
23.69928095869392
 10
17488.98142103776
 20
3378.597750415858
 30
0.0
 10
17488.86590388866
 20
3377.545320857404
 30
0.0
 10
17488.69447049889
 20
3376.542349576832
 30
0.0
 10
17488.48321656766
 20
3375.597429152085
 30
0.0
  0
LINE
  5
2452
330
1F
100
AcDbEntity
  8
Visible (ISO)
100
AcDbLine
 10
17488.48321656766
 20
3375.597429152091
 30
0.0
 11
17434.80826896638
 21
3375.597429152091
 31
0.0
  0
ARC
  5
2453
330
1F
100
AcDbEntity
  8
Visible (ISO)
100
AcDbCircle
 10
17461.64574276702
 20
3381.597429152091
 30
0.0
 40
27.50000000000001
100
AcDbArc
 50
192.6022648414534
 51
347.3977351585466
  0
SPLINE
  5
2454
330
1F
100
AcDbEntity
  8
Visible (ISO)
100
AcDbSpline
210
0.0
220
0.0
230
1.0
 70
     8
 71
     3
 72
     8
 73
     4
 74
     0
 42
0.000000001
 43
0.0000000001
 40
12.52341825774861
 40
12.52341825774861
 40
12.52341825774861
 40
12.52341825774861
 40
13.0355162436383
 40
13.0355162436383
 40
13.0355162436383
 40
13.0355162436383
 10
15503.48321656766
 20
4381.597429152082
 30
0.0
 10
15503.69447023737
 20
4380.652510014404
 30
0.0
 10
15503.86590381218
 20
4379.64953892218
 30
0.0
 10
15503.98142110695
 20
4378.597107907422
 30
0.0
  0
SPLINE
  5
2455
330
1F
100
AcDbEntity
  8
Visible (ISO)
100
AcDbSpline
210
0.0
220
0.0
230
1.0
 70
     8
 71
     3
 72
     8
 73
     4
 74
     0
 42
0.000000001
 43
0.0000000001
 40
23.18718364053526
 40
23.18718364053526
 40
23.18718364053526
 40
23.18718364053526
 40
23.69928095869392
 40
23.69928095869392
 40
23.69928095869392
 40
23.69928095869392
 10
15449.31006449628
 20
4378.597107888302
 30
0.0
 10
15449.42558164538
 20
4379.649537446761
 30
0.0
 10
15449.59701503515
 20
4380.652508727332
 30
0.0
 10
15449.80826896638
 20
4381.597429152082
 30
0.0
  0
LINE
  5
2456
330
1F
100
AcDbEntity
  8
Visible (ISO)
100
AcDbLine
 10
15449.80826896638
 20
4381.597429152087
 30
0.0
 11
15503.48321656766
 21
4381.597429152087
 31
0.0
  0
ARC
  5
2457
330
1F
100
AcDbEntity
  8
Visible (ISO)
100
AcDbCircle
 10
15476.64574276702
 20
4375.597429152087
 30
0.0
 40
27.5
100
AcDbArc
 50
12.6022648414534
 51
167.3977351585466
  0
SPLINE
  5
2458
330
1F
100
AcDbEntity
  8
Visible (ISO)
100
AcDbSpline
210
0.0
220
0.0
230
1.0
 70
     8
 71
     3
 72
     8
 73
     4
 74
     0
 42
0.000000001
 43
0.0000000001
 40
12.52341825774861
 40
12.52341825774861
 40
12.52341825774861
 40
12.52341825774861
 40
13.03551624363835
 40
13.03551624363835
 40
13.03551624363835
 40
13.03551624363835
 10
17488.48321656766
 20
4381.597429152082
 30
0.0
 10
17488.69447023737
 20
4380.652510014406
 30
0.0
 10
17488.86590381218
 20
4379.64953892218
 30
0.0
 10
17488.98142110695
 20
4378.597107907422
 30
0.0
  0
SPLINE
  5
2459
330
1F
100
AcDbEntity
  8
Visible (ISO)
100
AcDbSpline
210
0.0
220
0.0
230
1.0
 70
     8
 71
     3
 72
     8
 73
     4
 74
     0
 42
0.000000001
 43
0.0000000001
 40
23.18718364053522
 40
23.18718364053522
 40
23.18718364053522
 40
23.18718364053522
 40
23.69928095869392
 40
23.69928095869392
 40
23.69928095869392
 40
23.69928095869392
 10
17434.31006449629
 20
4378.597107888302
 30
0.0
 10
17434.42558164538
 20
4379.649537446763
 30
0.0
 10
17434.59701503515
 20
4380.652508727335
 30
0.0
 10
17434.80826896638
 20
4381.597429152082
 30
0.0
  0
LINE
  5
245A
330
1F
100
AcDbEntity
  8
Visible (ISO)
100
AcDbLine
 10
17434.80826896638
 20
4381.597429152087
 30
0.0
 11
17488.48321656766
 21
4381.597429152087
 31
0.0
  0
ARC
  5
245B
330
1F
100
AcDbEntity
  8
Visible (ISO)
100
AcDbCircle
 10
17461.64574276702
 20
4375.597429152087
 30
0.0
 40
27.50000000000006
100
AcDbArc
 50
12.6022648414534
 51
167.3977351585466
  0
SPLINE
  5
245C
330
1F
100
AcDbEntity
  8
Visible (ISO)
100
AcDbSpline
210
0.0
220
0.0
230
1.0
 70
     8
 71
     3
 72
     8
 73
     4
 74
     0
 42
0.000000001
 43
0.0000000001
 40
12.52341825774861
 40
12.52341825774861
 40
12.52341825774861
 40
12.52341825774861
 40
13.0355162436392
 40
13.0355162436392
 40
13.0355162436392
 40
13.0355162436392
 10
15449.80826896638
 20
3375.597429152078
 30
0.0
 10
15449.59701529667
 20
3376.542348289757
 30
0.0
 10
15449.42558172186
 20
3377.545319381982
 30
0.0
 10
15449.31006442709
 20
3378.597750396741
 30
0.0
  0
SPLINE
  5
245D
330
1F
100
AcDbEntity
  8
Visible (ISO)
100
AcDbSpline
210
0.0
220
0.0
230
1.0
 70
     8
 71
     3
 72
     8
 73
     4
 74
     0
 42
0.000000001
 43
0.0000000001
 40
23.18718364053434
 40
23.18718364053434
 40
23.18718364053434
 40
23.18718364053434
 40
23.69928095869392
 40
23.69928095869392
 40
23.69928095869392
 40
23.69928095869392
 10
15503.98142103776
 20
3378.597750415858
 30
0.0
 10
15503.86590388866
 20
3377.5453208574
 30
0.0
 10
15503.69447049889
 20
3376.542349576827
 30
0.0
 10
15503.48321656766
 20
3375.597429152078
 30
0.0
  0
LINE
  5
245E
330
1F
100
AcDbEntity
  8
Visible (ISO)
100
AcDbLine
 10
15503.48321656766
 20
3375.597429152084
 30
0.0
 11
15449.80826896638
 21
3375.597429152084
 31
0.0
  0
ARC
  5
245F
330
1F
100
AcDbEntity
  8
Visible (ISO)
100
AcDbCircle
 10
15476.64574276702
 20
3381.597429152083
 30
0.0
 40
27.50000000000007
100
AcDbArc
 50
192.6022648414534
 51
347.3977351585466
  0
TEXT
  5
24B7
330
1F
100
AcDbEntity
  8
LINE
100
AcDbText
 10
16051.14829092778
 20
2967.198073343809
 30
0.0
 40
233.9816249415046
  1
OI300
 41
1.000399999999999
100
AcDbText
  0
MTEXT
  5
24B8
330
1F
100
AcDbEntity
  8
0
100
AcDbMText
 10
18116.23116930529
 20
3928.13521165055
 30
0.0
 40
233.9816249415046
 41
351.4273130132687
 46
0.0
 71
     1
 72
     1
  1
100
 73
     1
 44
1.0
  0
MTEXT
  5
24B9
330
1F
100
AcDbEntity
  8
0
100
AcDbMText
 10
16182.35517864724
 20
4744.606706678001
 30
0.0
 40
233.9816249415046
 41
351.4273130132687
 46
0.0
 71
     1
 72
     1
  1
300
 73
     1
 44
1.0
  0
ENDSEC
  0
SECTION
  2
OBJECTS
  0
DICTIONARY
  5
C
330
0
100
AcDbDictionary
281
     1
  3
ACAD_CIP_PREVIOUS_PRODUCT_INFO
350
1A5
  3
ACAD_COLOR
350
73
  3
ACAD_DETAILVIEWSTYLE
350
1AB
  3
ACAD_GROUP
350
D
  3
ACAD_LAYOUT
350
1A
  3
ACAD_MATERIAL
350
72
  3
ACAD_MLEADERSTYLE
350
D7
  3
ACAD_MLINESTYLE
350
17
  3
ACAD_PLOTSETTINGS
350
19
  3
ACAD_PLOTSTYLENAME
350
E
  3
ACAD_SCALELIST
350
B6
  3
ACAD_SECTIONVIEWSTYLE
350
1A8
  3
ACAD_TABLESTYLE
350
86
  3
ACAD_VISUALSTYLE
350
99
  3
ACDB_RECOMPOSE_DATA
350
2527
  3
AcDbVariableDictionary
350
66
  3
AcDsDecomposeData
350
252D
  0
DICTIONARY
  5
18E
330
2
100
AcDbDictionary
280
     1
281
     1
  3
ACAD_LAYERSTATES
360
18F
  0
DICTIONARY
  5
E6
330
10
100
AcDbDictionary
280
     1
281
     1
  0
DICTIONARY
  5
15D
330
1F
100
AcDbDictionary
280
     1
281
     1
  0
XRECORD
  5
1A5
102
{ACAD_REACTORS
330
C
102
}
330
C
100
AcDbXrecord
280
     1
300
ACD
300
2020
300
87224ACD_2020_0F
  0
DICTIONARY
  5
73
102
{ACAD_REACTORS
330
C
102
}
330
C
100
AcDbDictionary
281
     1
  0
DICTIONARY
  5
1AB
102
{ACAD_REACTORS
330
C
102
}
330
C
100
AcDbDictionary
281
     1
  3
Imperial24
350
1AC
  3
Metric50
350
7BC
  0
DICTIONARY
  5
D
102
{ACAD_REACTORS
330
C
102
}
330
C
100
AcDbDictionary
281
     1
  0
DICTIONARY
  5
1A
102
{ACAD_REACTORS
330
C
102
}
330
C
100
AcDbDictionary
281
     1
  3
Layout1
350
59
  3
Layout2
350
5E
  3
Model
350
22
  0
DICTIONARY
  5
72
102
{ACAD_REACTORS
330
C
102
}
330
C
100
AcDbDictionary
281
     1
  3
ByBlock
350
97
  3
ByLayer
350
96
  3
Global
350
98
  0
DICTIONARY
  5
D7
102
{ACAD_REACTORS
330
C
102
}
330
C
100
AcDbDictionary
281
     1
  3
Annotative
350
E5
  3
Standard
350
D8
  0
DICTIONARY
  5
17
102
{ACAD_REACTORS
330
C
102
}
330
C
100
AcDbDictionary
281
     1
  3
Standard
350
18
  0
DICTIONARY
  5
19
102
{ACAD_REACTORS
330
C
102
}
330
C
100
AcDbDictionary
281
     1
  0
ACDBDICTIONARYWDFLT
  5
E
102
{ACAD_REACTORS
330
C
102
}
330
C
100
AcDbDictionary
281
     1
  3
Normal
350
F
100
AcDbDictionaryWithDefault
340
F
  0
DICTIONARY
  5
B6
102
{ACAD_REACTORS
330
C
102
}
330
C
100
AcDbDictionary
281
     1
  3
A0
350
B7
  3
A1
350
124
  3
A2
350
125
  3
A3
350
126
  3
A4
350
127
  3
A5
350
128
  3
A6
350
129
  3
A7
350
12A
  3
A8
350
12B
  3
A9
350
12C
  3
B0
350
12D
  3
B1
350
12E
  3
B2
350
12F
  3
B3
350
130
  3
B4
350
131
  3
B5
350
132
  3
B6
350
133
  3
B7
350
134
  3
B8
350
135
  3
B9
350
136
  3
C0
350
137
  3
C1
350
138
  3
C2
350
139
  3
C3
350
13A
  3
C4
350
13B
  3
C5
350
13C
  3
C6
350
13D
  3
C7
350
13E
  3
C8
350
13F
  3
C9
350
140
  3
D0
350
141
  3
D1
350
142
  3
D2
350
143
  0
DICTIONARY
  5
1A8
102
{ACAD_REACTORS
330
C
102
}
330
C
100
AcDbDictionary
281
     1
  3
Imperial24
350
1AA
  3
Metric50
350
7BB
  0
DICTIONARY
  5
86
102
{ACAD_REACTORS
330
C
102
}
330
C
100
AcDbDictionary
281
     1
  3
Standard
350
87
  0
DICTIONARY
  5
99
102
{ACAD_REACTORS
330
C
102
}
330
C
100
AcDbDictionary
281
     1
  3
2dWireframe
350
9F
  3
Basic
350
9E
  3
Brighten
350
A5
  3
ColorChange
350
A9
  3
Conceptual
350
A2
  3
Dim
350
A4
  3
EdgeColorOff
350
175
  3
Facepattern
350
A8
  3
Flat
350
9A
  3
FlatWithEdges
350
9B
  3
Gouraud
350
9C
  3
GouraudWithEdges
350
9D
  3
Hidden
350
A1
  3
JitterOff
350
173
  3
Linepattern
350
A7
  3
OverhangOff
350
174
  3
Realistic
350
A3
  3
Shaded
350
182
  3
Shaded with edges
350
181
  3
Shades of Gray
350
17E
  3
Sketchy
350
17F
  3
Thicken
350
A6
  3
Wireframe
350
A0
  3
X-Ray
350
180
  0
XRECORD
  5
2527
102
{ACAD_REACTORS
330
C
102
}
330
C
100
AcDbXrecord
280
     1
 90
        1
330
87
  0
DICTIONARY
  5
66
102
{ACAD_REACTORS
330
C
102
}
330
C
100
AcDbDictionary
281
     1
  3
CANNOSCALE
350
F0
  3
CMLEADERSTYLE
350
EF
  3
CTABLESTYLE
350
89
  3
CVIEWDETAILSTYLE
350
1B7
  3
CVIEWSECTIONSTYLE
350
1B8
  3
DIMASSOC
350
67
  3
HIDETEXT
350
6B
  3
LAYEREVAL
350
14D
  3
LAYERNOTIFY
350
14E
  0
DICTIONARY
  5
252D
102
{ACAD_REACTORS
330
C
102
}
330
C
100
AcDbDictionary
281
     1
  3
AcDsRecords
350
252F
  3
AcDsSchemas
350
252E
1001
ACAD
1070
     2
  0
DICTIONARY
  5
18F
102
{ACAD_REACTORS
330
18E
102
}
330
18E
100
AcDbDictionary
281
     1
  0
ACDBDETAILVIEWSTYLE
  5
1AC
102
{ACAD_XDICTIONARY
360
2532
102
}
102
{ACAD_REACTORS
330
1AB
102
}
330
1AB
100
AcDbModelDocViewStyle
 70
     0
  3
Imperial24
290
     0
100
AcDbDetailViewStyle
 70
     0
 71
     0
 90
        3
 71
     1
340
11
 62
   256
 40
0.24
340
0
 62
   256
 40
0.24
300

 40
0.36
280
     3
 71
     2
340
16
 90
       25
 62
   256
 71
     3
340
11
 62
   256
 40
0.24
 90
        1
 40
0.75
 90
        1
300
%<\AcVar ViewType \f "%tc1">% %<\AcVar ViewDetailId>%\PSCALE %<\AcVar ViewScale \f "%sn">%
 71
     4
340
16
 90
       25
 62
   256
340
16
 90
       25
 62
   256
280
     0
  0
ACDBDETAILVIEWSTYLE
  5
7BC
102
{ACAD_XDICTIONARY
360
2536
102
}
102
{ACAD_REACTORS
330
1AB
102
}
330
1AB
100
AcDbModelDocViewStyle
 70
     0
  3
Metric50
290
     0
100
AcDbDetailViewStyle
 70
     0
 71
     0
 90
        3
 71
     1
340
11
 62
   256
 40
5.0
340
0
 62
   256
 40
5.0
300

 40
0.0
280
     1
 71
     2
340
16
 90
       25
 62
   256
 71
     3
340
11
 62
   256
 40
5.0
 90
        0
 40
15.0
 90
        1
300
%<\AcVar ViewDetailId>% (%<\AcVar ViewScale \f "%sn">%)
 71
     4
340
16
 90
       25
 62
   256
340
16
 90
       25
 62
   256
280
     0
  0
LAYOUT
  5
59
102
{ACAD_REACTORS
330
1A
102
}
330
1A
100
AcDbPlotSettings
  1

  2
None
  4

  6

 40
0.0
 41
0.0
 42
0.0
 43
0.0
 44
0.0
 45
0.0
 46
0.0
 47
0.0
 48
0.0
 49
0.0
140
0.0
141
0.0
142
1.0
143
1.0
 70
   688
 72
     0
 73
     0
 74
     5
  7

 75
    16
147
1.0
 76
     0
 77
     2
 78
   300
148
0.0
149
0.0
100
AcDbLayout
  1
Layout1
 70
     1
 71
     1
 10
0.0
 20
0.0
 11
12.0
 21
9.0
 12
0.0
 22
0.0
 32
0.0
 14
0.0
 24
0.0
 34
0.0
 15
0.0
 25
0.0
 35
0.0
146
0.0
 13
0.0
 23
0.0
 33
0.0
 16
1.0
 26
0.0
 36
0.0
 17
0.0
 27
1.0
 37
0.0
 76
     0
330
58
  0
LAYOUT
  5
5E
102
{ACAD_REACTORS
330
1A
102
}
330
1A
100
AcDbPlotSettings
  1

  2
None
  4

  6

 40
0.0
 41
0.0
 42
0.0
 43
0.0
 44
0.0
 45
0.0
 46
0.0
 47
0.0
 48
0.0
 49
0.0
140
0.0
141
0.0
142
1.0
143
1.0
 70
   688
 72
     0
 73
     0
 74
     5
  7

 75
    16
147
1.0
 76
     0
 77
     2
 78
   300
148
0.0
149
0.0
100
AcDbLayout
  1
Layout2
 70
     1
 71
     2
 10
0.0
 20
0.0
 11
12.0
 21
9.0
 12
0.0
 22
0.0
 32
0.0
 14
0.0
 24
0.0
 34
0.0
 15
0.0
 25
0.0
 35
0.0
146
0.0
 13
0.0
 23
0.0
 33
0.0
 16
1.0
 26
0.0
 36
0.0
 17
0.0
 27
1.0
 37
0.0
 76
     0
330
5D
  0
LAYOUT
  5
22
102
{ACAD_XDICTIONARY
360
194
102
}
102
{ACAD_REACTORS
330
1A
102
}
330
1A
100
AcDbPlotSettings
  1

  2
none_device
  4
ANSI_A_(8.50_x_11.00_Inches)
  6

 40
6.349999904632568
 41
19.04999923706055
 42
6.350006103515625
 43
19.04998779296875
 44
215.8999938964844
 45
279.3999938964844
 46
0.0
 47
0.0
 48
0.0
 49
0.0
140
0.0
141
0.0
142
1.0
143
2.584895464708373
 70
 11952
 72
     0
 73
     1
 74
     0
  7

 75
     0
147
0.3868628397755418
 76
     0
 77
     2
 78
   300
148
0.0
149
0.0
100
AcDbLayout
  1
Model
 70
     1
 71
     0
 10
0.0
 20
0.0
 11
12.0
 21
9.0
 12
0.0
 22
0.0
 32
0.0
 14
0.0
 24
0.0
 34
0.0
 15
0.0
 25
0.0
 35
0.0
146
0.0
 13
0.0
 23
0.0
 33
0.0
 16
1.0
 26
0.0
 36
0.0
 17
0.0
 27
1.0
 37
0.0
 76
     0
330
1F
331
94
  0
MATERIAL
  5
97
102
{ACAD_XDICTIONARY
360
188
102
}
102
{ACAD_REACTORS
330
72
102
}
330
72
100
AcDbMaterial
  1
ByBlock
 94
       63
  0
MATERIAL
  5
96
102
{ACAD_XDICTIONARY
360
186
102
}
102
{ACAD_REACTORS
330
72
102
}
330
72
100
AcDbMaterial
  1
ByLayer
 94
       63
  0
MATERIAL
  5
98
102
{ACAD_XDICTIONARY
360
110
102
}
102
{ACAD_REACTORS
330
72
102
}
330
72
100
AcDbMaterial
  1
Global
 43
0.0208000000566244
 43
0.0
 43
0.0
 43
0.0
 43
0.0
 43
0.0208000000566244
 43
0.0
 43
0.0
 43
0.0
 43
0.0
 43
1.0
 43
0.0
 43
0.0
 43
0.0
 43
0.0
 43
1.0
 49
0.0208000000566244
 49
0.0
 49
0.0
 49
0.0
 49
0.0
 49
0.0208000000566244
 49
0.0
 49
0.0
 49
0.0
 49
0.0
 49
1.0
 49
0.0
 49
0.0
 49
0.0
 49
0.0
 49
1.0
142
0.0208000000566244
142
0.0
142
0.0
142
0.0
142
0.0
142
0.0208000000566244
142
0.0
142
0.0
142
0.0
142
0.0
142
1.0
142
0.0
142
0.0
142
0.0
142
0.0
142
1.0
144
0.0208000000566244
144
0.0
144
0.0
144
0.0
144
0.0
144
0.0208000000566244
144
0.0
144
0.0
144
0.0
144
0.0
144
1.0
144
0.0
144
0.0
144
0.0
144
0.0
144
1.0
 94
       63
1001
ACAD
1070
    -1
1070
     3
1070
     0
1000

1071
        0
1070
     0
  0
MLEADERSTYLE
  5
E5
102
{ACAD_REACTORS
330
D7
102
}
330
D7
100
AcDbMLeaderStyle
179
     2
170
     2
171
     1
172
     0
 90
        2
 40
0.0
 41
0.0
173
     1
 91
-1056964608
340
14
 92
       -2
290
     1
 42
0.09
291
     1
 43
0.36
  3
Standard
 44
0.18
300

342
11
174
     1
178
     1
175
     1
176
     0
 93
-1056964608
 45
0.18
292
     0
297
     0
 46
0.18
 94
-1056964608
 47
1.0
 49
1.0
140
1.0
293
     1
141
0.0
294
     1
177
     0
142
1.0
295
     0
296
     1
143
0.125
271
     0
272
     9
273
     9
298
     0
  0
MLEADERSTYLE
  5
D8
102
{ACAD_REACTORS
330
D7
102
}
330
D7
100
AcDbMLeaderStyle
179
     2
170
     2
171
     1
172
     0
 90
        2
 40
0.0
 41
0.0
173
     1
 91
-1056964608
340
14
 92
       -2
290
     1
 42
0.09
291
     1
 43
0.36
  3
Standard
 44
0.18
300

342
11
174
     1
178
     1
175
     1
176
     0
 93
-1056964608
 45
0.18
292
     0
297
     0
 46
0.18
 94
-1056964608
 47
1.0
 49
1.0
140
1.0
293
     1
141
0.0
294
     1
177
     0
142
1.0
295
     0
296
     0
143
0.125
271
     0
272
     9
273
     9
298
     0
  0
MLINESTYLE
  5
18
102
{ACAD_REACTORS
330
17
102
}
330
17
100
AcDbMlineStyle
  2
STANDARD
 70
     0
  3

 62
   256
 51
90.0
 52
90.0
 71
     2
 49
0.5
 62
   256
  6
BYLAYER
 49
-0.5
 62
   256
  6
BYLAYER
  0
ACDBPLACEHOLDER
  5
F
102
{ACAD_REACTORS
330
E
102
}
330
E
  0
SCALE
  5
B7
102
{ACAD_REACTORS
330
B6
102
}
330
B6
100
AcDbScale
 70
     0
300
1:1
140
1.0
141
1.0
290
     1
  0
SCALE
  5
124
102
{ACAD_REACTORS
330
B6
102
}
330
B6
100
AcDbScale
 70
     0
300
1:2
140
1.0
141
2.0
290
     0
  0
SCALE
  5
125
102
{ACAD_REACTORS
330
B6
102
}
330
B6
100
AcDbScale
 70
     0
300
1:4
140
1.0
141
4.0
290
     0
  0
SCALE
  5
126
102
{ACAD_REACTORS
330
B6
102
}
330
B6
100
AcDbScale
 70
     0
300
1:5
140
1.0
141
5.0
290
     0
  0
SCALE
  5
127
102
{ACAD_REACTORS
330
B6
102
}
330
B6
100
AcDbScale
 70
     0
300
1:8
140
1.0
141
8.0
290
     0
  0
SCALE
  5
128
102
{ACAD_REACTORS
330
B6
102
}
330
B6
100
AcDbScale
 70
     0
300
1:10
140
1.0
141
10.0
290
     0
  0
SCALE
  5
129
102
{ACAD_REACTORS
330
B6
102
}
330
B6
100
AcDbScale
 70
     0
300
1:16
140
1.0
141
16.0
290
     0
  0
SCALE
  5
12A
102
{ACAD_REACTORS
330
B6
102
}
330
B6
100
AcDbScale
 70
     0
300
1:20
140
1.0
141
20.0
290
     0
  0
SCALE
  5
12B
102
{ACAD_REACTORS
330
B6
102
}
330
B6
100
AcDbScale
 70
     0
300
1:30
140
1.0
141
30.0
290
     0
  0
SCALE
  5
12C
102
{ACAD_REACTORS
330
B6
102
}
330
B6
100
AcDbScale
 70
     0
300
1:40
140
1.0
141
40.0
290
     0
  0
SCALE
  5
12D
102
{ACAD_REACTORS
330
B6
102
}
330
B6
100
AcDbScale
 70
     0
300
1:50
140
1.0
141
50.0
290
     0
  0
SCALE
  5
12E
102
{ACAD_REACTORS
330
B6
102
}
330
B6
100
AcDbScale
 70
     0
300
1:100
140
1.0
141
100.0
290
     0
  0
SCALE
  5
12F
102
{ACAD_REACTORS
330
B6
102
}
330
B6
100
AcDbScale
 70
     0
300
2:1
140
2.0
141
1.0
290
     0
  0
SCALE
  5
130
102
{ACAD_REACTORS
330
B6
102
}
330
B6
100
AcDbScale
 70
     0
300
4:1
140
4.0
141
1.0
290
     0
  0
SCALE
  5
131
102
{ACAD_REACTORS
330
B6
102
}
330
B6
100
AcDbScale
 70
     0
300
8:1
140
8.0
141
1.0
290
     0
  0
SCALE
  5
132
102
{ACAD_REACTORS
330
B6
102
}
330
B6
100
AcDbScale
 70
     0
300
10:1
140
10.0
141
1.0
290
     0
  0
SCALE
  5
133
102
{ACAD_REACTORS
330
B6
102
}
330
B6
100
AcDbScale
 70
     0
300
100:1
140
100.0
141
1.0
290
     0
  0
SCALE
  5
134
102
{ACAD_REACTORS
330
B6
102
}
330
B6
100
AcDbScale
 70
     0
300
1/128" = 1'-0"
140
0.0078125
141
12.0
290
     0
  0
SCALE
  5
135
102
{ACAD_REACTORS
330
B6
102
}
330
B6
100
AcDbScale
 70
     0
300
1/64" = 1'-0"
140
0.015625
141
12.0
290
     0
  0
SCALE
  5
136
102
{ACAD_REACTORS
330
B6
102
}
330
B6
100
AcDbScale
 70
     0
300
1/32" = 1'-0"
140
0.03125
141
12.0
290
     0
  0
SCALE
  5
137
102
{ACAD_REACTORS
330
B6
102
}
330
B6
100
AcDbScale
 70
     0
300
1/16" = 1'-0"
140
0.0625
141
12.0
290
     0
  0
SCALE
  5
138
102
{ACAD_REACTORS
330
B6
102
}
330
B6
100
AcDbScale
 70
     0
300
3/32" = 1'-0"
140
0.09375
141
12.0
290
     0
  0
SCALE
  5
139
102
{ACAD_REACTORS
330
B6
102
}
330
B6
100
AcDbScale
 70
     0
300
1/8" = 1'-0"
140
0.125
141
12.0
290
     0
  0
SCALE
  5
13A
102
{ACAD_REACTORS
330
B6
102
}
330
B6
100
AcDbScale
 70
     0
300
3/16" = 1'-0"
140
0.1875
141
12.0
290
     0
  0
SCALE
  5
13B
102
{ACAD_REACTORS
330
B6
102
}
330
B6
100
AcDbScale
 70
     0
300
1/4" = 1'-0"
140
0.25
141
12.0
290
     0
  0
SCALE
  5
13C
102
{ACAD_REACTORS
330
B6
102
}
330
B6
100
AcDbScale
 70
     0
300
3/8" = 1'-0"
140
0.375
141
12.0
290
     0
  0
SCALE
  5
13D
102
{ACAD_REACTORS
330
B6
102
}
330
B6
100
AcDbScale
 70
     0
300
1/2" = 1'-0"
140
0.5
141
12.0
290
     0
  0
SCALE
  5
13E
102
{ACAD_REACTORS
330
B6
102
}
330
B6
100
AcDbScale
 70
     0
300
3/4" = 1'-0"
140
0.75
141
12.0
290
     0
  0
SCALE
  5
13F
102
{ACAD_REACTORS
330
B6
102
}
330
B6
100
AcDbScale
 70
     0
300
1" = 1'-0"
140
1.0
141
12.0
290
     0
  0
SCALE
  5
140
102
{ACAD_REACTORS
330
B6
102
}
330
B6
100
AcDbScale
 70
     0
300
1-1/2" = 1'-0"
140
1.5
141
12.0
290
     0
  0
SCALE
  5
141
102
{ACAD_REACTORS
330
B6
102
}
330
B6
100
AcDbScale
 70
     0
300
3" = 1'-0"
140
3.0
141
12.0
290
     0
  0
SCALE
  5
142
102
{ACAD_REACTORS
330
B6
102
}
330
B6
100
AcDbScale
 70
     0
300
6" = 1'-0"
140
6.0
141
12.0
290
     0
  0
SCALE
  5
143
102
{ACAD_REACTORS
330
B6
102
}
330
B6
100
AcDbScale
 70
     0
300
1'-0" = 1'-0"
140
12.0
141
12.0
290
     0
  0
ACDBSECTIONVIEWSTYLE
  5
1AA
102
{ACAD_XDICTIONARY
360
2530
102
}
102
{ACAD_REACTORS
330
1A8
102
}
330
1A8
100
AcDbModelDocViewStyle
 70
     0
  3
Imperial24
290
     0
100
AcDbSectionViewStyle
 70
     0
 71
     0
 90
       78
 71
     1
340
11
 62
   256
 40
0.24
340
0
340
0
 62
   256
 40
0.24
300
I, O, Q, S, X, Z
 40
0.48
 90
        3
 40
0.18
 90
        1
 71
     2
340
16
 90
       25
 62
   256
340
16
 90
       50
 62
   256
 40
0.24
 40
0.0
 40
0.24
 71
     3
340
11
 62
   256
 40
0.24
 90
        1
 40
0.75
 90
        1
300
%<\AcVar ViewType \f "%tc1">% %<\AcVar ViewSectionStartId>%-%<\AcVar ViewSectionEndId>%\PSCALE %<\AcVar ViewScale \f "%sn">%
 71
     4
 62
   256
 62
   257
300
ANSI31
 40
1.0
 90
        0
290
     0
290
     0
 90
        6
 40
0.0
 40
1.570796326794896
 40
0.2617993877991494
 40
1.308996938995747
 40
-0.2617993877991494
 40
1.832595714594046
  0
ACDBSECTIONVIEWSTYLE
  5
7BB
102
{ACAD_XDICTIONARY
360
2534
102
}
102
{ACAD_REACTORS
330
1A8
102
}
330
1A8
100
AcDbModelDocViewStyle
 70
     0
  3
Metric50
290
     0
100
AcDbSectionViewStyle
 70
     0
 71
     0
 90
      102
 71
     1
340
11
 62
   256
 40
5.0
340
0
340
0
 62
   256
 40
5.0
300
I, O, Q, S, X, Z
 40
10.0
 90
        0
 40
2.5
 90
        0
 71
     2
340
16
 90
       25
 62
   256
340
16
 90
       50
 62
   256
 40
5.0
 40
2.5
 40
5.0
 71
     3
340
11
 62
   256
 40
5.0
 90
        0
 40
15.0
 90
        1
300
%<\AcVar ViewSectionStartId>%-%<\AcVar ViewSectionEndId>% (%<\AcVar ViewScale \f "%sn">%)
 71
     4
 62
   256
 62
   257
300
ANSI31
 40
1.0
 90
        0
290
     0
290
     0
 90
        6
 40
0.0
 40
1.570796326794896
 40
0.2617993877991494
 40
1.308996938995747
 40
-0.2617993877991494
 40
1.832595714594046
  0
TABLESTYLE
  5
87
102
{ACAD_XDICTIONARY
360
104
102
}
102
{ACAD_REACTORS
330
86
102
}
330
86
100
AcDbTableStyle
280
     0
  3
Standard
 70
     0
 71
     0
 40
0.06
 41
0.06
280
     0
281
     0
  7
Standard
140
0.18
170
     2
 62
     0
 63
     7
283
     0
 90
      512
 91
        0
  1

274
    -2
284
     1
 64
     0
275
    -2
285
     1
 65
     0
276
    -2
286
     1
 66
     0
277
    -2
287
     1
 67
     0
278
    -2
288
     1
 68
     0
279
    -2
289
     1
 69
     0
  7
Standard
140
0.25
170
     5
 62
     0
 63
     7
283
     0
 90
      512
 91
        0
  1

274
    -2
284
     1
 64
     0
275
    -2
285
     1
 65
     0
276
    -2
286
     1
 66
     0
277
    -2
287
     1
 67
     0
278
    -2
288
     1
 68
     0
279
    -2
289
     1
 69
     0
  7
Standard
140
0.18
170
     5
 62
     0
 63
     7
283
     0
 90
      512
 91
        0
  1

274
    -2
284
     1
 64
     0
275
    -2
285
     1
 65
     0
276
    -2
286
     1
 66
     0
277
    -2
287
     1
 67
     0
278
    -2
288
     1
 68
     0
279
    -2
289
     1
 69
     0
  0
VISUALSTYLE
  5
9F
102
{ACAD_REACTORS
330
99
102
}
330
99
100
AcDbVisualStyle
  2
2dWireframe
 70
     4
177
     3
291
     0
 70
    58
 90
        0
176
     1
 90
        2
176
     1
 90
        1
176
     1
 90
        0
176
     1
 40
0.6
176
     1
 40
30.0
176
     1
 62
     7
420
 16777215
176
     1
 90
        1
176
     1
 90
        4
176
     1
 62
     7
176
     1
 62
   257
176
     1
 90
        1
176
     1
 90
        1
176
     1
 40
1.0
176
     1
 90
        0
176
     1
 62
   257
176
     1
 40
1.0
176
     1
 90
        1
176
     1
 90
        6
176
     1
 90
        2
176
     1
 62
     7
176
     1
 90
        5
176
     1
 90
        0
176
     1
 90
        0
176
     1
290
     0
176
     1
 90
        1
176
     1
 40
0.0
176
     1
 90
        0
176
     1
290
     1
176
     1
290
     1
176
     1
290
     0
176
     1
290
     0
176
     1
290
     0
176
     1
290
     0
176
     1
290
     0
176
     1
290
     0
176
     1
290
     0
176
     1
 90
       50
176
     1
 40
0.0
176
     1
 40
1.0
176
     1
 90
        0
176
     1
 62
    18
420
        0
176
     1
 90
       50
176
     1
 90
        3
176
     1
 62
     5
420
      255
176
     1
290
     0
176
     1
 90
       50
176
     1
 90
       50
176
     1
 90
       50
176
     1
290
     0
176
     1
 90
       50
176
     1
 62
   256
176
     0
 40
1.0
176
     0
 90
        2
176
     1
  1
strokes_ogs.tif
176
     1
290
     0
176
     1
 40
1.0
176
     1
 40
1.0
176
     1
1001
ACAD
1000
AcDbSavedByObjectVersion
1070
     0
  0
VISUALSTYLE
  5
9E
102
{ACAD_REACTORS
330
99
102
}
330
99
100
AcDbVisualStyle
  2
Basic
 70
     7
177
     3
291
     1
 70
    58
 90
        1
176
     1
 90
        0
176
     1
 90
        1
176
     1
 90
        0
176
     1
 40
0.6
176
     1
 40
30.0
176
     1
 62
     7
420
 16777215
176
     1
 90
        0
176
     1
 90
        4
176
     1
 62
     7
176
     1
 62
   257
176
     1
 90
        1
176
     1
 90
        1
176
     1
 40
1.0
176
     1
 90
        8
176
     1
 62
     7
176
     1
 40
1.0
176
     1
 90
        1
176
     1
 90
        6
176
     1
 90
        2
176
     1
 62
     7
176
     1
 90
        5
176
     1
 90
        0
176
     1
 90
        0
176
     1
290
     0
176
     1
 90
        1
176
     1
 40
0.0
176
     1
 90
        0
176
     1
290
     0
176
     1
290
     1
176
     1
290
     1
176
     1
290
     0
176
     1
290
     0
176
     1
290
     0
176
     1
290
     0
176
     1
290
     0
176
     1
290
     0
176
     1
 90
       50
176
     1
 40
0.0
176
     1
 40
1.0
176
     1
 90
        0
176
     1
 62
    18
420
        0
176
     1
 90
       50
176
     1
 90
        3
176
     1
 62
     5
420
      255
176
     1
290
     0
176
     1
 90
       50
176
     1
 90
       50
176
     1
 90
       50
176
     1
290
     0
176
     1
 90
       50
176
     1
 62
   256
176
     0
 40
1.0
176
     0
 90
        2
176
     1
  1
strokes_ogs.tif
176
     1
290
     0
176
     1
 40
1.0
176
     1
 40
1.0
176
     1
1001
ACAD
1000
AcDbSavedByObjectVersion
1070
     0
  0
VISUALSTYLE
  5
A5
102
{ACAD_REACTORS
330
99
102
}
330
99
100
AcDbVisualStyle
  2
Brighten
 70
    12
177
     3
291
     1
 70
    58
 90
        2
176
     1
 90
        2
176
     1
 90
        1
176
     1
 90
        0
176
     1
 40
0.6
176
     1
 40
30.0
176
     1
 62
     7
420
 16777215
176
     1
 90
        1
176
     1
 90
        4
176
     1
 62
     7
176
     1
 62
   257
176
     1
 90
        1
176
     1
 90
        1
176
     1
 40
1.0
176
     1
 90
        8
176
     1
 62
     7
176
     1
 40
1.0
176
     1
 90
        1
176
     1
 90
        6
176
     1
 90
        2
176
     1
 62
     7
176
     1
 90
        5
176
     1
 90
        0
176
     1
 90
        0
176
     1
290
     0
176
     1
 90
        1
176
     1
 40
50.0
176
     1
 90
        0
176
     1
290
     0
176
     1
290
     1
176
     1
290
     1
176
     1
290
     0
176
     1
290
     0
176
     1
290
     0
176
     1
290
     0
176
     1
290
     0
176
     1
290
     0
176
     1
 90
       50
176
     1
 40
0.0
176
     1
 40
1.0
176
     1
 90
        0
176
     1
 62
    18
420
        0
176
     1
 90
       50
176
     1
 90
        3
176
     1
 62
     5
420
      255
176
     1
290
     0
176
     1
 90
       50
176
     1
 90
       50
176
     1
 90
       50
176
     1
290
     0
176
     1
 90
       50
176
     1
 62
   256
176
     0
 40
1.0
176
     0
 90
        2
176
     1
  1
strokes_ogs.tif
176
     1
290
     0
176
     1
 40
1.0
176
     1
 40
1.0
176
     1
1001
ACAD
1000
AcDbSavedByObjectVersion
1070
     0
  0
VISUALSTYLE
  5
A9
102
{ACAD_REACTORS
330
99
102
}
330
99
100
AcDbVisualStyle
  2
ColorChange
 70
    16
177
     3
291
     1
 70
    58
 90
        2
176
     1
 90
        2
176
     1
 90
        3
176
     1
 90
        0
176
     1
 40
0.6
176
     1
 40
30.0
176
     1
 62
     8
420
  8421504
176
     1
 90
        1
176
     1
 90
        4
176
     1
 62
     7
176
     1
 62
   257
176
     1
 90
        1
176
     1
 90
        1
176
     1
 40
1.0
176
     1
 90
        8
176
     1
 62
     8
420
  8421504
176
     1
 40
1.0
176
     1
 90
        1
176
     1
 90
        6
176
     1
 90
        2
176
     1
 62
     7
176
     1
 90
        5
176
     1
 90
        0
176
     1
 90
        0
176
     1
290
     0
176
     1
 90
        1
176
     1
 40
0.0
176
     1
 90
        0
176
     1
290
     0
176
     1
290
     1
176
     1
290
     1
176
     1
290
     0
176
     1
290
     0
176
     1
290
     0
176
     1
290
     0
176
     1
290
     0
176
     1
290
     0
176
     1
 90
       50
176
     1
 40
0.0
176
     1
 40
1.0
176
     1
 90
        0
176
     1
 62
    18
420
        0
176
     1
 90
       50
176
     1
 90
        3
176
     1
 62
     5
420
      255
176
     1
290
     0
176
     1
 90
       50
176
     1
 90
       50
176
     1
 90
       50
176
     1
290
     0
176
     1
 90
       50
176
     1
 62
   256
176
     0
 40
1.0
176
     0
 90
        2
176
     1
  1
strokes_ogs.tif
176
     1
290
     0
176
     1
 40
1.0
176
     1
 40
1.0
176
     1
1001
ACAD
1000
AcDbSavedByObjectVersion
1070
     0
  0
VISUALSTYLE
  5
A2
102
{ACAD_REACTORS
330
99
102
}
330
99
100
AcDbVisualStyle
  2
Conceptual
 70
     9
177
     3
291
     0
 70
    58
 90
        3
176
     1
 90
        2
176
     1
 90
        1
176
     1
 90
        0
176
     1
 40
0.6
176
     1
 40
30.0
176
     1
 62
     7
420
 16777215
176
     1
 90
        2
176
     1
 90
        2
176
     1
 62
     7
176
     1
 62
   257
176
     1
 90
        1
176
     1
 90
        1
176
     1
 40
40.0
176
     1
 90
        8
176
     1
 62
     7
176
     1
 40
1.0
176
     1
 90
        1
176
     1
 90
        6
176
     1
 90
        2
176
     1
 62
     7
176
     1
 90
        3
176
     1
 90
        0
176
     1
 90
        0
176
     1
290
     0
176
     1
 90
        1
176
     1
 40
0.0
176
     1
 90
        0
176
     1
290
     0
176
     1
290
     1
176
     1
290
     1
176
     1
290
     0
176
     1
290
     0
176
     1
290
     0
176
     1
290
     0
176
     1
290
     0
176
     1
290
     0
176
     1
 90
       50
176
     1
 40
0.0
176
     1
 40
1.0
176
     1
 90
        0
176
     1
 62
    18
420
        0
176
     1
 90
       50
176
     1
 90
        3
176
     1
 62
     5
420
      255
176
     1
290
     0
176
     1
 90
       50
176
     1
 90
       50
176
     1
 90
       50
176
     1
290
     0
176
     1
 90
       50
176
     1
 62
   256
176
     0
 40
1.0
176
     0
 90
        2
176
     1
  1
strokes_ogs.tif
176
     1
290
     0
176
     1
 40
1.0
176
     1
 40
1.0
176
     1
1001
ACAD
1000
AcDbSavedByObjectVersion
1070
     0
  0
VISUALSTYLE
  5
A4
102
{ACAD_REACTORS
330
99
102
}
330
99
100
AcDbVisualStyle
  2
Dim
 70
    11
177
     3
291
     1
 70
    58
 90
        2
176
     1
 90
        2
176
     1
 90
        1
176
     1
 90
        0
176
     1
 40
0.6
176
     1
 40
30.0
176
     1
 62
     7
420
 16777215
176
     1
 90
        1
176
     1
 90
        4
176
     1
 62
     7
176
     1
 62
   257
176
     1
 90
        1
176
     1
 90
        1
176
     1
 40
1.0
176
     1
 90
        8
176
     1
 62
     7
176
     1
 40
1.0
176
     1
 90
        1
176
     1
 90
        6
176
     1
 90
        2
176
     1
 62
     7
176
     1
 90
        5
176
     1
 90
        0
176
     1
 90
        0
176
     1
290
     0
176
     1
 90
        1
176
     1
 40
-50.0
176
     1
 90
        0
176
     1
290
     0
176
     1
290
     1
176
     1
290
     1
176
     1
290
     0
176
     1
290
     0
176
     1
290
     0
176
     1
290
     0
176
     1
290
     0
176
     1
290
     0
176
     1
 90
       50
176
     1
 40
0.0
176
     1
 40
1.0
176
     1
 90
        0
176
     1
 62
    18
420
        0
176
     1
 90
       50
176
     1
 90
        3
176
     1
 62
     5
420
      255
176
     1
290
     0
176
     1
 90
       50
176
     1
 90
       50
176
     1
 90
       50
176
     1
290
     0
176
     1
 90
       50
176
     1
 62
   256
176
     0
 40
1.0
176
     0
 90
        2
176
     1
  1
strokes_ogs.tif
176
     1
290
     0
176
     1
 40
1.0
176
     1
 40
1.0
176
     1
1001
ACAD
1000
AcDbSavedByObjectVersion
1070
     0
  0
VISUALSTYLE
  5
175
102
{ACAD_REACTORS
330
99
102
}
330
99
100
AcDbVisualStyle
  2
EdgeColorOff
 70
    22
177
     3
291
     1
 70
    58
 90
        2
176
     0
 90
        2
176
     0
 90
        0
176
     0
 90
        0
176
     0
 40
0.6
176
     0
 40
30.0
176
     0
 62
     7
420
 16777215
176
     0
 90
        1
176
     0
 90
        4
176
     0
 62
     7
176
     0
 62
   257
176
     0
 90
        1
176
     0
 90
        1
176
     0
 40
1.0
176
     0
 90
        8
176
     2
 62
     7
176
     0
 40
1.0
176
     0
 90
        1
176
     0
 90
        6
176
     0
 90
        2
176
     0
 62
     7
176
     0
 90
        5
176
     0
 90
        0
176
     0
 90
        0
176
     0
290
     0
176
     0
 90
        1
176
     0
 40
0.0
176
     0
 90
        0
176
     0
290
     0
176
     1
290
     1
176
     1
290
     1
176
     1
290
     0
176
     1
290
     0
176
     1
290
     0
176
     1
290
     0
176
     1
290
     0
176
     1
290
     0
176
     1
 90
       50
176
     1
 40
0.0
176
     1
 40
1.0
176
     1
 90
        0
176
     1
 62
    18
420
        0
176
     1
 90
       50
176
     1
 90
        3
176
     1
 62
     5
420
      255
176
     1
290
     0
176
     1
 90
       50
176
     1
 90
       50
176
     1
 90
       50
176
     1
290
     0
176
     1
 90
       50
176
     1
 62
   256
176
     0
 40
1.0
176
     0
 90
        2
176
     1
  1
strokes_ogs.tif
176
     1
290
     0
176
     1
 40
1.0
176
     1
 40
1.0
176
     1
1001
ACAD
1000
AcDbSavedByObjectVersion
1070
     0
  0
VISUALSTYLE
  5
A8
102
{ACAD_REACTORS
330
99
102
}
330
99
100
AcDbVisualStyle
  2
Facepattern
 70
    15
177
     3
291
     1
 70
    58
 90
        2
176
     1
 90
        2
176
     1
 90
        1
176
     1
 90
        0
176
     1
 40
0.6
176
     1
 40
30.0
176
     1
 62
     7
420
 16777215
176
     1
 90
        1
176
     1
 90
        4
176
     1
 62
     7
176
     1
 62
   257
176
     1
 90
        1
176
     1
 90
        1
176
     1
 40
1.0
176
     1
 90
        8
176
     1
 62
     7
176
     1
 40
1.0
176
     1
 90
        1
176
     1
 90
        6
176
     1
 90
        2
176
     1
 62
     7
176
     1
 90
        5
176
     1
 90
        0
176
     1
 90
        0
176
     1
290
     0
176
     1
 90
        1
176
     1
 40
0.0
176
     1
 90
        0
176
     1
290
     0
176
     1
290
     1
176
     1
290
     1
176
     1
290
     0
176
     1
290
     0
176
     1
290
     0
176
     1
290
     0
176
     1
290
     0
176
     1
290
     0
176
     1
 90
       50
176
     1
 40
0.0
176
     1
 40
1.0
176
     1
 90
        0
176
     1
 62
    18
420
        0
176
     1
 90
       50
176
     1
 90
        3
176
     1
 62
     5
420
      255
176
     1
290
     0
176
     1
 90
       50
176
     1
 90
       50
176
     1
 90
       50
176
     1
290
     0
176
     1
 90
       50
176
     1
 62
   256
176
     0
 40
1.0
176
     0
 90
        2
176
     1
  1
strokes_ogs.tif
176
     1
290
     0
176
     1
 40
1.0
176
     1
 40
1.0
176
     1
1001
ACAD
1000
AcDbSavedByObjectVersion
1070
     0
  0
VISUALSTYLE
  5
9A
102
{ACAD_REACTORS
330
99
102
}
330
99
100
AcDbVisualStyle
  2
Flat
 70
     0
177
     3
291
     1
 70
    58
 90
        2
176
     1
 90
        1
176
     1
 90
        1
176
     1
 90
        2
176
     1
 40
0.6
176
     1
 40
30.0
176
     1
 62
     7
420
 16777215
176
     1
 90
        0
176
     1
 90
        0
176
     1
 62
     7
176
     1
 62
   257
176
     1
 90
        1
176
     1
 90
        1
176
     1
 40
1.0
176
     1
 90
        8
176
     1
 62
     7
176
     1
 40
1.0
176
     1
 90
        1
176
     1
 90
        6
176
     1
 90
        2
176
     1
 62
     7
176
     1
 90
        5
176
     1
 90
        0
176
     1
 90
        0
176
     1
290
     0
176
     1
 90
       13
176
     1
 40
0.0
176
     1
 90
        0
176
     1
290
     0
176
     1
290
     1
176
     1
290
     1
176
     1
290
     0
176
     1
290
     0
176
     1
290
     0
176
     1
290
     0
176
     1
290
     0
176
     1
290
     0
176
     1
 90
       50
176
     1
 40
0.0
176
     1
 40
1.0
176
     1
 90
        0
176
     1
 62
    18
420
        0
176
     1
 90
       50
176
     1
 90
        3
176
     1
 62
     5
420
      255
176
     1
290
     0
176
     1
 90
       50
176
     1
 90
       50
176
     1
 90
       50
176
     1
290
     0
176
     1
 90
       50
176
     1
 62
   256
176
     0
 40
1.0
176
     0
 90
        2
176
     1
  1
strokes_ogs.tif
176
     1
290
     0
176
     1
 40
1.0
176
     1
 40
1.0
176
     1
1001
ACAD
1000
AcDbSavedByObjectVersion
1070
     0
  0
VISUALSTYLE
  5
9B
102
{ACAD_REACTORS
330
99
102
}
330
99
100
AcDbVisualStyle
  2
FlatWithEdges
 70
     1
177
     3
291
     1
 70
    58
 90
        2
176
     1
 90
        1
176
     1
 90
        1
176
     1
 90
        2
176
     1
 40
0.6
176
     1
 40
30.0
176
     1
 62
     7
420
 16777215
176
     1
 90
        1
176
     1
 90
        0
176
     1
 62
     7
176
     1
 62
   257
176
     1
 90
        1
176
     1
 90
        1
176
     1
 40
1.0
176
     1
 90
        0
176
     1
 62
   257
176
     1
 40
1.0
176
     1
 90
        1
176
     1
 90
        6
176
     1
 90
        2
176
     1
 62
     7
176
     1
 90
        5
176
     1
 90
        0
176
     1
 90
        0
176
     1
290
     0
176
     1
 90
       13
176
     1
 40
0.0
176
     1
 90
        0
176
     1
290
     0
176
     1
290
     1
176
     1
290
     1
176
     1
290
     0
176
     1
290
     0
176
     1
290
     0
176
     1
290
     0
176
     1
290
     0
176
     1
290
     0
176
     1
 90
       50
176
     1
 40
0.0
176
     1
 40
1.0
176
     1
 90
        0
176
     1
 62
    18
420
        0
176
     1
 90
       50
176
     1
 90
        3
176
     1
 62
     5
420
      255
176
     1
290
     0
176
     1
 90
       50
176
     1
 90
       50
176
     1
 90
       50
176
     1
290
     0
176
     1
 90
       50
176
     1
 62
   256
176
     0
 40
1.0
176
     0
 90
        2
176
     1
  1
strokes_ogs.tif
176
     1
290
     0
176
     1
 40
1.0
176
     1
 40
1.0
176
     1
1001
ACAD
1000
AcDbSavedByObjectVersion
1070
     0
  0
VISUALSTYLE
  5
9C
102
{ACAD_REACTORS
330
99
102
}
330
99
100
AcDbVisualStyle
  2
Gouraud
 70
     2
177
     3
291
     1
 70
    58
 90
        2
176
     1
 90
        2
176
     1
 90
        1
176
     1
 90
        2
176
     1
 40
0.6
176
     1
 40
30.0
176
     1
 62
     7
420
 16777215
176
     1
 90
        0
176
     1
 90
        0
176
     1
 62
     7
176
     1
 62
   257
176
     1
 90
        1
176
     1
 90
        1
176
     1
 40
1.0
176
     1
 90
        0
176
     1
 62
     7
176
     1
 40
1.0
176
     1
 90
        1
176
     1
 90
        6
176
     1
 90
        2
176
     1
 62
     7
176
     1
 90
        5
176
     1
 90
        0
176
     1
 90
        0
176
     1
290
     0
176
     1
 90
       13
176
     1
 40
0.0
176
     1
 90
        0
176
     1
290
     0
176
     1
290
     1
176
     1
290
     1
176
     1
290
     0
176
     1
290
     0
176
     1
290
     0
176
     1
290
     0
176
     1
290
     0
176
     1
290
     0
176
     1
 90
       50
176
     1
 40
0.0
176
     1
 40
1.0
176
     1
 90
        0
176
     1
 62
    18
420
        0
176
     1
 90
       50
176
     1
 90
        3
176
     1
 62
     5
420
      255
176
     1
290
     0
176
     1
 90
       50
176
     1
 90
       50
176
     1
 90
       50
176
     1
290
     0
176
     1
 90
       50
176
     1
 62
   256
176
     0
 40
1.0
176
     0
 90
        2
176
     1
  1
strokes_ogs.tif
176
     1
290
     0
176
     1
 40
1.0
176
     1
 40
1.0
176
     1
1001
ACAD
1000
AcDbSavedByObjectVersion
1070
     0
  0
VISUALSTYLE
  5
9D
102
{ACAD_REACTORS
330
99
102
}
330
99
100
AcDbVisualStyle
  2
GouraudWithEdges
 70
     3
177
     3
291
     1
 70
    58
 90
        2
176
     1
 90
        2
176
     1
 90
        1
176
     1
 90
        2
176
     1
 40
0.6
176
     1
 40
30.0
176
     1
 62
     7
420
 16777215
176
     1
 90
        1
176
     1
 90
        0
176
     1
 62
     7
176
     1
 62
   257
176
     1
 90
        1
176
     1
 90
        1
176
     1
 40
1.0
176
     1
 90
        0
176
     1
 62
   257
176
     1
 40
1.0
176
     1
 90
        1
176
     1
 90
        6
176
     1
 90
        2
176
     1
 62
     7
176
     1
 90
        5
176
     1
 90
        0
176
     1
 90
        0
176
     1
290
     0
176
     1
 90
       13
176
     1
 40
0.0
176
     1
 90
        0
176
     1
290
     0
176
     1
290
     1
176
     1
290
     1
176
     1
290
     0
176
     1
290
     0
176
     1
290
     0
176
     1
290
     0
176
     1
290
     0
176
     1
290
     0
176
     1
 90
       50
176
     1
 40
0.0
176
     1
 40
1.0
176
     1
 90
        0
176
     1
 62
    18
420
        0
176
     1
 90
       50
176
     1
 90
        3
176
     1
 62
     5
420
      255
176
     1
290
     0
176
     1
 90
       50
176
     1
 90
       50
176
     1
 90
       50
176
     1
290
     0
176
     1
 90
       50
176
     1
 62
   256
176
     0
 40
1.0
176
     0
 90
        2
176
     1
  1
strokes_ogs.tif
176
     1
290
     0
176
     1
 40
1.0
176
     1
 40
1.0
176
     1
1001
ACAD
1000
AcDbSavedByObjectVersion
1070
     0
  0
VISUALSTYLE
  5
A1
102
{ACAD_REACTORS
330
99
102
}
330
99
100
AcDbVisualStyle
  2
Hidden
 70
     6
177
     3
291
     0
 70
    58
 90
        1
176
     1
 90
        2
176
     1
 90
        2
176
     1
 90
        0
176
     1
 40
0.6
176
     1
 40
30.0
176
     1
 62
     7
420
 16777215
176
     1
 90
        2
176
     1
 90
        2
176
     1
 62
     7
176
     1
 62
   257
176
     1
 90
        2
176
     1
 90
        1
176
     1
 40
40.0
176
     1
 90
        0
176
     1
 62
   257
176
     1
 40
1.0
176
     1
 90
        1
176
     1
 90
        6
176
     1
 90
        2
176
     1
 62
     7
176
     1
 90
        3
176
     1
 90
        0
176
     1
 90
        0
176
     1
290
     0
176
     1
 90
        1
176
     1
 40
0.0
176
     1
 90
        0
176
     1
290
     0
176
     1
290
     1
176
     1
290
     1
176
     1
290
     0
176
     1
290
     0
176
     1
290
     0
176
     1
290
     0
176
     1
290
     0
176
     1
290
     0
176
     1
 90
       50
176
     1
 40
0.0
176
     1
 40
1.0
176
     1
 90
        0
176
     1
 62
    18
420
        0
176
     1
 90
       50
176
     1
 90
        3
176
     1
 62
     5
420
      255
176
     1
290
     0
176
     1
 90
       50
176
     1
 90
       50
176
     1
 90
       50
176
     1
290
     0
176
     1
 90
       50
176
     1
 62
   256
176
     0
 40
1.0
176
     0
 90
        2
176
     1
  1
strokes_ogs.tif
176
     1
290
     0
176
     1
 40
1.0
176
     1
 40
1.0
176
     1
1001
ACAD
1000
AcDbSavedByObjectVersion
1070
     0
  0
VISUALSTYLE
  5
173
102
{ACAD_REACTORS
330
99
102
}
330
99
100
AcDbVisualStyle
  2
JitterOff
 70
    20
177
     3
291
     1
 70
    58
 90
        2
176
     0
 90
        2
176
     0
 90
        0
176
     0
 90
        0
176
     0
 40
0.6
176
     0
 40
30.0
176
     0
 62
     7
420
 16777215
176
     0
 90
        1
176
     0
 90
        4
176
     0
 62
     7
176
     0
 62
   257
176
     0
 90
        1
176
     0
 90
        1
176
     0
 40
1.0
176
     0
 90
       10
176
     2
 62
     7
176
     0
 40
1.0
176
     0
 90
        1
176
     0
 90
        6
176
     0
 90
        2
176
     0
 62
     7
176
     0
 90
        5
176
     0
 90
        0
176
     0
 90
        0
176
     0
290
     0
176
     0
 90
        1
176
     0
 40
0.0
176
     0
 90
        0
176
     0
290
     0
176
     1
290
     1
176
     1
290
     1
176
     1
290
     0
176
     1
290
     0
176
     1
290
     0
176
     1
290
     0
176
     1
290
     0
176
     1
290
     0
176
     1
 90
       50
176
     1
 40
0.0
176
     1
 40
1.0
176
     1
 90
        0
176
     1
 62
    18
420
        0
176
     1
 90
       50
176
     1
 90
        3
176
     1
 62
     5
420
      255
176
     1
290
     0
176
     1
 90
       50
176
     1
 90
       50
176
     1
 90
       50
176
     1
290
     0
176
     1
 90
       50
176
     1
 62
   256
176
     0
 40
1.0
176
     0
 90
        2
176
     1
  1
strokes_ogs.tif
176
     1
290
     0
176
     1
 40
1.0
176
     1
 40
1.0
176
     1
1001
ACAD
1000
AcDbSavedByObjectVersion
1070
     0
  0
VISUALSTYLE
  5
A7
102
{ACAD_REACTORS
330
99
102
}
330
99
100
AcDbVisualStyle
  2
Linepattern
 70
    14
177
     3
291
     1
 70
    58
 90
        2
176
     1
 90
        2
176
     1
 90
        1
176
     1
 90
        0
176
     1
 40
0.6
176
     1
 40
30.0
176
     1
 62
     7
420
 16777215
176
     1
 90
        1
176
     1
 90
        4
176
     1
 62
     7
176
     1
 62
   257
176
     1
 90
        7
176
     1
 90
        7
176
     1
 40
1.0
176
     1
 90
        8
176
     1
 62
     7
176
     1
 40
1.0
176
     1
 90
        1
176
     1
 90
        6
176
     1
 90
        2
176
     1
 62
     7
176
     1
 90
        5
176
     1
 90
        0
176
     1
 90
        0
176
     1
290
     0
176
     1
 90
        1
176
     1
 40
0.0
176
     1
 90
        0
176
     1
290
     0
176
     1
290
     1
176
     1
290
     1
176
     1
290
     0
176
     1
290
     0
176
     1
290
     0
176
     1
290
     0
176
     1
290
     0
176
     1
290
     0
176
     1
 90
       50
176
     1
 40
0.0
176
     1
 40
1.0
176
     1
 90
        0
176
     1
 62
    18
420
        0
176
     1
 90
       50
176
     1
 90
        3
176
     1
 62
     5
420
      255
176
     1
290
     0
176
     1
 90
       50
176
     1
 90
       50
176
     1
 90
       50
176
     1
290
     0
176
     1
 90
       50
176
     1
 62
   256
176
     0
 40
1.0
176
     0
 90
        2
176
     1
  1
strokes_ogs.tif
176
     1
290
     0
176
     1
 40
1.0
176
     1
 40
1.0
176
     1
1001
ACAD
1000
AcDbSavedByObjectVersion
1070
     0
  0
VISUALSTYLE
  5
174
102
{ACAD_REACTORS
330
99
102
}
330
99
100
AcDbVisualStyle
  2
OverhangOff
 70
    21
177
     3
291
     1
 70
    58
 90
        2
176
     0
 90
        2
176
     0
 90
        0
176
     0
 90
        0
176
     0
 40
0.6
176
     0
 40
30.0
176
     0
 62
     7
420
 16777215
176
     0
 90
        1
176
     0
 90
        4
176
     0
 62
     7
176
     0
 62
   257
176
     0
 90
        1
176
     0
 90
        1
176
     0
 40
1.0
176
     0
 90
        9
176
     2
 62
     7
176
     0
 40
1.0
176
     0
 90
        1
176
     0
 90
        6
176
     0
 90
        2
176
     0
 62
     7
176
     0
 90
        5
176
     0
 90
        0
176
     0
 90
        0
176
     0
290
     0
176
     0
 90
        1
176
     0
 40
0.0
176
     0
 90
        0
176
     0
290
     0
176
     1
290
     1
176
     1
290
     1
176
     1
290
     0
176
     1
290
     0
176
     1
290
     0
176
     1
290
     0
176
     1
290
     0
176
     1
290
     0
176
     1
 90
       50
176
     1
 40
0.0
176
     1
 40
1.0
176
     1
 90
        0
176
     1
 62
    18
420
        0
176
     1
 90
       50
176
     1
 90
        3
176
     1
 62
     5
420
      255
176
     1
290
     0
176
     1
 90
       50
176
     1
 90
       50
176
     1
 90
       50
176
     1
290
     0
176
     1
 90
       50
176
     1
 62
   256
176
     0
 40
1.0
176
     0
 90
        2
176
     1
  1
strokes_ogs.tif
176
     1
290
     0
176
     1
 40
1.0
176
     1
 40
1.0
176
     1
1001
ACAD
1000
AcDbSavedByObjectVersion
1070
     0
  0
VISUALSTYLE
  5
A3
102
{ACAD_REACTORS
330
99
102
}
330
99
100
AcDbVisualStyle
  2
Realistic
 70
     8
177
     3
291
     0
 70
    58
 90
        2
176
     1
 90
        3
176
     1
 90
        0
176
     1
 90
        2
176
     1
 40
0.6
176
     1
 40
30.0
176
     1
 62
     7
420
 16777215
176
     1
 90
        0
176
     1
 90
        0
176
     1
 62
     7
176
     1
 62
   257
176
     1
 90
        1
176
     1
 90
        1
176
     1
 40
1.0
176
     1
 90
        8
176
     1
 62
   257
176
     1
 40
1.0
176
     1
 90
        1
176
     1
 90
        6
176
     1
 90
        2
176
     1
 62
     7
176
     1
 90
        3
176
     1
 90
        0
176
     1
 90
        0
176
     1
290
     0
176
     1
 90
       13
176
     1
 40
0.0
176
     1
 90
        0
176
     1
290
     0
176
     1
290
     1
176
     1
290
     1
176
     1
290
     0
176
     1
290
     0
176
     1
290
     0
176
     1
290
     0
176
     1
290
     0
176
     1
290
     0
176
     1
 90
       50
176
     1
 40
0.0
176
     1
 40
1.0
176
     1
 90
        0
176
     1
 62
    18
420
        0
176
     1
 90
       50
176
     1
 90
        3
176
     1
 62
     5
420
      255
176
     1
290
     0
176
     1
 90
       50
176
     1
 90
       50
176
     1
 90
       50
176
     1
290
     0
176
     1
 90
       50
176
     1
 62
   256
176
     0
 40
1.0
176
     0
 90
        2
176
     1
  1
strokes_ogs.tif
176
     1
290
     0
176
     1
 40
1.0
176
     1
 40
1.0
176
     1
1001
ACAD
1000
AcDbSavedByObjectVersion
1070
     0
  0
VISUALSTYLE
  5
182
102
{ACAD_REACTORS
330
99
102
}
330
99
100
AcDbVisualStyle
  2
Shaded
 70
    27
177
     3
291
     0
 70
    58
 90
        2
176
     1
 90
        2
176
     1
 90
        1
176
     1
 90
        2
176
     1
 40
0.6
176
     1
 40
30.0
176
     1
 62
     7
420
 16777215
176
     1
 90
        0
176
     1
 90
        4
176
     1
 62
     7
176
     1
 62
   257
176
     1
 90
        1
176
     1
 90
        1
176
     1
 40
1.0
176
     1
 90
        8
176
     1
 62
   257
176
     1
 40
1.0
176
     1
 90
        1
176
     1
 90
        6
176
     1
 90
        2
176
     1
 62
     8
420
  7895160
176
     1
 90
        3
176
     1
 90
        0
176
     1
 90
        0
176
     1
290
     0
176
     1
 90
        5
176
     1
 40
0.0
176
     1
 90
        0
176
     1
290
     0
176
     1
290
     1
176
     1
290
     1
176
     1
290
     0
176
     1
290
     0
176
     1
290
     0
176
     1
290
     0
176
     1
290
     0
176
     1
290
     0
176
     1
 90
       50
176
     1
 40
0.0
176
     1
 40
1.0
176
     1
 90
        0
176
     1
 62
    18
420
        0
176
     1
 90
       50
176
     1
 90
        3
176
     1
 62
     5
420
      255
176
     1
290
     0
176
     1
 90
       50
176
     1
 90
       50
176
     1
 90
       50
176
     1
290
     0
176
     1
 90
       50
176
     1
 62
   256
176
     0
 40
1.0
176
     0
 90
        2
176
     1
  1
strokes_ogs.tif
176
     1
290
     0
176
     1
 40
1.0
176
     1
 40
1.0
176
     1
1001
ACAD
1000
AcDbSavedByObjectVersion
1070
     0
  0
VISUALSTYLE
  5
181
102
{ACAD_REACTORS
330
99
102
}
330
99
100
AcDbVisualStyle
  2
Shaded with edges
 70
    26
177
     3
291
     0
 70
    58
 90
        2
176
     1
 90
        2
176
     1
 90
        1
176
     1
 90
        2
176
     1
 40
0.6
176
     1
 40
30.0
176
     1
 62
     7
420
 16777215
176
     1
 90
        1
176
     1
 90
        2
176
     1
 62
     7
176
     1
 62
   257
176
     1
 90
        2
176
     1
 90
        1
176
     1
 40
1.0
176
     1
 90
        8
176
     1
 62
   257
176
     1
 40
1.0
176
     1
 90
        1
176
     1
 90
        6
176
     1
 90
        2
176
     1
 62
     7
176
     1
 90
        3
176
     1
 90
        0
176
     1
 90
        0
176
     1
290
     0
176
     1
 90
        5
176
     1
 40
0.0
176
     1
 90
        0
176
     1
290
     0
176
     1
290
     1
176
     1
290
     1
176
     1
290
     0
176
     1
290
     0
176
     1
290
     0
176
     1
290
     0
176
     1
290
     0
176
     1
290
     0
176
     1
 90
       50
176
     1
 40
0.0
176
     1
 40
1.0
176
     1
 90
        0
176
     1
 62
    18
420
        0
176
     1
 90
       50
176
     1
 90
        3
176
     1
 62
     5
420
      255
176
     1
290
     0
176
     1
 90
       50
176
     1
 90
       50
176
     1
 90
       50
176
     1
290
     0
176
     1
 90
       50
176
     1
 62
   256
176
     0
 40
1.0
176
     0
 90
        2
176
     1
  1
strokes_ogs.tif
176
     1
290
     0
176
     1
 40
1.0
176
     1
 40
1.0
176
     1
1001
ACAD
1000
AcDbSavedByObjectVersion
1070
     0
  0
VISUALSTYLE
  5
17E
102
{ACAD_REACTORS
330
99
102
}
330
99
100
AcDbVisualStyle
  2
Shades of Gray
 70
    23
177
     3
291
     0
 70
    58
 90
        2
176
     1
 90
        2
176
     1
 90
        3
176
     1
 90
        0
176
     1
 40
0.6
176
     1
 40
30.0
176
     1
 62
     7
420
 16777215
176
     1
 90
        2
176
     1
 90
        2
176
     1
 62
     7
176
     1
 62
     7
176
     1
 90
        1
176
     1
 90
        1
176
     1
 40
40.0
176
     1
 90
        8
176
     1
 62
     7
176
     1
 40
1.0
176
     1
 90
        1
176
     1
 90
        6
176
     1
 90
        2
176
     1
 62
     7
176
     1
 90
        3
176
     1
 90
        0
176
     1
 90
        0
176
     1
290
     0
176
     1
 90
        1
176
     1
 40
0.0
176
     1
 90
        0
176
     1
290
     0
176
     1
290
     1
176
     1
290
     1
176
     1
290
     0
176
     1
290
     0
176
     1
290
     0
176
     1
290
     0
176
     1
290
     0
176
     1
290
     0
176
     1
 90
       50
176
     1
 40
0.0
176
     1
 40
1.0
176
     1
 90
        0
176
     1
 62
    18
420
        0
176
     1
 90
       50
176
     1
 90
        3
176
     1
 62
     5
420
      255
176
     1
290
     0
176
     1
 90
       50
176
     1
 90
       50
176
     1
 90
       50
176
     1
290
     0
176
     1
 90
       50
176
     1
 62
   256
176
     0
 40
1.0
176
     0
 90
        2
176
     1
  1
strokes_ogs.tif
176
     1
290
     0
176
     1
 40
1.0
176
     1
 40
1.0
176
     1
1001
ACAD
1000
AcDbSavedByObjectVersion
1070
     0
  0
VISUALSTYLE
  5
17F
102
{ACAD_REACTORS
330
99
102
}
330
99
100
AcDbVisualStyle
  2
Sketchy
 70
    24
177
     3
291
     0
 70
    58
 90
        1
176
     1
 90
        2
176
     1
 90
        2
176
     1
 90
        0
176
     1
 40
0.6
176
     1
 40
30.0
176
     1
 62
     7
420
 16777215
176
     1
 90
        2
176
     1
 90
        2
176
     1
 62
     7
176
     1
 62
     7
176
     1
 90
        1
176
     1
 90
        1
176
     1
 40
40.0
176
     1
 90
       11
176
     1
 62
     7
176
     1
 40
1.0
176
     1
 90
        1
176
     1
 90
        6
176
     1
 90
        2
176
     1
 62
     7
176
     1
 90
        6
176
     1
 90
        0
176
     1
 90
        0
176
     1
290
     0
176
     1
 90
        1
176
     1
 40
0.0
176
     1
 90
        0
176
     1
290
     0
176
     1
290
     1
176
     1
290
     1
176
     1
290
     0
176
     1
290
     0
176
     1
290
     0
176
     1
290
     0
176
     1
290
     0
176
     1
290
     0
176
     1
 90
       50
176
     1
 40
0.0
176
     1
 40
1.0
176
     1
 90
        0
176
     1
 62
    18
420
        0
176
     1
 90
       50
176
     1
 90
        3
176
     1
 62
     5
420
      255
176
     1
290
     0
176
     1
 90
       50
176
     1
 90
       50
176
     1
 90
       50
176
     1
290
     0
176
     1
 90
       50
176
     1
 62
   256
176
     0
 40
1.0
176
     0
 90
        2
176
     1
  1
strokes_ogs.tif
176
     1
290
     0
176
     1
 40
1.0
176
     1
 40
1.0
176
     1
1001
ACAD
1000
AcDbSavedByObjectVersion
1070
     0
  0
VISUALSTYLE
  5
A6
102
{ACAD_REACTORS
330
99
102
}
330
99
100
AcDbVisualStyle
  2
Thicken
 70
    13
177
     3
291
     1
 70
    58
 90
        2
176
     1
 90
        2
176
     1
 90
        1
176
     1
 90
        0
176
     1
 40
0.6
176
     1
 40
30.0
176
     1
 62
     7
420
 16777215
176
     1
 90
        1
176
     1
 90
        4
176
     1
 62
     7
176
     1
 62
   257
176
     1
 90
        1
176
     1
 90
        1
176
     1
 40
1.0
176
     1
 90
       12
176
     1
 62
     7
176
     1
 40
1.0
176
     1
 90
        1
176
     1
 90
        6
176
     1
 90
        2
176
     1
 62
     7
176
     1
 90
        5
176
     1
 90
        0
176
     1
 90
        0
176
     1
290
     0
176
     1
 90
        1
176
     1
 40
0.0
176
     1
 90
        0
176
     1
290
     0
176
     1
290
     1
176
     1
290
     1
176
     1
290
     0
176
     1
290
     0
176
     1
290
     0
176
     1
290
     0
176
     1
290
     0
176
     1
290
     0
176
     1
 90
       50
176
     1
 40
0.0
176
     1
 40
1.0
176
     1
 90
        0
176
     1
 62
    18
420
        0
176
     1
 90
       50
176
     1
 90
        3
176
     1
 62
     5
420
      255
176
     1
290
     0
176
     1
 90
       50
176
     1
 90
       50
176
     1
 90
       50
176
     1
290
     0
176
     1
 90
       50
176
     1
 62
   256
176
     0
 40
1.0
176
     0
 90
        2
176
     1
  1
strokes_ogs.tif
176
     1
290
     0
176
     1
 40
1.0
176
     1
 40
1.0
176
     1
1001
ACAD
1000
AcDbSavedByObjectVersion
1070
     0
  0
VISUALSTYLE
  5
A0
102
{ACAD_REACTORS
330
99
102
}
330
99
100
AcDbVisualStyle
  2
Wireframe
 70
     5
177
     3
291
     0
 70
    58
 90
        0
176
     1
 90
        2
176
     1
 90
        0
176
     1
 90
        0
176
     1
 40
0.6
176
     1
 40
30.0
176
     1
 62
     7
420
 16777215
176
     1
 90
        1
176
     1
 90
        4
176
     1
 62
     7
176
     1
 62
   257
176
     1
 90
        1
176
     1
 90
        1
176
     1
 40
1.0
176
     1
 90
        0
176
     1
 62
   257
176
     1
 40
1.0
176
     1
 90
        1
176
     1
 90
        6
176
     1
 90
        2
176
     1
 62
     7
176
     1
 90
        3
176
     1
 90
        0
176
     1
 90
        0
176
     1
290
     0
176
     1
 90
        1
176
     1
 40
0.0
176
     1
 90
        0
176
     1
290
     0
176
     1
290
     1
176
     1
290
     1
176
     1
290
     0
176
     1
290
     0
176
     1
290
     0
176
     1
290
     0
176
     1
290
     0
176
     1
290
     0
176
     1
 90
       50
176
     1
 40
0.0
176
     1
 40
1.0
176
     1
 90
        0
176
     1
 62
    18
420
        0
176
     1
 90
       50
176
     1
 90
        3
176
     1
 62
     5
420
      255
176
     1
290
     0
176
     1
 90
       50
176
     1
 90
       50
176
     1
 90
       50
176
     1
290
     0
176
     1
 90
       50
176
     1
 62
   256
176
     0
 40
1.0
176
     0
 90
        2
176
     1
  1
strokes_ogs.tif
176
     1
290
     0
176
     1
 40
1.0
176
     1
 40
1.0
176
     1
1001
ACAD
1000
AcDbSavedByObjectVersion
1070
     0
  0
VISUALSTYLE
  5
180
102
{ACAD_REACTORS
330
99
102
}
330
99
100
AcDbVisualStyle
  2
X-Ray
 70
    25
177
     3
291
     0
 70
    58
 90
        2
176
     1
 90
        2
176
     1
 90
        1
176
     1
 90
        1
176
     1
 40
0.5
176
     1
 40
30.0
176
     1
 62
     7
420
 16777215
176
     1
 90
        1
176
     1
 90
        0
176
     1
 62
     7
176
     1
 62
   257
176
     1
 90
        1
176
     1
 90
        1
176
     1
 40
1.0
176
     1
 90
        8
176
     1
 62
     7
176
     1
 40
1.0
176
     1
 90
        1
176
     1
 90
        6
176
     1
 90
        2
176
     1
 62
     7
176
     1
 90
        3
176
     1
 90
        0
176
     1
 90
        0
176
     1
290
     0
176
     1
 90
       13
176
     1
 40
0.0
176
     1
 90
        0
176
     1
290
     0
176
     1
290
     1
176
     1
290
     1
176
     1
290
     0
176
     1
290
     0
176
     1
290
     0
176
     1
290
     0
176
     1
290
     0
176
     1
290
     0
176
     1
 90
       50
176
     1
 40
0.0
176
     1
 40
1.0
176
     1
 90
        0
176
     1
 62
    18
420
        0
176
     1
 90
       50
176
     1
 90
        3
176
     1
 62
     5
420
      255
176
     1
290
     0
176
     1
 90
       50
176
     1
 90
       50
176
     1
 90
       50
176
     1
290
     0
176
     1
 90
       50
176
     1
 62
   256
176
     0
 40
1.0
176
     0
 90
        2
176
     1
  1
strokes_ogs.tif
176
     1
290
     0
176
     1
 40
1.0
176
     1
 40
1.0
176
     1
1001
ACAD
1000
AcDbSavedByObjectVersion
1070
     0
  0
DICTIONARYVAR
  5
F0
102
{ACAD_REACTORS
330
66
102
}
330
66
100
DictionaryVariables
280
     0
  1
1:1
  0
DICTIONARYVAR
  5
EF
102
{ACAD_REACTORS
330
66
102
}
330
66
100
DictionaryVariables
280
     0
  1
STANDARD
  0
DICTIONARYVAR
  5
89
102
{ACAD_REACTORS
330
66
102
}
330
66
100
DictionaryVariables
280
     0
  1
STANDARD
  0
DICTIONARYVAR
  5
1B7
102
{ACAD_REACTORS
330
66
102
}
330
66
100
DictionaryVariables
280
     0
  1
Imperial24
  0
DICTIONARYVAR
  5
1B8
102
{ACAD_REACTORS
330
66
102
}
330
66
100
DictionaryVariables
280
     0
  1
Imperial24
  0
DICTIONARYVAR
  5
67
102
{ACAD_REACTORS
330
66
102
}
330
66
100
DictionaryVariables
280
     0
  1
2
  0
DICTIONARYVAR
  5
6B
102
{ACAD_REACTORS
330
66
102
}
330
66
100
DictionaryVariables
280
     0
  1
1
  0
DICTIONARYVAR
  5
14D
102
{ACAD_REACTORS
330
66
102
}
330
66
100
DictionaryVariables
280
     0
  1
0
  0
DICTIONARYVAR
  5
14E
102
{ACAD_REACTORS
330
66
102
}
330
66
100
DictionaryVariables
280
     0
  1
0
  0
DICTIONARY
  5
252F
102
{ACAD_REACTORS
330
252D
102
}
330
252D
100
AcDbDictionary
281
     1
  0
DICTIONARY
  5
252E
102
{ACAD_REACTORS
330
252D
102
}
330
252D
100
AcDbDictionary
281
     1
  3
2540703357824
350
2528
  3
2540703357840
350
2529
  3
2540703357856
350
252A
  3
2540703357872
350
252B
  3
2540703357888
350
252C
  0
DICTIONARY
  5
2532
330
1AC
100
AcDbDictionary
280
     1
281
     1
  3
ACAD_XREC_ROUNDTRIP
360
2533
  0
DICTIONARY
  5
2536
330
7BC
100
AcDbDictionary
280
     1
281
     1
  3
ACAD_XREC_ROUNDTRIP
360
2537
  0
DICTIONARY
  5
194
330
22
100
AcDbDictionary
280
     1
281
     1
  0
DICTIONARY
  5
188
330
97
100
AcDbDictionary
280
     1
281
     1
  3
FBXASSET
360
189
  0
DICTIONARY
  5
186
330
96
100
AcDbDictionary
280
     1
281
     1
  3
FBXASSET
360
187
  0
DICTIONARY
  5
110
330
98
100
AcDbDictionary
280
     1
281
     1
  3
BUMPTILE
360
112
  3
DIFFUSETILE
360
111
  3
FBXASSET
360
18A
  3
OPACITYTILE
360
113
  3
REFLECTIONTILE
360
114
  0
DICTIONARY
  5
2530
330
1AA
100
AcDbDictionary
280
     1
281
     1
  3
ACAD_XREC_ROUNDTRIP
360
2531
  0
DICTIONARY
  5
2534
330
7BB
100
AcDbDictionary
280
     1
281
     1
  3
ACAD_XREC_ROUNDTRIP
360
2535
  0
DICTIONARY
  5
104
330
87
100
AcDbDictionary
280
     1
281
     1
  3
ACAD_ROUNDTRIP_2008_TABLESTYLE_CELLSTYLEMAP
360
2526
  0
XRECORD
  5
2528
102
{ACAD_REACTORS
330
252E
102
}
330
252E
100
AcDbXrecord
280
     1
  1
AcDb_Thumbnail_Schema
102
{ATTRRECORD
341
2529
  2
AcDbDs::TreatedAsObjectData
280
     1
291
     1
102
ATTRRECORD}
102
{ATTRRECORD
341
252A
  2
AcDbDs::Legacy
280
     1
291
     1
102
ATTRRECORD}
  2
AcDbDs::ID
280
    10
 91
        8
102
{ATTRRECORD
341
252B
  2
AcDs:Indexable
280
     1
291
     1
102
ATTRRECORD}
102
{ATTRRECORD
341
252C
  2
AcDbDs::HandleAttribute
280
     7
282
     1
102
ATTRRECORD}
  2
Thumbnail_Data
280
    15
 91
        0
  0
XRECORD
  5
2529
102
{ACAD_REACTORS
330
252E
102
}
330
252E
100
AcDbXrecord
280
     1
  1
AcDbDs::TreatedAsObjectDataSchema
  2
AcDbDs::TreatedAsObjectData
280
     1
 91
        0
  0
XRECORD
  5
252A
102
{ACAD_REACTORS
330
252E
102
}
330
252E
100
AcDbXrecord
280
     1
  1
AcDbDs::LegacySchema
  2
AcDbDs::Legacy
280
     1
 91
        0
  0
XRECORD
  5
252B
102
{ACAD_REACTORS
330
252E
102
}
330
252E
100
AcDbXrecord
280
     1
  1
AcDbDs::IndexedPropertySchema
  2
AcDs:Indexable
280
     1
 91
        0
  0
XRECORD
  5
252C
102
{ACAD_REACTORS
330
252E
102
}
330
252E
100
AcDbXrecord
280
     1
  1
AcDbDs::HandleAttributeSchema
  2
AcDbDs::HandleAttribute
280
     7
 91
        1
284
     1
  0
XRECORD
  5
2533
102
{ACAD_REACTORS
330
2532
102
}
330
2532
100
AcDbXrecord
280
     1
102
DISPLAYNAME
  1
Imperial24
102
FLAGS
 90
        0
  0
XRECORD
  5
2537
102
{ACAD_REACTORS
330
2536
102
}
330
2536
100
AcDbXrecord
280
     1
102
DISPLAYNAME
  1
Metric50
102
FLAGS
 90
        0
  0
XRECORD
  5
189
102
{ACAD_REACTORS
330
188
102
}
330
188
100
AcDbXrecord
280
     1
 70
     1
 90
429727718
  1
508B35C9-AEE7-456F-BE74-D52651303AC6
310
504B03040A0000080000B670623B3DEE336E79000000790000001B0000006175746F6465736B2D64657369676E2D7061636B6167652E786D6C3C3F786D6C2076657273696F6E3D22312E302220656E636F64696E673D227574662D3822203F3E3C666F726D6174733E3C666F726D61743E687474703A2F2F736368656D612E
310
6175746F6465736B2E636F6D2F64657369676E2D7061636B6167652F323030393C2F666F726D61743E3C2F666F726D6174733E504B0304140006080800B670623BD486FD9CA0000000F4000000130000005B436F6E74656E745F54797065735D2E786D6C7D8EC10E82300C865F65E91D8A1E8C310C0EEA1BF002731658846E
310
D98AC1B77784ABF1D8FE5FBFBF75BBCE937A534CCEB38643598122B6FEE978D0B0485F9C41B54DDD7D022595594E1A469170414C76A4D9A4D207E29CF43ECE46F218070CC6BECC4078ACAA135ACF422C856C0E68EA1BF5669944DDD7BCDE7B1F8E415D77AECB980613C2E4AC91FC167A2B244592486606FC29C8FD7F045B9A
310
EF7053A7E60B504B0304140006080800B670623B28ED286BEB0000007C01000008000000636F72652E786D6C8D90416EC3201045AF82665B6183218D6D61A254764FD00B204C5C94182C03558F5F9C3852BBEB6A467FFE9B197D71FA9E6FE8CBACC17AD7012D0820E3B41FAD9B3A48F1826B40272956EFE32F1B20A766D3C1
310
268314D3EAD3B24BDABB685CCCAAF3A3D94515828980F42D371D04FD696655A814B3235C8B45E9AB9A4C419F5D8653B2237A1CB163DE672FD6AC209BF3C08E0D1B30EB19C3FC9D72FCC6EB231EFA33EDE96BDD341517E5064B11EDFCBCAF57A3A2194156843498524CAA0FCA5B7268F9E185D42D21A2DCEC7FA0B48CFF8492
310
759155FBBB0F2C80A4F991FB408A72CB22977B50B96EB9C91F504B0304140006080800B670623B55019EA25F0000007C00000007000000636E782E786D6C4DCB3B0E80201045D1AD90E915ED2CF8AC45050C11660C8261F98AB1B07AC9C97D42D718D865D3E909258CFD00CCE24AC6E326A164D74DC0B4128928FF32603847
310
2BA13128B1252AC747C6BAB984FC68F0B87FE8960A5C09FE86CFB69FBA01504B0304140006080800B670623B7BC41AC871010000D40300000C0000006662782F636F72652E786D6CC553ED6E8320147D15C2DF4501B56B6D90A64BBB27D80B50A5CE54C120983EFEAE1F4DD7A56BBA5FF3879273EEE59E7310BE393735EA95
310
ED2AA333CC428A91D2B9292A5D66D8BB63B0C26823B835C67D2BC348CB46657880B1E0A535BE9DA1DC68A7B403549B42CDA0EC3AE530CA6B5864B8CB3F552343E91D5474A7B095F949962A6421D0502778E72C0840D390E18DC5F170E664C205F7BE2A66B62A605A75AC94C522DDEEE3651AEF837817C741F2CE92E02D592D
310
83FD6ECB76EC7595A651C2C9D02CB8AB9A8BBADC2AE954814544691A3016D0E883256BBA58278B17BA5A53CAC9507ED3E4DBE2C9265F691747B3DCA9ADC382819091F8E1162272A8933DE82182932144F88C09DF060D8140C84E1EEA8B8F1340BDCA9DB1093085F157AA97B557309586747CD0EF0B4EA64E983A6E0EAEEFCE
310
889E9EF17847386AA94B30211D2C0FDE0D3AF9A4610EAD5536E8DD1969631B593F67E381C33F5157F17725E5A636F6BF1491F980C8FC7B90E13E8A2F504B0304140006080800B670623B70102A487D0000009D0000000B0000006662782F636E782E786D6C4DCCD10A83201886E15B91FFDC95A5C30335ACCDFB886521330D
310
A76397BF1A1DECE883878F57749FD5A3B74D2F17830472A901D9F088930B8B849267CC01754AA418F3DF0D5018572BE160506249B16C274D761E8BCFBB7A179E27F65CB39A0F14D396184C9921B81F34C3ACA1B4B99ABB6E6F062A25AA5F69DF23ACBE504B0304140006080800B670623B3610CA3329010000120200003100
310
00006662782F42384135303843342D343331462D343546312D424341352D3532343432364645413344462F636F72652E786D6C8D515B6EC32010BC0AE22B55850D0E446E848992B43E412FE000495162B07854397EA176A4F62F3F2C9A9D991D58BEBB8F37F0AD7D30CE76905418026DA553C65E3A98E219B510EC04F7CEC5
310
3F3408EC30EA0E16180A7EF12E4D0B249D8DDAC68C5AA7F4020E21E80881BCE54B0783FCD2E3500D296646B856D320AFC34557A4CAEDCC133C449F0380794839A138B47B86DB2345744D7A44594FD0E1B867883594369BFE63BF7EEF793D0B054FC9A8456E548E63CE46FB674D8A58F068C6477CE9F510B582A2C1F80D1182
310
70F349E816B32D65AFB8DD62CCEB42FF274A937A52948C8DEB66893BCB021484D7734370E5D2E9F608A3EF93F3119479ABA0E50B14B8C298119A43CCC4FCFCECB8A18B6388CEE7EF5D5D4F994BD86CBBA182D76543B9FCAE2FD7B24DF103504B0304140006080800B670623B1B8617914E0100003303000030000000666278
310
2F42384135303843342D343331462D343546312D424341352D3532343432364645413344462F636E782E786D6CD593C16EC32010447F0571AD6CE3D489D20813A9877E410FBD62D82434182CC055F3F75D1292E692438FBD206B7698593D61BEFD1E2DF982108D773D6D6B460938E5B571FB9ECE6957AD29D90A1EBC4F7736
310
4A9C1CA1A759A682EF839FA72269D8C9D92654AD71C72206887E0E0A22CAF926B15E498B01E0AA19451807D01A34B919F16B070157417138917400F2F6FA41FCF0092A45DEE414C19BDC21783E4BD39D891265658C3D8DEA00A3ACE59CBC8678ACB54CB26EEB6BD7839D7E9348BE70AD9C8321B9BCA7F9A4A26C542347DEE0
310
50F09802D22BA6749A800A394DD62899107273365E3C82CFC6A55557BC06C10774B7ABE7AEC3B0F34CF06446280E154026D0542C187BA9DAB6628BF7B6DBB0E5A65B3EB1F58631DE64BBE083F7B65CC218087E22CABB042E51D1F2268F1FE12B3EA24D40D63E9CFE00120194D60B9D5BC67FE6D39CDF37E20AF817881F504B
310
0304140006080800B670623BBFEF2E3B690500003C100000340000006662782F42384135303843342D343331462D343546312D424341352D3532343432364645413344462F6F626A656374732E786D6CAD575D739B3814FD2B0CFB0C98D84E931D4227B6938EA793B6534F3BFB90198F0099B001899144EAECAFDF231018B0
310
D37A3FFC609090EEE7B94757C1FB7D915B2F54C88CB31BDB7727B64559CC938CA53776A576CE956DBD0F03C1B9EA2DB32D460A7A63EB693B0C52C1ABD24C257447AA5C8D66EF177F5832A68CDA569C13296F6C193FD182B8A4523CA1F2D94D88226EBADBBBBEDB2C1C8A4D05299F46424B222853B014F30C52ACC6287F389C
310
D85E1878FA7B18E87FB36AFAF62AAFF667A83F635211161F291B8999FAB3D5DDC5FCDA99CF6653677679E13B8BFBC5CAF1DF4D27CBCBE5F2FAF6EE1A8AA51290642C117467871F101B91C581D77CEA2C36869F3229E68CD1B8F61F1ED6361B89092D294B90C78C4A68EB793D190E7D1D9BDEE7A91E1B95FDE9F3BCEAEFE809
310
6A6D6F9F7D4B79F4275C90E7A04248AA51D5C4C738DAE06F72885AC4796EBE65D22A88A22223B995679120E2D50EB1542F098381188D4EA111AE3DB043FF20AF6F2B4AE3D7D83D65E5AECA730D4D3BAC91BD05FEA992B565D95F549CD6069B90AB2A63EACA38A45E4B6A87D781574F86817E4C2FCCC72690D62E2729520E37
310
9BAF234797BAF6D62B3BFC781FED37BA1E4F2B2F052FA9501A3E80569BB8F6A9A364D4FA67654E6F803383981F82F21591FF84F23D9882BC896C3FDBCF8C162508933B2E0AE4C69DD43F6BD2BE38DDDBF10BF86CB4FA784D37F3AF16075E67EC9030DECA1FC0A55373F5DFF3378C591FA9BDF485C10B0A8C8BA909E5262639
310
A8E72163488806A595734C81CB77D1DE0ED7604A303B76913CEC0272F412782FF88EFF4636D8AA56DF7B322474C4B767303F625997056C7B032C473C592B36CEBD15F3F9FF5233B7ABCDC74D257624A60F8658567497B14CE1EC3C80B76FD02011038F9EE9EB0F2E12387A9C844D3F09855125116D1D731DF8B43D2CF4E0A0
310
79A020C6BE946BCE0B7EA1E1219331CD73C228AF5A2DDD31A4B1DA918CE91350854D40A71723140BFA92E94E62B0626016CEFA5864A50E5977E8753CEDBEE1CBB7F52780D20E17AF0BA0F5F9B02A3AD07DCC732EB6D1EBB661421BE0C39E21BABF0FE16D22EA6929407C8DE596724C88B749B6DB5512BC7B228ADFD7CB7EA6
310
3A22397E690BA8D5D8D4E40CEC8CDA23C2C0B7D5898640101CEC9C6D331CE328CB93CAFBBAC70A642DF70DF95155945B52F08AA973C23469FD69ADEF84F7BB18F983A8F8C90E37F5D35980B2139A1C523540813E824EF83448CF7C72B598CE97D7CEEDDDDD3B6736BFBC771677EF66CE6A7E7139F7A793E9EDF2B2B3A8B624
310
0CDA13AA5F8388264EC4A0129909F3B7F5A16CEDF08128E97D680ACA4B9BE7B7B58BB638F0B00700EF36AE8B32A705658A68F83EE897FC2B41573190D1CCAF0B92D233A47CFEB019D9809933F67DD1A5467F8CF69AD9A5AE859342D45355448C64F968A371DC2D596ADC6E43D93D1B466F877A64E2893E54F23C4B40388995
310
525E5005DA3983ED45412510D3EFCA13737B3863F74BD30F2A12E5B4B5E489A025CE25500DB855B11ACE5BBFA185D35DD48D8DC3CE7DC69F2944DB42AA6F6CF09BCA622ADD08C7A36E7C6AE18000BAB08E040135C2D21C9D75B3A91B77BB746C403F38018DFE6EC939DD92F16B40BC05294B9CDA035AAD6D330AE27FE4786B
310
8E45145EA34A75BE1C263A676A35A8ACC6297337400BF16C54EF515F3F77CB77EB3583889C754FFA29081AA98E2222ADEF05DA3E63D2EDEA8B8756C05A7FB6CABC4A91CBF325398202CC952E70A008A830324BA200D5E5EF8F5F04C75DB4B0EE3340E071C98B823333B83577596BF3849B69F2085AA0FAFA212F26BEFF5877
310
FDE622B28D88A42E49E43326DA82D31E8CB006401E1DA726059ECEC168F97A6599036306A135688F9AD2E61A6EA178F4CD51974A9F2CCB9F36FE5EBD14601068D9C3BF01504B0304140006080000B670623B000000000000000000000000350000006662782F42384135303843342D343331462D343546312D424341352D35
310
32343432364645413344462F76657274696365732E62696E504B0304140006080800B670623BF270F1330600000004000000360000006662782F42384135303843342D343331462D343546312D424341352D3532343432364645413344462F747269616E676C65732E62696E636660600000504B0304140006080000B67062
310
3B000000000000000000000000370000006662782F42384135303843342D343331462D343546312D424341352D3532343432364645413344462F617474726962757465732E62696E504B0304140006080800B670623B08DA0BD19000000041010000360000006662782F42384135303843342D343331462D343546312D4243
310
41352D3532343432364645413344462F6469726563746F72792E786D6C858F410AC3201045AF22B36F53E9A60B35CBEEBAE80D244E44489C6234F4F835464A48035D0DF398FF9F8AF63D0E6CC63039F212F8F9020C7D47C6792B21C5FE7403D62A1188E2E60C98D7234A5830286103A55745067B9D86B8A3CF9C7F90C11DE6
310
07FB144396D7B6A82D282E9A152AD114D5EF2CB866EEE831B8EEA07A7BB5A8D7D61A2BAAEB7FD5F70921FF497D00504B0304140006080800B670623B3B4606F3FE000000A00100003B0000006662782F42384135303843342D343331462D343546312D424341352D3532343432364645413344462F7265736F75726365732F
310
636F72652E786D6C8D504B6E833010BD0A9A6D65B08134808CA354A427E8052C332156828DFCA97AFC9A40A576D7CDCCE87D344F8F9FBEE647F689CE6B6B7A6039850C8DB2A336530F315C4903D94970676DF82583CCC8197B5861107C72362E3BA4AC096842428D1D7107A5F71820538F74F4E0D50D6799CB1892C2DFF345
310
AABB9C306779A2934E701F5C0A906D4FD609C2A1B7D129F4BCD858C163D4E3AED163FAA9AF1A1D88F67CA98E6D35906AA82A52BFB39ABCD5CD915C86331BD86BD3B665CD8BD52C78D0F34F46E550061C419494B6843142CB0F5677F4D0D58717DA7494F26295FF31C565FCA7296A13AA728FBBD93C0896823C09C18BB5AFB4
310
9E65A6BD762BBE01504B010214000A0000080000B670623B3DEE336E79000000790000001B00000000000000000000000000000000006175746F6465736B2D64657369676E2D7061636B6167652E786D6C504B01021400140006080800B670623BD486FD9CA0000000F40000001300000000000000000000000000B2000000
310
5B436F6E74656E745F54797065735D2E786D6C504B01021400140006080800B670623B28ED286BEB0000007C010000080000000000000000000000000083010000636F72652E786D6C504B01021400140006080800B670623B55019EA25F0000007C000000070000000000000000000000000094020000636E782E786D6C50
310
4B01021400140006080800B670623B7BC41AC871010000D40300000C00000000000000000000000000180300006662782F636F72652E786D6C504B01021400140006080800B670623B70102A487D0000009D0000000B00000000000000000000000000B30400006662782F636E782E786D6C504B01021400140006080800B6
310
70623B3610CA3329010000120200003100000000000000000000000000590500006662782F42384135303843342D343331462D343546312D424341352D3532343432364645413344462F636F72652E786D6C504B01021400140006080800B670623B1B8617914E010000330300003000000000000000000000000000D10600
310
006662782F42384135303843342D343331462D343546312D424341352D3532343432364645413344462F636E782E786D6C504B01021400140006080800B670623BBFEF2E3B690500003C10000034000000000000000000000000006D0800006662782F42384135303843342D343331462D343546312D424341352D35323434
310
32364645413344462F6F626A656374732E786D6C504B01021400140006080000B670623B0000000000000000000000003500000000000000000000000000280E00006662782F42384135303843342D343331462D343546312D424341352D3532343432364645413344462F76657274696365732E62696E504B010214001400
310
06080800B670623BF270F133060000000400000036000000000000000000000000007B0E00006662782F42384135303843342D343331462D343546312D424341352D3532343432364645413344462F747269616E676C65732E62696E504B01021400140006080000B670623B00000000000000000000000037000000000000
310
00000000000000D50E00006662782F42384135303843342D343331462D343546312D424341352D3532343432364645413344462F617474726962757465732E62696E504B01021400140006080800B670623B08DA0BD1900000004101000036000000000000000000000000002A0F00006662782F42384135303843342D3433
310
31462D343546312D424341352D3532343432364645413344462F6469726563746F72792E786D6C504B01021400140006080800B670623B3B4606F3FE000000A00100003B000000000000000000000000000E1000006662782F42384135303843342D343331462D343546312D424341352D3532343432364645413344462F72
310
65736F75726365732F636F72652E786D6C504B0506000000000E000E0080040000651100000000
  0
XRECORD
  5
187
102
{ACAD_REACTORS
330
186
102
}
330
186
100
AcDbXrecord
280
     1
 70
     1
 90
429727718
  1
887D55A9-D0DD-414E-B741-A7DCD4DA2B4C
310
504B03040A0000080000B670623B3DEE336E79000000790000001B0000006175746F6465736B2D64657369676E2D7061636B6167652E786D6C3C3F786D6C2076657273696F6E3D22312E302220656E636F64696E673D227574662D3822203F3E3C666F726D6174733E3C666F726D61743E687474703A2F2F736368656D612E
310
6175746F6465736B2E636F6D2F64657369676E2D7061636B6167652F323030393C2F666F726D61743E3C2F666F726D6174733E504B0304140006080800B670623BD486FD9CA0000000F4000000130000005B436F6E74656E745F54797065735D2E786D6C7D8EC10E82300C865F65E91D8A1E8C310C0EEA1BF002731658846E
310
D98AC1B77784ABF1D8FE5FBFBF75BBCE937A534CCEB38643598122B6FEE978D0B0485F9C41B54DDD7D022595594E1A469170414C76A4D9A4D207E29CF43ECE46F218070CC6BECC4078ACAA135ACF422C856C0E68EA1BF5669944DDD7BCDE7B1F8E415D77AECB980613C2E4AC91FC167A2B244592486606FC29C8FD7F045B9A
310
EF7053A7E60B504B0304140006080800B670623BBC1638F5EC0000007C01000008000000636F72652E786D6C8D90416EC3201045AF82665B61836BE2D8C24471DB9CA01740401C94182C03558F5F9C3852BBEB6A467FFE9B197D7EF89E6EE8CB2CC17AD7032D0820E394D7D68D3DA478C67B4007C117EFE32F1B202727D3C3
310
2A83E0E3E2D3BC49CABB685CCCAAF3DA6CA20CC14440EA969B1E82BA98491632C5EC08D76296EA2A4753D06797E194AC468F2356E77DF66CCD02825543D50CACC62D39ED70FDC68EB8FD68F6F8787A6784342D1DDA1D2F5758F068A7E77DB518198D065111D2624A31A93E69DD11D6D5EC85EC3B4278B9DAFF4069D6FF8492
310
75F1B5DADE7D600104CD8FDC0782976B16B9DC83CA75CD4DFC00504B0304140006080800B670623B55019EA25F0000007C00000007000000636E782E786D6C4DCB3B0E80201045D1AD90E915ED2CF8AC45050C11660C8261F98AB1B07AC9C97D42D718D865D3E909258CFD00CCE24AC6E326A164D74DC0B4128928FF326038
310
472BA13128B1252AC747C6BAB984FC68F0B87FE8960A5C09FE86CFB69FBA01504B0304140006080800B670623B3586FFB671010000D40300000C0000006662782F636F72652E786D6CC553ED6E8320147D15C2DF4541A76D6D90A6DDD627D80B50A4CE54C120983EFEAE1F4DD7A55BBA5FF3879273EEE59E7310B6393735EA
310
95ED2AA3731C851423A5A5292A5DE6D8BB63B0C268C39935C67D29C3488B46E578803167A535BE9D2169B453DA01AA4DA16650749D7218C91A1639EEE4876A4428BC838AEE14B6429E44A9C228041AEA38EB9C0501681A32BC313F1ECE8C4C3867DE57C5CC56054CAB8E95B298A7F12E5EEED224C8E87E11242FE936C8DE96
310
AB60BB7F4D295D66D12E5B30323473E6AAE6A24E5A259C2A308F29CD82280A68FC1E256B9AAE93F489AED694323294DF34F9B678B0C957DA3DC7B3DCA9ADC33C022123F1CD2D44E450277AD04338234388F01913BE0D1A0281909D38D4171F27807A259DB1093085F157AA17B557309586747CD0CF0B46A64E983A6E0EAEEF
310
CE881F9EF1FB8E70D44297604238581EBC1B74B249C31C5AAB6CD0BB33D2C636A27ECCC62F0EFF445DC5DF95244D6DEC7F2922F30191F9F720C37DE49F504B0304140006080800B670623B4220A0FF7D0000009D0000000B0000006662782F636E782E786D6C4DCCD10A83201886E15B91FFDCE542CB0335D0EC3E6259C84A
310
C3E9D8E5AF46073BFAE0E1E315DD675BD1DBA5978F41C2FD4600B9F088930F8B849267CC01754AA418F3DF0D50183727E164506249B1EC174D6E1ECB9A0F5D7D785E68DB8151CD286E5A5363CA6B8A39E90D36D40E96B086F55A43A544F52B1D7B86D517504B0304140006080800B670623B2FA3FEDE290100001202000031
310
0000006662782F45374635344235342D363743322D343832342D383044432D4334454645303536354442422F636F72652E786D6C8D515B6EC32010BC0AE22B55850D2E386E848994D7097A0117488A1283C5A3CAF10BB523B57FF961D1ECCCECC0F2ED7DBC816FED8371B687A4C210682B9D32F6D2C314CFA883602BB8772E
310
FEA141608751F7B0C050F08B77695A20E96CD43666D43AA5177008414708E42D5F7A18E4971E876A483133C2B59A06791D2EBA22556E679EE021FA1C00CC43CA09C5717D6274C7286AD7FB06D1AEA1A8C3873DDAD3E3E98859CB0EBB1DAF67A1E02919B5C88DCA71CCD968FFAC49110B1ECDF8882FBD1EA256503418BF2342
310
106E3E08DD60B6A1EC15771B8C795DE8FF4469524F8A92B1F1AD59E2CEB20005E1F5DC105CB9F4797B84D1F7C9F908CABC55D0F2050A5C61CC1AD2F27A26E6E767C7962E8E213A9FBF7775FDCC5CC266DB960A5E970DE5F2BBBE5CCB36C50F504B0304140006080800B670623B1B8617914E01000033030000300000006662
310
782F45374635344235342D363743322D343832342D383044432D4334454645303536354442422F636E782E786D6CD593C16EC32010447F0571AD6CE3D489D20813A9877E410FBD62D82434182CC055F3F75D1292E692438FBD206B7698593D61BEFD1E2DF982108D773D6D6B460938E5B571FB9ECE6957AD29D90A1EBC4F77
310
364A9C1CA1A759A682EF839FA72269D8C9D92654AD71C72206887E0E0A22CAF926B15E498B01E0AA19451807D01A34B919F16B070157417138917400F2F6FA41FCF0092A45DEE414C19BDC21783E4BD39D891265658C3D8DEA00A3ACE59CBC8678ACB54CB26EEB6BD7839D7E9348BE70AD9C8321B9BCA7F9A4A26C542347DE
310
E050F09802D22BA6749A800A394DD62899107273365E3C82CFC6A55557BC06C10774B7ABE7AEC3B0F34CF06446280E154026D0542C187BA9DAB6628BF7B6DBB0E5A65B3EB1F58631DE64BBE083F7B65CC218087E22CABB042E51D1F2268F1FE12B3EA24D40D63E9CFE00120194D60B9D5BC67FE6D39CDF37E20AF817881F50
310
4B0304140006080800B670623B29652116630500003C100000340000006662782F45374635344235342D363743322D343832342D383044432D4334454645303536354442422F6F626A656374732E786D6CAD575D739B3814FD2B0CFB0C989834C90EA1639B24E3E9A6EDD4D3CE3E64C623834CD8006224913AFDF57B040203
310
B65BEF871F0C12D2FD3CF7E8CA7FBFCB33E3957291B2E2D674ED8969D02262715A24B76625B7D6B569BC0F7CCE98EC2D338D82E4F4D654D366E0279C55A59E8AE99654991CCDDECFFF3444440B6A1A514684B83545F44C7362934AB2988A173B2692D8C97667BB76B3702836E1A47C1E092D09A78584A5982F20C5688C7287
310
C389E904BEA3BE07BEFAD7ABA6A75739B53F43FD69212429A20365233153D70BEF2E2E6FAC4BCF9B5ADEBB0BD79ADFCF43CBBD9A4E16EF168B9BD9DD0D140BC921495BC2E9D60C1E101B9E46BED37CEA2CD6861F3329624541A3DA7F7858DBAC25C6B4A4458C3CA654405BCFEBC970E8AAD8F43E4FD558ABEC4F9FE7557F47
310
4F506B7BFBEC5BCA367FC105710E2AB8A00A554D7CB4A30DFE26FBA86D18CBF4B75418399194A72433B274C3097F33032C554B027F2046A1932B842B0FCCC0DDCBEBDB8AD2F835768F59B9ADB24C41D30C6A64AF817F2A456D59FA83F2E3DA60137255A585BCD60EC9B7929AC18DEFD49381AF1ED30BFDB109A4B1CD488294
310
C3CDE6EBC8D185AABD6568061FEE37BB95AAC7E3CA4BCE4ACAA5820FA0D526AE7DAA2869B5EE5999531BE0CC20E6FBA07C41E43FA27CF7A6206F3CDD793B4F6B919C1462CB788EDCD893FA674CDA17AB7B3B7C019F8D561FAEE966FED562DFE98C1D12C6A9FC015C2A35D7FF3D7FC398F591DA4B5FE0BFA2C0189FEA50AE22
310
92817A1ED3020951A03432862970F976B33383259812CC8E5D240BBA801CBCF8CE2BBEE3BF910DB6AAD5F79E05123AE2DB33981FB1ACCB02B69D00CB014FD68AB573A7627EF9BFD4CC2C5C7D58557C4B22FAA88925A4DBB44825CECE3D78FB060D1231F0E885BE7D673C86A3874958F593906B5502D1563157814FDAC3420D
310
F69A070A22EC4B98E23CFF171A1E5311D12C23056555ABA53B8614563B92D17D02AAB009E8F46284624E5F53D5490C560CCCC2591FF1B45421EB0EBD8EA7ED13BE7C5D7E0428CD60FEF60779EB13E6664FF711CB185F6FDED60D139A001FF60CD1FD6D086F1D51474901E26B2CB794A343BC8ED3EDB612E0DD2351FCB65CF4
310
33D511C9E14B5B40ADC6A6263DB0336A8F700DDF56271A024E70B0B3629DE21847591E55DED73D56206AB927E46FAABC5C939C55853C274C93D69FD6FA4E78BF8B11DF898C9ECD60553FAD39283BA6F18984AA23E8884F83F45C5F5F859797B31B2B9C84A1E5B9DE9D35BFF25C6B76152E422F9C5DCC3D847F5801ED09D5AF
310
41441327A25FF15487F9EB725FB666F048A4701E9A827292E6F97569A32DF61DEC01C0BB8DCBBCCC684E0B49147C1FD54BF685A0AB18C868E6973949E819523E3DAC463660E68C7D9F55A9D1EFA3BD7A76A16AE1A810F95CE59B82A4D968A376DC2E8B44BBDD86B27B368CDE0ED548C7137DA860591A83706223A12CA712B4
310
7306DBF39C0A20A6DF95C7FAF670C6EED7A61F946493D1D6926782963813403548A78AE470DEF80D2D9CEAA26E4D1C76F60BFE74219A06527D6B82DF641A51616F703CAAC6A7160E08A00BEB4810A0274592A1B36E3675E36E978A0DE80727A0D6DF2D39A75BD27E0D8837276589537B40ABB56D5A41F48F1C6FCD3188C4EB
310
A6929D2FFB89CE995A4D00AE813BDD032DC48B56BD437DFDDC2DD7AED70C2272D63DE9A72068A45A92F0A4BE17A8A06B9366E16707AD80B1FC649459952097E74BB23805982B55E0401150A165964402AA8BDF9F3E7386BB686EDCA780C0D382E5392BF460A6EFB2C6EA1937D3F809B440D5F5435C4C5CF7A9EEFAF54564BD
310
2182DA24162F98680B4E7930C21A0079709CEAEB99A372305ABE0C0D7D6078105A83F6A0296DAEE1068A47DD1C55A9F4C9B2FC69E3EFD44B81028E963DF81B504B0304140006080000B670623B000000000000000000000000350000006662782F45374635344235342D363743322D343832342D383044432D433445464530
310
3536354442422F76657274696365732E62696E504B0304140006080800B670623BF270F1330600000004000000360000006662782F45374635344235342D363743322D343832342D383044432D4334454645303536354442422F747269616E676C65732E62696E636660600000504B0304140006080000B670623B00000000
310
0000000000000000370000006662782F45374635344235342D363743322D343832342D383044432D4334454645303536354442422F617474726962757465732E62696E504B0304140006080800B670623B08DA0BD19000000041010000360000006662782F45374635344235342D363743322D343832342D383044432D4334
310
454645303536354442422F6469726563746F72792E786D6C858F410AC3201045AF22B36F53E9A60B35CBEEBAE80D244E44489C6234F4F835464A48035D0DF398FF9F8AF63D0E6CC63039F212F8F9020C7D47C6792B21C5FE7403D62A1188E2E60C98D7234A5830286103A55745067B9D86B8A3CF9C7F90C11DE607FB144396
310
D7B6A82D282E9A152AD114D5EF2CB866EEE831B8EEA07A7BB5A8D7D61A2BAAEB7FD5F70921FF497D00504B0304140006080800B670623B6378F24DFF000000A00100003B0000006662782F45374635344235342D363743322D343832342D383044432D4334454645303536354442422F7265736F75726365732F636F72652E
310
786D6C8D504B6E833010BD0A9A6D65B0094E42641C85B639412F6099496225D8C89FAAC7AF09546A77DDCC8CDE47F3F4C4F16B7C149FE88371B603565228D06A37187BED20C50BD9437194C23B177FC9A0B06AC40E6618A4B87A97A615D2CE46B431A3D60DB8822A048C50E8473E3A08FA86A32A558A5911EEE5A4F45D5DB1
310
6465A6B34E8A107D0E502C4FE609D26370C96B0CA25A58295232C3AA3143FE692E063D485EF7F5AEE71BD2D2F39634AFFC44DAF7DD9E9CCE6F9CD25DCBFA762BAAD92C4534E34F46ED51451C40D694B6843142EB0FD61C283F34FC85EE0F948A6A96FF31A569F8A729191B37F51A77B105902C0779125254735F793DCBCC7B
310
EE567E03504B010214000A0000080000B670623B3DEE336E79000000790000001B00000000000000000000000000000000006175746F6465736B2D64657369676E2D7061636B6167652E786D6C504B01021400140006080800B670623BD486FD9CA0000000F40000001300000000000000000000000000B20000005B436F6E
310
74656E745F54797065735D2E786D6C504B01021400140006080800B670623BBC1638F5EC0000007C010000080000000000000000000000000083010000636F72652E786D6C504B01021400140006080800B670623B55019EA25F0000007C000000070000000000000000000000000095020000636E782E786D6C504B010214
310
00140006080800B670623B3586FFB671010000D40300000C00000000000000000000000000190300006662782F636F72652E786D6C504B01021400140006080800B670623B4220A0FF7D0000009D0000000B00000000000000000000000000B40400006662782F636E782E786D6C504B01021400140006080800B670623B2F
310
A3FEDE290100001202000031000000000000000000000000005A0500006662782F45374635344235342D363743322D343832342D383044432D4334454645303536354442422F636F72652E786D6C504B01021400140006080800B670623B1B8617914E010000330300003000000000000000000000000000D2060000666278
310
2F45374635344235342D363743322D343832342D383044432D4334454645303536354442422F636E782E786D6C504B01021400140006080800B670623B29652116630500003C10000034000000000000000000000000006E0800006662782F45374635344235342D363743322D343832342D383044432D4334454645303536
310
354442422F6F626A656374732E786D6C504B01021400140006080000B670623B0000000000000000000000003500000000000000000000000000230E00006662782F45374635344235342D363743322D343832342D383044432D4334454645303536354442422F76657274696365732E62696E504B01021400140006080800
310
B670623BF270F13306000000040000003600000000000000000000000000760E00006662782F45374635344235342D363743322D343832342D383044432D4334454645303536354442422F747269616E676C65732E62696E504B01021400140006080000B670623B0000000000000000000000003700000000000000000000
310
000000D00E00006662782F45374635344235342D363743322D343832342D383044432D4334454645303536354442422F617474726962757465732E62696E504B01021400140006080800B670623B08DA0BD190000000410100003600000000000000000000000000250F00006662782F45374635344235342D363743322D34
310
3832342D383044432D4334454645303536354442422F6469726563746F72792E786D6C504B01021400140006080800B670623B6378F24DFF000000A00100003B00000000000000000000000000091000006662782F45374635344235342D363743322D343832342D383044432D4334454645303536354442422F7265736F75
310
726365732F636F72652E786D6C504B0506000000000E000E0080040000611100000000
  0
XRECORD
  5
112
102
{ACAD_REACTORS
330
110
102
}
330
110
100
AcDbXrecord
280
     1
270
     1
271
     1
  0
XRECORD
  5
111
102
{ACAD_REACTORS
330
110
102
}
330
110
100
AcDbXrecord
280
     1
270
     1
271
     1
  0
XRECORD
  5
18A
102
{ACAD_REACTORS
330
110
102
}
330
110
100
AcDbXrecord
280
     1
 70
     0
 90
1778669749
  1
9BF507EE-FAF7-4A99-A33D-4EE51894BC40
310
504B03040A0000080000B670623B3DEE336E79000000790000001B0000006175746F6465736B2D64657369676E2D7061636B6167652E786D6C3C3F786D6C2076657273696F6E3D22312E302220656E636F64696E673D227574662D3822203F3E3C666F726D6174733E3C666F726D61743E687474703A2F2F736368656D612E
310
6175746F6465736B2E636F6D2F64657369676E2D7061636B6167652F323030393C2F666F726D61743E3C2F666F726D6174733E504B0304140006080800B670623BD486FD9CA0000000F4000000130000005B436F6E74656E745F54797065735D2E786D6C7D8EC10E82300C865F65E91D8A1E8C310C0EEA1BF002731658846E
310
D98AC1B77784ABF1D8FE5FBFBF75BBCE937A534CCEB38643598122B6FEE978D0B0485F9C41B54DDD7D022595594E1A469170414C76A4D9A4D207E29CF43ECE46F218070CC6BECC4078ACAA135ACF422C856C0E68EA1BF5669944DDD7BCDE7B1F8E415D77AECB980613C2E4AC91FC167A2B244592486606FC29C8FD7F045B9A
310
EF7053A7E60B504B0304140006080800B670623BCA089DFFEC0000007C01000008000000636F72652E786D6C8D90416E83301045AF62CDB632D8402020E32882F604BD80653BC44AB011B6AB1EBF262152BBEB6A467FFE9B197D76FA9EEFE84BAFDE38DB03CD08206DA553C64E3DC470C1474027CE56E7C22F1B202B66DDC3
310
260367D3EAE2B24BD2D9A06D48AA754AEFA2F05E0740F29E9A1EBCBCEA59642286E4F0B76C11F226269DD15797E0188D42CF2346A57DE662F40ABCAEC77628C6120F654571D50C04B7F5B9C1E3997CD4F550BE3745C3F20DE62C98F9755FAE5A04AD801784B498524C8A4F5A75E4D055873772EC0861F966FF03C545FD138A
310
C686B2D8DF7D621E384D8F3C069CE55B16A93C824A75CB8DFF00504B0304140006080800B670623B55019EA25F0000007C00000007000000636E782E786D6C4DCB3B0E80201045D1AD90E915ED2CF8AC45050C11660C8261F98AB1B07AC9C97D42D718D865D3E909258CFD00CCE24AC6E326A164D74DC0B4128928FF326038
310
472BA13128B1252AC747C6BAB984FC68F0B87FE8960A5C09FE86CFB69FBA01504B0304140006080800B670623B68FC0B7272010000D40300000C0000006662782F636F72652E786D6CC5535B6E833010BC8AE5DF0A6C1E8124328E22D29EA01770C0A128602363A31CBFCB234A53A555FA553EC09AD9F5CE8C31DB5DDA060D
310
D2F4B556190E7C8A9154852E6B5565D8D993B7C668C799D1DA7E29C3488956667884316795D1AE5BA0422B2B950554E9522EA0E87B69312A1A5864B82F3E642B7CE12C54F467BF13C55954D20F7CA0A18EB3DE1A1080E621E31BF3D3F1C2C88C73E65C5D2E6C5DC2B4FA544B8379921C36797888BC3C8A032F4E73EA6D927D
310
EA1DF6F42D49F2E8350D5346C666CE6CDD5ED515460A2B4BCC434A375E1078347C0FE22D5D6DE3D50B5D6F2965642CBF6B725DF96493AB958DC245EEDCD6631E809089F8E61622B2A81703E8219C913144F84C09DF070D8140C8561C9BAB8F3340832CAC363130A576376A108D933095FA747AD0CF0B46E64E983A6D0EAE1F
310
CE089F9EF1FB8E70D44255604258581E9D1D75B259C3125A278D37D80B52DAB4A279CEC62F0EFF44DDC43F9454E8469BFF5244960322CBEF41C6FBC83F01504B0304140006080800B670623B0F71DDB67E0000009D0000000B0000006662782F636E782E786D6C4DCCD10A83201886E15B91FFDCA54DB73F502386BB8F5816
310
32D3703976F9ABD1C18E3E78F87855FB990379BBFCF2296AE02706C4C5471A7C9C349475A408A4352AA7B4FEDD80C47E761A7606A3A69CCA72D0E0C6BE8475D3E0E3F3409428EA6B27A84079A782899AA2EC1A7AE3ECCC2FD858CB2D544655BFD2B67BD87C01504B0304140006080800B670623BE134B4FB28010000120200
310
00310000006662782F38353834323741342D343835462D343034322D383541392D4331303331363839454531452F636F72652E786D6C8D515B6EC32010BC0AE22B55850D0EA424C24451959EA0172086A42831583CAA1CBF503B52FB971F16CDCECC0EACD8DFC71BF836215AEF7A481A0C817183D7D65D7A98D3197108F652
310
04EFD31F1A044E8DA6871586525C82CFD3020DDE25E352419DD76601558C264130DCCAA58771F832A36A544E8511AFCDA486ABBA988634A55D7852C4144A00300FA927949C71DABD1D28A29C7D208A6987383B6CD13BC16BB2E1DBE3911C453B0BA5C8D9EA456E758963CFD684674DAA588A64C747FC2118958C86B2C3788B
310
0841B8FB247487D98EB257CC77188BB6D2FF89F2A49F1465EBD2BA5BE2CEB2082511EDDC9042FB7CBA3DC298FBE4430275DE2A9AE1054ADC60CC08E3A29D89E5F9C5714317C7987C28DFBBBA9E0A97B0D97643A568EB864AF95D5FA9759BF207504B0304140006080800B670623B1B8617914E010000330300003000000066
310
62782F38353834323741342D343835462D343034322D383541392D4331303331363839454531452F636E782E786D6CD593C16EC32010447F0571AD6CE3D489D20813A9877E410FBD62D82434182CC055F3F75D1292E692438FBD206B7698593D61BEFD1E2DF982108D773D6D6B460938E5B571FB9ECE6957AD29D90A1EBC4F
310
77364A9C1CA1A759A682EF839FA72269D8C9D92654AD71C72206887E0E0A22CAF926B15E498B01E0AA19451807D01A34B919F16B070157417138917400F2F6FA41FCF0092A45DEE414C19BDC21783E4BD39D891265658C3D8DEA00A3ACE59CBC8678ACB54CB26EEB6BD7839D7E9348BE70AD9C8321B9BCA7F9A4A26C542347
310
DEE050F09802D22BA6749A800A394DD62899107273365E3C82CFC6A55557BC06C10774B7ABE7AEC3B0F34CF06446280E154026D0542C187BA9DAB6628BF7B6DBB0E5A65B3EB1F58631DE64BBE083F7B65CC218087E22CABB042E51D1F2268F1FE12B3EA24D40D63E9CFE00120194D60B9D5BC67FE6D39CDF37E20AF817881F
310
504B0304140006080800B670623B5933D422630500003B100000340000006662782F38353834323741342D343835462D343034322D383541392D4331303331363839454531452F6F626A656374732E786D6CAD575B6FA33814FE2B887D0642934E9B156594264D158D3A534DD4D13E548A0C38942D60649B4EBABF7E3F8321
310
40924EF6928780CDF1B97EE762EFF32E4B8D37CA45C2F21BD3B547A641F39045491EDF98A5DC5AD7A6F1D9F73863B243661A39C9E88DA9B64DDF8B392B0BBD15D12D295339D85DDEFE618890E6D434C2940871638AF08566C426A5641115AF764424B1E3EDCE76ED9AB0CF36E6A47819302D08A7B984A6D8CFC1C5A89572FB
310
CB91E9F89EA3BEFB9EFAD754E3D3544E654F5F7E920B49F2F040D880CDD89D2CEE2E2EA7D6E56432B6269F2E5CEB7679BBB0DCABF168FE693E9FCEEEA6102C240727AD09A75BD3BF876F78127A4EFDA9D5582B7E4CA590E5390D2BFB6161A5B3E618D182E611E2985001691DAB47FDA5AB7CD3F93C566B2DB2BB7D9E55DD13
310
1D468DEECDB3AB290BFE8409E21C54704115AA6AFF68436BFC8DF65E0B184BF5B74418199194272435D224E084BF9B3E481589EFF5D828747285706581E9BB7B7E5D5D911ABFC6EE312DB7659A2A689A7E85EC0DF04FA5A8344BFEA2FCB834E8845895492EAFB541F2BDA0A63FF59C6AD3F7D4637CA13FD68E34B629891172
310
98597F1D183A57B9B75A98FE9765B05BAB7C3C2EBCE0ACA05C2AF8005A4DE09AA7F29216EB9E15397500C6F47CBE77CA7778FE2BD277AF0AE2C693DD6437D1522427B9D8329E2136F6A8FA19A3E6C56ADF0E5F50CF06D48734EDCEBF22F69C56D97EC138153F804B85E6FABFC7AFEFB32E523BE1F3BD372418E363EDCA7548
310
52949E8724474014288D94610BB57C1BEC4C7F854A89CA8E5324F55B871CBC78CE1BBEE3BFE68D6A5589EF3C730474506FCFA8FCF0659516D0ED04580EEA6425581B77CAE797FF4BCECC16EB2FEB926F49481F746159D06D922712BD730FDEAE42BD40F42C7AA5EF3F198F60E86110D6DD20645A9480B795CF95E3E3A659A8
310
C55E724F408873315335CFFB8584874484344D494E59D94869DB90C26A5B64F49C802CAC1D3ABE18A098D3B7444D123D8A9E5AE8F5214F0AE5B2B6E9B575DA3E61CBD3EA2B4009FA940524DD1305FB6A1FB294F14DF0BEA90BA109ECE1481FDC3FFAE8D60E75141700BE82725371B4873751B2DD960265F788137FACE6DD40
310
B575E4F0A5C99F46629D92131467A41EE11ABD8D4CCC039CA0AFB37C93A08B232B8F0AEFCA1E0A1015DF13FC83322B362463652ECF71D3A8B1A7D1BE65DE1D62C44F22C317D35F574FEB16153BA2D13E543D10A80E74C4A65E78A6B7CBCBD1D5DD9DB59C2DAFACC96C3AB566E3F1C29ADCDD5DBAD7D3C9ED7C822ED74F80A6
310
41755310DE4443F44A9E68373FADF6596BFA0F440AE7BECE2727AE9F4F2B1B53B1E7E00CF0DD1E5C65454A339A4BA2D0FBA05ED2EF0443458F47BDBFCA484CCFE0F2ED7E3DD0013B679C7B5499467F0ECEEADDB9CA85A34CE44B99053949D2C1416DB85DE4B136BB7165FBAC0B7AB3542BED4F8CA182A549847A1319316519
310
95A83A67147B9E5101C47487F2485F1ECE38FD568F839204296D3479219888530154036E6528FBFBC66F98E0D4107563A2D7D9AFF8D389681A08F58D89F22693900A3B407754734FC51C10C010D6D640809EE4718AC1BA3ED4AEDB53CA37283F68805A7E4B72CEB0A4EDEAD5DD8C14059A76AFAA56BA6901E13F32BC51C720
310
12AF41295B5BF61BAD3195181FB506E6B40F4C10AF5AF40EF9F5B159AE5DD1F43C72D635E94310D45C2D49785C5D0B94D3B54AB3C5A38349C0587D338AB48C11CBF339599C02CCA54A70A008A8D03C0B2201D5F9EFCF8F9CE12A9A19CB0410789EB32C63B95ECCF455D658BFE0621A3DA32C5075FB101723D77DAE867E7D0F
310
D90444509B44E2151B4DC2290B065803200FBAA9BE9D392A0603F2D5C2D00D6302A615680F66D2FA166E2079D4C551A54AB758161FCEFD4E450A14704CECFEDF504B0304140006080000B670623B000000000000000000000000350000006662782F38353834323741342D343835462D343034322D383541392D4331303331
310
363839454531452F76657274696365732E62696E504B0304140006080800B670623BF270F1330600000004000000360000006662782F38353834323741342D343835462D343034322D383541392D4331303331363839454531452F747269616E676C65732E62696E636660600000504B0304140006080000B670623B000000
310
000000000000000000370000006662782F38353834323741342D343835462D343034322D383541392D4331303331363839454531452F617474726962757465732E62696E504B0304140006080800B670623B08DA0BD19000000041010000360000006662782F38353834323741342D343835462D343034322D383541392D43
310
31303331363839454531452F6469726563746F72792E786D6C858F410AC3201045AF22B36F53E9A60B35CBEEBAE80D244E44489C6234F4F835464A48035D0DF398FF9F8AF63D0E6CC63039F212F8F9020C7D47C6792B21C5FE7403D62A1188E2E60C98D7234A5830286103A55745067B9D86B8A3CF9C7F90C11DE607FB1443
310
96D7B6A82D282E9A152AD114D5EF2CB866EEE831B8EEA07A7BB5A8D7D61A2BAAEB7FD5F70921FF497D00504B0304140006080800B670623BD9A3B367FE000000A00100003B0000006662782F38353834323741342D343835462D343034322D383541392D4331303331363839454531452F7265736F75726365732F636F7265
310
2E786D6C8D504B6E833010BD0A9A6D65B01D0201194711694FD00B586642AD043BF2A7EAF16B122AB5BB6E6646EFA3797AE2F8B5DC8A4FF4C1383B002B291468B59B8C9D0748F1420E501CA5F0CEC55F3228AC5A708015062966EFD27D83B4B3116DCCA875136EA00A012314FA968F0182FEC045952AC5AC08D7F2AEF455CD
310
58B232D3592745883E07289E4FD609D26370C96B0CA27AB252A464A64D63A6FCD35C0C7A904D73EE467EE664DCD58CD4ED4849D79C5A723ED1B7A61977AF2D6F45B59AA58866F9C9A83DAA8813484E6947182394BFB3BAA7FBBEDEBFD0434FA9A856F91F53BA4FFF342563E38E6F719FB60092E5200F428A6AED2BAF479979
310
AFDDCA6F504B010214000A0000080000B670623B3DEE336E79000000790000001B00000000000000000000000000000000006175746F6465736B2D64657369676E2D7061636B6167652E786D6C504B01021400140006080800B670623BD486FD9CA0000000F40000001300000000000000000000000000B20000005B436F6E
310
74656E745F54797065735D2E786D6C504B01021400140006080800B670623BCA089DFFEC0000007C010000080000000000000000000000000083010000636F72652E786D6C504B01021400140006080800B670623B55019EA25F0000007C000000070000000000000000000000000095020000636E782E786D6C504B010214
310
00140006080800B670623B68FC0B7272010000D40300000C00000000000000000000000000190300006662782F636F72652E786D6C504B01021400140006080800B670623B0F71DDB67E0000009D0000000B00000000000000000000000000B50400006662782F636E782E786D6C504B01021400140006080800B670623BE1
310
34B4FB280100001202000031000000000000000000000000005C0500006662782F38353834323741342D343835462D343034322D383541392D4331303331363839454531452F636F72652E786D6C504B01021400140006080800B670623B1B8617914E010000330300003000000000000000000000000000D3060000666278
310
2F38353834323741342D343835462D343034322D383541392D4331303331363839454531452F636E782E786D6C504B01021400140006080800B670623B5933D422630500003B10000034000000000000000000000000006F0800006662782F38353834323741342D343835462D343034322D383541392D4331303331363839
310
454531452F6F626A656374732E786D6C504B01021400140006080000B670623B0000000000000000000000003500000000000000000000000000240E00006662782F38353834323741342D343835462D343034322D383541392D4331303331363839454531452F76657274696365732E62696E504B01021400140006080800
310
B670623BF270F13306000000040000003600000000000000000000000000770E00006662782F38353834323741342D343835462D343034322D383541392D4331303331363839454531452F747269616E676C65732E62696E504B01021400140006080000B670623B0000000000000000000000003700000000000000000000
310
000000D10E00006662782F38353834323741342D343835462D343034322D383541392D4331303331363839454531452F617474726962757465732E62696E504B01021400140006080800B670623B08DA0BD190000000410100003600000000000000000000000000260F00006662782F38353834323741342D343835462D34
310
3034322D383541392D4331303331363839454531452F6469726563746F72792E786D6C504B01021400140006080800B670623BD9A3B367FE000000A00100003B000000000000000000000000000A1000006662782F38353834323741342D343835462D343034322D383541392D4331303331363839454531452F7265736F75
310
726365732F636F72652E786D6C504B0506000000000E000E0080040000611100000000
  0
XRECORD
  5
113
102
{ACAD_REACTORS
330
110
102
}
330
110
100
AcDbXrecord
280
     1
270
     1
271
     1
  0
XRECORD
  5
114
102
{ACAD_REACTORS
330
110
102
}
330
110
100
AcDbXrecord
280
     1
270
     1
271
     1
  0
XRECORD
  5
2531
102
{ACAD_REACTORS
330
2530
102
}
330
2530
100
AcDbXrecord
280
     1
102
DISPLAYNAME
  1
Imperial24
102
FLAGS
 90
        0
  0
XRECORD
  5
2535
102
{ACAD_REACTORS
330
2534
102
}
330
2534
100
AcDbXrecord
280
     1
102
DISPLAYNAME
  1
Metric50
102
FLAGS
 90
        0
  0
CELLSTYLEMAP
  5
2526
102
{ACAD_REACTORS
330
104
102
}
330
104
100
AcDbCellStyleMap
 90
        3
300
CELLSTYLE
  1
TABLEFORMAT_BEGIN
 90
        5
170
     1
 91
        0
 92
    32768
 62
   257
 93
        1
300
CONTENTFORMAT
  1
CONTENTFORMAT_BEGIN
 90
        0
 91
        0
 92
      512
 93
        0
300

 40
0.0
140
1.0
 94
        5
 62
     0
340
11
144
0.25
309
CONTENTFORMAT_END
171
     1
301
MARGIN
  1
CELLMARGIN_BEGIN
 40
0.06
 40
0.06
 40
0.06
 40
0.06
 40
0.18
 40
0.18
309
CELLMARGIN_END
 94
        6
 95
        1
302
GRIDFORMAT
  1
GRIDFORMAT_BEGIN
 90
        0
 91
        1
 62
     0
 92
       -2
340
0
 93
        0
 40
0.045
309
GRIDFORMAT_END
 95
        2
302
GRIDFORMAT
  1
GRIDFORMAT_BEGIN
 90
        0
 91
        1
 62
     0
 92
       -2
340
0
 93
        0
 40
0.045
309
GRIDFORMAT_END
 95
        4
302
GRIDFORMAT
  1
GRIDFORMAT_BEGIN
 90
        0
 91
        1
 62
     0
 92
       -2
340
0
 93
        0
 40
0.045
309
GRIDFORMAT_END
 95
        8
302
GRIDFORMAT
  1
GRIDFORMAT_BEGIN
 90
        0
 91
        1
 62
     0
 92
       -2
340
0
 93
        0
 40
0.045
309
GRIDFORMAT_END
 95
       16
302
GRIDFORMAT
  1
GRIDFORMAT_BEGIN
 90
        0
 91
        1
 62
     0
 92
       -2
340
0
 93
        0
 40
0.045
309
GRIDFORMAT_END
 95
       32
302
GRIDFORMAT
  1
GRIDFORMAT_BEGIN
 90
        0
 91
        1
 62
     0
 92
       -2
340
0
 93
        0
 40
0.045
309
GRIDFORMAT_END
309
TABLEFORMAT_END
  1
CELLSTYLE_BEGIN
 90
        1
 91
        1
300
_TITLE
309
CELLSTYLE_END
300
CELLSTYLE
  1
TABLEFORMAT_BEGIN
 90
        5
170
     1
 91
        0
 92
        0
 62
   257
 93
        1
300
CONTENTFORMAT
  1
CONTENTFORMAT_BEGIN
 90
        0
 91
        0
 92
      512
 93
        0
300

 40
0.0
140
1.0
 94
        5
 62
     0
340
11
144
0.18
309
CONTENTFORMAT_END
171
     1
301
MARGIN
  1
CELLMARGIN_BEGIN
 40
0.06
 40
0.06
 40
0.06
 40
0.06
 40
0.18
 40
0.18
309
CELLMARGIN_END
 94
        6
 95
        1
302
GRIDFORMAT
  1
GRIDFORMAT_BEGIN
 90
        0
 91
        1
 62
     0
 92
       -2
340
0
 93
        0
 40
0.045
309
GRIDFORMAT_END
 95
        2
302
GRIDFORMAT
  1
GRIDFORMAT_BEGIN
 90
        0
 91
        1
 62
     0
 92
       -2
340
0
 93
        0
 40
0.045
309
GRIDFORMAT_END
 95
        4
302
GRIDFORMAT
  1
GRIDFORMAT_BEGIN
 90
        0
 91
        1
 62
     0
 92
       -2
340
0
 93
        0
 40
0.045
309
GRIDFORMAT_END
 95
        8
302
GRIDFORMAT
  1
GRIDFORMAT_BEGIN
 90
        0
 91
        1
 62
     0
 92
       -2
340
0
 93
        0
 40
0.045
309
GRIDFORMAT_END
 95
       16
302
GRIDFORMAT
  1
GRIDFORMAT_BEGIN
 90
        0
 91
        1
 62
     0
 92
       -2
340
0
 93
        0
 40
0.045
309
GRIDFORMAT_END
 95
       32
302
GRIDFORMAT
  1
GRIDFORMAT_BEGIN
 90
        0
 91
        1
 62
     0
 92
       -2
340
0
 93
        0
 40
0.045
309
GRIDFORMAT_END
309
TABLEFORMAT_END
  1
CELLSTYLE_BEGIN
 90
        2
 91
        1
300
_HEADER
309
CELLSTYLE_END
300
CELLSTYLE
  1
TABLEFORMAT_BEGIN
 90
        5
170
     1
 91
        0
 92
        0
 62
   257
 93
        1
300
CONTENTFORMAT
  1
CONTENTFORMAT_BEGIN
 90
        0
 91
        0
 92
      512
 93
        0
300

 40
0.0
140
1.0
 94
        2
 62
     0
340
11
144
0.18
309
CONTENTFORMAT_END
171
     1
301
MARGIN
  1
CELLMARGIN_BEGIN
 40
0.06
 40
0.06
 40
0.06
 40
0.06
 40
0.18
 40
0.18
309
CELLMARGIN_END
 94
        6
 95
        1
302
GRIDFORMAT
  1
GRIDFORMAT_BEGIN
 90
        0
 91
        1
 62
     0
 92
       -2
340
0
 93
        0
 40
0.045
309
GRIDFORMAT_END
 95
        2
302
GRIDFORMAT
  1
GRIDFORMAT_BEGIN
 90
        0
 91
        1
 62
     0
 92
       -2
340
0
 93
        0
 40
0.045
309
GRIDFORMAT_END
 95
        4
302
GRIDFORMAT
  1
GRIDFORMAT_BEGIN
 90
        0
 91
        1
 62
     0
 92
       -2
340
0
 93
        0
 40
0.045
309
GRIDFORMAT_END
 95
        8
302
GRIDFORMAT
  1
GRIDFORMAT_BEGIN
 90
        0
 91
        1
 62
     0
 92
       -2
340
0
 93
        0
 40
0.045
309
GRIDFORMAT_END
 95
       16
302
GRIDFORMAT
  1
GRIDFORMAT_BEGIN
 90
        0
 91
        1
 62
     0
 92
       -2
340
0
 93
        0
 40
0.045
309
GRIDFORMAT_END
 95
       32
302
GRIDFORMAT
  1
GRIDFORMAT_BEGIN
 90
        0
 91
        1
 62
     0
 92
       -2
340
0
 93
        0
 40
0.045
309
GRIDFORMAT_END
309
TABLEFORMAT_END
  1
CELLSTYLE_BEGIN
 90
        3
 91
        2
300
_DATA
309
CELLSTYLE_END
  0
ENDSEC
  0
SECTION
  2
ACDSDATA
 70
     2
 71
     8
  0
ACDSSCHEMA
 90
        0
  1
AcDb_Thumbnail_Schema
  2
AcDbDs::ID
280
    10
 91
        8
  2
Thumbnail_Data
280
    15
 91
        0
101
ACDSRECORD
 95
        0
 90
        1
  2
AcDbDs::TreatedAsObjectData
280
     1
291
     1
101
ACDSRECORD
 95
        0
 90
        2
  2
AcDbDs::Legacy
280
     1
291
     1
101
ACDSRECORD
  1
AcDbDs::ID
 90
        3
  2
AcDs:Indexable
280
     1
291
     1
101
ACDSRECORD
  1
AcDbDs::ID
 90
        4
  2
AcDbDs::HandleAttribute
280
     7
282
     1
  0
ACDSSCHEMA
 90
        1
  1
AcDbDs::TreatedAsObjectDataSchema
  2
AcDbDs::TreatedAsObjectData
280
     1
 91
        0
  0
ACDSSCHEMA
 90
        2
  1
AcDbDs::LegacySchema
  2
AcDbDs::Legacy
280
     1
 91
        0
  0
ACDSSCHEMA
 90
        3
  1
AcDbDs::IndexedPropertySchema
  2
AcDs:Indexable
280
     1
 91
        0
  0
ACDSSCHEMA
 90
        4
  1
AcDbDs::HandleAttributeSchema
  2
AcDbDs::HandleAttribute
280
     7
 91
        1
284
     1
  0
ACDSRECORD
 90
        0
  2
AcDbDs::ID
280
    10
320
22
  2
Thumbnail_Data
280
    15
 94
     1424
310
89504E470D0A1A0A0000000D4948445200000100000000670803000000D82A6C0200000300504C5445212830FFFFFF2128300000000000000000000000000000000000000000000000000000330000660000990000CC0000FF0033000033330033660033990033CC0033FF0066000066330066660066990066CC0066FF0099
310
000099330099660099990099CC0099FF00CC0000CC3300CC6600CC9900CCCC00CCFF00FF0000FF3300FF6600FF9900FFCC00FFFF3300003300333300663300993300CC3300FF3333003333333333663333993333CC3333FF3366003366333366663366993366CC3366FF3399003399333399663399993399CC3399FF33CC00
310
33CC3333CC6633CC9933CCCC33CCFF33FF0033FF3333FF6633FF9933FFCC33FFFF6600006600336600666600996600CC6600FF6633006633336633666633996633CC6633FF6666006666336666666666996666CC6666FF6699006699336699666699996699CC6699FF66CC0066CC3366CC6666CC9966CCCC66CCFF66FF0066
310
FF3366FF6666FF9966FFCC66FFFF9900009900339900669900999900CC9900FF9933009933339933669933999933CC9933FF9966009966339966669966999966CC9966FF9999009999339999669999999999CC9999FF99CC0099CC3399CC6699CC9999CCCC99CCFF99FF0099FF3399FF6699FF9999FFCC99FFFFCC0000CC00
310
33CC0066CC0099CC00CCCC00FFCC3300CC3333CC3366CC3399CC33CCCC33FFCC6600CC6633CC6666CC6699CC66CCCC66FFCC9900CC9933CC9966CC9999CC99CCCC99FFCCCC00CCCC33CCCC66CCCC99CCCCCCCCCCFFCCFF00CCFF33CCFF66CCFF99CCFFCCCCFFFFFF0000FF0033FF0066FF0099FF00CCFF00FFFF3300FF3333
310
FF3366FF3399FF33CCFF33FFFF6600FF6633FF6666FF6699FF66CCFF66FFFF9900FF9933FF9966FF9999FF99CCFF99FFFFCC00FFCC33FFCC66FFCC99FFCCCCFFCCFFFFFF00FFFF33FFFF66FFFF99FFFFCCFFFFFF0000000D0D0D1A1A1A2828283535354343435050505D5D5D6B6B6B787878868686939393A1A1A1AEAEAEBB
310
BBBBC9C9C9D6D6D6E4E4E4F1F1F1FFFFFF0000000000000000000000000000000000000000000000000000000000002E4550F10000019B4944415478DAED9BDB6EC4300844F9FFFF9DF7AA7B37C671B4DD5605CE79DA106925C60E3613C7ECF7D185203A5C7E47AC26670580C644530401000020E59EE7AF406F807F5C0310
310
E0B37FDB50C966AD82CFF0F55A2DFC0237E4AF01597D052E192FC65C965C80B8268E518DCFFD558F7B40C9EB40BC2C8CA1EB9C5F04B2D780F50C38A882B266AB005BC871FE0FF5A1C736A0B9000000003596736C71006A00B6F8CF0568A7E16C0B3717A09D0DA4E0E0601101625BDB45A77CEBBC0C88CBA28BCAE57BF7834B
310
3C066B5BFC199DF3BD29524300D35CD535A6A748802A35E0AC002ABA0ADC04988BE030C1E77CDB2D8207CE38020000004033F65F1B22408E3CC2DDBD82E627740C76CE42965DAE82732F3A4857EB1FD9DA243D76FAFE00B4A66912643BDDB27CDF593FFCBF7184C3F1D62C8526C32C5B2DD80BF01C66E792993B319AD32888
310
7C612F80B655C1782F5EDF12D944B04900A059F3D3A8038C0F97343A15B7EC19937640EFE7BF6CFBD425FFC77BC2681BD46406F8F627670FF89122D8A606EC65518F6CCF7449080000000000000000000000F0165FCC43222CAC54D3DD0000000049454E44AE42608246EAC6CAF338474745A5CA99BAADE6EDCD831F4D87AF
310
D6D2A3C774A71E2BA9A160F6006974549CBB2CF6F180675EA9D4790FF8E9403A45013D1AE4BC4D768C823AB9BC2F016EAA1602EAC72545BE4EB0C7FE7B93A7BD83CA1CDF737791E272C5DD9F2CD3FF2FCE08AE042CF3AE066EA0FADE6CD5557DFB101D3A4FEB7073FAB007F45B02E09BCDA1B4F3E1C15BCE3EEF1BC4BDDB4C
310
E11B749AD70DCC81F1200000000049454E44AE42608244AE426082
  0
ENDSEC
  0
EOF
