  0
SECTION
  2
HEADER
  9
$ACADVER
  1
AC1027
  9
$ACADMAINTVER
 70
   125
  9
$DWGCODEPAGE
  3
ANSI_1252
  9
$LASTSAVEDBY
  1
carolina.coriani
  9
$REQUIREDVERSIONS
160
                 0
  9
$INSBASE
 10
0.0
 20
0.0
 30
0.0
  9
$EXTMIN
 10
41.36556842337315
 20
1359.830010749389
 30
0.0
  9
$EXTMAX
 10
3347.154162842809
 20
2908.137696999622
 30
0.0
  9
$LIMMIN
 10
0.0
 20
0.0
  9
$LIMMAX
 10
12.0
 20
9.0
  9
$ORTHOMODE
 70
     0
  9
$REGENMODE
 70
     1
  9
$FILLMODE
 70
     1
  9
$QTEXTMODE
 70
     0
  9
$MIRRTEXT
 70
     0
  9
$LTSCALE
 40
1.0
  9
$ATTMODE
 70
     1
  9
$TEXTSIZE
 40
0.2
  9
$TRACEWID
 40
0.05
  9
$TEXTSTYLE
  7
Standard
  9
$CLAYER
  8
Dimension
  9
$CELTYPE
  6
ByLayer
  9
$CECOLOR
 62
   256
  9
$CELTSCALE
 40
1.0
  9
$DISPSILH
 70
     0
  9
$DIMSCALE
 40
1.0
  9
$DIMASZ
 40
0.18
  9
$DIMEXO
 40
0.0625
  9
$DIMDLI
 40
0.38
  9
$DIMRND
 40
0.0
  9
$DIMDLE
 40
0.0
  9
$DIMEXE
 40
0.18
  9
$DIMTP
 40
0.0
  9
$DIMTM
 40
0.0
  9
$DIMTXT
 40
0.18
  9
$DIMCEN
 40
0.09
  9
$DIMTSZ
 40
0.0
  9
$DIMTOL
 70
     0
  9
$DIMLIM
 70
     0
  9
$DIMTIH
 70
     1
  9
$DIMTOH
 70
     1
  9
$DIMSE1
 70
     0
  9
$DIMSE2
 70
     0
  9
$DIMTAD
 70
     0
  9
$DIMZIN
 70
     0
  9
$DIMBLK
  1

  9
$DIMASO
 70
     1
  9
$DIMSHO
 70
     1
  9
$DIMPOST
  1

  9
$DIMAPOST
  1

  9
$DIMALT
 70
     0
  9
$DIMALTD
 70
     2
  9
$DIMALTF
 40
25.4
  9
$DIMLFAC
 40
1.0
  9
$DIMTOFL
 70
     0
  9
$DIMTVP
 40
0.0
  9
$DIMTIX
 70
     0
  9
$DIMSOXD
 70
     0
  9
$DIMSAH
 70
     0
  9
$DIMBLK1
  1

  9
$DIMBLK2
  1

  9
$DIMSTYLE
  2
Standard
  9
$DIMCLRD
 70
     0
  9
$DIMCLRE
 70
     0
  9
$DIMCLRT
 70
     0
  9
$DIMTFAC
 40
1.0
  9
$DIMGAP
 40
0.09
  9
$DIMJUST
 70
     0
  9
$DIMSD1
 70
     0
  9
$DIMSD2
 70
     0
  9
$DIMTOLJ
 70
     1
  9
$DIMTZIN
 70
     0
  9
$DIMALTZ
 70
     0
  9
$DIMALTTZ
 70
     0
  9
$DIMUPT
 70
     0
  9
$DIMDEC
 70
     4
  9
$DIMTDEC
 70
     4
  9
$DIMALTU
 70
     2
  9
$DIMALTTD
 70
     2
  9
$DIMTXSTY
  7
Standard
  9
$DIMAUNIT
 70
     0
  9
$DIMADEC
 70
     0
  9
$DIMALTRND
 40
0.0
  9
$DIMAZIN
 70
     0
  9
$DIMDSEP
 70
    46
  9
$DIMATFIT
 70
     3
  9
$DIMFRAC
 70
     0
  9
$DIMLDRBLK
  1

  9
$DIMLUNIT
 70
     2
  9
$DIMLWD
 70
    -2
  9
$DIMLWE
 70
    -2
  9
$DIMTMOVE
 70
     0
  9
$DIMFXL
 40
1.0
  9
$DIMFXLON
 70
     0
  9
$DIMJOGANG
 40
0.7853981633974483
  9
$DIMTFILL
 70
     0
  9
$DIMTFILLCLR
 70
     0
  9
$DIMARCSYM
 70
     0
  9
$DIMLTYPE
  6

  9
$DIMLTEX1
  6

  9
$DIMLTEX2
  6

  9
$DIMTXTDIRECTION
 70
     0
  9
$LUNITS
 70
     2
  9
$LUPREC
 70
     4
  9
$SKETCHINC
 40
0.1
  9
$FILLETRAD
 40
0.0
  9
$AUNITS
 70
     0
  9
$AUPREC
 70
     0
  9
$MENU
  1
.
  9
$ELEVATION
 40
0.0
  9
$PELEVATION
 40
0.0
  9
$THICKNESS
 40
0.0
  9
$LIMCHECK
 70
     0
  9
$CHAMFERA
 40
0.0
  9
$CHAMFERB
 40
0.0
  9
$CHAMFERC
 40
0.0
  9
$CHAMFERD
 40
0.0
  9
$SKPOLY
 70
     0
  9
$TDCREATE
 40
2457259.691689815
  9
$TDUCREATE
 40
2457259.275026887
  9
$TDUPDATE
 40
2458732.576585648
  9
$TDUUPDATE
 40
2458732.159918982
  9
$TDINDWG
 40
0.0536621528
  9
$TDUSRTIMER
 40
0.0536621412
  9
$USRTIMER
 70
     1
  9
$ANGBASE
 50
0.0
  9
$ANGDIR
 70
     0
  9
$PDMODE
 70
     0
  9
$PDSIZE
 40
0.0
  9
$PLINEWID
 40
0.0
  9
$SPLFRAME
 70
     0
  9
$SPLINETYPE
 70
     6
  9
$SPLINESEGS
 70
     8
  9
$HANDSEED
  5
18D1
  9
$SURFTAB1
 70
     6
  9
$SURFTAB2
 70
     6
  9
$SURFTYPE
 70
     6
  9
$SURFU
 70
     6
  9
$SURFV
 70
     6
  9
$UCSBASE
  2

  9
$UCSNAME
  2

  9
$UCSORG
 10
0.0
 20
0.0
 30
0.0
  9
$UCSXDIR
 10
1.0
 20
0.0
 30
0.0
  9
$UCSYDIR
 10
0.0
 20
1.0
 30
0.0
  9
$UCSORTHOREF
  2

  9
$UCSORTHOVIEW
 70
     0
  9
$UCSORGTOP
 10
0.0
 20
0.0
 30
0.0
  9
$UCSORGBOTTOM
 10
0.0
 20
0.0
 30
0.0
  9
$UCSORGLEFT
 10
0.0
 20
0.0
 30
0.0
  9
$UCSORGRIGHT
 10
0.0
 20
0.0
 30
0.0
  9
$UCSORGFRONT
 10
0.0
 20
0.0
 30
0.0
  9
$UCSORGBACK
 10
0.0
 20
0.0
 30
0.0
  9
$PUCSBASE
  2

  9
$PUCSNAME
  2

  9
$PUCSORG
 10
0.0
 20
0.0
 30
0.0
  9
$PUCSXDIR
 10
1.0
 20
0.0
 30
0.0
  9
$PUCSYDIR
 10
0.0
 20
1.0
 30
0.0
  9
$PUCSORTHOREF
  2

  9
$PUCSORTHOVIEW
 70
     0
  9
$PUCSORGTOP
 10
0.0
 20
0.0
 30
0.0
  9
$PUCSORGBOTTOM
 10
0.0
 20
0.0
 30
0.0
  9
$PUCSORGLEFT
 10
0.0
 20
0.0
 30
0.0
  9
$PUCSORGRIGHT
 10
0.0
 20
0.0
 30
0.0
  9
$PUCSORGFRONT
 10
0.0
 20
0.0
 30
0.0
  9
$PUCSORGBACK
 10
0.0
 20
0.0
 30
0.0
  9
$USERI1
 70
     0
  9
$USERI2
 70
     0
  9
$USERI3
 70
     0
  9
$USERI4
 70
     0
  9
$USERI5
 70
     0
  9
$USERR1
 40
0.0
  9
$USERR2
 40
0.0
  9
$USERR3
 40
0.0
  9
$USERR4
 40
0.0
  9
$USERR5
 40
0.0
  9
$WORLDVIEW
 70
     1
  9
$SHADEDGE
 70
     3
  9
$SHADEDIF
 70
    70
  9
$TILEMODE
 70
     1
  9
$MAXACTVP
 70
    64
  9
$PINSBASE
 10
0.0
 20
0.0
 30
0.0
  9
$PLIMCHECK
 70
     0
  9
$PEXTMIN
 10
0.0
 20
0.0
 30
0.0
  9
$PEXTMAX
 10
0.0
 20
0.0
 30
0.0
  9
$PLIMMIN
 10
0.0
 20
0.0
  9
$PLIMMAX
 10
12.0
 20
9.0
  9
$UNITMODE
 70
     0
  9
$VISRETAIN
 70
     1
  9
$PLINEGEN
 70
     0
  9
$PSLTSCALE
 70
     1
  9
$TREEDEPTH
 70
  3020
  9
$CMLSTYLE
  2
Standard
  9
$CMLJUST
 70
     0
  9
$CMLSCALE
 40
1.0
  9
$PROXYGRAPHICS
 70
     1
  9
$MEASUREMENT
 70
     0
  9
$CELWEIGHT
370
    -1
  9
$ENDCAPS
280
     0
  9
$JOINSTYLE
280
     0
  9
$LWDISPLAY
290
     0
  9
$INSUNITS
 70
     1
  9
$HYPERLINKBASE
  1

  9
$STYLESHEET
  1

  9
$XEDIT
290
     1
  9
$CEPSNTYPE
380
     0
  9
$PSTYLEMODE
290
     1
  9
$FINGERPRINTGUID
  2
{E26446C1-245C-4AEF-BAE7-ED4659AE3224}
  9
$VERSIONGUID
  2
{08CF1137-F560-F746-ABBD-4AE206C06060}
  9
$EXTNAMES
290
     1
  9
$PSVPSCALE
 40
0.0
  9
$OLESTARTUP
290
     0
  9
$SORTENTS
280
   127
  9
$INDEXCTL
280
     0
  9
$HIDETEXT
280
     1
  9
$XCLIPFRAME
280
     2
  9
$HALOGAP
280
     0
  9
$OBSCOLOR
 70
   257
  9
$OBSLTYPE
280
     0
  9
$INTERSECTIONDISPLAY
280
     0
  9
$INTERSECTIONCOLOR
 70
   257
  9
$DIMASSOC
280
     2
  9
$PROJECTNAME
  1

  9
$CAMERADISPLAY
290
     0
  9
$LENSLENGTH
 40
50.0
  9
$CAMERAHEIGHT
 40
0.0
  9
$STEPSPERSEC
 40
2.0
  9
$STEPSIZE
 40
6.0
  9
$3DDWFPREC
 40
2.0
  9
$PSOLWIDTH
 40
0.25
  9
$PSOLHEIGHT
 40
4.0
  9
$LOFTANG1
 40
1.570796326794896
  9
$LOFTANG2
 40
1.570796326794896
  9
$LOFTMAG1
 40
0.0
  9
$LOFTMAG2
 40
0.0
  9
$LOFTPARAM
 70
     7
  9
$LOFTNORMALS
280
     1
  9
$LATITUDE
 40
37.795
  9
$LONGITUDE
 40
-122.394
  9
$NORTHDIRECTION
 40
0.0
  9
$TIMEZONE
 70
 -8000
  9
$LIGHTGLYPHDISPLAY
280
     1
  9
$TILEMODELIGHTSYNCH
280
     1
  9
$CMATERIAL
347
96
  9
$SOLIDHIST
280
     0
  9
$SHOWHIST
280
     1
  9
$DWFFRAME
280
     2
  9
$DGNFRAME
280
     0
  9
$REALWORLDSCALE
290
     1
  9
$INTERFERECOLOR
 62
     1
  9
$INTERFEREOBJVS
345
A3
  9
$INTERFEREVPVS
346
A0
  9
$CSHADOW
280
     0
  9
$SHADOWPLANELOCATION
 40
0.0
  0
ENDSEC
  0
SECTION
  2
CLASSES
  0
CLASS
  1
ACDBDICTIONARYWDFLT
  2
AcDbDictionaryWithDefault
  3
ObjectDBX Classes
 90
        0
 91
        1
280
     0
281
     0
  0
CLASS
  1
DICTIONARYVAR
  2
AcDbDictionaryVar
  3
ObjectDBX Classes
 90
        0
 91
        9
280
     0
281
     0
  0
CLASS
  1
TABLESTYLE
  2
AcDbTableStyle
  3
ObjectDBX Classes
 90
     4095
 91
        1
280
     0
281
     0
  0
CLASS
  1
MATERIAL
  2
AcDbMaterial
  3
ObjectDBX Classes
 90
     1153
 91
        3
280
     0
281
     0
  0
CLASS
  1
VISUALSTYLE
  2
AcDbVisualStyle
  3
ObjectDBX Classes
 90
     4095
 91
       26
280
     0
281
     0
  0
CLASS
  1
SCALE
  2
AcDbScale
  3
ObjectDBX Classes
 90
     1153
 91
       33
280
     0
281
     0
  0
CLASS
  1
MLEADERSTYLE
  2
AcDbMLeaderStyle
  3
ACDB_MLEADERSTYLE_CLASS
 90
     4095
 91
        2
280
     0
281
     0
  0
CLASS
  1
CELLSTYLEMAP
  2
AcDbCellStyleMap
  3
ObjectDBX Classes
 90
     1152
 91
        1
280
     0
281
     0
  0
CLASS
  1
EXACXREFPANELOBJECT
  2
ExAcXREFPanelObject
  3
EXAC_ESW
 90
     1025
 91
        1
280
     0
281
     0
  0
CLASS
  1
NPOCOLLECTION
  2
AcDbImpNonPersistentObjectsCollection
  3
ObjectDBX Classes
 90
     1153
 91
        1
280
     0
281
     0
  0
CLASS
  1
LAYER_INDEX
  2
AcDbLayerIndex
  3
ObjectDBX Classes
 90
        0
 91
        0
280
     0
281
     0
  0
CLASS
  1
SPATIAL_INDEX
  2
AcDbSpatialIndex
  3
ObjectDBX Classes
 90
        0
 91
        0
280
     0
281
     0
  0
CLASS
  1
IDBUFFER
  2
AcDbIdBuffer
  3
ObjectDBX Classes
 90
        0
 91
        0
280
     0
281
     0
  0
CLASS
  1
ACDBSECTIONVIEWSTYLE
  2
AcDbSectionViewStyle
  3
ObjectDBX Classes
 90
     1025
 91
        2
280
     0
281
     0
  0
CLASS
  1
ACDBDETAILVIEWSTYLE
  2
AcDbDetailViewStyle
  3
ObjectDBX Classes
 90
     1025
 91
        2
280
     0
281
     0
  0
CLASS
  1
SORTENTSTABLE
  2
AcDbSortentsTable
  3
ObjectDBX Classes
 90
        0
 91
        3
280
     0
281
     0
  0
ENDSEC
  0
SECTION
  2
TABLES
  0
TABLE
  2
VPORT
  5
8
330
0
100
AcDbSymbolTable
 70
     1
1001
ACAD
1000
DbSaveVer
1071
      123
  0
VPORT
  5
94
330
8
100
AcDbSymbolTableRecord
100
AcDbViewportTableRecord
  2
*Active
 70
     0
 10
0.0
 20
0.0
 11
1.0
 21
1.0
 12
2284.74973956547
 22
2503.551580808067
 13
0.0
 23
0.0
 14
0.5
 24
0.5
 15
0.5
 25
0.5
 16
0.0
 26
0.0
 36
1.0
 17
0.0
 27
0.0
 37
0.0
 40
5022.030137086177
 41
1.946666666666666
 42
50.0
 43
0.0
 44
0.0
 50
0.0
 51
0.0
 71
     0
 72
  1000
 73
     1
 74
     3
 75
     1
 76
     1
 77
     0
 78
     0
281
     0
 65
     1
110
0.0
120
0.0
130
0.0
111
1.0
121
0.0
131
0.0
112
0.0
122
1.0
132
0.0
 79
     0
146
0.0
348
9F
 60
     3
 61
     5
292
     1
282
     1
141
0.0
142
0.0
 63
   250
421
  3355443
1001
ACAD_NAV_VCDISPLAY
1070
     3
  0
ENDTAB
  0
TABLE
  2
LTYPE
  5
5
330
0
100
AcDbSymbolTable
 70
     1
  0
LTYPE
  5
14
330
5
100
AcDbSymbolTableRecord
100
AcDbLinetypeTableRecord
  2
ByBlock
 70
     0
  3

 72
    65
 73
     0
 40
0.0
  0
LTYPE
  5
15
330
5
100
AcDbSymbolTableRecord
100
AcDbLinetypeTableRecord
  2
ByLayer
 70
     0
  3

 72
    65
 73
     0
 40
0.0
  0
LTYPE
  5
16
330
5
100
AcDbSymbolTableRecord
100
AcDbLinetypeTableRecord
  2
Continuous
 70
     0
  3
Solid line
 72
    65
 73
     0
 40
0.0
  0
ENDTAB
  0
TABLE
  2
LAYER
  5
2
102
{ACAD_XDICTIONARY
360
18E
102
}
330
0
100
AcDbSymbolTable
 70
     9
  0
LAYER
  5
10
102
{ACAD_XDICTIONARY
360
E6
102
}
330
2
100
AcDbSymbolTableRecord
100
AcDbLayerTableRecord
  2
0
 70
     0
 62
     7
  6
Continuous
370
    -3
390
F
347
98
348
0
  0
LAYER
  5
1DB
102
{ACAD_XDICTIONARY
360
1DC
102
}
330
2
100
AcDbSymbolTableRecord
100
AcDbLayerTableRecord
  2
Lighting
 70
     0
 62
     7
  6
Continuous
370
    -3
390
F
347
98
348
0
  0
LAYER
  5
1DD
102
{ACAD_XDICTIONARY
360
1DE
102
}
330
2
100
AcDbSymbolTableRecord
100
AcDbLayerTableRecord
  2
Text
 70
     0
 62
     7
  6
Continuous
370
    -3
390
F
347
98
348
0
1001
AcAecLayerStandard
1000

1000

1001
AcCmTransparency
1071
        0
  0
LAYER
  5
1DF
102
{ACAD_XDICTIONARY
360
1E0
102
}
330
2
100
AcDbSymbolTableRecord
100
AcDbLayerTableRecord
  2
Dimension
 70
     0
 62
     7
  6
Continuous
370
    -3
390
F
347
98
348
0
1001
AcAecLayerStandard
1000

1000

1001
AcCmTransparency
1071
        0
  0
LAYER
  5
131D
330
2
100
AcDbSymbolTableRecord
100
AcDbLayerTableRecord
  2
Piper
 70
     0
 62
     7
  6
Continuous
370
    -3
390
F
347
98
348
0
  0
LAYER
  5
1753
330
2
100
AcDbSymbolTableRecord
100
AcDbLayerTableRecord
  2
Furniture
 70
     0
 62
     7
  6
Continuous
370
    -3
390
F
347
98
348
0
1001
AcAecLayerStandard
1000

1000

  0
LAYER
  5
17A8
330
2
100
AcDbSymbolTableRecord
100
AcDbLayerTableRecord
  2
Visible (ANSI)
 70
     0
 62
     7
  6
Continuous
370
    50
390
F
347
98
348
0
  0
LAYER
  5
1809
330
2
100
AcDbSymbolTableRecord
100
AcDbLayerTableRecord
  2
Dimension (ANSI)
 70
     0
 62
     7
  6
Continuous
370
    25
390
F
347
98
348
0
  0
LAYER
  5
180A
330
2
100
AcDbSymbolTableRecord
100
AcDbLayerTableRecord
  2
Defpoints
 70
     0
 62
     7
  6
Continuous
290
     0
370
    -3
390
F
347
98
348
0
  0
ENDTAB
  0
TABLE
  2
STYLE
  5
3
330
0
100
AcDbSymbolTable
 70
     3
  0
STYLE
  5
11
330
3
100
AcDbSymbolTableRecord
100
AcDbTextStyleTableRecord
  2
Standard
 70
     0
 40
0.0
 41
1.000099999999999
 50
0.0
 71
     0
 42
0.2
  3
apercu_regular-webfont.ttf
  4

1001
ACAD
1000
Apercu
1071
        2
  0
STYLE
  5
DC
330
3
100
AcDbSymbolTableRecord
100
AcDbTextStyleTableRecord
  2
Annotative
 70
     0
 40
0.0
 41
1.0
 50
0.0
 71
     0
 42
0.2
  3
arial_0.ttf
  4

1001
AcadAnnotative
1000
AnnotativeData
1002
{
1070
     1
1070
     1
1002
}
1001
ACAD
1000
Arial
1071
       34
  0
STYLE
  5
17A9
330
3
100
AcDbSymbolTableRecord
100
AcDbTextStyleTableRecord
  2
Note Text (ANSI)
 70
     0
 40
0.0
 41
1.0
 50
0.0
 71
     0
 42
0.2
  3
apercu_regular-webfont.ttf
  4

1001
ACAD
1000
Apercu
1071
      256
  0
ENDTAB
  0
TABLE
  2
VIEW
  5
6
330
0
100
AcDbSymbolTable
 70
     0
  0
ENDTAB
  0
TABLE
  2
UCS
  5
7
330
0
100
AcDbSymbolTable
 70
     0
  0
ENDTAB
  0
TABLE
  2
APPID
  5
9
330
0
100
AcDbSymbolTable
 70
    10
  0
APPID
  5
12
330
9
100
AcDbSymbolTableRecord
100
AcDbRegAppTableRecord
  2
ACAD
 70
     0
  0
APPID
  5
DD
330
9
100
AcDbSymbolTableRecord
100
AcDbRegAppTableRecord
  2
AcadAnnoPO
 70
     0
  0
APPID
  5
DE
330
9
100
AcDbSymbolTableRecord
100
AcDbRegAppTableRecord
  2
AcadAnnotative
 70
     0
  0
APPID
  5
DF
330
9
100
AcDbSymbolTableRecord
100
AcDbRegAppTableRecord
  2
ACAD_DSTYLE_DIMJAG
 70
     0
  0
APPID
  5
E0
330
9
100
AcDbSymbolTableRecord
100
AcDbRegAppTableRecord
  2
ACAD_DSTYLE_DIMTALN
 70
     0
  0
APPID
  5
107
330
9
100
AcDbSymbolTableRecord
100
AcDbRegAppTableRecord
  2
ACAD_MLEADERVER
 70
     0
  0
APPID
  5
1A6
330
9
100
AcDbSymbolTableRecord
100
AcDbRegAppTableRecord
  2
ACAD_NAV_VCDISPLAY
 70
     0
  0
APPID
  5
1E1
330
9
100
AcDbSymbolTableRecord
100
AcDbRegAppTableRecord
  2
AcAecLayerStandard
 70
     0
  0
APPID
  5
1E2
330
9
100
AcDbSymbolTableRecord
100
AcDbRegAppTableRecord
  2
AcCmTransparency
 70
     0
  0
APPID
  5
171A
330
9
100
AcDbSymbolTableRecord
100
AcDbRegAppTableRecord
  2
ACAD_EXEMPT_FROM_CAD_STANDARDS
 70
     0
  0
ENDTAB
  0
TABLE
  2
DIMSTYLE
  5
A
330
0
100
AcDbSymbolTable
 70
     3
100
AcDbDimStyleTable
 71
     2
340
27
340
E1
  0
DIMSTYLE
105
27
330
A
100
AcDbSymbolTableRecord
100
AcDbDimStyleTableRecord
  2
Standard
 70
     0
340
11
  0
DIMSTYLE
105
E1
330
A
100
AcDbSymbolTableRecord
100
AcDbDimStyleTableRecord
  2
Annotative
 70
     0
 40
0.0
340
11
1001
AcadAnnotative
1000
AnnotativeData
1002
{
1070
     1
1070
     1
1002
}
1001
ACAD_DSTYLE_DIMJAG
1070
   388
1040
1.5
1001
ACAD_DSTYLE_DIMTALN
1070
   392
1070
     0
  0
DIMSTYLE
105
17AA
330
A
100
AcDbSymbolTableRecord
100
AcDbDimStyleTableRecord
  2
Default - mm (ANSI)
 70
     0
 40
4.0
 41
2.5
 42
1.600199999999999
 43
5.999999999999999
 44
3.174999999999998
 45
0.00000001
 73
     0
 78
    12
 79
     3
140
3.050000190734863
143
1.0
146
0.9993442296981811
147
0.8
171
     1
176
   256
177
   256
178
   256
179
     1
271
     1
272
     2
274
     1
284
     4
285
     4
340
17A9
342
17A4
371
    -1
372
    -1
  0
ENDTAB
  0
TABLE
  2
BLOCK_RECORD
  5
1
330
0
100
AcDbSymbolTable
 70
    20
  0
BLOCK_RECORD
  5
1F
102
{ACAD_XDICTIONARY
360
15D
102
}
330
1
100
AcDbSymbolTableRecord
100
AcDbBlockTableRecord
  2
*Model_Space
340
22
 70
     0
280
     1
281
     0
  0
BLOCK_RECORD
  5
58
330
1
100
AcDbSymbolTableRecord
100
AcDbBlockTableRecord
  2
*Paper_Space
340
59
 70
     0
280
     1
281
     0
  0
BLOCK_RECORD
  5
5D
330
1
100
AcDbSymbolTableRecord
100
AcDbBlockTableRecord
  2
*Paper_Space0
340
5E
 70
     0
280
     1
281
     0
  0
BLOCK_RECORD
  5
10A3
330
1
100
AcDbSymbolTableRecord
100
AcDbBlockTableRecord
  2
block 2
340
0
 70
     0
280
     1
281
     0
  0
BLOCK_RECORD
  5
10AF
330
1
100
AcDbSymbolTableRecord
100
AcDbBlockTableRecord
  2
block 3
340
0
102
{BLKREFS
331
10A5
102
}
 70
     0
280
     1
281
     0
  0
BLOCK_RECORD
  5
10C2
330
1
100
AcDbSymbolTableRecord
100
AcDbBlockTableRecord
  2
block 4
340
0
102
{BLKREFS
331
10C0
102
}
 70
     0
280
     1
281
     0
  0
BLOCK_RECORD
  5
10CC
330
1
100
AcDbSymbolTableRecord
100
AcDbBlockTableRecord
  2
block 5
340
0
102
{BLKREFS
331
10A6
102
}
 70
     0
280
     1
281
     0
  0
BLOCK_RECORD
  5
1148
330
1
100
AcDbSymbolTableRecord
100
AcDbBlockTableRecord
  2
block 6
340
0
 70
     0
280
     1
281
     0
  0
BLOCK_RECORD
  5
1154
330
1
100
AcDbSymbolTableRecord
100
AcDbBlockTableRecord
  2
block 7
340
0
102
{BLKREFS
331
114A
102
}
 70
     0
280
     1
281
     0
  0
BLOCK_RECORD
  5
1167
330
1
100
AcDbSymbolTableRecord
100
AcDbBlockTableRecord
  2
block 8
340
0
102
{BLKREFS
331
1165
102
}
 70
     0
280
     1
281
     0
  0
BLOCK_RECORD
  5
1171
330
1
100
AcDbSymbolTableRecord
100
AcDbBlockTableRecord
  2
block 9
340
0
102
{BLKREFS
331
114B
102
}
 70
     0
280
     1
281
     0
  0
BLOCK_RECORD
  5
121C
330
1
100
AcDbSymbolTableRecord
100
AcDbBlockTableRecord
  2
block 10
340
0
 70
     0
280
     1
281
     0
  0
BLOCK_RECORD
  5
1228
330
1
100
AcDbSymbolTableRecord
100
AcDbBlockTableRecord
  2
block 11
340
0
102
{BLKREFS
331
121E
102
}
 70
     0
280
     1
281
     0
  0
BLOCK_RECORD
  5
123B
330
1
100
AcDbSymbolTableRecord
100
AcDbBlockTableRecord
  2
block 12
340
0
102
{BLKREFS
331
1239
102
}
 70
     0
280
     1
281
     0
  0
BLOCK_RECORD
  5
1245
330
1
100
AcDbSymbolTableRecord
100
AcDbBlockTableRecord
  2
block 13
340
0
102
{BLKREFS
331
121F
102
}
 70
     0
280
     1
281
     0
  0
BLOCK_RECORD
  5
1249
330
1
100
AcDbSymbolTableRecord
100
AcDbBlockTableRecord
  2
block 14
340
0
 70
     0
280
     1
281
     0
  0
BLOCK_RECORD
  5
1255
330
1
100
AcDbSymbolTableRecord
100
AcDbBlockTableRecord
  2
block 15
340
0
102
{BLKREFS
331
124B
102
}
 70
     0
280
     1
281
     0
  0
BLOCK_RECORD
  5
1268
330
1
100
AcDbSymbolTableRecord
100
AcDbBlockTableRecord
  2
block 16
340
0
102
{BLKREFS
331
1266
102
}
 70
     0
280
     1
281
     0
  0
BLOCK_RECORD
  5
1272
330
1
100
AcDbSymbolTableRecord
100
AcDbBlockTableRecord
  2
block 17
340
0
102
{BLKREFS
331
124C
102
}
 70
     0
280
     1
281
     0
  0
BLOCK_RECORD
  5
1754
102
{ACAD_XDICTIONARY
360
1756
102
}
330
1
100
AcDbSymbolTableRecord
100
AcDbBlockTableRecord
  2
A$C6B835688
340
0
 70
     1
280
     1
281
     0
  0
BLOCK_RECORD
  5
175B
102
{ACAD_XDICTIONARY
360
175D
102
}
330
1
100
AcDbSymbolTableRecord
100
AcDbBlockTableRecord
  2
A$C0E421B07
340
0
 70
     1
280
     1
281
     0
  0
BLOCK_RECORD
  5
17A4
330
1
100
AcDbSymbolTableRecord
100
AcDbBlockTableRecord
  2
_Oblique
340
0
 70
     0
280
     1
281
     0
  0
ENDTAB
  0
ENDSEC
  0
SECTION
  2
BLOCKS
  0
BLOCK
  5
20
330
1F
100
AcDbEntity
  8
0
100
AcDbBlockBegin
  2
*Model_Space
 70
     0
 10
0.0
 20
0.0
 30
0.0
  3
*Model_Space
  1

  0
ENDBLK
  5
21
330
1F
100
AcDbEntity
  8
0
100
AcDbBlockEnd
  0
BLOCK
  5
5A
330
58
100
AcDbEntity
 67
     1
  8
0
100
AcDbBlockBegin
  2
*Paper_Space
 70
     0
 10
0.0
 20
0.0
 30
0.0
  3
*Paper_Space
  1

  0
ENDBLK
  5
5B
330
58
100
AcDbEntity
 67
     1
  8
0
100
AcDbBlockEnd
  0
BLOCK
  5
5F
330
5D
100
AcDbEntity
 67
     1
  8
0
100
AcDbBlockBegin
  2
*Paper_Space0
 70
     0
 10
0.0
 20
0.0
 30
0.0
  3
*Paper_Space0
  1

  0
ENDBLK
  5
60
330
5D
100
AcDbEntity
 67
     1
  8
0
100
AcDbBlockEnd
  0
BLOCK
  5
10A4
330
10A3
100
AcDbEntity
  8
0
100
AcDbBlockBegin
  2
block 2
 70
     0
 10
0.0
 20
0.0
 30
0.0
  3
block 2
  1

  0
INSERT
  5
10A5
330
10A3
100
AcDbEntity
  8
Piper
100
AcDbBlockReference
  2
block 3
 10
0.0
 20
0.0
 30
0.0
  0
INSERT
  5
10A6
330
10A3
100
AcDbEntity
  8
Piper
100
AcDbBlockReference
  2
block 5
 10
0.0
 20
0.0
 30
0.0
  0
POLYLINE
  5
10A7
330
10A3
100
AcDbEntity
  8
Piper
 62
   250
420
  2301728
370
     9
100
AcDb2dPolyline
 66
     1
 10
0.0
 20
0.0
 30
0.0
  0
VERTEX
  5
10A8
330
10A7
100
AcDbEntity
  8
Piper
 62
   250
420
  2301728
370
     9
100
AcDbVertex
100
AcDb2dVertex
 10
97.42264944396032
 20
428.6022622626411
 30
0.0
  0
VERTEX
  5
10A9
330
10A7
100
AcDbEntity
  8
Piper
 62
   250
420
  2301728
370
     9
100
AcDbVertex
100
AcDb2dVertex
 10
96.92638343931008
 20
428.6022622626411
 30
0.0
  0
VERTEX
  5
10AA
330
10A7
100
AcDbEntity
  8
Piper
 62
   250
420
  2301728
370
     9
100
AcDbVertex
100
AcDb2dVertex
 10
96.92638343931008
 20
438.0816147450802
 30
0.0
  0
VERTEX
  5
10AB
330
10A7
100
AcDbEntity
  8
Piper
 62
   250
420
  2301728
370
     9
100
AcDbVertex
100
AcDb2dVertex
 10
97.42264944396032
 20
438.0816147450802
 30
0.0
  0
VERTEX
  5
10AC
330
10A7
100
AcDbEntity
  8
Piper
 62
   250
420
  2301728
370
     9
100
AcDbVertex
100
AcDb2dVertex
 10
97.42264944396032
 20
428.6022622626411
 30
0.0
  0
SEQEND
  5
10AD
330
10A7
100
AcDbEntity
  8
Piper
370
     9
  0
ENDBLK
  5
10AE
330
10A3
100
AcDbEntity
  8
0
100
AcDbBlockEnd
  0
BLOCK
  5
10B0
330
10AF
100
AcDbEntity
  8
0
100
AcDbBlockBegin
  2
block 3
 70
     0
 10
0.0
 20
0.0
 30
0.0
  3
block 3
  1

  0
POLYLINE
  5
10B1
330
10AF
100
AcDbEntity
  8
Piper
 62
   250
420
  2301728
370
     9
100
AcDb2dPolyline
 66
     1
 10
0.0
 20
0.0
 30
0.0
  0
VERTEX
  5
10B2
330
10B1
100
AcDbEntity
  8
Piper
 62
   250
420
  2301728
370
     9
100
AcDbVertex
100
AcDb2dVertex
 10
97.04506697877693
 20
443.5023002363466
 30
0.0
  0
VERTEX
  5
10B3
330
10B1
100
AcDbEntity
  8
Piper
 62
   250
420
  2301728
370
     9
100
AcDbVertex
100
AcDb2dVertex
 10
97.04506697877693
 20
438.0816147450802
 30
0.0
  0
VERTEX
  5
10B4
330
10B1
100
AcDbEntity
  8
Piper
 62
   250
420
  2301728
370
     9
100
AcDbVertex
100
AcDb2dVertex
 10
97.33100990405267
 20
438.0816147450802
 30
0.0
  0
VERTEX
  5
10B5
330
10B1
100
AcDbEntity
  8
Piper
 62
   250
420
  2301728
370
     9
100
AcDbVertex
100
AcDb2dVertex
 10
97.33100990405267
 20
443.5023002363466
 30
0.0
  0
VERTEX
  5
10B6
330
10B1
100
AcDbEntity
  8
Piper
 62
   250
420
  2301728
370
     9
100
AcDbVertex
100
AcDb2dVertex
 10
97.04506697877693
 20
443.5023002363466
 30
0.0
  0
SEQEND
  5
10B7
330
10B1
100
AcDbEntity
  8
Piper
370
     9
  0
POLYLINE
  5
10B8
330
10AF
100
AcDbEntity
  8
Piper
 62
   250
420
  2301728
370
     9
100
AcDb2dPolyline
 66
     1
 10
0.0
 20
0.0
 30
0.0
  0
VERTEX
  5
10B9
330
10B8
100
AcDbEntity
  8
Piper
 62
   250
420
  2301728
370
     9
100
AcDbVertex
100
AcDb2dVertex
 10
96.92793373227843
 20
443.7191689971431
 30
0.0
  0
VERTEX
  5
10BA
330
10B8
100
AcDbEntity
  8
Piper
 62
   250
420
  2301728
370
     9
100
AcDbVertex
100
AcDb2dVertex
 10
96.92793373227843
 20
443.5023002363466
 30
0.0
  0
VERTEX
  5
10BB
330
10B8
100
AcDbEntity
  8
Piper
 62
   250
420
  2301728
370
     9
100
AcDbVertex
100
AcDb2dVertex
 10
96.97375350223225
 20
443.5023002363466
 30
0.0
  0
VERTEX
  5
10BC
330
10B8
100
AcDbEntity
  8
Piper
 62
   250
420
  2301728
370
     9
100
AcDbVertex
100
AcDb2dVertex
 10
97.36821693529336
 20
443.5023002363466
 30
0.0
  0
VERTEX
  5
10BD
330
10B8
100
AcDbEntity
  8
Piper
 62
   250
420
  2301728
370
     9
100
AcDbVertex
100
AcDb2dVertex
 10
97.43746335454689
 20
443.5023002363466
 30
0.0
  0
VERTEX
  5
10BE
330
10B8
100
AcDbEntity
  8
Piper
 62
   250
420
  2301728
370
     9
100
AcDbVertex
100
AcDb2dVertex
 10
97.43746335454689
 20
443.7191689971431
 30
0.0
  0
SEQEND
  5
10BF
330
10B8
100
AcDbEntity
  8
Piper
370
     9
  0
INSERT
  5
10C0
330
10AF
100
AcDbEntity
  8
Piper
100
AcDbBlockReference
  2
block 4
 10
0.0
 20
0.0
 30
0.0
  0
ENDBLK
  5
10C1
330
10AF
100
AcDbEntity
  8
0
100
AcDbBlockEnd
  0
BLOCK
  5
10C3
330
10C2
100
AcDbEntity
  8
0
100
AcDbBlockBegin
  2
block 4
 70
     0
 10
0.0
 20
0.0
 30
0.0
  3
block 4
  1

  0
POLYLINE
  5
10C4
330
10C2
100
AcDbEntity
  8
Piper
 62
   250
420
  2301728
370
     9
100
AcDb2dPolyline
 66
     1
 10
0.0
 20
0.0
 30
0.0
  0
VERTEX
  5
10C5
330
10C4
100
AcDbEntity
  8
Piper
 62
   250
420
  2301728
370
     9
100
AcDbVertex
100
AcDb2dVertex
 10
98.77863902695466
 20
443.7191689971431
 30
0.0
  0
VERTEX
  5
10C6
330
10C4
100
AcDbEntity
  8
Piper
 62
   250
420
  2301728
370
     9
100
AcDbVertex
100
AcDb2dVertex
 10
98.77863902695466
 20
444.1856349258459
 30
0.0
  0
VERTEX
  5
10C7
330
10C4
100
AcDbEntity
  8
Piper
 62
   250
420
  2301728
370
     9
100
AcDbVertex
100
AcDb2dVertex
 10
95.57022160154147
 20
444.1856349258459
 30
0.0
  0
VERTEX
  5
10C8
330
10C4
100
AcDbEntity
  8
Piper
 62
   250
420
  2301728
370
     9
100
AcDbVertex
100
AcDb2dVertex
 10
95.57022160154147
 20
443.7191689971431
 30
0.0
  0
VERTEX
  5
10C9
330
10C4
100
AcDbEntity
  8
Piper
 62
   250
420
  2301728
370
     9
100
AcDbVertex
100
AcDb2dVertex
 10
98.77863902695466
 20
443.7191689971431
 30
0.0
  0
SEQEND
  5
10CA
330
10C4
100
AcDbEntity
  8
Piper
370
     9
  0
ENDBLK
  5
10CB
330
10C2
100
AcDbEntity
  8
0
100
AcDbBlockEnd
  0
BLOCK
  5
10CD
330
10CC
100
AcDbEntity
  8
0
100
AcDbBlockBegin
  2
block 5
 70
     0
 10
0.0
 20
0.0
 30
0.0
  3
block 5
  1

  0
POLYLINE
  5
10CE
330
10CC
100
AcDbEntity
  8
Piper
 62
   250
420
  2301728
370
     9
100
AcDb2dPolyline
 66
     1
 10
0.0
 20
0.0
 30
0.0
  0
VERTEX
  5
10CF
330
10CE
100
AcDbEntity
  8
Piper
 62
   250
420
  2301728
370
     9
100
AcDbVertex
100
AcDb2dVertex
 10
95.34766843319435
 20
419.572494741027
 30
0.0
  0
VERTEX
  5
10D0
330
10CE
100
AcDbEntity
  8
Piper
 62
   250
420
  2301728
370
     9
100
AcDbVertex
100
AcDb2dVertex
 10
95.27153182297032
 20
419.6105630461389
 30
0.0
  0
VERTEX
  5
10D1
330
10CE
100
AcDbEntity
  8
Piper
 62
   250
420
  2301728
370
     9
100
AcDbVertex
100
AcDb2dVertex
 10
95.19522295797203
 20
419.6581053638355
 30
0.0
  0
VERTEX
  5
10D2
330
10CE
100
AcDbEntity
  8
Piper
 62
   250
420
  2301728
370
     9
100
AcDbVertex
100
AcDb2dVertex
 10
95.11908634774801
 20
419.7058199363062
 30
0.0
  0
VERTEX
  5
10D3
330
10CE
100
AcDbEntity
  8
Piper
 62
   250
420
  2301728
370
     9
100
AcDbVertex
100
AcDb2dVertex
 10
95.04294973752399
 20
419.7535345087769
 30
0.0
  0
VERTEX
  5
10D4
330
10CE
100
AcDbEntity
  8
Piper
 62
   250
420
  2301728
370
     9
100
AcDbVertex
100
AcDb2dVertex
 10
94.9762871398844
 20
419.8010768264733
 30
0.0
  0
VERTEX
  5
10D5
330
10CE
100
AcDbEntity
  8
Piper
 62
   250
420
  2301728
370
     9
100
AcDbVertex
100
AcDb2dVertex
 10
94.90962454224481
 20
419.8582654115285
 30
0.0
  0
VERTEX
  5
10D6
330
10CE
100
AcDbEntity
  8
Piper
 62
   250
420
  2301728
370
     9
100
AcDbVertex
100
AcDb2dVertex
 10
94.84278968983097
 20
419.924928009168
 30
0.0
  0
VERTEX
  5
10D7
330
10CE
100
AcDbEntity
  8
Piper
 62
   250
420
  2301728
370
     9
100
AcDbVertex
100
AcDb2dVertex
 10
94.78577335955009
 20
419.9819443394489
 30
0.0
  0
VERTEX
  5
10D8
330
10CE
100
AcDbEntity
  8
Piper
 62
   250
420
  2301728
370
     9
100
AcDbVertex
100
AcDb2dVertex
 10
94.72858477449495
 20
420.0487791918628
 30
0.0
  0
VERTEX
  5
10D9
330
10CE
100
AcDbEntity
  8
Piper
 62
   250
420
  2301728
370
     9
100
AcDbVertex
100
AcDb2dVertex
 10
94.6713961894398
 20
420.1154417895024
 30
0.0
  0
VERTEX
  5
10DA
330
10CE
100
AcDbEntity
  8
Piper
 62
   250
420
  2301728
370
     9
100
AcDbVertex
100
AcDb2dVertex
 10
94.62385387174334
 20
420.182104387142
 30
0.0
  0
VERTEX
  5
10DB
330
10CE
100
AcDbEntity
  8
Piper
 62
   250
420
  2301728
370
     9
100
AcDbVertex
100
AcDb2dVertex
 10
94.57613929927264
 20
420.2582409973659
 30
0.0
  0
VERTEX
  5
10DC
330
10CE
100
AcDbEntity
  8
Piper
 62
   250
420
  2301728
370
     9
100
AcDbVertex
100
AcDb2dVertex
 10
94.50000268904862
 20
420.4106864725883
 30
0.0
  0
VERTEX
  5
10DD
330
10CE
100
AcDbEntity
  8
Piper
 62
   250
420
  2301728
370
     9
100
AcDbVertex
100
AcDb2dVertex
 10
94.42386607882459
 20
420.5631319478106
 30
0.0
  0
VERTEX
  5
10DE
330
10CE
100
AcDbEntity
  8
Piper
 62
   250
420
  2301728
370
     9
100
AcDbVertex
100
AcDb2dVertex
 10
94.36667749376944
 20
420.7154051682586
 30
0.0
  0
VERTEX
  5
10DF
330
10CE
100
AcDbEntity
  8
Piper
 62
   250
420
  2301728
370
     9
100
AcDbVertex
100
AcDb2dVertex
 10
94.3094889087143
 20
420.8773246560654
 30
0.0
  0
VERTEX
  5
10E0
330
10CE
100
AcDbEntity
  8
Piper
 62
   250
420
  2301728
370
     9
100
AcDbVertex
100
AcDb2dVertex
 10
94.21423201854713
 20
421.2011636316788
 30
0.0
  0
VERTEX
  5
10E1
330
10CE
100
AcDbEntity
  8
Piper
 62
   250
420
  2301728
370
     9
100
AcDbVertex
100
AcDb2dVertex
 10
94.13792315354886
 20
421.5250026072923
 30
0.0
  0
VERTEX
  5
10E2
330
10CE
100
AcDbEntity
  8
Piper
 62
   250
420
  2301728
370
     9
100
AcDbVertex
100
AcDb2dVertex
 10
94.07143281068353
 20
421.8584878502645
 30
0.0
  0
VERTEX
  5
10E3
330
10CE
100
AcDbEntity
  8
Piper
 62
   250
420
  2301728
370
     9
100
AcDbVertex
100
AcDb2dVertex
 10
94.02371823821281
 20
422.182326825878
 30
0.0
  0
VERTEX
  5
10E4
330
10CE
100
AcDbEntity
  8
Piper
 62
   250
420
  2301728
370
     9
100
AcDbVertex
100
AcDb2dVertex
 10
93.98564993310081
 20
422.5156398140759
 30
0.0
  0
VERTEX
  5
10E5
330
10CE
100
AcDbEntity
  8
Piper
 62
   250
420
  2301728
370
     9
100
AcDbVertex
100
AcDb2dVertex
 10
93.95705564057324
 20
422.8396510444637
 30
0.0
  0
VERTEX
  5
10E6
330
10CE
100
AcDbEntity
  8
Piper
 62
   250
420
  2301728
370
     9
100
AcDbVertex
100
AcDb2dVertex
 10
93.94740937321454
 20
423.1729640326616
 30
0.0
  0
VERTEX
  5
10E7
330
10CE
100
AcDbEntity
  8
Piper
 62
   250
420
  2301728
370
     9
100
AcDbVertex
100
AcDb2dVertex
 10
93.94740937321454
 20
423.5062770208595
 30
0.0
  0
VERTEX
  5
10E8
330
10CE
100
AcDbEntity
  8
Piper
 62
   250
420
  2301728
370
     9
100
AcDbVertex
100
AcDb2dVertex
 10
93.95705564057324
 20
423.8492362764161
 30
0.0
  0
VERTEX
  5
10E9
330
10CE
100
AcDbEntity
  8
Piper
 62
   250
420
  2301728
370
     9
100
AcDbVertex
100
AcDb2dVertex
 10
93.97600366574211
 20
424.1825492646141
 30
0.0
  0
VERTEX
  5
10EA
330
10CE
100
AcDbEntity
  8
Piper
 62
   250
420
  2301728
370
     9
100
AcDbVertex
100
AcDb2dVertex
 10
94.01424422562838
 20
424.5255085201707
 30
0.0
  0
VERTEX
  5
10EB
330
10CE
100
AcDbEntity
  8
Piper
 62
   250
420
  2301728
370
     9
100
AcDbVertex
100
AcDb2dVertex
 10
94.06178654332483
 20
424.8779417883118
 30
0.0
  0
VERTEX
  5
10EC
330
10CE
100
AcDbEntity
  8
Piper
 62
   250
420
  2301728
370
     9
100
AcDbVertex
100
AcDb2dVertex
 10
94.11897512837999
 20
425.2207287890941
 30
0.0
  0
VERTEX
  5
10ED
330
10CE
100
AcDbEntity
  8
Piper
 62
   250
420
  2301728
370
     9
100
AcDbVertex
100
AcDb2dVertex
 10
94.18563772601956
 20
425.5828083245939
 30
0.0
  0
VERTEX
  5
10EE
330
10CE
100
AcDbEntity
  8
Piper
 62
   250
420
  2301728
370
     9
100
AcDbVertex
100
AcDb2dVertex
 10
94.26194659101785
 20
425.9447156053194
 30
0.0
  0
VERTEX
  5
10EF
330
10CE
100
AcDbEntity
  8
Piper
 62
   250
420
  2301728
370
     9
100
AcDbVertex
100
AcDb2dVertex
 10
94.35703122641074
 20
426.3066228860449
 30
0.0
  0
VERTEX
  5
10F0
330
10CE
100
AcDbEntity
  8
Piper
 62
   250
420
  2301728
370
     9
100
AcDbVertex
100
AcDb2dVertex
 10
94.40474579888144
 20
426.4876626537947
 30
0.0
  0
VERTEX
  5
10F1
330
10CE
100
AcDbEntity
  8
Piper
 62
   250
420
  2301728
370
     9
100
AcDbVertex
100
AcDb2dVertex
 10
94.46193438393661
 20
426.659056154186
 30
0.0
  0
VERTEX
  5
10F2
330
10CE
100
AcDbEntity
  8
Piper
 62
   250
420
  2301728
370
     9
100
AcDbVertex
100
AcDb2dVertex
 10
94.51895071421748
 20
426.8400959219357
 30
0.0
  0
VERTEX
  5
10F3
330
10CE
100
AcDbEntity
  8
Piper
 62
   250
420
  2301728
370
     9
100
AcDbVertex
100
AcDb2dVertex
 10
94.58578556663132
 20
427.011489422327
 30
0.0
  0
VERTEX
  5
10F4
330
10CE
100
AcDbEntity
  8
Piper
 62
   250
420
  2301728
370
     9
100
AcDbVertex
100
AcDb2dVertex
 10
94.65227590949664
 20
427.1734089101337
 30
0.0
  0
VERTEX
  5
10F5
330
10CE
100
AcDbEntity
  8
Piper
 62
   250
420
  2301728
370
     9
100
AcDbVertex
100
AcDb2dVertex
 10
94.72858477449495
 20
427.3353283979404
 30
0.0
  0
VERTEX
  5
10F6
330
10CE
100
AcDbEntity
  8
Piper
 62
   250
420
  2301728
370
     9
100
AcDbVertex
100
AcDb2dVertex
 10
94.80472138471895
 20
427.4877738731627
 30
0.0
  0
VERTEX
  5
10F7
330
10CE
100
AcDbEntity
  8
Piper
 62
   250
420
  2301728
370
     9
100
AcDbVertex
100
AcDb2dVertex
 10
94.8905042623017
 20
427.6402193483851
 30
0.0
  0
VERTEX
  5
10F8
330
10CE
100
AcDbEntity
  8
Piper
 62
   250
420
  2301728
370
     9
100
AcDbVertex
100
AcDb2dVertex
 10
94.98576115246883
 20
427.7735445436642
 30
0.0
  0
VERTEX
  5
10F9
330
10CE
100
AcDbEntity
  8
Piper
 62
   250
420
  2301728
370
     9
100
AcDbVertex
100
AcDb2dVertex
 10
95.08101804263601
 20
427.9068697389434
 30
0.0
  0
VERTEX
  5
10FA
330
10CE
100
AcDbEntity
  8
Piper
 62
   250
420
  2301728
370
     9
100
AcDbVertex
100
AcDb2dVertex
 10
95.1857489453876
 20
428.0307209216381
 30
0.0
  0
VERTEX
  5
10FB
330
10CE
100
AcDbEntity
  8
Piper
 62
   250
420
  2301728
370
     9
100
AcDbVertex
100
AcDb2dVertex
 10
95.30012611549789
 20
428.1354518243897
 30
0.0
  0
VERTEX
  5
10FC
330
10CE
100
AcDbEntity
  8
Piper
 62
   250
420
  2301728
370
     9
100
AcDbVertex
100
AcDb2dVertex
 10
95.36678871313746
 20
428.1829941420862
 30
0.0
  0
VERTEX
  5
10FD
330
10CE
100
AcDbEntity
  8
Piper
 62
   250
420
  2301728
370
     9
100
AcDbVertex
100
AcDb2dVertex
 10
95.42397729819262
 20
428.2307087145569
 30
0.0
  0
VERTEX
  5
10FE
330
10CE
100
AcDbEntity
  8
Piper
 62
   250
420
  2301728
370
     9
100
AcDbVertex
100
AcDb2dVertex
 10
95.49046764105794
 20
428.2687770196689
 30
0.0
  0
VERTEX
  5
10FF
330
10CE
100
AcDbEntity
  8
Piper
 62
   250
420
  2301728
370
     9
100
AcDbVertex
100
AcDb2dVertex
 10
95.55730249347179
 20
428.306845324781
 30
0.0
  0
VERTEX
  5
1100
330
10CE
100
AcDbEntity
  8
Piper
 62
   250
420
  2301728
370
     9
100
AcDbVertex
100
AcDb2dVertex
 10
95.62396509111136
 20
428.3449136298929
 30
0.0
  0
VERTEX
  5
1101
330
10CE
100
AcDbEntity
  8
Piper
 62
   250
420
  2301728
370
     9
100
AcDbVertex
100
AcDb2dVertex
 10
95.7001017013354
 20
428.3735079224205
 30
0.0
  0
VERTEX
  5
1102
330
10CE
100
AcDbEntity
  8
Piper
 62
   250
420
  2301728
370
     9
100
AcDbVertex
100
AcDb2dVertex
 10
95.8525471765577
 20
428.4306965074756
 30
0.0
  0
VERTEX
  5
1103
330
10CE
100
AcDbEntity
  8
Piper
 62
   250
420
  2301728
370
     9
100
AcDbVertex
100
AcDb2dVertex
 10
96.00499265178001
 20
428.4784110799463
 30
0.0
  0
VERTEX
  5
1104
330
10CE
100
AcDbEntity
  8
Piper
 62
   250
420
  2301728
370
     9
100
AcDbVertex
100
AcDb2dVertex
 10
96.16691213958674
 20
428.5070053724739
 30
0.0
  0
VERTEX
  5
1105
330
10CE
100
AcDbEntity
  8
Piper
 62
   250
420
  2301728
370
     9
100
AcDbVertex
100
AcDb2dVertex
 10
96.33830563997793
 20
428.5354274102273
 30
0.0
  0
VERTEX
  5
1106
330
10CE
100
AcDbEntity
  8
Piper
 62
   250
420
  2301728
370
     9
100
AcDbVertex
100
AcDb2dVertex
 10
96.50969914036911
 20
428.5450736775859
 30
0.0
  0
VERTEX
  5
1107
330
10CE
100
AcDbEntity
  8
Piper
 62
   250
420
  2301728
370
     9
100
AcDbVertex
100
AcDb2dVertex
 10
96.69073890811899
 20
428.5640217027548
 30
0.0
  0
VERTEX
  5
1108
330
10CE
100
AcDbEntity
  8
Piper
 62
   250
420
  2301728
370
     9
100
AcDbVertex
100
AcDb2dVertex
 10
96.86213240851017
 20
428.5640217027548
 30
0.0
  0
VERTEX
  5
1109
330
10CE
100
AcDbEntity
  8
Piper
 62
   250
420
  2301728
370
     9
100
AcDbVertex
100
AcDb2dVertex
 10
96.92879500614976
 20
428.6022622626411
 30
0.0
  0
VERTEX
  5
110A
330
10CE
100
AcDbEntity
  8
Piper
 62
   250
420
  2301728
370
     9
100
AcDbVertex
100
AcDb2dVertex
 10
97.40507945698555
 20
428.6022622626411
 30
0.0
  0
VERTEX
  5
110B
330
10CE
100
AcDbEntity
  8
Piper
 62
   250
420
  2301728
370
     9
100
AcDbVertex
100
AcDb2dVertex
 10
97.4622680420407
 20
428.5640217027548
 30
0.0
  0
VERTEX
  5
110C
330
10CE
100
AcDbEntity
  8
Piper
 62
   250
420
  2301728
370
     9
100
AcDbVertex
100
AcDb2dVertex
 10
97.64330780979058
 20
428.5640217027548
 30
0.0
  0
VERTEX
  5
110D
330
10CE
100
AcDbEntity
  8
Piper
 62
   250
420
  2301728
370
     9
100
AcDbVertex
100
AcDb2dVertex
 10
97.82417532276618
 20
428.5450736775859
 30
0.0
  0
VERTEX
  5
110E
330
10CE
100
AcDbEntity
  8
Piper
 62
   250
420
  2301728
370
     9
100
AcDbVertex
100
AcDb2dVertex
 10
97.99574107793162
 20
428.5354274102273
 30
0.0
  0
VERTEX
  5
110F
330
10CE
100
AcDbEntity
  8
Piper
 62
   250
420
  2301728
370
     9
100
AcDbVertex
100
AcDb2dVertex
 10
98.1671345783228
 20
428.5070053724739
 30
0.0
  0
VERTEX
  5
1110
330
10CE
100
AcDbEntity
  8
Piper
 62
   250
420
  2301728
370
     9
100
AcDbVertex
100
AcDb2dVertex
 10
98.32905406612955
 20
428.4784110799463
 30
0.0
  0
VERTEX
  5
1111
330
10CE
100
AcDbEntity
  8
Piper
 62
   250
420
  2301728
370
     9
100
AcDbVertex
100
AcDb2dVertex
 10
98.48149954135186
 20
428.4306965074756
 30
0.0
  0
VERTEX
  5
1112
330
10CE
100
AcDbEntity
  8
Piper
 62
   250
420
  2301728
370
     9
100
AcDbVertex
100
AcDb2dVertex
 10
98.63377276179988
 20
428.3735079224205
 30
0.0
  0
VERTEX
  5
1113
330
10CE
100
AcDbEntity
  8
Piper
 62
   250
420
  2301728
370
     9
100
AcDbVertex
100
AcDb2dVertex
 10
98.70990937202392
 20
428.3449136298929
 30
0.0
  0
VERTEX
  5
1114
330
10CE
100
AcDbEntity
  8
Piper
 62
   250
420
  2301728
370
     9
100
AcDbVertex
100
AcDb2dVertex
 10
98.77674422443776
 20
428.306845324781
 30
0.0
  0
VERTEX
  5
1115
330
10CE
100
AcDbEntity
  8
Piper
 62
   250
420
  2301728
370
     9
100
AcDbVertex
100
AcDb2dVertex
 10
98.84340682207735
 20
428.2687770196689
 30
0.0
  0
VERTEX
  5
1116
330
10CE
100
AcDbEntity
  8
Piper
 62
   250
420
  2301728
370
     9
100
AcDbVertex
100
AcDb2dVertex
 10
98.91006941971694
 20
428.2307087145569
 30
0.0
  0
VERTEX
  5
1117
330
10CE
100
AcDbEntity
  8
Piper
 62
   250
420
  2301728
370
     9
100
AcDbVertex
100
AcDb2dVertex
 10
98.96725800477208
 20
428.1829941420862
 30
0.0
  0
VERTEX
  5
1118
330
10CE
100
AcDbEntity
  8
Piper
 62
   250
420
  2301728
370
     9
100
AcDbVertex
100
AcDb2dVertex
 10
99.03392060241166
 20
428.1354518243897
 30
0.0
  0
VERTEX
  5
1119
330
10CE
100
AcDbEntity
  8
Piper
 62
   250
420
  2301728
370
     9
100
AcDbVertex
100
AcDb2dVertex
 10
99.14812551774771
 20
428.0307209216381
 30
0.0
  0
VERTEX
  5
111A
330
10CE
100
AcDbEntity
  8
Piper
 62
   250
420
  2301728
370
     9
100
AcDbVertex
100
AcDb2dVertex
 10
99.25285642049928
 20
427.9068697389434
 30
0.0
  0
VERTEX
  5
111B
330
10CE
100
AcDbEntity
  8
Piper
 62
   250
420
  2301728
370
     9
100
AcDbVertex
100
AcDb2dVertex
 10
99.3482855654407
 20
427.7735445436642
 30
0.0
  0
VERTEX
  5
111C
330
10CE
100
AcDbEntity
  8
Piper
 62
   250
420
  2301728
370
     9
100
AcDbVertex
100
AcDb2dVertex
 10
99.44337020083361
 20
427.6402193483851
 30
0.0
  0
VERTEX
  5
111D
330
10CE
100
AcDbEntity
  8
Piper
 62
   250
420
  2301728
370
     9
100
AcDbVertex
100
AcDb2dVertex
 10
99.52915307841633
 20
427.4877738731627
 30
0.0
  0
VERTEX
  5
111E
330
10CE
100
AcDbEntity
  8
Piper
 62
   250
420
  2301728
370
     9
100
AcDbVertex
100
AcDb2dVertex
 10
99.60528968864036
 20
427.3353283979404
 30
0.0
  0
VERTEX
  5
111F
330
10CE
100
AcDbEntity
  8
Piper
 62
   250
420
  2301728
370
     9
100
AcDbVertex
100
AcDb2dVertex
 10
99.68159855363865
 20
427.1734089101337
 30
0.0
  0
VERTEX
  5
1120
330
10CE
100
AcDbEntity
  8
Piper
 62
   250
420
  2301728
370
     9
100
AcDbVertex
100
AcDb2dVertex
 10
99.74826115127822
 20
427.011489422327
 30
0.0
  0
VERTEX
  5
1121
330
10CE
100
AcDbEntity
  8
Piper
 62
   250
420
  2301728
370
     9
100
AcDbVertex
100
AcDb2dVertex
 10
99.8149237489178
 20
426.8400959219357
 30
0.0
  0
VERTEX
  5
1122
330
10CE
100
AcDbEntity
  8
Piper
 62
   250
420
  2301728
370
     9
100
AcDbVertex
100
AcDb2dVertex
 10
99.87211233397296
 20
426.659056154186
 30
0.0
  0
VERTEX
  5
1123
330
10CE
100
AcDbEntity
  8
Piper
 62
   250
420
  2301728
370
     9
100
AcDbVertex
100
AcDb2dVertex
 10
99.92912866425385
 20
426.4876626537947
 30
0.0
  0
VERTEX
  5
1124
330
10CE
100
AcDbEntity
  8
Piper
 62
   250
420
  2301728
370
     9
100
AcDbVertex
100
AcDb2dVertex
 10
99.97684323672455
 20
426.3066228860449
 30
0.0
  0
VERTEX
  5
1125
330
10CE
100
AcDbEntity
  8
Piper
 62
   250
420
  2301728
370
     9
100
AcDbVertex
100
AcDb2dVertex
 10
100.0721001268917
 20
425.9447156053194
 30
0.0
  0
VERTEX
  5
1126
330
10CE
100
AcDbEntity
  8
Piper
 62
   250
420
  2301728
370
     9
100
AcDbVertex
100
AcDb2dVertex
 10
100.1482367371157
 20
425.5828083245939
 30
0.0
  0
VERTEX
  5
1127
330
10CE
100
AcDbEntity
  8
Piper
 62
   250
420
  2301728
370
     9
100
AcDbVertex
100
AcDb2dVertex
 10
100.2150715895296
 20
425.2207287890941
 30
0.0
  0
VERTEX
  5
1128
330
10CE
100
AcDbEntity
  8
Piper
 62
   250
420
  2301728
370
     9
100
AcDbVertex
100
AcDb2dVertex
 10
100.2720879198104
 20
424.8779417883118
 30
0.0
  0
VERTEX
  5
1129
330
10CE
100
AcDbEntity
  8
Piper
 62
   250
420
  2301728
370
     9
100
AcDbVertex
100
AcDb2dVertex
 10
100.3198024922811
 20
424.5255085201707
 30
0.0
  0
VERTEX
  5
112A
330
10CE
100
AcDbEntity
  8
Piper
 62
   250
420
  2301728
370
     9
100
AcDbVertex
100
AcDb2dVertex
 10
100.3578707973932
 20
424.1825492646141
 30
0.0
  0
VERTEX
  5
112B
330
10CE
100
AcDbEntity
  8
Piper
 62
   250
420
  2301728
370
     9
100
AcDbVertex
100
AcDb2dVertex
 10
100.3769910773363
 20
423.8492362764161
 30
0.0
  0
VERTEX
  5
112C
330
10CE
100
AcDbEntity
  8
Piper
 62
   250
420
  2301728
370
     9
100
AcDbVertex
100
AcDb2dVertex
 10
100.3864650899207
 20
423.5062770208595
 30
0.0
  0
VERTEX
  5
112D
330
10CE
100
AcDbEntity
  8
Piper
 62
   250
420
  2301728
370
     9
100
AcDbVertex
100
AcDb2dVertex
 10
100.3864650899207
 20
423.1729640326616
 30
0.0
  0
VERTEX
  5
112E
330
10CE
100
AcDbEntity
  8
Piper
 62
   250
420
  2301728
370
     9
100
AcDbVertex
100
AcDb2dVertex
 10
100.3769910773363
 20
422.8396510444637
 30
0.0
  0
VERTEX
  5
112F
330
10CE
100
AcDbEntity
  8
Piper
 62
   250
420
  2301728
370
     9
100
AcDbVertex
100
AcDb2dVertex
 10
100.3483967848087
 20
422.5156398140759
 30
0.0
  0
VERTEX
  5
1130
330
10CE
100
AcDbEntity
  8
Piper
 62
   250
420
  2301728
370
     9
100
AcDbVertex
100
AcDb2dVertex
 10
100.3101562249224
 20
422.182326825878
 30
0.0
  0
VERTEX
  5
1131
330
10CE
100
AcDbEntity
  8
Piper
 62
   250
420
  2301728
370
     9
100
AcDbVertex
100
AcDb2dVertex
 10
100.262613907226
 20
421.8584878502645
 30
0.0
  0
VERTEX
  5
1132
330
10CE
100
AcDbEntity
  8
Piper
 62
   250
420
  2301728
370
     9
100
AcDbVertex
100
AcDb2dVertex
 10
100.1959513095864
 20
421.5250026072923
 30
0.0
  0
VERTEX
  5
1133
330
10CE
100
AcDbEntity
  8
Piper
 62
   250
420
  2301728
370
     9
100
AcDbVertex
100
AcDb2dVertex
 10
100.1196424445881
 20
421.2011636316788
 30
0.0
  0
VERTEX
  5
1134
330
10CE
100
AcDbEntity
  8
Piper
 62
   250
420
  2301728
370
     9
100
AcDbVertex
100
AcDb2dVertex
 10
100.0245578091952
 20
420.8773246560654
 30
0.0
  0
VERTEX
  5
1135
330
10CE
100
AcDbEntity
  8
Piper
 62
   250
420
  2301728
370
     9
100
AcDbVertex
100
AcDb2dVertex
 10
99.9673692241401
 20
420.7154051682586
 30
0.0
  0
VERTEX
  5
1136
330
10CE
100
AcDbEntity
  8
Piper
 62
   250
420
  2301728
370
     9
100
AcDbVertex
100
AcDb2dVertex
 10
99.90053437172626
 20
420.5631319478106
 30
0.0
  0
VERTEX
  5
1137
330
10CE
100
AcDbEntity
  8
Piper
 62
   250
420
  2301728
370
     9
100
AcDbVertex
100
AcDb2dVertex
 10
99.83404402886094
 20
420.4106864725883
 30
0.0
  0
VERTEX
  5
1138
330
10CE
100
AcDbEntity
  8
Piper
 62
   250
420
  2301728
370
     9
100
AcDbVertex
100
AcDb2dVertex
 10
99.75773516386265
 20
420.2582409973659
 30
0.0
  0
VERTEX
  5
1139
330
10CE
100
AcDbEntity
  8
Piper
 62
   250
420
  2301728
370
     9
100
AcDbVertex
100
AcDb2dVertex
 10
99.71019284616621
 20
420.182104387142
 30
0.0
  0
VERTEX
  5
113A
330
10CE
100
AcDbEntity
  8
Piper
 62
   250
420
  2301728
370
     9
100
AcDbVertex
100
AcDb2dVertex
 10
99.66247827369549
 20
420.1154417895024
 30
0.0
  0
VERTEX
  5
113B
330
10CE
100
AcDbEntity
  8
Piper
 62
   250
420
  2301728
370
     9
100
AcDbVertex
100
AcDb2dVertex
 10
99.60528968864036
 20
420.0487791918628
 30
0.0
  0
VERTEX
  5
113C
330
10CE
100
AcDbEntity
  8
Piper
 62
   250
420
  2301728
370
     9
100
AcDbVertex
100
AcDb2dVertex
 10
99.54827335835947
 20
419.9819443394489
 30
0.0
  0
VERTEX
  5
113D
330
10CE
100
AcDbEntity
  8
Piper
 62
   250
420
  2301728
370
     9
100
AcDbVertex
100
AcDb2dVertex
 10
99.49108477330433
 20
419.924928009168
 30
0.0
  0
VERTEX
  5
113E
330
10CE
100
AcDbEntity
  8
Piper
 62
   250
420
  2301728
370
     9
100
AcDbVertex
100
AcDb2dVertex
 10
99.42442217566473
 20
419.8582654115285
 30
0.0
  0
VERTEX
  5
113F
330
10CE
100
AcDbEntity
  8
Piper
 62
   250
420
  2301728
370
     9
100
AcDbVertex
100
AcDb2dVertex
 10
99.35775957802515
 20
419.8010768264733
 30
0.0
  0
VERTEX
  5
1140
330
10CE
100
AcDbEntity
  8
Piper
 62
   250
420
  2301728
370
     9
100
AcDbVertex
100
AcDb2dVertex
 10
99.29109698038557
 20
419.7535345087769
 30
0.0
  0
VERTEX
  5
1141
330
10CE
100
AcDbEntity
  8
Piper
 62
   250
420
  2301728
370
     9
100
AcDbVertex
100
AcDb2dVertex
 10
99.21478811538728
 20
419.7058199363062
 30
0.0
  0
VERTEX
  5
1142
330
10CE
100
AcDbEntity
  8
Piper
 62
   250
420
  2301728
370
     9
100
AcDbVertex
100
AcDb2dVertex
 10
99.13865150516325
 20
419.6581053638355
 30
0.0
  0
VERTEX
  5
1143
330
10CE
100
AcDbEntity
  8
Piper
 62
   250
420
  2301728
370
     9
100
AcDbVertex
100
AcDb2dVertex
 10
99.06234264016497
 20
419.6105630461389
 30
0.0
  0
VERTEX
  5
1144
330
10CE
100
AcDbEntity
  8
Piper
 62
   250
420
  2301728
370
     9
100
AcDbVertex
100
AcDb2dVertex
 10
98.98620602994096
 20
419.572494741027
 30
0.0
  0
VERTEX
  5
1145
330
10CE
100
AcDbEntity
  8
Piper
 62
   250
420
  2301728
370
     9
100
AcDbVertex
100
AcDb2dVertex
 10
95.34766843319435
 20
419.572494741027
 30
0.0
  0
SEQEND
  5
1146
330
10CE
100
AcDbEntity
  8
Piper
370
     9
  0
ENDBLK
  5
1147
330
10CC
100
AcDbEntity
  8
0
100
AcDbBlockEnd
  0
BLOCK
  5
1149
330
1148
100
AcDbEntity
  8
0
100
AcDbBlockBegin
  2
block 6
 70
     0
 10
0.0
 20
0.0
 30
0.0
  3
block 6
  1

  0
INSERT
  5
114A
330
1148
100
AcDbEntity
  8
Piper
100
AcDbBlockReference
  2
block 7
 10
0.0
 20
0.0
 30
0.0
  0
INSERT
  5
114B
330
1148
100
AcDbEntity
  8
Piper
100
AcDbBlockReference
  2
block 9
 10
0.0
 20
0.0
 30
0.0
  0
POLYLINE
  5
114C
330
1148
100
AcDbEntity
  8
Piper
 62
   250
420
  2301728
370
     9
100
AcDb2dPolyline
 66
     1
 10
0.0
 20
0.0
 30
0.0
  0
VERTEX
  5
114D
330
114C
100
AcDbEntity
  8
Piper
 62
   250
420
  2301728
370
     9
100
AcDbVertex
100
AcDb2dVertex
 10
124.8996975056674
 20
427.2152668202795
 30
0.0
  0
VERTEX
  5
114E
330
114C
100
AcDbEntity
  8
Piper
 62
   250
420
  2301728
370
     9
100
AcDbVertex
100
AcDb2dVertex
 10
124.4034315010172
 20
427.2152668202795
 30
0.0
  0
VERTEX
  5
114F
330
114C
100
AcDbEntity
  8
Piper
 62
   250
420
  2301728
370
     9
100
AcDbVertex
100
AcDb2dVertex
 10
124.4034315010172
 20
436.6946193027187
 30
0.0
  0
VERTEX
  5
1150
330
114C
100
AcDbEntity
  8
Piper
 62
   250
420
  2301728
370
     9
100
AcDbVertex
100
AcDb2dVertex
 10
124.8996975056674
 20
436.6946193027187
 30
0.0
  0
VERTEX
  5
1151
330
114C
100
AcDbEntity
  8
Piper
 62
   250
420
  2301728
370
     9
100
AcDbVertex
100
AcDb2dVertex
 10
124.8996975056674
 20
427.2152668202795
 30
0.0
  0
SEQEND
  5
1152
330
114C
100
AcDbEntity
  8
Piper
370
     9
  0
ENDBLK
  5
1153
330
1148
100
AcDbEntity
  8
0
100
AcDbBlockEnd
  0
BLOCK
  5
1155
330
1154
100
AcDbEntity
  8
0
100
AcDbBlockBegin
  2
block 7
 70
     0
 10
0.0
 20
0.0
 30
0.0
  3
block 7
  1

  0
POLYLINE
  5
1156
330
1154
100
AcDbEntity
  8
Piper
 62
   250
420
  2301728
370
     9
100
AcDb2dPolyline
 66
     1
 10
0.0
 20
0.0
 30
0.0
  0
VERTEX
  5
1157
330
1156
100
AcDbEntity
  8
Piper
 62
   250
420
  2301728
370
     9
100
AcDbVertex
100
AcDb2dVertex
 10
124.522115040484
 20
443.3469264299619
 30
0.0
  0
VERTEX
  5
1158
330
1156
100
AcDbEntity
  8
Piper
 62
   250
420
  2301728
370
     9
100
AcDbVertex
100
AcDb2dVertex
 10
124.522115040484
 20
436.6946193027187
 30
0.0
  0
VERTEX
  5
1159
330
1156
100
AcDbEntity
  8
Piper
 62
   250
420
  2301728
370
     9
100
AcDbVertex
100
AcDb2dVertex
 10
124.8080579657598
 20
436.6946193027187
 30
0.0
  0
VERTEX
  5
115A
330
1156
100
AcDbEntity
  8
Piper
 62
   250
420
  2301728
370
     9
100
AcDbVertex
100
AcDb2dVertex
 10
124.8080579657598
 20
443.3469264299619
 30
0.0
  0
VERTEX
  5
115B
330
1156
100
AcDbEntity
  8
Piper
 62
   250
420
  2301728
370
     9
100
AcDbVertex
100
AcDb2dVertex
 10
124.522115040484
 20
443.3469264299619
 30
0.0
  0
SEQEND
  5
115C
330
1156
100
AcDbEntity
  8
Piper
370
     9
  0
POLYLINE
  5
115D
330
1154
100
AcDbEntity
  8
Piper
 62
   250
420
  2301728
370
     9
100
AcDb2dPolyline
 66
     1
 10
0.0
 20
0.0
 30
0.0
  0
VERTEX
  5
115E
330
115D
100
AcDbEntity
  8
Piper
 62
   250
420
  2301728
370
     9
100
AcDbVertex
100
AcDb2dVertex
 10
124.4049817939856
 20
443.6132323109717
 30
0.0
  0
VERTEX
  5
115F
330
115D
100
AcDbEntity
  8
Piper
 62
   250
420
  2301728
370
     9
100
AcDbVertex
100
AcDb2dVertex
 10
124.4049817939856
 20
443.3469264299619
 30
0.0
  0
VERTEX
  5
1160
330
115D
100
AcDbEntity
  8
Piper
 62
   250
420
  2301728
370
     9
100
AcDbVertex
100
AcDb2dVertex
 10
124.4508015639394
 20
443.3469264299619
 30
0.0
  0
VERTEX
  5
1161
330
115D
100
AcDbEntity
  8
Piper
 62
   250
420
  2301728
370
     9
100
AcDbVertex
100
AcDb2dVertex
 10
124.8452649970005
 20
443.3469264299619
 30
0.0
  0
VERTEX
  5
1162
330
115D
100
AcDbEntity
  8
Piper
 62
   250
420
  2301728
370
     9
100
AcDbVertex
100
AcDb2dVertex
 10
124.914511416254
 20
443.3469264299619
 30
0.0
  0
VERTEX
  5
1163
330
115D
100
AcDbEntity
  8
Piper
 62
   250
420
  2301728
370
     9
100
AcDbVertex
100
AcDb2dVertex
 10
124.914511416254
 20
443.6132323109717
 30
0.0
  0
SEQEND
  5
1164
330
115D
100
AcDbEntity
  8
Piper
370
     9
  0
INSERT
  5
1165
330
1154
100
AcDbEntity
  8
Piper
100
AcDbBlockReference
  2
block 8
 10
0.0
 20
0.0
 30
0.0
  0
ENDBLK
  5
1166
330
1154
100
AcDbEntity
  8
0
100
AcDbBlockEnd
  0
BLOCK
  5
1168
330
1167
100
AcDbEntity
  8
0
100
AcDbBlockBegin
  2
block 8
 70
     0
 10
0.0
 20
0.0
 30
0.0
  3
block 8
  1

  0
POLYLINE
  5
1169
330
1167
100
AcDbEntity
  8
Piper
 62
   250
420
  2301728
370
     9
100
AcDb2dPolyline
 66
     1
 10
0.0
 20
0.0
 30
0.0
  0
VERTEX
  5
116A
330
1169
100
AcDbEntity
  8
Piper
 62
   250
420
  2301728
370
     9
100
AcDbVertex
100
AcDb2dVertex
 10
126.2556870886617
 20
443.6132323109717
 30
0.0
  0
VERTEX
  5
116B
330
1169
100
AcDbEntity
  8
Piper
 62
   250
420
  2301728
370
     9
100
AcDbVertex
100
AcDb2dVertex
 10
126.2556870886617
 20
444.1856349258459
 30
0.0
  0
VERTEX
  5
116C
330
1169
100
AcDbEntity
  8
Piper
 62
   250
420
  2301728
370
     9
100
AcDbVertex
100
AcDb2dVertex
 10
123.0472696632486
 20
444.1856349258459
 30
0.0
  0
VERTEX
  5
116D
330
1169
100
AcDbEntity
  8
Piper
 62
   250
420
  2301728
370
     9
100
AcDbVertex
100
AcDb2dVertex
 10
123.0472696632486
 20
443.6132323109717
 30
0.0
  0
VERTEX
  5
116E
330
1169
100
AcDbEntity
  8
Piper
 62
   250
420
  2301728
370
     9
100
AcDbVertex
100
AcDb2dVertex
 10
126.2556870886617
 20
443.6132323109717
 30
0.0
  0
SEQEND
  5
116F
330
1169
100
AcDbEntity
  8
Piper
370
     9
  0
ENDBLK
  5
1170
330
1167
100
AcDbEntity
  8
0
100
AcDbBlockEnd
  0
BLOCK
  5
1172
330
1171
100
AcDbEntity
  8
0
100
AcDbBlockBegin
  2
block 9
 70
     0
 10
0.0
 20
0.0
 30
0.0
  3
block 9
  1

  0
POLYLINE
  5
1173
330
1171
100
AcDbEntity
  8
Piper
 62
   250
420
  2301728
370
     9
100
AcDb2dPolyline
 66
     1
 10
0.0
 20
0.0
 30
0.0
  0
VERTEX
  5
1174
330
1173
100
AcDbEntity
  8
Piper
 62
   250
420
  2301728
370
     9
100
AcDbVertex
100
AcDb2dVertex
 10
124.1800170587987
 20
427.2309420047374
 30
0.0
  0
VERTEX
  5
1175
330
1173
100
AcDbEntity
  8
Piper
 62
   250
420
  2301728
370
     9
100
AcDbVertex
100
AcDb2dVertex
 10
124.1896633261574
 20
427.2309420047374
 30
0.0
  0
VERTEX
  5
1176
330
1173
100
AcDbEntity
  8
Piper
 62
   250
420
  2301728
370
     9
100
AcDbVertex
100
AcDb2dVertex
 10
124.2086113513263
 20
427.2309420047374
 30
0.0
  0
VERTEX
  5
1177
330
1173
100
AcDbEntity
  8
Piper
 62
   250
420
  2301728
370
     9
100
AcDbVertex
100
AcDb2dVertex
 10
124.2466796564383
 20
427.2309420047374
 30
0.0
  0
VERTEX
  5
1178
330
1173
100
AcDbEntity
  8
Piper
 62
   250
420
  2301728
370
     9
100
AcDbVertex
100
AcDb2dVertex
 10
124.294394228909
 20
427.2309420047374
 30
0.0
  0
VERTEX
  5
1179
330
1173
100
AcDbEntity
  8
Piper
 62
   250
420
  2301728
370
     9
100
AcDbVertex
100
AcDb2dVertex
 10
124.3515828139642
 20
427.2309420047374
 30
0.0
  0
VERTEX
  5
117A
330
1173
100
AcDbEntity
  8
Piper
 62
   250
420
  2301728
370
     9
100
AcDbVertex
100
AcDb2dVertex
 10
124.4182454116038
 20
427.2309420047374
 30
0.0
  0
VERTEX
  5
117B
330
1173
100
AcDbEntity
  8
Piper
 62
   250
420
  2301728
370
     9
100
AcDbVertex
100
AcDb2dVertex
 10
124.4943820218278
 20
427.2309420047374
 30
0.0
  0
VERTEX
  5
117C
330
1173
100
AcDbEntity
  8
Piper
 62
   250
420
  2301728
370
     9
100
AcDbVertex
100
AcDb2dVertex
 10
124.5706908868261
 20
427.2309420047374
 30
0.0
  0
VERTEX
  5
117D
330
1173
100
AcDbEntity
  8
Piper
 62
   250
420
  2301728
370
     9
100
AcDbVertex
100
AcDb2dVertex
 10
124.6563015096345
 20
427.2309420047374
 30
0.0
  0
VERTEX
  5
117E
330
1173
100
AcDbEntity
  8
Piper
 62
   250
420
  2301728
370
     9
100
AcDbVertex
100
AcDb2dVertex
 10
124.7326103746328
 20
427.2309420047374
 30
0.0
  0
VERTEX
  5
117F
330
1173
100
AcDbEntity
  8
Piper
 62
   250
420
  2301728
370
     9
100
AcDbVertex
100
AcDb2dVertex
 10
124.8087469848568
 20
427.2309420047374
 30
0.0
  0
VERTEX
  5
1180
330
1173
100
AcDbEntity
  8
Piper
 62
   250
420
  2301728
370
     9
100
AcDbVertex
100
AcDb2dVertex
 10
124.8848835950808
 20
427.2309420047374
 30
0.0
  0
VERTEX
  5
1181
330
1173
100
AcDbEntity
  8
Piper
 62
   250
420
  2301728
370
     9
100
AcDbVertex
100
AcDb2dVertex
 10
124.9515461927204
 20
427.2309420047374
 30
0.0
  0
VERTEX
  5
1182
330
1173
100
AcDbEntity
  8
Piper
 62
   250
420
  2301728
370
     9
100
AcDbVertex
100
AcDb2dVertex
 10
125.0087347777756
 20
427.2309420047374
 30
0.0
  0
VERTEX
  5
1183
330
1173
100
AcDbEntity
  8
Piper
 62
   250
420
  2301728
370
     9
100
AcDbVertex
100
AcDb2dVertex
 10
125.0564493502463
 20
427.2309420047374
 30
0.0
  0
VERTEX
  5
1184
330
1173
100
AcDbEntity
  8
Piper
 62
   250
420
  2301728
370
     9
100
AcDbVertex
100
AcDb2dVertex
 10
125.0945176553583
 20
427.2309420047374
 30
0.0
  0
VERTEX
  5
1185
330
1173
100
AcDbEntity
  8
Piper
 62
   250
420
  2301728
370
     9
100
AcDbVertex
100
AcDb2dVertex
 10
125.1134656805272
 20
427.2309420047374
 30
0.0
  0
VERTEX
  5
1186
330
1173
100
AcDbEntity
  8
Piper
 62
   250
420
  2301728
370
     9
100
AcDbVertex
100
AcDb2dVertex
 10
125.1229396931116
 20
427.2309420047374
 30
0.0
  0
VERTEX
  5
1187
330
1173
100
AcDbEntity
  8
Piper
 62
   250
420
  2301728
370
     9
100
AcDbVertex
100
AcDb2dVertex
 10
124.9515461927204
 20
427.2023477122099
 30
0.0
  0
VERTEX
  5
1188
330
1173
100
AcDbEntity
  8
Piper
 62
   250
420
  2301728
370
     9
100
AcDbVertex
100
AcDb2dVertex
 10
125.1134656805272
 20
427.2023477122099
 30
0.0
  0
VERTEX
  5
1189
330
1173
100
AcDbEntity
  8
Piper
 62
   250
420
  2301728
370
     9
100
AcDbVertex
100
AcDb2dVertex
 10
125.2659111557495
 20
427.1928736996254
 30
0.0
  0
VERTEX
  5
118A
330
1173
100
AcDbEntity
  8
Piper
 62
   250
420
  2301728
370
     9
100
AcDbVertex
100
AcDb2dVertex
 10
125.4278306435562
 20
427.1737534196822
 30
0.0
  0
VERTEX
  5
118B
330
1173
100
AcDbEntity
  8
Piper
 62
   250
420
  2301728
370
     9
100
AcDbVertex
100
AcDb2dVertex
 10
125.5802761187785
 20
427.1451591271547
 30
0.0
  0
VERTEX
  5
118C
330
1173
100
AcDbEntity
  8
Piper
 62
   250
420
  2301728
370
     9
100
AcDbVertex
100
AcDb2dVertex
 10
125.7327215940008
 20
427.1165648346271
 30
0.0
  0
VERTEX
  5
118D
330
1173
100
AcDbEntity
  8
Piper
 62
   250
420
  2301728
370
     9
100
AcDbVertex
100
AcDb2dVertex
 10
125.8849948144489
 20
427.0690225169306
 30
0.0
  0
VERTEX
  5
118E
330
1173
100
AcDbEntity
  8
Piper
 62
   250
420
  2301728
370
     9
100
AcDbVertex
100
AcDb2dVertex
 10
126.0374402896712
 20
427.02130794446
 30
0.0
  0
VERTEX
  5
118F
330
1173
100
AcDbEntity
  8
Piper
 62
   250
420
  2301728
370
     9
100
AcDbVertex
100
AcDb2dVertex
 10
126.1898857648935
 20
426.9546453468203
 30
0.0
  0
VERTEX
  5
1190
330
1173
100
AcDbEntity
  8
Piper
 62
   250
420
  2301728
370
     9
100
AcDbVertex
100
AcDb2dVertex
 10
126.3232109601726
 20
426.8785087365963
 30
0.0
  0
VERTEX
  5
1191
330
1173
100
AcDbEntity
  8
Piper
 62
   250
420
  2301728
370
     9
100
AcDbVertex
100
AcDb2dVertex
 10
126.4660101680362
 20
426.7927258590137
 30
0.0
  0
VERTEX
  5
1192
330
1173
100
AcDbEntity
  8
Piper
 62
   250
420
  2301728
370
     9
100
AcDbVertex
100
AcDb2dVertex
 10
126.5995076180897
 20
426.6974689688464
 30
0.0
  0
VERTEX
  5
1193
330
1173
100
AcDbEntity
  8
Piper
 62
   250
420
  2301728
370
     9
100
AcDbVertex
100
AcDb2dVertex
 10
126.7231865460102
 20
426.6022120786793
 30
0.0
  0
VERTEX
  5
1194
330
1173
100
AcDbEntity
  8
Piper
 62
   250
420
  2301728
370
     9
100
AcDbVertex
100
AcDb2dVertex
 10
126.8375637161204
 20
426.4880071633433
 30
0.0
  0
VERTEX
  5
1195
330
1173
100
AcDbEntity
  8
Piper
 62
   250
420
  2301728
370
     9
100
AcDbVertex
100
AcDb2dVertex
 10
126.942294618872
 20
426.373629993233
 30
0.0
  0
VERTEX
  5
1196
330
1173
100
AcDbEntity
  8
Piper
 62
   250
420
  2301728
370
     9
100
AcDbVertex
100
AcDb2dVertex
 10
127.0375515090392
 20
426.2497788105382
 30
0.0
  0
VERTEX
  5
1197
330
1173
100
AcDbEntity
  8
Piper
 62
   250
420
  2301728
370
     9
100
AcDbVertex
100
AcDb2dVertex
 10
127.1328083992063
 20
426.116453615259
 30
0.0
  0
VERTEX
  5
1198
330
1173
100
AcDbEntity
  8
Piper
 62
   250
420
  2301728
370
     9
100
AcDbVertex
100
AcDb2dVertex
 10
127.2089450094304
 20
425.9736544073954
 30
0.0
  0
VERTEX
  5
1199
330
1173
100
AcDbEntity
  8
Piper
 62
   250
420
  2301728
370
     9
100
AcDbVertex
100
AcDb2dVertex
 10
127.2852538744287
 20
425.8403292121163
 30
0.0
  0
VERTEX
  5
119A
330
1173
100
AcDbEntity
  8
Piper
 62
   250
420
  2301728
370
     9
100
AcDbVertex
100
AcDb2dVertex
 10
127.3519164720683
 20
425.687883736894
 30
0.0
  0
VERTEX
  5
119B
330
1173
100
AcDbEntity
  8
Piper
 62
   250
420
  2301728
370
     9
100
AcDbVertex
100
AcDb2dVertex
 10
127.4185790697078
 20
425.5450845290304
 30
0.0
  0
VERTEX
  5
119C
330
1173
100
AcDbEntity
  8
Piper
 62
   250
420
  2301728
370
     9
100
AcDbVertex
100
AcDb2dVertex
 10
127.475767654763
 20
425.4021130663925
 30
0.0
  0
VERTEX
  5
119D
330
1173
100
AcDbEntity
  8
Piper
 62
   250
420
  2301728
370
     9
100
AcDbVertex
100
AcDb2dVertex
 10
127.5233099724594
 20
425.2496675911702
 30
0.0
  0
VERTEX
  5
119E
330
1173
100
AcDbEntity
  8
Piper
 62
   250
420
  2301728
370
     9
100
AcDbVertex
100
AcDb2dVertex
 10
127.628040875211
 20
424.9544229080843
 30
0.0
  0
VERTEX
  5
119F
330
1173
100
AcDbEntity
  8
Piper
 62
   250
420
  2301728
370
     9
100
AcDbVertex
100
AcDb2dVertex
 10
127.7043497402093
 20
424.6591782249984
 30
0.0
  0
VERTEX
  5
11A0
330
1173
100
AcDbEntity
  8
Piper
 62
   250
420
  2301728
370
     9
100
AcDbVertex
100
AcDb2dVertex
 10
127.7804863504333
 20
424.3448132619693
 30
0.0
  0
VERTEX
  5
11A1
330
1173
100
AcDbEntity
  8
Piper
 62
   250
420
  2301728
370
     9
100
AcDbVertex
100
AcDb2dVertex
 10
127.8566229606574
 20
424.040094566299
 30
0.0
  0
VERTEX
  5
11A2
330
1173
100
AcDbEntity
  8
Piper
 62
   250
420
  2301728
370
     9
100
AcDbVertex
100
AcDb2dVertex
 10
127.9234578130712
 20
423.7162555906855
 30
0.0
  0
VERTEX
  5
11A3
330
1173
100
AcDbEntity
  8
Piper
 62
   250
420
  2301728
370
     9
100
AcDbVertex
100
AcDb2dVertex
 10
127.9901204107108
 20
423.3827703477133
 30
0.0
  0
VERTEX
  5
11A4
330
1173
100
AcDbEntity
  8
Piper
 62
   250
420
  2301728
370
     9
100
AcDbVertex
100
AcDb2dVertex
 10
128.0471367409917
 20
423.0398110921568
 30
0.0
  0
VERTEX
  5
11A5
330
1173
100
AcDbEntity
  8
Piper
 62
   250
420
  2301728
370
     9
100
AcDbVertex
100
AcDb2dVertex
 10
128.1043253260468
 20
422.6970240913743
 30
0.0
  0
VERTEX
  5
11A6
330
1173
100
AcDbEntity
  8
Piper
 62
   250
420
  2301728
370
     9
100
AcDbVertex
100
AcDb2dVertex
 10
128.1518676437433
 20
422.3540648358177
 30
0.0
  0
VERTEX
  5
11A7
330
1173
100
AcDbEntity
  8
Piper
 62
   250
420
  2301728
370
     9
100
AcDbVertex
100
AcDb2dVertex
 10
128.161513911102
 20
422.1826713354265
 30
0.0
  0
VERTEX
  5
11A8
330
1173
100
AcDbEntity
  8
Piper
 62
   250
420
  2301728
370
     9
100
AcDbVertex
100
AcDb2dVertex
 10
128.1709879236864
 20
422.0112778350354
 30
0.0
  0
VERTEX
  5
11A9
330
1173
100
AcDbEntity
  8
Piper
 62
   250
420
  2301728
370
     9
100
AcDbVertex
100
AcDb2dVertex
 10
128.1804619362708
 20
421.8491860924543
 30
0.0
  0
VERTEX
  5
11AA
330
1173
100
AcDbEntity
  8
Piper
 62
   250
420
  2301728
370
     9
100
AcDbVertex
100
AcDb2dVertex
 10
128.1804619362708
 20
421.6872666046477
 30
0.0
  0
VERTEX
  5
11AB
330
1173
100
AcDbEntity
  8
Piper
 62
   250
420
  2301728
370
     9
100
AcDbVertex
100
AcDb2dVertex
 10
128.1804619362708
 20
421.5253471168408
 30
0.0
  0
VERTEX
  5
11AC
330
1173
100
AcDbEntity
  8
Piper
 62
   250
420
  2301728
370
     9
100
AcDbVertex
100
AcDb2dVertex
 10
128.161513911102
 20
421.3730738963928
 30
0.0
  0
VERTEX
  5
11AD
330
1173
100
AcDbEntity
  8
Piper
 62
   250
420
  2301728
370
     9
100
AcDbVertex
100
AcDb2dVertex
 10
128.1425658859331
 20
421.2206284211705
 30
0.0
  0
VERTEX
  5
11AE
330
1173
100
AcDbEntity
  8
Piper
 62
   250
420
  2301728
370
     9
100
AcDbVertex
100
AcDb2dVertex
 10
128.1139715934055
 20
421.0681829459482
 30
0.0
  0
VERTEX
  5
11AF
330
1173
100
AcDbEntity
  8
Piper
 62
   250
420
  2301728
370
     9
100
AcDbVertex
100
AcDb2dVertex
 10
128.085377300878
 20
420.9253837380846
 30
0.0
  0
VERTEX
  5
11B0
330
1173
100
AcDbEntity
  8
Piper
 62
   250
420
  2301728
370
     9
100
AcDbVertex
100
AcDb2dVertex
 10
128.0376627284072
 20
420.7920585428055
 30
0.0
  0
VERTEX
  5
11B1
330
1173
100
AcDbEntity
  8
Piper
 62
   250
420
  2301728
370
     9
100
AcDbVertex
100
AcDb2dVertex
 10
127.9901204107108
 20
420.6682073601107
 30
0.0
  0
VERTEX
  5
11B2
330
1173
100
AcDbEntity
  8
Piper
 62
   250
420
  2301728
370
     9
100
AcDbVertex
100
AcDb2dVertex
 10
127.9234578130712
 20
420.544356177416
 30
0.0
  0
VERTEX
  5
11B3
330
1173
100
AcDbEntity
  8
Piper
 62
   250
420
  2301728
370
     9
100
AcDbVertex
100
AcDb2dVertex
 10
127.8566229606574
 20
420.43015126208
 30
0.0
  0
VERTEX
  5
11B4
330
1173
100
AcDbEntity
  8
Piper
 62
   250
420
  2301728
370
     9
100
AcDbVertex
100
AcDb2dVertex
 10
127.7710123378489
 20
420.3157740919697
 30
0.0
  0
VERTEX
  5
11B5
330
1173
100
AcDbEntity
  8
Piper
 62
   250
420
  2301728
370
     9
100
AcDbVertex
100
AcDb2dVertex
 10
127.6852294602662
 20
420.2205172018024
 30
0.0
  0
VERTEX
  5
11B6
330
1173
100
AcDbEntity
  8
Piper
 62
   250
420
  2301728
370
     9
100
AcDbVertex
100
AcDb2dVertex
 10
127.5804985575146
 20
420.1252603116353
 30
0.0
  0
VERTEX
  5
11B7
330
1173
100
AcDbEntity
  8
Piper
 62
   250
420
  2301728
370
     9
100
AcDbVertex
100
AcDb2dVertex
 10
127.475767654763
 20
420.0394774340526
 30
0.0
  0
VERTEX
  5
11B8
330
1173
100
AcDbEntity
  8
Piper
 62
   250
420
  2301728
370
     9
100
AcDbVertex
100
AcDb2dVertex
 10
127.3519164720683
 20
419.9538668112442
 30
0.0
  0
VERTEX
  5
11B9
330
1173
100
AcDbEntity
  8
Piper
 62
   250
420
  2301728
370
     9
100
AcDbVertex
100
AcDb2dVertex
 10
127.2280652893735
 20
419.8872042136046
 30
0.0
  0
VERTEX
  5
11BA
330
1173
100
AcDbEntity
  8
Piper
 62
   250
420
  2301728
370
     9
100
AcDbVertex
100
AcDb2dVertex
 10
127.1042141066788
 20
419.8108953486062
 30
0.0
  0
VERTEX
  5
11BB
330
1173
100
AcDbEntity
  8
Piper
 62
   250
420
  2301728
370
     9
100
AcDbVertex
100
AcDb2dVertex
 10
126.9612426440409
 20
419.7442327509667
 30
0.0
  0
VERTEX
  5
11BC
330
1173
100
AcDbEntity
  8
Piper
 62
   250
420
  2301728
370
     9
100
AcDbVertex
100
AcDb2dVertex
 10
126.8184434361773
 20
419.6870441659116
 30
0.0
  0
VERTEX
  5
11BD
330
1173
100
AcDbEntity
  8
Piper
 62
   250
420
  2301728
370
     9
100
AcDbVertex
100
AcDb2dVertex
 10
126.665997960955
 20
419.6300278356306
 30
0.0
  0
VERTEX
  5
11BE
330
1173
100
AcDbEntity
  8
Piper
 62
   250
420
  2301728
370
     9
100
AcDbVertex
100
AcDb2dVertex
 10
126.513724740507
 20
419.58231326316
 30
0.0
  0
VERTEX
  5
11BF
330
1173
100
AcDbEntity
  8
Piper
 62
   250
420
  2301728
370
     9
100
AcDbVertex
100
AcDb2dVertex
 10
126.4660101680362
 20
419.5728392505755
 30
0.0
  0
VERTEX
  5
11C0
330
1173
100
AcDbEntity
  8
Piper
 62
   250
420
  2301728
370
     9
100
AcDbVertex
100
AcDb2dVertex
 10
126.4374158755087
 20
419.5728392505755
 30
0.0
  0
VERTEX
  5
11C1
330
1173
100
AcDbEntity
  8
Piper
 62
   250
420
  2301728
370
     9
100
AcDbVertex
100
AcDb2dVertex
 10
126.4089938377554
 20
419.5728392505755
 30
0.0
  0
VERTEX
  5
11C2
330
1173
100
AcDbEntity
  8
Piper
 62
   250
420
  2301728
370
     9
100
AcDbVertex
100
AcDb2dVertex
 10
126.3518052527002
 20
419.5728392505755
 30
0.0
  0
VERTEX
  5
11C3
330
1173
100
AcDbEntity
  8
Piper
 62
   250
420
  2301728
370
     9
100
AcDbVertex
100
AcDb2dVertex
 10
126.2946166676451
 20
419.5728392505755
 30
0.0
  0
VERTEX
  5
11C4
330
1173
100
AcDbEntity
  8
Piper
 62
   250
420
  2301728
370
     9
100
AcDbVertex
100
AcDb2dVertex
 10
126.2088337900624
 20
419.5728392505755
 30
0.0
  0
VERTEX
  5
11C5
330
1173
100
AcDbEntity
  8
Piper
 62
   250
420
  2301728
370
     9
100
AcDbVertex
100
AcDb2dVertex
 10
126.1230509124796
 20
419.5728392505755
 30
0.0
  0
VERTEX
  5
11C6
330
1173
100
AcDbEntity
  8
Piper
 62
   250
420
  2301728
370
     9
100
AcDbVertex
100
AcDb2dVertex
 10
126.018320009728
 20
419.5728392505755
 30
0.0
  0
VERTEX
  5
11C7
330
1173
100
AcDbEntity
  8
Piper
 62
   250
420
  2301728
370
     9
100
AcDbVertex
100
AcDb2dVertex
 10
125.9135891069764
 20
419.5728392505755
 30
0.0
  0
VERTEX
  5
11C8
330
1173
100
AcDbEntity
  8
Piper
 62
   250
420
  2301728
370
     9
100
AcDbVertex
100
AcDb2dVertex
 10
125.7897379242817
 20
419.5728392505755
 30
0.0
  0
VERTEX
  5
11C9
330
1173
100
AcDbEntity
  8
Piper
 62
   250
420
  2301728
370
     9
100
AcDbVertex
100
AcDb2dVertex
 10
125.6564127290025
 20
419.5728392505755
 30
0.0
  0
VERTEX
  5
11CA
330
1173
100
AcDbEntity
  8
Piper
 62
   250
420
  2301728
370
     9
100
AcDbVertex
100
AcDb2dVertex
 10
125.5136135211389
 20
419.5728392505755
 30
0.0
  0
VERTEX
  5
11CB
330
1173
100
AcDbEntity
  8
Piper
 62
   250
420
  2301728
370
     9
100
AcDbVertex
100
AcDb2dVertex
 10
125.3706420585011
 20
419.5728392505755
 30
0.0
  0
VERTEX
  5
11CC
330
1173
100
AcDbEntity
  8
Piper
 62
   250
420
  2301728
370
     9
100
AcDbVertex
100
AcDb2dVertex
 10
125.218368838053
 20
419.5728392505755
 30
0.0
  0
VERTEX
  5
11CD
330
1173
100
AcDbEntity
  8
Piper
 62
   250
420
  2301728
370
     9
100
AcDbVertex
100
AcDb2dVertex
 10
125.0564493502463
 20
419.5728392505755
 30
0.0
  0
VERTEX
  5
11CE
330
1173
100
AcDbEntity
  8
Piper
 62
   250
420
  2301728
370
     9
100
AcDbVertex
100
AcDb2dVertex
 10
124.8945298624395
 20
419.5728392505755
 30
0.0
  0
VERTEX
  5
11CF
330
1173
100
AcDbEntity
  8
Piper
 62
   250
420
  2301728
370
     9
100
AcDbVertex
100
AcDb2dVertex
 10
124.7326103746328
 20
419.5728392505755
 30
0.0
  0
VERTEX
  5
11D0
330
1173
100
AcDbEntity
  8
Piper
 62
   250
420
  2301728
370
     9
100
AcDbVertex
100
AcDb2dVertex
 10
124.5706908868261
 20
419.5728392505755
 30
0.0
  0
VERTEX
  5
11D1
330
1173
100
AcDbEntity
  8
Piper
 62
   250
420
  2301728
370
     9
100
AcDbVertex
100
AcDb2dVertex
 10
124.408599144245
 20
419.5728392505755
 30
0.0
  0
VERTEX
  5
11D2
330
1173
100
AcDbEntity
  8
Piper
 62
   250
420
  2301728
370
     9
100
AcDbVertex
100
AcDb2dVertex
 10
124.2466796564383
 20
419.5728392505755
 30
0.0
  0
VERTEX
  5
11D3
330
1173
100
AcDbEntity
  8
Piper
 62
   250
420
  2301728
370
     9
100
AcDbVertex
100
AcDb2dVertex
 10
124.094234181216
 20
419.5728392505755
 30
0.0
  0
VERTEX
  5
11D4
330
1173
100
AcDbEntity
  8
Piper
 62
   250
420
  2301728
370
     9
100
AcDbVertex
100
AcDb2dVertex
 10
123.941960960768
 20
419.5728392505755
 30
0.0
  0
VERTEX
  5
11D5
330
1173
100
AcDbEntity
  8
Piper
 62
   250
420
  2301728
370
     9
100
AcDbVertex
100
AcDb2dVertex
 10
123.7895154855457
 20
419.5728392505755
 30
0.0
  0
VERTEX
  5
11D6
330
1173
100
AcDbEntity
  8
Piper
 62
   250
420
  2301728
370
     9
100
AcDbVertex
100
AcDb2dVertex
 10
123.646716277682
 20
419.5728392505755
 30
0.0
  0
VERTEX
  5
11D7
330
1173
100
AcDbEntity
  8
Piper
 62
   250
420
  2301728
370
     9
100
AcDbVertex
100
AcDb2dVertex
 10
123.5133910824029
 20
419.5728392505755
 30
0.0
  0
VERTEX
  5
11D8
330
1173
100
AcDbEntity
  8
Piper
 62
   250
420
  2301728
370
     9
100
AcDbVertex
100
AcDb2dVertex
 10
123.3990139122926
 20
419.5728392505755
 30
0.0
  0
VERTEX
  5
11D9
330
1173
100
AcDbEntity
  8
Piper
 62
   250
420
  2301728
370
     9
100
AcDbVertex
100
AcDb2dVertex
 10
123.2846367421823
 20
419.5728392505755
 30
0.0
  0
VERTEX
  5
11DA
330
1173
100
AcDbEntity
  8
Piper
 62
   250
420
  2301728
370
     9
100
AcDbVertex
100
AcDb2dVertex
 10
123.1799058394307
 20
419.5728392505755
 30
0.0
  0
VERTEX
  5
11DB
330
1173
100
AcDbEntity
  8
Piper
 62
   250
420
  2301728
370
     9
100
AcDbVertex
100
AcDb2dVertex
 10
123.094122961848
 20
419.5728392505755
 30
0.0
  0
VERTEX
  5
11DC
330
1173
100
AcDbEntity
  8
Piper
 62
   250
420
  2301728
370
     9
100
AcDbVertex
100
AcDb2dVertex
 10
123.0179863516239
 20
419.5728392505755
 30
0.0
  0
VERTEX
  5
11DD
330
1173
100
AcDbEntity
  8
Piper
 62
   250
420
  2301728
370
     9
100
AcDbVertex
100
AcDb2dVertex
 10
122.9513237539844
 20
419.5728392505755
 30
0.0
  0
VERTEX
  5
11DE
330
1173
100
AcDbEntity
  8
Piper
 62
   250
420
  2301728
370
     9
100
AcDbVertex
100
AcDb2dVertex
 10
122.8941351689292
 20
419.5728392505755
 30
0.0
  0
VERTEX
  5
11DF
330
1173
100
AcDbEntity
  8
Piper
 62
   250
420
  2301728
370
     9
100
AcDbVertex
100
AcDb2dVertex
 10
122.8655408764017
 20
419.5728392505755
 30
0.0
  0
VERTEX
  5
11E0
330
1173
100
AcDbEntity
  8
Piper
 62
   250
420
  2301728
370
     9
100
AcDbVertex
100
AcDb2dVertex
 10
122.8371188386483
 20
419.5728392505755
 30
0.0
  0
VERTEX
  5
11E1
330
1173
100
AcDbEntity
  8
Piper
 62
   250
420
  2301728
370
     9
100
AcDbVertex
100
AcDb2dVertex
 10
122.8371188386483
 20
419.5728392505755
 30
0.0
  0
VERTEX
  5
11E2
330
1173
100
AcDbEntity
  8
Piper
 62
   250
420
  2301728
370
     9
100
AcDbVertex
100
AcDb2dVertex
 10
122.7894042661776
 20
419.58231326316
 30
0.0
  0
VERTEX
  5
11E3
330
1173
100
AcDbEntity
  8
Piper
 62
   250
420
  2301728
370
     9
100
AcDbVertex
100
AcDb2dVertex
 10
122.6369587909553
 20
419.6300278356306
 30
0.0
  0
VERTEX
  5
11E4
330
1173
100
AcDbEntity
  8
Piper
 62
   250
420
  2301728
370
     9
100
AcDbVertex
100
AcDb2dVertex
 10
122.4846855705073
 20
419.6870441659116
 30
0.0
  0
VERTEX
  5
11E5
330
1173
100
AcDbEntity
  8
Piper
 62
   250
420
  2301728
370
     9
100
AcDbVertex
100
AcDb2dVertex
 10
122.3417141078694
 20
419.7442327509667
 30
0.0
  0
VERTEX
  5
11E6
330
1173
100
AcDbEntity
  8
Piper
 62
   250
420
  2301728
370
     9
100
AcDbVertex
100
AcDb2dVertex
 10
122.2083889125902
 20
419.8108953486062
 30
0.0
  0
VERTEX
  5
11E7
330
1173
100
AcDbEntity
  8
Piper
 62
   250
420
  2301728
370
     9
100
AcDbVertex
100
AcDb2dVertex
 10
122.0750637173111
 20
419.8872042136046
 30
0.0
  0
VERTEX
  5
11E8
330
1173
100
AcDbEntity
  8
Piper
 62
   250
420
  2301728
370
     9
100
AcDbVertex
100
AcDb2dVertex
 10
121.9512125346164
 20
419.9538668112442
 30
0.0
  0
VERTEX
  5
11E9
330
1173
100
AcDbEntity
  8
Piper
 62
   250
420
  2301728
370
     9
100
AcDbVertex
100
AcDb2dVertex
 10
121.8273613519216
 20
420.0394774340526
 30
0.0
  0
VERTEX
  5
11EA
330
1173
100
AcDbEntity
  8
Piper
 62
   250
420
  2301728
370
     9
100
AcDbVertex
100
AcDb2dVertex
 10
121.72263044917
 20
420.1252603116353
 30
0.0
  0
VERTEX
  5
11EB
330
1173
100
AcDbEntity
  8
Piper
 62
   250
420
  2301728
370
     9
100
AcDbVertex
100
AcDb2dVertex
 10
121.6178995464184
 20
420.2205172018024
 30
0.0
  0
VERTEX
  5
11EC
330
1173
100
AcDbEntity
  8
Piper
 62
   250
420
  2301728
370
     9
100
AcDbVertex
100
AcDb2dVertex
 10
121.5321166688357
 20
420.3157740919697
 30
0.0
  0
VERTEX
  5
11ED
330
1173
100
AcDbEntity
  8
Piper
 62
   250
420
  2301728
370
     9
100
AcDbVertex
100
AcDb2dVertex
 10
121.446333791253
 20
420.43015126208
 30
0.0
  0
VERTEX
  5
11EE
330
1173
100
AcDbEntity
  8
Piper
 62
   250
420
  2301728
370
     9
100
AcDbVertex
100
AcDb2dVertex
 10
121.3796711936134
 20
420.544356177416
 30
0.0
  0
VERTEX
  5
11EF
330
1173
100
AcDbEntity
  8
Piper
 62
   250
420
  2301728
370
     9
100
AcDbVertex
100
AcDb2dVertex
 10
121.3130085959738
 20
420.6682073601107
 30
0.0
  0
VERTEX
  5
11F0
330
1173
100
AcDbEntity
  8
Piper
 62
   250
420
  2301728
370
     9
100
AcDbVertex
100
AcDb2dVertex
 10
121.2654662782774
 20
420.7920585428055
 30
0.0
  0
VERTEX
  5
11F1
330
1173
100
AcDbEntity
  8
Piper
 62
   250
420
  2301728
370
     9
100
AcDbVertex
100
AcDb2dVertex
 10
121.2177517058067
 20
420.9253837380846
 30
0.0
  0
VERTEX
  5
11F2
330
1173
100
AcDbEntity
  8
Piper
 62
   250
420
  2301728
370
     9
100
AcDbVertex
100
AcDb2dVertex
 10
121.1891574132791
 20
421.0681829459482
 30
0.0
  0
VERTEX
  5
11F3
330
1173
100
AcDbEntity
  8
Piper
 62
   250
420
  2301728
370
     9
100
AcDbVertex
100
AcDb2dVertex
 10
121.1607353755258
 20
421.2206284211705
 30
0.0
  0
VERTEX
  5
11F4
330
1173
100
AcDbEntity
  8
Piper
 62
   250
420
  2301728
370
     9
100
AcDbVertex
100
AcDb2dVertex
 10
121.1416150955826
 20
421.3730738963928
 30
0.0
  0
VERTEX
  5
11F5
330
1173
100
AcDbEntity
  8
Piper
 62
   250
420
  2301728
370
     9
100
AcDbVertex
100
AcDb2dVertex
 10
121.1321410829982
 20
421.5253471168408
 30
0.0
  0
VERTEX
  5
11F6
330
1173
100
AcDbEntity
  8
Piper
 62
   250
420
  2301728
370
     9
100
AcDbVertex
100
AcDb2dVertex
 10
121.1224948156395
 20
421.6872666046477
 30
0.0
  0
VERTEX
  5
11F7
330
1173
100
AcDbEntity
  8
Piper
 62
   250
420
  2301728
370
     9
100
AcDbVertex
100
AcDb2dVertex
 10
121.1224948156395
 20
421.8491860924543
 30
0.0
  0
VERTEX
  5
11F8
330
1173
100
AcDbEntity
  8
Piper
 62
   250
420
  2301728
370
     9
100
AcDbVertex
100
AcDb2dVertex
 10
121.1321410829982
 20
422.0112778350354
 30
0.0
  0
VERTEX
  5
11F9
330
1173
100
AcDbEntity
  8
Piper
 62
   250
420
  2301728
370
     9
100
AcDbVertex
100
AcDb2dVertex
 10
121.1416150955826
 20
422.1826713354265
 30
0.0
  0
VERTEX
  5
11FA
330
1173
100
AcDbEntity
  8
Piper
 62
   250
420
  2301728
370
     9
100
AcDbVertex
100
AcDb2dVertex
 10
121.1510891081671
 20
422.3540648358177
 30
0.0
  0
VERTEX
  5
11FB
330
1173
100
AcDbEntity
  8
Piper
 62
   250
420
  2301728
370
     9
100
AcDbVertex
100
AcDb2dVertex
 10
121.1986314258635
 20
422.6970240913743
 30
0.0
  0
VERTEX
  5
11FC
330
1173
100
AcDbEntity
  8
Piper
 62
   250
420
  2301728
370
     9
100
AcDbVertex
100
AcDb2dVertex
 10
121.2558200109187
 20
423.0398110921568
 30
0.0
  0
VERTEX
  5
11FD
330
1173
100
AcDbEntity
  8
Piper
 62
   250
420
  2301728
370
     9
100
AcDbVertex
100
AcDb2dVertex
 10
121.3130085959738
 20
423.3827703477133
 30
0.0
  0
VERTEX
  5
11FE
330
1173
100
AcDbEntity
  8
Piper
 62
   250
420
  2301728
370
     9
100
AcDbVertex
100
AcDb2dVertex
 10
121.3796711936134
 20
423.7162555906855
 30
0.0
  0
VERTEX
  5
11FF
330
1173
100
AcDbEntity
  8
Piper
 62
   250
420
  2301728
370
     9
100
AcDbVertex
100
AcDb2dVertex
 10
121.4559800586117
 20
424.040094566299
 30
0.0
  0
VERTEX
  5
1200
330
1173
100
AcDbEntity
  8
Piper
 62
   250
420
  2301728
370
     9
100
AcDbVertex
100
AcDb2dVertex
 10
121.5226426562513
 20
424.3448132619693
 30
0.0
  0
VERTEX
  5
1201
330
1173
100
AcDbEntity
  8
Piper
 62
   250
420
  2301728
370
     9
100
AcDbVertex
100
AcDb2dVertex
 10
121.5987792664753
 20
424.6591782249984
 30
0.0
  0
VERTEX
  5
1202
330
1173
100
AcDbEntity
  8
Piper
 62
   250
420
  2301728
370
     9
100
AcDbVertex
100
AcDb2dVertex
 10
121.684562144058
 20
424.9544229080843
 30
0.0
  0
VERTEX
  5
1203
330
1173
100
AcDbEntity
  8
Piper
 62
   250
420
  2301728
370
     9
100
AcDbVertex
100
AcDb2dVertex
 10
121.7798190342252
 20
425.2496675911702
 30
0.0
  0
VERTEX
  5
1204
330
1173
100
AcDbEntity
  8
Piper
 62
   250
420
  2301728
370
     9
100
AcDbVertex
100
AcDb2dVertex
 10
121.8273613519216
 20
425.4021130663925
 30
0.0
  0
VERTEX
  5
1205
330
1173
100
AcDbEntity
  8
Piper
 62
   250
420
  2301728
370
     9
100
AcDbVertex
100
AcDb2dVertex
 10
121.8845499369768
 20
425.5450845290304
 30
0.0
  0
VERTEX
  5
1206
330
1173
100
AcDbEntity
  8
Piper
 62
   250
420
  2301728
370
     9
100
AcDbVertex
100
AcDb2dVertex
 10
121.9512125346164
 20
425.687883736894
 30
0.0
  0
VERTEX
  5
1207
330
1173
100
AcDbEntity
  8
Piper
 62
   250
420
  2301728
370
     9
100
AcDbVertex
100
AcDb2dVertex
 10
122.0178751322559
 20
425.8403292121163
 30
0.0
  0
VERTEX
  5
1208
330
1173
100
AcDbEntity
  8
Piper
 62
   250
420
  2301728
370
     9
100
AcDbVertex
100
AcDb2dVertex
 10
122.09401174248
 20
425.9736544073954
 30
0.0
  0
VERTEX
  5
1209
330
1173
100
AcDbEntity
  8
Piper
 62
   250
420
  2301728
370
     9
100
AcDbVertex
100
AcDb2dVertex
 10
122.1703206074782
 20
426.116453615259
 30
0.0
  0
VERTEX
  5
120A
330
1173
100
AcDbEntity
  8
Piper
 62
   250
420
  2301728
370
     9
100
AcDbVertex
100
AcDb2dVertex
 10
122.2655774976454
 20
426.2497788105382
 30
0.0
  0
VERTEX
  5
120B
330
1173
100
AcDbEntity
  8
Piper
 62
   250
420
  2301728
370
     9
100
AcDbVertex
100
AcDb2dVertex
 10
122.3608343878126
 20
426.373629993233
 30
0.0
  0
VERTEX
  5
120C
330
1173
100
AcDbEntity
  8
Piper
 62
   250
420
  2301728
370
     9
100
AcDbVertex
100
AcDb2dVertex
 10
122.4655652905642
 20
426.4880071633433
 30
0.0
  0
VERTEX
  5
120D
330
1173
100
AcDbEntity
  8
Piper
 62
   250
420
  2301728
370
     9
100
AcDbVertex
100
AcDb2dVertex
 10
122.5894164732589
 20
426.6022120786793
 30
0.0
  0
VERTEX
  5
120E
330
1173
100
AcDbEntity
  8
Piper
 62
   250
420
  2301728
370
     9
100
AcDbVertex
100
AcDb2dVertex
 10
122.7132676559536
 20
426.6974689688464
 30
0.0
  0
VERTEX
  5
120F
330
1173
100
AcDbEntity
  8
Piper
 62
   250
420
  2301728
370
     9
100
AcDbVertex
100
AcDb2dVertex
 10
122.8371188386483
 20
426.7927258590137
 30
0.0
  0
VERTEX
  5
1210
330
1173
100
AcDbEntity
  8
Piper
 62
   250
420
  2301728
370
     9
100
AcDbVertex
100
AcDb2dVertex
 10
122.979918046512
 20
426.8785087365963
 30
0.0
  0
VERTEX
  5
1211
330
1173
100
AcDbEntity
  8
Piper
 62
   250
420
  2301728
370
     9
100
AcDbVertex
100
AcDb2dVertex
 10
123.1227172543756
 20
426.9546453468203
 30
0.0
  0
VERTEX
  5
1212
330
1173
100
AcDbEntity
  8
Piper
 62
   250
420
  2301728
370
     9
100
AcDbVertex
100
AcDb2dVertex
 10
123.2656887170134
 20
427.02130794446
 30
0.0
  0
VERTEX
  5
1213
330
1173
100
AcDbEntity
  8
Piper
 62
   250
420
  2301728
370
     9
100
AcDbVertex
100
AcDb2dVertex
 10
123.4179619374615
 20
427.0690225169306
 30
0.0
  0
VERTEX
  5
1214
330
1173
100
AcDbEntity
  8
Piper
 62
   250
420
  2301728
370
     9
100
AcDbVertex
100
AcDb2dVertex
 10
123.5704074126838
 20
427.1165648346271
 30
0.0
  0
VERTEX
  5
1215
330
1173
100
AcDbEntity
  8
Piper
 62
   250
420
  2301728
370
     9
100
AcDbVertex
100
AcDb2dVertex
 10
123.7228528879061
 20
427.1451591271547
 30
0.0
  0
VERTEX
  5
1216
330
1173
100
AcDbEntity
  8
Piper
 62
   250
420
  2301728
370
     9
100
AcDbVertex
100
AcDb2dVertex
 10
123.8752983631284
 20
427.1737534196822
 30
0.0
  0
VERTEX
  5
1217
330
1173
100
AcDbEntity
  8
Piper
 62
   250
420
  2301728
370
     9
100
AcDbVertex
100
AcDb2dVertex
 10
124.0372178509351
 20
427.1928736996254
 30
0.0
  0
VERTEX
  5
1218
330
1173
100
AcDbEntity
  8
Piper
 62
   250
420
  2301728
370
     9
100
AcDbVertex
100
AcDb2dVertex
 10
124.1896633261574
 20
427.2023477122099
 30
0.0
  0
VERTEX
  5
1219
330
1173
100
AcDbEntity
  8
Piper
 62
   250
420
  2301728
370
     9
100
AcDbVertex
100
AcDb2dVertex
 10
124.3515828139642
 20
427.2023477122099
 30
0.0
  0
SEQEND
  5
121A
330
1173
100
AcDbEntity
  8
Piper
370
     9
  0
ENDBLK
  5
121B
330
1171
100
AcDbEntity
  8
0
100
AcDbBlockEnd
  0
BLOCK
  5
121D
330
121C
100
AcDbEntity
  8
0
100
AcDbBlockBegin
  2
block 10
 70
     0
 10
0.0
 20
0.0
 30
0.0
  3
block 10
  1

  0
INSERT
  5
121E
330
121C
100
AcDbEntity
  8
Piper
100
AcDbBlockReference
  2
block 11
 10
0.0
 20
0.0
 30
0.0
  0
INSERT
  5
121F
330
121C
100
AcDbEntity
  8
Piper
100
AcDbBlockReference
  2
block 13
 10
0.0
 20
0.0
 30
0.0
  0
POLYLINE
  5
1220
330
121C
100
AcDbEntity
  8
Piper
 62
   250
420
  2301728
370
     9
100
AcDb2dPolyline
 66
     1
 10
0.0
 20
0.0
 30
0.0
  0
VERTEX
  5
1221
330
1220
100
AcDbEntity
  8
Piper
 62
   250
420
  2301728
370
     9
100
AcDbVertex
100
AcDb2dVertex
 10
152.6321993976058
 20
426.3720797002646
 30
0.0
  0
VERTEX
  5
1222
330
1220
100
AcDbEntity
  8
Piper
 62
   250
420
  2301728
370
     9
100
AcDbVertex
100
AcDb2dVertex
 10
152.1361056477298
 20
426.3720797002646
 30
0.0
  0
VERTEX
  5
1223
330
1220
100
AcDbEntity
  8
Piper
 62
   250
420
  2301728
370
     9
100
AcDbVertex
100
AcDb2dVertex
 10
152.1361056477298
 20
435.8514321827038
 30
0.0
  0
VERTEX
  5
1224
330
1220
100
AcDbEntity
  8
Piper
 62
   250
420
  2301728
370
     9
100
AcDbVertex
100
AcDb2dVertex
 10
152.6321993976058
 20
435.8514321827038
 30
0.0
  0
VERTEX
  5
1225
330
1220
100
AcDbEntity
  8
Piper
 62
   250
420
  2301728
370
     9
100
AcDbVertex
100
AcDb2dVertex
 10
152.6321993976058
 20
426.3720797002646
 30
0.0
  0
SEQEND
  5
1226
330
1220
100
AcDbEntity
  8
Piper
370
     9
  0
ENDBLK
  5
1227
330
121C
100
AcDbEntity
  8
0
100
AcDbBlockEnd
  0
BLOCK
  5
1229
330
1228
100
AcDbEntity
  8
0
100
AcDbBlockBegin
  2
block 11
 70
     0
 10
0.0
 20
0.0
 30
0.0
  3
block 11
  1

  0
POLYLINE
  5
122A
330
1228
100
AcDbEntity
  8
Piper
 62
   250
420
  2301728
370
     9
100
AcDb2dPolyline
 66
     1
 10
0.0
 20
0.0
 30
0.0
  0
VERTEX
  5
122B
330
122A
100
AcDbEntity
  8
Piper
 62
   250
420
  2301728
370
     9
100
AcDbVertex
100
AcDb2dVertex
 10
152.2435926268696
 20
443.2527030684403
 30
0.0
  0
VERTEX
  5
122C
330
122A
100
AcDbEntity
  8
Piper
 62
   250
420
  2301728
370
     9
100
AcDbVertex
100
AcDb2dVertex
 10
152.2435926268696
 20
435.8514321827038
 30
0.0
  0
VERTEX
  5
122D
330
122A
100
AcDbEntity
  8
Piper
 62
   250
420
  2301728
370
     9
100
AcDbVertex
100
AcDb2dVertex
 10
152.5295355521454
 20
435.8514321827038
 30
0.0
  0
VERTEX
  5
122E
330
122A
100
AcDbEntity
  8
Piper
 62
   250
420
  2301728
370
     9
100
AcDbVertex
100
AcDb2dVertex
 10
152.5295355521454
 20
443.2527030684403
 30
0.0
  0
VERTEX
  5
122F
330
122A
100
AcDbEntity
  8
Piper
 62
   250
420
  2301728
370
     9
100
AcDbVertex
100
AcDb2dVertex
 10
152.2435926268696
 20
443.2527030684403
 30
0.0
  0
SEQEND
  5
1230
330
122A
100
AcDbEntity
  8
Piper
370
     9
  0
POLYLINE
  5
1231
330
1228
100
AcDbEntity
  8
Piper
 62
   250
420
  2301728
370
     9
100
AcDb2dPolyline
 66
     1
 10
0.0
 20
0.0
 30
0.0
  0
VERTEX
  5
1232
330
1231
100
AcDbEntity
  8
Piper
 62
   250
420
  2301728
370
     9
100
AcDbVertex
100
AcDb2dVertex
 10
152.1264593803711
 20
443.5488090253975
 30
0.0
  0
VERTEX
  5
1233
330
1231
100
AcDbEntity
  8
Piper
 62
   250
420
  2301728
370
     9
100
AcDbVertex
100
AcDb2dVertex
 10
152.1264593803711
 20
443.2527030684403
 30
0.0
  0
VERTEX
  5
1234
330
1231
100
AcDbEntity
  8
Piper
 62
   250
420
  2301728
370
     9
100
AcDbVertex
100
AcDb2dVertex
 10
152.172279150325
 20
443.2527030684403
 30
0.0
  0
VERTEX
  5
1235
330
1231
100
AcDbEntity
  8
Piper
 62
   250
420
  2301728
370
     9
100
AcDbVertex
100
AcDb2dVertex
 10
152.5667425833861
 20
443.2527030684403
 30
0.0
  0
VERTEX
  5
1236
330
1231
100
AcDbEntity
  8
Piper
 62
   250
420
  2301728
370
     9
100
AcDbVertex
100
AcDb2dVertex
 10
152.6359890026396
 20
443.2527030684403
 30
0.0
  0
VERTEX
  5
1237
330
1231
100
AcDbEntity
  8
Piper
 62
   250
420
  2301728
370
     9
100
AcDbVertex
100
AcDb2dVertex
 10
152.6359890026396
 20
443.5488090253975
 30
0.0
  0
SEQEND
  5
1238
330
1231
100
AcDbEntity
  8
Piper
370
     9
  0
INSERT
  5
1239
330
1228
100
AcDbEntity
  8
Piper
100
AcDbBlockReference
  2
block 12
 10
0.0
 20
0.0
 30
0.0
  0
ENDBLK
  5
123A
330
1228
100
AcDbEntity
  8
0
100
AcDbBlockEnd
  0
BLOCK
  5
123C
330
123B
100
AcDbEntity
  8
0
100
AcDbBlockBegin
  2
block 12
 70
     0
 10
0.0
 20
0.0
 30
0.0
  3
block 12
  1

  0
POLYLINE
  5
123D
330
123B
100
AcDbEntity
  8
Piper
 62
   250
420
  2301728
370
     9
100
AcDb2dPolyline
 66
     1
 10
0.0
 20
0.0
 30
0.0
  0
VERTEX
  5
123E
330
123D
100
AcDbEntity
  8
Piper
 62
   250
420
  2301728
370
     9
100
AcDbVertex
100
AcDb2dVertex
 10
153.9771646750474
 20
443.5488090253975
 30
0.0
  0
VERTEX
  5
123F
330
123D
100
AcDbEntity
  8
Piper
 62
   250
420
  2301728
370
     9
100
AcDbVertex
100
AcDb2dVertex
 10
153.9771646750474
 20
444.1856349258459
 30
0.0
  0
VERTEX
  5
1240
330
123D
100
AcDbEntity
  8
Piper
 62
   250
420
  2301728
370
     9
100
AcDbVertex
100
AcDb2dVertex
 10
150.7687472496342
 20
444.1856349258459
 30
0.0
  0
VERTEX
  5
1241
330
123D
100
AcDbEntity
  8
Piper
 62
   250
420
  2301728
370
     9
100
AcDbVertex
100
AcDb2dVertex
 10
150.7687472496342
 20
443.5488090253975
 30
0.0
  0
VERTEX
  5
1242
330
123D
100
AcDbEntity
  8
Piper
 62
   250
420
  2301728
370
     9
100
AcDbVertex
100
AcDb2dVertex
 10
153.9771646750474
 20
443.5488090253975
 30
0.0
  0
SEQEND
  5
1243
330
123D
100
AcDbEntity
  8
Piper
370
     9
  0
ENDBLK
  5
1244
330
123B
100
AcDbEntity
  8
0
100
AcDbBlockEnd
  0
BLOCK
  5
1246
330
1245
100
AcDbEntity
  8
0
100
AcDbBlockBegin
  2
block 13
 70
     0
 10
0.0
 20
0.0
 30
0.0
  3
block 13
  1

  0
SPLINE
  5
1247
330
1245
100
AcDbEntity
  8
Piper
 62
   250
420
  2301728
370
     9
100
AcDbSpline
210
0.0
220
0.0
230
1.0
 70
    11
 71
     3
 72
    59
 73
    55
 74
     0
 42
0.000000001
 43
0.0000000001
 40
0.0
 40
0.0
 40
0.0
 40
0.0
 40
1.0
 40
1.0
 40
1.0
 40
2.0
 40
2.0
 40
2.0
 40
3.0
 40
3.0
 40
3.0
 40
4.0
 40
4.0
 40
4.0
 40
5.0
 40
5.0
 40
5.0
 40
6.0
 40
6.0
 40
6.0
 40
7.0
 40
7.0
 40
7.0
 40
8.0
 40
8.0
 40
8.0
 40
9.0
 40
9.0
 40
9.0
 40
10.0
 40
10.0
 40
10.0
 40
11.0
 40
11.0
 40
11.0
 40
12.0
 40
12.0
 40
12.0
 40
13.0
 40
13.0
 40
13.0
 40
14.0
 40
14.0
 40
14.0
 40
15.0
 40
15.0
 40
15.0
 40
16.0
 40
16.0
 40
16.0
 40
17.0
 40
17.0
 40
17.0
 40
18.0
 40
18.0
 40
18.0
 40
18.0
 10
152.3056043456041
 20
426.3708739168448
 30
0.0
 10
152.3056043456041
 20
426.3708739168448
 30
0.0
 10
151.0026692330827
 20
426.1410860479786
 30
0.0
 10
150.5847791507218
 20
425.7653983853121
 30
0.0
 10
150.166889068361
 20
425.3897107226456
 30
0.0
 10
149.2797769809092
 20
424.5479016408248
 30
0.0
 10
149.1178574931025
 20
423.8128905190468
 30
0.0
 10
148.9559380052957
 20
423.0778793972687
 30
0.0
 10
148.6031602276062
 20
421.426989640737
 30
0.0
 10
148.8798013950717
 20
420.9172877636943
 30
0.0
 10
149.1564425625373
 20
420.4075858866516
 30
0.0
 10
149.1226806267818
 20
420.3123289964844
 30
0.0
 10
149.3300753749938
 20
420.1790038012052
 30
0.0
 10
149.5374701232059
 20
420.0456786059261
 30
0.0
 10
150.2313123539352
 20
419.6779146628757
 30
0.0
 10
150.3274305179737
 20
419.6522487015106
 30
0.0
 10
150.4235486820121
 20
419.6265827401454
 30
0.0
 10
150.5554958390972
 20
419.579040422449
 30
0.0
 10
150.794240956225
 20
419.5742172887696
 30
0.0
 10
151.0329860733528
 20
419.5693941550903
 30
0.0
 10
152.4130913247439
 20
419.579040422449
 30
0.0
 10
152.6135958819855
 20
419.5742172887696
 30
0.0
 10
152.814100439227
 20
419.5693941550903
 30
0.0
 10
153.8720892627472
 20
419.579040422449
 30
0.0
 10
154.0250515022923
 20
419.5742172887696
 30
0.0
 10
154.1780137418374
 20
419.5693941550903
 30
0.0
 10
154.3106499180195
 20
419.6097017722677
 30
0.0
 10
154.4632676480161
 20
419.6694741789368
 30
0.0
 10
154.6158853780127
 20
419.7292465856058
 30
0.0
 10
155.1281710766693
 20
419.938019372012
 30
0.0
 10
155.3080050609994
 20
420.0970105286563
 30
0.0
 10
155.4878390453294
 20
420.2560016853006
 30
0.0
 10
155.757934531373
 20
420.6173922017033
 30
0.0
 10
155.8633544532216
 20
420.9172877636943
 30
0.0
 10
155.9687743750703
 20
421.2171833256853
 30
0.0
 10
155.9546494835808
 20
421.8552150095535
 30
0.0
 10
155.9680853559733
 20
422.079318470869
 30
0.0
 10
155.9815212283657
 20
422.3034219321845
 30
0.0
 10
155.7872178429976
 20
423.1507431667817
 30
0.0
 10
155.7207275001323
 20
423.4794052760745
 30
0.0
 10
155.654237157267
 20
423.8080673853674
 30
0.0
 10
155.18639319037
 20
424.7129217145682
 30
0.0
 10
155.0441107468292
 20
424.9272066537508
 30
0.0
 10
154.9018283032884
 20
425.1414915929333
 30
0.0
 10
154.392987700117
 20
425.5927991015011
 30
0.0
 10
154.2903238546566
 20
425.676687176567
 30
0.0
 10
154.1876600091961
 20
425.7605752516328
 30
0.0
 10
153.9006835552748
 20
425.9417872741569
 30
0.0
 10
153.6054388721889
 20
426.0608153231723
 30
0.0
 10
153.310194189103
 20
426.1798433721876
 30
0.0
 10
152.9284776093373
 20
426.3129963126925
 30
0.0
 10
152.7093695364754
 20
426.3464137388995
 30
0.0
 10
152.4902614636135
 20
426.3798311651064
 30
0.0
 10
152.3056043456041
 20
426.3708739168448
 30
0.0
 10
152.3056043456041
 20
426.3708739168448
 30
0.0
  0
ENDBLK
  5
1248
330
1245
100
AcDbEntity
  8
0
100
AcDbBlockEnd
  0
BLOCK
  5
124A
330
1249
100
AcDbEntity
  8
0
100
AcDbBlockBegin
  2
block 14
 70
     0
 10
0.0
 20
0.0
 30
0.0
  3
block 14
  1

  0
INSERT
  5
124B
330
1249
100
AcDbEntity
  8
Piper
100
AcDbBlockReference
  2
block 15
 10
0.0
 20
0.0
 30
0.0
  0
INSERT
  5
124C
330
1249
100
AcDbEntity
  8
Piper
100
AcDbBlockReference
  2
block 17
 10
0.0
 20
0.0
 30
0.0
  0
POLYLINE
  5
124D
330
1249
100
AcDbEntity
  8
Piper
 62
   250
420
  2301728
370
     9
100
AcDb2dPolyline
 66
     1
 10
0.0
 20
0.0
 30
0.0
  0
VERTEX
  5
124E
330
124D
100
AcDbEntity
  8
Piper
 62
   250
420
  2301728
370
     9
100
AcDbVertex
100
AcDb2dVertex
 10
180.4031141042047
 20
428.4927082262101
 30
0.0
  0
VERTEX
  5
124F
330
124D
100
AcDbEntity
  8
Piper
 62
   250
420
  2301728
370
     9
100
AcDbVertex
100
AcDb2dVertex
 10
179.9070203543288
 20
428.4927082262101
 30
0.0
  0
VERTEX
  5
1250
330
124D
100
AcDbEntity
  8
Piper
 62
   250
420
  2301728
370
     9
100
AcDbVertex
100
AcDb2dVertex
 10
179.9070203543288
 20
437.5324665247315
 30
0.0
  0
VERTEX
  5
1251
330
124D
100
AcDbEntity
  8
Piper
 62
   250
420
  2301728
370
     9
100
AcDbVertex
100
AcDb2dVertex
 10
180.4031141042047
 20
437.5324665247315
 30
0.0
  0
VERTEX
  5
1252
330
124D
100
AcDbEntity
  8
Piper
 62
   250
420
  2301728
370
     9
100
AcDbVertex
100
AcDb2dVertex
 10
180.4031141042047
 20
428.4927082262101
 30
0.0
  0
SEQEND
  5
1253
330
124D
100
AcDbEntity
  8
Piper
370
     9
  0
ENDBLK
  5
1254
330
1249
100
AcDbEntity
  8
0
100
AcDbBlockEnd
  0
BLOCK
  5
1256
330
1255
100
AcDbEntity
  8
0
100
AcDbBlockBegin
  2
block 15
 70
     0
 10
0.0
 20
0.0
 30
0.0
  3
block 15
  1

  0
POLYLINE
  5
1257
330
1255
100
AcDbEntity
  8
Piper
 62
   250
420
  2301728
370
     9
100
AcDb2dPolyline
 66
     1
 10
0.0
 20
0.0
 30
0.0
  0
VERTEX
  5
1258
330
1257
100
AcDbEntity
  8
Piper
 62
   250
420
  2301728
370
     9
100
AcDbVertex
100
AcDb2dVertex
 10
180.0155408621142
 20
443.4497625301966
 30
0.0
  0
VERTEX
  5
1259
330
1257
100
AcDbEntity
  8
Piper
 62
   250
420
  2301728
370
     9
100
AcDbVertex
100
AcDb2dVertex
 10
180.0155408621142
 20
437.5324665247315
 30
0.0
  0
VERTEX
  5
125A
330
1257
100
AcDbEntity
  8
Piper
 62
   250
420
  2301728
370
     9
100
AcDbVertex
100
AcDb2dVertex
 10
180.3014837873899
 20
437.5324665247315
 30
0.0
  0
VERTEX
  5
125B
330
1257
100
AcDbEntity
  8
Piper
 62
   250
420
  2301728
370
     9
100
AcDbVertex
100
AcDb2dVertex
 10
180.3014837873899
 20
443.4497625301966
 30
0.0
  0
VERTEX
  5
125C
330
1257
100
AcDbEntity
  8
Piper
 62
   250
420
  2301728
370
     9
100
AcDbVertex
100
AcDb2dVertex
 10
180.0155408621142
 20
443.4497625301966
 30
0.0
  0
SEQEND
  5
125D
330
1257
100
AcDbEntity
  8
Piper
370
     9
  0
POLYLINE
  5
125E
330
1255
100
AcDbEntity
  8
Piper
 62
   250
420
  2301728
370
     9
100
AcDb2dPolyline
 66
     1
 10
0.0
 20
0.0
 30
0.0
  0
VERTEX
  5
125F
330
125E
100
AcDbEntity
  8
Piper
 62
   250
420
  2301728
370
     9
100
AcDbVertex
100
AcDb2dVertex
 10
179.8984076156157
 20
443.6864405900332
 30
0.0
  0
VERTEX
  5
1260
330
125E
100
AcDbEntity
  8
Piper
 62
   250
420
  2301728
370
     9
100
AcDbVertex
100
AcDb2dVertex
 10
179.8984076156157
 20
443.4497625301966
 30
0.0
  0
VERTEX
  5
1261
330
125E
100
AcDbEntity
  8
Piper
 62
   250
420
  2301728
370
     9
100
AcDbVertex
100
AcDb2dVertex
 10
179.9442273855695
 20
443.4497625301966
 30
0.0
  0
VERTEX
  5
1262
330
125E
100
AcDbEntity
  8
Piper
 62
   250
420
  2301728
370
     9
100
AcDbVertex
100
AcDb2dVertex
 10
180.3386908186306
 20
443.4497625301966
 30
0.0
  0
VERTEX
  5
1263
330
125E
100
AcDbEntity
  8
Piper
 62
   250
420
  2301728
370
     9
100
AcDbVertex
100
AcDb2dVertex
 10
180.4079372378841
 20
443.4497625301966
 30
0.0
  0
VERTEX
  5
1264
330
125E
100
AcDbEntity
  8
Piper
 62
   250
420
  2301728
370
     9
100
AcDbVertex
100
AcDb2dVertex
 10
180.4079372378841
 20
443.6864405900332
 30
0.0
  0
SEQEND
  5
1265
330
125E
100
AcDbEntity
  8
Piper
370
     9
  0
INSERT
  5
1266
330
1255
100
AcDbEntity
  8
Piper
100
AcDbBlockReference
  2
block 16
 10
0.0
 20
0.0
 30
0.0
  0
ENDBLK
  5
1267
330
1255
100
AcDbEntity
  8
0
100
AcDbBlockEnd
  0
BLOCK
  5
1269
330
1268
100
AcDbEntity
  8
0
100
AcDbBlockBegin
  2
block 16
 70
     0
 10
0.0
 20
0.0
 30
0.0
  3
block 16
  1

  0
POLYLINE
  5
126A
330
1268
100
AcDbEntity
  8
Piper
 62
   250
420
  2301728
370
     9
100
AcDb2dPolyline
 66
     1
 10
0.0
 20
0.0
 30
0.0
  0
VERTEX
  5
126B
330
126A
100
AcDbEntity
  8
Piper
 62
   250
420
  2301728
370
     9
100
AcDbVertex
100
AcDb2dVertex
 10
181.7491129102919
 20
443.6864405900332
 30
0.0
  0
VERTEX
  5
126C
330
126A
100
AcDbEntity
  8
Piper
 62
   250
420
  2301728
370
     9
100
AcDbVertex
100
AcDb2dVertex
 10
181.7491129102919
 20
444.1956257027531
 30
0.0
  0
VERTEX
  5
126D
330
126A
100
AcDbEntity
  8
Piper
 62
   250
420
  2301728
370
     9
100
AcDbVertex
100
AcDb2dVertex
 10
178.5406954848787
 20
444.1956257027531
 30
0.0
  0
VERTEX
  5
126E
330
126A
100
AcDbEntity
  8
Piper
 62
   250
420
  2301728
370
     9
100
AcDbVertex
100
AcDb2dVertex
 10
178.5406954848787
 20
443.6864405900332
 30
0.0
  0
VERTEX
  5
126F
330
126A
100
AcDbEntity
  8
Piper
 62
   250
420
  2301728
370
     9
100
AcDbVertex
100
AcDb2dVertex
 10
181.7491129102919
 20
443.6864405900332
 30
0.0
  0
SEQEND
  5
1270
330
126A
100
AcDbEntity
  8
Piper
370
     9
  0
ENDBLK
  5
1271
330
1268
100
AcDbEntity
  8
0
100
AcDbBlockEnd
  0
BLOCK
  5
1273
330
1272
100
AcDbEntity
  8
0
100
AcDbBlockBegin
  2
block 17
 70
     0
 10
0.0
 20
0.0
 30
0.0
  3
block 17
  1

  0
POLYLINE
  5
1274
330
1272
100
AcDbEntity
  8
Piper
 62
   250
420
  2301728
370
     9
100
AcDb2dPolyline
 66
     1
 10
0.0
 20
0.0
 30
0.0
  0
VERTEX
  5
1275
330
1274
100
AcDbEntity
  8
Piper
 62
   250
420
  2301728
370
     9
100
AcDbVertex
100
AcDb2dVertex
 10
179.7275308795473
 20
428.4927082262101
 30
0.0
  0
VERTEX
  5
1276
330
1274
100
AcDbEntity
  8
Piper
 62
   250
420
  2301728
370
     9
100
AcDbVertex
100
AcDb2dVertex
 10
179.7364881278089
 20
428.4927082262101
 30
0.0
  0
VERTEX
  5
1277
330
1274
100
AcDbEntity
  8
Piper
 62
   250
420
  2301728
370
     9
100
AcDbVertex
100
AcDb2dVertex
 10
179.7540581147837
 20
428.4927082262101
 30
0.0
  0
VERTEX
  5
1278
330
1274
100
AcDbEntity
  8
Piper
 62
   250
420
  2301728
370
     9
100
AcDbVertex
100
AcDb2dVertex
 10
179.7895425982818
 20
428.4927082262101
 30
0.0
  0
VERTEX
  5
1279
330
1274
100
AcDbEntity
  8
Piper
 62
   250
420
  2301728
370
     9
100
AcDbVertex
100
AcDb2dVertex
 10
179.83432883959
 20
428.4927082262101
 30
0.0
  0
VERTEX
  5
127A
330
1274
100
AcDbEntity
  8
Piper
 62
   250
420
  2301728
370
     9
100
AcDbVertex
100
AcDb2dVertex
 10
179.8880723291599
 20
428.4927082262101
 30
0.0
  0
VERTEX
  5
127B
330
1274
100
AcDbEntity
  8
Piper
 62
   250
420
  2301728
370
     9
100
AcDbVertex
100
AcDb2dVertex
 10
179.9504285574429
 20
428.4927082262101
 30
0.0
  0
VERTEX
  5
127C
330
1274
100
AcDbEntity
  8
Piper
 62
   250
420
  2301728
370
     9
100
AcDbVertex
100
AcDb2dVertex
 10
180.0217420339876
 20
428.4927082262101
 30
0.0
  0
VERTEX
  5
127D
330
1274
100
AcDbEntity
  8
Piper
 62
   250
420
  2301728
370
     9
100
AcDbVertex
100
AcDb2dVertex
 10
180.0930555105323
 20
428.4927082262101
 30
0.0
  0
VERTEX
  5
127E
330
1274
100
AcDbEntity
  8
Piper
 62
   250
420
  2301728
370
     9
100
AcDbVertex
100
AcDb2dVertex
 10
180.1733262353386
 20
428.4927082262101
 30
0.0
  0
VERTEX
  5
127F
330
1274
100
AcDbEntity
  8
Piper
 62
   250
420
  2301728
370
     9
100
AcDbVertex
100
AcDb2dVertex
 10
180.2446397118833
 20
428.4927082262101
 30
0.0
  0
VERTEX
  5
1280
330
1274
100
AcDbEntity
  8
Piper
 62
   250
420
  2301728
370
     9
100
AcDbVertex
100
AcDb2dVertex
 10
180.3159531884279
 20
428.4927082262101
 30
0.0
  0
VERTEX
  5
1281
330
1274
100
AcDbEntity
  8
Piper
 62
   250
420
  2301728
370
     9
100
AcDbVertex
100
AcDb2dVertex
 10
180.3869221554241
 20
428.4927082262101
 30
0.0
  0
VERTEX
  5
1282
330
1274
100
AcDbEntity
  8
Piper
 62
   250
420
  2301728
370
     9
100
AcDbVertex
100
AcDb2dVertex
 10
180.4492783837071
 20
428.4927082262101
 30
0.0
  0
VERTEX
  5
1283
330
1274
100
AcDbEntity
  8
Piper
 62
   250
420
  2301728
370
     9
100
AcDbVertex
100
AcDb2dVertex
 10
180.503021873277
 20
428.4927082262101
 30
0.0
  0
VERTEX
  5
1284
330
1274
100
AcDbEntity
  8
Piper
 62
   250
420
  2301728
370
     9
100
AcDbVertex
100
AcDb2dVertex
 10
180.5478081145853
 20
428.4927082262101
 30
0.0
  0
VERTEX
  5
1285
330
1274
100
AcDbEntity
  8
Piper
 62
   250
420
  2301728
370
     9
100
AcDbVertex
100
AcDb2dVertex
 10
180.5836371076319
 20
428.4927082262101
 30
0.0
  0
VERTEX
  5
1286
330
1274
100
AcDbEntity
  8
Piper
 62
   250
420
  2301728
370
     9
100
AcDbVertex
100
AcDb2dVertex
 10
180.6008625850581
 20
428.4927082262101
 30
0.0
  0
VERTEX
  5
1287
330
1274
100
AcDbEntity
  8
Piper
 62
   250
420
  2301728
370
     9
100
AcDbVertex
100
AcDb2dVertex
 10
180.6098198333197
 20
428.4927082262101
 30
0.0
  0
VERTEX
  5
1288
330
1274
100
AcDbEntity
  8
Piper
 62
   250
420
  2301728
370
     9
100
AcDbVertex
100
AcDb2dVertex
 10
180.4492783837071
 20
428.4599798191003
 30
0.0
  0
VERTEX
  5
1289
330
1274
100
AcDbEntity
  8
Piper
 62
   250
420
  2301728
370
     9
100
AcDbVertex
100
AcDb2dVertex
 10
180.6008625850581
 20
428.4599798191003
 30
0.0
  0
VERTEX
  5
128A
330
1274
100
AcDbEntity
  8
Piper
 62
   250
420
  2301728
370
     9
100
AcDbVertex
100
AcDb2dVertex
 10
180.743834047696
 20
428.4491277683217
 30
0.0
  0
VERTEX
  5
128B
330
1274
100
AcDbEntity
  8
Piper
 62
   250
420
  2301728
370
     9
100
AcDbVertex
100
AcDb2dVertex
 10
180.8950737394984
 20
428.4274236667647
 30
0.0
  0
VERTEX
  5
128C
330
1274
100
AcDbEntity
  8
Piper
 62
   250
420
  2301728
370
     9
100
AcDbVertex
100
AcDb2dVertex
 10
181.0380452021363
 20
428.3945230048805
 30
0.0
  0
VERTEX
  5
128D
330
1274
100
AcDbEntity
  8
Piper
 62
   250
420
  2301728
370
     9
100
AcDbVertex
100
AcDb2dVertex
 10
181.1806721552256
 20
428.3619668525449
 30
0.0
  0
VERTEX
  5
128E
330
1274
100
AcDbEntity
  8
Piper
 62
   250
420
  2301728
370
     9
100
AcDbVertex
100
AcDb2dVertex
 10
181.3229545987665
 20
428.3073620891037
 30
0.0
  0
VERTEX
  5
128F
330
1274
100
AcDbEntity
  8
Piper
 62
   250
420
  2301728
370
     9
100
AcDbVertex
100
AcDb2dVertex
 10
181.4655815518558
 20
428.2525850708882
 30
0.0
  0
VERTEX
  5
1290
330
1274
100
AcDbEntity
  8
Piper
 62
   250
420
  2301728
370
     9
100
AcDbVertex
100
AcDb2dVertex
 10
181.6085530144937
 20
428.17627620589
 30
0.0
  0
VERTEX
  5
1291
330
1274
100
AcDbEntity
  8
Piper
 62
   250
420
  2301728
370
     9
100
AcDbVertex
100
AcDb2dVertex
 10
181.7336099806082
 20
428.0891152901132
 30
0.0
  0
VERTEX
  5
1292
330
1274
100
AcDbEntity
  8
Piper
 62
   250
420
  2301728
370
     9
100
AcDbVertex
100
AcDb2dVertex
 10
181.8669351758874
 20
427.9911023235578
 30
0.0
  0
VERTEX
  5
1293
330
1274
100
AcDbEntity
  8
Piper
 62
   250
420
  2301728
370
     9
100
AcDbVertex
100
AcDb2dVertex
 10
181.991992142002
 20
427.8820650514496
 30
0.0
  0
VERTEX
  5
1294
330
1274
100
AcDbEntity
  8
Piper
 62
   250
420
  2301728
370
     9
100
AcDbVertex
100
AcDb2dVertex
 10
182.1077473503064
 20
427.7728555245672
 30
0.0
  0
VERTEX
  5
1295
330
1274
100
AcDbEntity
  8
Piper
 62
   250
420
  2301728
370
     9
100
AcDbVertex
100
AcDb2dVertex
 10
182.2145453103491
 20
427.6421141509019
 30
0.0
  0
VERTEX
  5
1296
330
1274
100
AcDbEntity
  8
Piper
 62
   250
420
  2301728
370
     9
100
AcDbVertex
100
AcDb2dVertex
 10
182.3127305316788
 20
427.5112005224625
 30
0.0
  0
VERTEX
  5
1297
330
1274
100
AcDbEntity
  8
Piper
 62
   250
420
  2301728
370
     9
100
AcDbVertex
100
AcDb2dVertex
 10
182.4019585047467
 20
427.3694348432444
 30
0.0
  0
VERTEX
  5
1298
330
1274
100
AcDbEntity
  8
Piper
 62
   250
420
  2301728
370
     9
100
AcDbVertex
100
AcDb2dVertex
 10
182.4911864778147
 20
427.2168171132478
 30
0.0
  0
VERTEX
  5
1299
330
1274
100
AcDbEntity
  8
Piper
 62
   250
420
  2301728
370
     9
100
AcDbVertex
100
AcDb2dVertex
 10
182.5621554448108
 20
427.053519587247
 30
0.0
  0
VERTEX
  5
129A
330
1274
100
AcDbEntity
  8
Piper
 62
   250
420
  2301728
370
     9
100
AcDbVertex
100
AcDb2dVertex
 10
182.633813430904
 20
426.9005573477019
 30
0.0
  0
VERTEX
  5
129B
330
1274
100
AcDbEntity
  8
Piper
 62
   250
420
  2301728
370
     9
100
AcDbVertex
100
AcDb2dVertex
 10
182.696169659187
 20
426.726063261374
 30
0.0
  0
VERTEX
  5
129C
330
1274
100
AcDbEntity
  8
Piper
 62
   250
420
  2301728
370
     9
100
AcDbVertex
100
AcDb2dVertex
 10
182.7588703970186
 20
426.5625934805989
 30
0.0
  0
VERTEX
  5
129D
330
1274
100
AcDbEntity
  8
Piper
 62
   250
420
  2301728
370
     9
100
AcDbVertex
100
AcDb2dVertex
 10
182.81226937704
 20
426.3989514450496
 30
0.0
  0
VERTEX
  5
129E
330
1274
100
AcDbEntity
  8
Piper
 62
   250
420
  2301728
370
     9
100
AcDbVertex
100
AcDb2dVertex
 10
182.8567111087997
 20
426.2244573587216
 30
0.0
  0
VERTEX
  5
129F
330
1274
100
AcDbEntity
  8
Piper
 62
   250
420
  2301728
370
     9
100
AcDbVertex
100
AcDb2dVertex
 10
182.9548963301293
 20
425.8864934916187
 30
0.0
  0
VERTEX
  5
12A0
330
1274
100
AcDbEntity
  8
Piper
 62
   250
420
  2301728
370
     9
100
AcDbVertex
100
AcDb2dVertex
 10
183.0258652971254
 20
425.5483573697413
 30
0.0
  0
VERTEX
  5
12A1
330
1274
100
AcDbEntity
  8
Piper
 62
   250
420
  2301728
370
     9
100
AcDbVertex
100
AcDb2dVertex
 10
183.0975232832187
 20
425.188517146307
 30
0.0
  0
VERTEX
  5
12A2
330
1274
100
AcDbEntity
  8
Piper
 62
   250
420
  2301728
370
     9
100
AcDbVertex
100
AcDb2dVertex
 10
183.1684922502148
 20
424.8397012284255
 30
0.0
  0
VERTEX
  5
12A3
330
1274
100
AcDbEntity
  8
Piper
 62
   250
420
  2301728
370
     9
100
AcDbVertex
100
AcDb2dVertex
 10
183.2311929880464
 20
424.4688366994384
 30
0.0
  0
VERTEX
  5
12A4
330
1274
100
AcDbEntity
  8
Piper
 62
   250
420
  2301728
370
     9
100
AcDbVertex
100
AcDb2dVertex
 10
183.2932047067808
 20
424.0871201196727
 30
0.0
  0
VERTEX
  5
12A5
330
1274
100
AcDbEntity
  8
Piper
 62
   250
420
  2301728
370
     9
100
AcDbVertex
100
AcDb2dVertex
 10
183.3469481963508
 20
423.6945514891284
 30
0.0
  0
VERTEX
  5
12A6
330
1274
100
AcDbEntity
  8
Piper
 62
   250
420
  2301728
370
     9
100
AcDbVertex
100
AcDb2dVertex
 10
183.4003471763721
 20
423.30181060381
 30
0.0
  0
VERTEX
  5
12A7
330
1274
100
AcDbEntity
  8
Piper
 62
   250
420
  2301728
370
     9
100
AcDbVertex
100
AcDb2dVertex
 10
183.4451334176804
 20
422.9092419732657
 30
0.0
  0
VERTEX
  5
12A8
330
1274
100
AcDbEntity
  8
Piper
 62
   250
420
  2301728
370
     9
100
AcDbVertex
100
AcDb2dVertex
 10
183.4537461563935
 20
422.7130437853807
 30
0.0
  0
VERTEX
  5
12A9
330
1274
100
AcDbEntity
  8
Piper
 62
   250
420
  2301728
370
     9
100
AcDbVertex
100
AcDb2dVertex
 10
183.4630479142037
 20
422.51701785227
 30
0.0
  0
VERTEX
  5
12AA
330
1274
100
AcDbEntity
  8
Piper
 62
   250
420
  2301728
370
     9
100
AcDbVertex
100
AcDb2dVertex
 10
183.4716606529168
 20
422.3311549508408
 30
0.0
  0
VERTEX
  5
12AB
330
1274
100
AcDbEntity
  8
Piper
 62
   250
420
  2301728
370
     9
100
AcDbVertex
100
AcDb2dVertex
 10
183.4716606529168
 20
422.1458088137343
 30
0.0
  0
VERTEX
  5
12AC
330
1274
100
AcDbEntity
  8
Piper
 62
   250
420
  2301728
370
     9
100
AcDbVertex
100
AcDb2dVertex
 10
183.4716606529168
 20
421.9608071861765
 30
0.0
  0
VERTEX
  5
12AD
330
1274
100
AcDbEntity
  8
Piper
 62
   250
420
  2301728
370
     9
100
AcDbVertex
100
AcDb2dVertex
 10
183.4537461563935
 20
421.7863130998486
 30
0.0
  0
VERTEX
  5
12AE
330
1274
100
AcDbEntity
  8
Piper
 62
   250
420
  2301728
370
     9
100
AcDbVertex
100
AcDb2dVertex
 10
183.4361761694187
 20
421.6114745039721
 30
0.0
  0
VERTEX
  5
12AF
330
1274
100
AcDbEntity
  8
Piper
 62
   250
420
  2301728
370
     9
100
AcDbVertex
100
AcDb2dVertex
 10
183.4093044246338
 20
421.4373249271927
 30
0.0
  0
VERTEX
  5
12B0
330
1274
100
AcDbEntity
  8
Piper
 62
   250
420
  2301728
370
     9
100
AcDbVertex
100
AcDb2dVertex
 10
183.3827771893973
 20
421.2736828916434
 30
0.0
  0
VERTEX
  5
12B1
330
1274
100
AcDbEntity
  8
Piper
 62
   250
420
  2301728
370
     9
100
AcDbVertex
100
AcDb2dVertex
 10
183.3376464385406
 20
421.1208929068726
 30
0.0
  0
VERTEX
  5
12B2
330
1274
100
AcDbEntity
  8
Piper
 62
   250
420
  2301728
370
     9
100
AcDbVertex
100
AcDb2dVertex
 10
183.2932047067808
 20
420.9791272276545
 30
0.0
  0
VERTEX
  5
12B3
330
1274
100
AcDbEntity
  8
Piper
 62
   250
420
  2301728
370
     9
100
AcDbVertex
100
AcDb2dVertex
 10
183.2311929880464
 20
420.8373615484364
 30
0.0
  0
VERTEX
  5
12B4
330
1274
100
AcDbEntity
  8
Piper
 62
   250
420
  2301728
370
     9
100
AcDbVertex
100
AcDb2dVertex
 10
183.1684922502148
 20
420.7066201747712
 30
0.0
  0
VERTEX
  5
12B5
330
1274
100
AcDbEntity
  8
Piper
 62
   250
420
  2301728
370
     9
100
AcDbVertex
100
AcDb2dVertex
 10
183.0882215254085
 20
420.575878801106
 30
0.0
  0
VERTEX
  5
12B6
330
1274
100
AcDbEntity
  8
Piper
 62
   250
420
  2301728
370
     9
100
AcDbVertex
100
AcDb2dVertex
 10
183.0082953101507
 20
420.4664970194493
 30
0.0
  0
VERTEX
  5
12B7
330
1274
100
AcDbEntity
  8
Piper
 62
   250
420
  2301728
370
     9
100
AcDbVertex
100
AcDb2dVertex
 10
182.9101100888211
 20
420.3578042568897
 30
0.0
  0
VERTEX
  5
12B8
330
1274
100
AcDbEntity
  8
Piper
 62
   250
420
  2301728
370
     9
100
AcDbVertex
100
AcDb2dVertex
 10
182.81226937704
 20
420.2594467807858
 30
0.0
  0
VERTEX
  5
12B9
330
1274
100
AcDbEntity
  8
Piper
 62
   250
420
  2301728
370
     9
100
AcDbVertex
100
AcDb2dVertex
 10
182.696169659187
 20
420.1614338142305
 30
0.0
  0
VERTEX
  5
12BA
330
1274
100
AcDbEntity
  8
Piper
 62
   250
420
  2301728
370
     9
100
AcDbVertex
100
AcDb2dVertex
 10
182.5800699413341
 20
420.0849526944579
 30
0.0
  0
VERTEX
  5
12BB
330
1274
100
AcDbEntity
  8
Piper
 62
   250
420
  2301728
370
     9
100
AcDbVertex
100
AcDb2dVertex
 10
182.4643147330298
 20
419.9976195239068
 30
0.0
  0
VERTEX
  5
12BC
330
1274
100
AcDbEntity
  8
Piper
 62
   250
420
  2301728
370
     9
100
AcDbVertex
100
AcDb2dVertex
 10
182.330645028202
 20
419.9214829136828
 30
0.0
  0
VERTEX
  5
12BD
330
1274
100
AcDbEntity
  8
Piper
 62
   250
420
  2301728
370
     9
100
AcDbVertex
100
AcDb2dVertex
 10
182.1969753233743
 20
419.856026099463
 30
0.0
  0
VERTEX
  5
12BE
330
1274
100
AcDbEntity
  8
Piper
 62
   250
420
  2301728
370
     9
100
AcDbVertex
100
AcDb2dVertex
 10
182.0540038607365
 20
419.7905692852433
 30
0.0
  0
VERTEX
  5
12BF
330
1274
100
AcDbEntity
  8
Piper
 62
   250
420
  2301728
370
     9
100
AcDbVertex
100
AcDb2dVertex
 10
181.9117214171957
 20
419.7359645218021
 30
0.0
  0
VERTEX
  5
12C0
330
1274
100
AcDbEntity
  8
Piper
 62
   250
420
  2301728
370
     9
100
AcDbVertex
100
AcDb2dVertex
 10
181.8669351758874
 20
419.7251124710235
 30
0.0
  0
VERTEX
  5
12C1
330
1274
100
AcDbEntity
  8
Piper
 62
   250
420
  2301728
370
     9
100
AcDbVertex
100
AcDb2dVertex
 10
181.840407940651
 20
419.7251124710235
 30
0.0
  0
VERTEX
  5
12C2
330
1274
100
AcDbEntity
  8
Piper
 62
   250
420
  2301728
370
     9
100
AcDbVertex
100
AcDb2dVertex
 10
181.8135361958661
 20
419.7251124710235
 30
0.0
  0
VERTEX
  5
12C3
330
1274
100
AcDbEntity
  8
Piper
 62
   250
420
  2301728
370
     9
100
AcDbVertex
100
AcDb2dVertex
 10
181.7601372158447
 20
419.7251124710235
 30
0.0
  0
VERTEX
  5
12C4
330
1274
100
AcDbEntity
  8
Piper
 62
   250
420
  2301728
370
     9
100
AcDbVertex
100
AcDb2dVertex
 10
181.7063937262748
 20
419.7251124710235
 30
0.0
  0
VERTEX
  5
12C5
330
1274
100
AcDbEntity
  8
Piper
 62
   250
420
  2301728
370
     9
100
AcDbVertex
100
AcDb2dVertex
 10
181.6261230014685
 20
419.7251124710235
 30
0.0
  0
VERTEX
  5
12C6
330
1274
100
AcDbEntity
  8
Piper
 62
   250
420
  2301728
370
     9
100
AcDbVertex
100
AcDb2dVertex
 10
181.5458522766621
 20
419.7251124710235
 30
0.0
  0
VERTEX
  5
12C7
330
1274
100
AcDbEntity
  8
Piper
 62
   250
420
  2301728
370
     9
100
AcDbVertex
100
AcDb2dVertex
 10
181.4476670553325
 20
419.7251124710235
 30
0.0
  0
VERTEX
  5
12C8
330
1274
100
AcDbEntity
  8
Piper
 62
   250
420
  2301728
370
     9
100
AcDbVertex
100
AcDb2dVertex
 10
181.3501708530999
 20
419.7251124710235
 30
0.0
  0
VERTEX
  5
12C9
330
1274
100
AcDbEntity
  8
Piper
 62
   250
420
  2301728
370
     9
100
AcDbVertex
100
AcDb2dVertex
 10
181.234071135247
 20
419.7251124710235
 30
0.0
  0
VERTEX
  5
12CA
330
1274
100
AcDbEntity
  8
Piper
 62
   250
420
  2301728
370
     9
100
AcDbVertex
100
AcDb2dVertex
 10
181.1090141691325
 20
419.7251124710235
 30
0.0
  0
VERTEX
  5
12CB
330
1274
100
AcDbEntity
  8
Piper
 62
   250
420
  2301728
370
     9
100
AcDbVertex
100
AcDb2dVertex
 10
180.9756889738533
 20
419.7251124710235
 30
0.0
  0
VERTEX
  5
12CC
330
1274
100
AcDbEntity
  8
Piper
 62
   250
420
  2301728
370
     9
100
AcDbVertex
100
AcDb2dVertex
 10
180.8420192690256
 20
419.7251124710235
 30
0.0
  0
VERTEX
  5
12CD
330
1274
100
AcDbEntity
  8
Piper
 62
   250
420
  2301728
370
     9
100
AcDbVertex
100
AcDb2dVertex
 10
180.6993923159362
 20
419.7251124710235
 30
0.0
  0
VERTEX
  5
12CE
330
1274
100
AcDbEntity
  8
Piper
 62
   250
420
  2301728
370
     9
100
AcDbVertex
100
AcDb2dVertex
 10
180.5478081145853
 20
419.7251124710235
 30
0.0
  0
VERTEX
  5
12CF
330
1274
100
AcDbEntity
  8
Piper
 62
   250
420
  2301728
370
     9
100
AcDbVertex
100
AcDb2dVertex
 10
180.3962239132343
 20
419.7251124710235
 30
0.0
  0
VERTEX
  5
12D0
330
1274
100
AcDbEntity
  8
Piper
 62
   250
420
  2301728
370
     9
100
AcDbVertex
100
AcDb2dVertex
 10
180.2446397118833
 20
419.7251124710235
 30
0.0
  0
VERTEX
  5
12D1
330
1274
100
AcDbEntity
  8
Piper
 62
   250
420
  2301728
370
     9
100
AcDbVertex
100
AcDb2dVertex
 10
180.0930555105323
 20
419.7251124710235
 30
0.0
  0
VERTEX
  5
12D2
330
1274
100
AcDbEntity
  8
Piper
 62
   250
420
  2301728
370
     9
100
AcDbVertex
100
AcDb2dVertex
 10
179.9411267996327
 20
419.7251124710235
 30
0.0
  0
VERTEX
  5
12D3
330
1274
100
AcDbEntity
  8
Piper
 62
   250
420
  2301728
370
     9
100
AcDbVertex
100
AcDb2dVertex
 10
179.7895425982818
 20
419.7251124710235
 30
0.0
  0
VERTEX
  5
12D4
330
1274
100
AcDbEntity
  8
Piper
 62
   250
420
  2301728
370
     9
100
AcDbVertex
100
AcDb2dVertex
 10
179.6472601547409
 20
419.7251124710235
 30
0.0
  0
VERTEX
  5
12D5
330
1274
100
AcDbEntity
  8
Piper
 62
   250
420
  2301728
370
     9
100
AcDbVertex
100
AcDb2dVertex
 10
179.5046332016516
 20
419.7251124710235
 30
0.0
  0
VERTEX
  5
12D6
330
1274
100
AcDbEntity
  8
Piper
 62
   250
420
  2301728
370
     9
100
AcDbVertex
100
AcDb2dVertex
 10
179.3620062485623
 20
419.7251124710235
 30
0.0
  0
VERTEX
  5
12D7
330
1274
100
AcDbEntity
  8
Piper
 62
   250
420
  2301728
370
     9
100
AcDbVertex
100
AcDb2dVertex
 10
179.2283365437346
 20
419.7251124710235
 30
0.0
  0
VERTEX
  5
12D8
330
1274
100
AcDbEntity
  8
Piper
 62
   250
420
  2301728
370
     9
100
AcDbVertex
100
AcDb2dVertex
 10
179.1036240871685
 20
419.7251124710235
 30
0.0
  0
VERTEX
  5
12D9
330
1274
100
AcDbEntity
  8
Piper
 62
   250
420
  2301728
370
     9
100
AcDbVertex
100
AcDb2dVertex
 10
178.9964816175773
 20
419.7251124710235
 30
0.0
  0
VERTEX
  5
12DA
330
1274
100
AcDbEntity
  8
Piper
 62
   250
420
  2301728
370
     9
100
AcDbVertex
100
AcDb2dVertex
 10
178.889339147986
 20
419.7251124710235
 30
0.0
  0
VERTEX
  5
12DB
330
1274
100
AcDbEntity
  8
Piper
 62
   250
420
  2301728
370
     9
100
AcDbVertex
100
AcDb2dVertex
 10
178.7914984362049
 20
419.7251124710235
 30
0.0
  0
VERTEX
  5
12DC
330
1274
100
AcDbEntity
  8
Piper
 62
   250
420
  2301728
370
     9
100
AcDbVertex
100
AcDb2dVertex
 10
178.7112277113986
 20
419.7251124710235
 30
0.0
  0
VERTEX
  5
12DD
330
1274
100
AcDbEntity
  8
Piper
 62
   250
420
  2301728
370
     9
100
AcDbVertex
100
AcDb2dVertex
 10
178.6395697253054
 20
419.7251124710235
 30
0.0
  0
VERTEX
  5
12DE
330
1274
100
AcDbEntity
  8
Piper
 62
   250
420
  2301728
370
     9
100
AcDbVertex
100
AcDb2dVertex
 10
178.5772134970224
 20
419.7251124710235
 30
0.0
  0
VERTEX
  5
12DF
330
1274
100
AcDbEntity
  8
Piper
 62
   250
420
  2301728
370
     9
100
AcDbVertex
100
AcDb2dVertex
 10
178.523814517001
 20
419.7251124710235
 30
0.0
  0
VERTEX
  5
12E0
330
1274
100
AcDbEntity
  8
Piper
 62
   250
420
  2301728
370
     9
100
AcDbVertex
100
AcDb2dVertex
 10
178.4972872817646
 20
419.7251124710235
 30
0.0
  0
VERTEX
  5
12E1
330
1274
100
AcDbEntity
  8
Piper
 62
   250
420
  2301728
370
     9
100
AcDbVertex
100
AcDb2dVertex
 10
178.4704155369796
 20
419.7251124710235
 30
0.0
  0
VERTEX
  5
12E2
330
1274
100
AcDbEntity
  8
Piper
 62
   250
420
  2301728
370
     9
100
AcDbVertex
100
AcDb2dVertex
 10
178.4704155369796
 20
419.7251124710235
 30
0.0
  0
VERTEX
  5
12E3
330
1274
100
AcDbEntity
  8
Piper
 62
   250
420
  2301728
370
     9
100
AcDbVertex
100
AcDb2dVertex
 10
178.4256292956714
 20
419.7359645218021
 30
0.0
  0
VERTEX
  5
12E4
330
1274
100
AcDbEntity
  8
Piper
 62
   250
420
  2301728
370
     9
100
AcDbVertex
100
AcDb2dVertex
 10
178.2833468521305
 20
419.7905692852433
 30
0.0
  0
VERTEX
  5
12E5
330
1274
100
AcDbEntity
  8
Piper
 62
   250
420
  2301728
370
     9
100
AcDbVertex
100
AcDb2dVertex
 10
178.1407198990412
 20
419.856026099463
 30
0.0
  0
VERTEX
  5
12E6
330
1274
100
AcDbEntity
  8
Piper
 62
   250
420
  2301728
370
     9
100
AcDbVertex
100
AcDb2dVertex
 10
178.006705684665
 20
419.9214829136828
 30
0.0
  0
VERTEX
  5
12E7
330
1274
100
AcDbEntity
  8
Piper
 62
   250
420
  2301728
370
     9
100
AcDbVertex
100
AcDb2dVertex
 10
177.8819932280989
 20
419.9976195239068
 30
0.0
  0
VERTEX
  5
12E8
330
1274
100
AcDbEntity
  8
Piper
 62
   250
420
  2301728
370
     9
100
AcDbVertex
100
AcDb2dVertex
 10
177.7572807715329
 20
420.0849526944579
 30
0.0
  0
VERTEX
  5
12E9
330
1274
100
AcDbEntity
  8
Piper
 62
   250
420
  2301728
370
     9
100
AcDbVertex
100
AcDb2dVertex
 10
177.6415255632285
 20
420.1614338142305
 30
0.0
  0
VERTEX
  5
12EA
330
1274
100
AcDbEntity
  8
Piper
 62
   250
420
  2301728
370
     9
100
AcDbVertex
100
AcDb2dVertex
 10
177.5254258453756
 20
420.2594467807858
 30
0.0
  0
VERTEX
  5
12EB
330
1274
100
AcDbEntity
  8
Piper
 62
   250
420
  2301728
370
     9
100
AcDbVertex
100
AcDb2dVertex
 10
177.4275851335945
 20
420.3578042568897
 30
0.0
  0
VERTEX
  5
12EC
330
1274
100
AcDbEntity
  8
Piper
 62
   250
420
  2301728
370
     9
100
AcDbVertex
100
AcDb2dVertex
 10
177.3293999122649
 20
420.4664970194493
 30
0.0
  0
VERTEX
  5
12ED
330
1274
100
AcDbEntity
  8
Piper
 62
   250
420
  2301728
370
     9
100
AcDbVertex
100
AcDb2dVertex
 10
177.2491291874585
 20
420.575878801106
 30
0.0
  0
VERTEX
  5
12EE
330
1274
100
AcDbEntity
  8
Piper
 62
   250
420
  2301728
370
     9
100
AcDbVertex
100
AcDb2dVertex
 10
177.1688584626522
 20
420.7066201747712
 30
0.0
  0
VERTEX
  5
12EF
330
1274
100
AcDbEntity
  8
Piper
 62
   250
420
  2301728
370
     9
100
AcDbVertex
100
AcDb2dVertex
 10
177.1061577248207
 20
420.8373615484364
 30
0.0
  0
VERTEX
  5
12F0
330
1274
100
AcDbEntity
  8
Piper
 62
   250
420
  2301728
370
     9
100
AcDbVertex
100
AcDb2dVertex
 10
177.0441460060862
 20
420.9791272276545
 30
0.0
  0
VERTEX
  5
12F1
330
1274
100
AcDbEntity
  8
Piper
 62
   250
420
  2301728
370
     9
100
AcDbVertex
100
AcDb2dVertex
 10
176.9997042743264
 20
421.1208929068726
 30
0.0
  0
VERTEX
  5
12F2
330
1274
100
AcDbEntity
  8
Piper
 62
   250
420
  2301728
370
     9
100
AcDbVertex
100
AcDb2dVertex
 10
176.9545735234697
 20
421.2736828916434
 30
0.0
  0
VERTEX
  5
12F3
330
1274
100
AcDbEntity
  8
Piper
 62
   250
420
  2301728
370
     9
100
AcDbVertex
100
AcDb2dVertex
 10
176.9283907977818
 20
421.4373249271927
 30
0.0
  0
VERTEX
  5
12F4
330
1274
100
AcDbEntity
  8
Piper
 62
   250
420
  2301728
370
     9
100
AcDbVertex
100
AcDb2dVertex
 10
176.9015190529968
 20
421.6114745039721
 30
0.0
  0
VERTEX
  5
12F5
330
1274
100
AcDbEntity
  8
Piper
 62
   250
420
  2301728
370
     9
100
AcDbVertex
100
AcDb2dVertex
 10
176.883949066022
 20
421.7863130998486
 30
0.0
  0
VERTEX
  5
12F6
330
1274
100
AcDbEntity
  8
Piper
 62
   250
420
  2301728
370
     9
100
AcDbVertex
100
AcDb2dVertex
 10
176.8746473082119
 20
421.9608071861765
 30
0.0
  0
VERTEX
  5
12F7
330
1274
100
AcDbEntity
  8
Piper
 62
   250
420
  2301728
370
     9
100
AcDbVertex
100
AcDb2dVertex
 10
176.8656900599502
 20
422.1458088137343
 30
0.0
  0
VERTEX
  5
12F8
330
1274
100
AcDbEntity
  8
Piper
 62
   250
420
  2301728
370
     9
100
AcDbVertex
100
AcDb2dVertex
 10
176.8656900599502
 20
422.3311549508408
 30
0.0
  0
VERTEX
  5
12F9
330
1274
100
AcDbEntity
  8
Piper
 62
   250
420
  2301728
370
     9
100
AcDbVertex
100
AcDb2dVertex
 10
176.8746473082119
 20
422.51701785227
 30
0.0
  0
VERTEX
  5
12FA
330
1274
100
AcDbEntity
  8
Piper
 62
   250
420
  2301728
370
     9
100
AcDbVertex
100
AcDb2dVertex
 10
176.883949066022
 20
422.7130437853807
 30
0.0
  0
VERTEX
  5
12FB
330
1274
100
AcDbEntity
  8
Piper
 62
   250
420
  2301728
370
     9
100
AcDbVertex
100
AcDb2dVertex
 10
176.8922172951866
 20
422.9092419732657
 30
0.0
  0
VERTEX
  5
12FC
330
1274
100
AcDbEntity
  8
Piper
 62
   250
420
  2301728
370
     9
100
AcDbVertex
100
AcDb2dVertex
 10
176.9370035364949
 20
423.30181060381
 30
0.0
  0
VERTEX
  5
12FD
330
1274
100
AcDbEntity
  8
Piper
 62
   250
420
  2301728
370
     9
100
AcDbVertex
100
AcDb2dVertex
 10
176.9904025165163
 20
423.6945514891284
 30
0.0
  0
VERTEX
  5
12FE
330
1274
100
AcDbEntity
  8
Piper
 62
   250
420
  2301728
370
     9
100
AcDbVertex
100
AcDb2dVertex
 10
177.0441460060862
 20
424.0871201196727
 30
0.0
  0
VERTEX
  5
12FF
330
1274
100
AcDbEntity
  8
Piper
 62
   250
420
  2301728
370
     9
100
AcDbVertex
100
AcDb2dVertex
 10
177.1061577248207
 20
424.4688366994384
 30
0.0
  0
VERTEX
  5
1300
330
1274
100
AcDbEntity
  8
Piper
 62
   250
420
  2301728
370
     9
100
AcDbVertex
100
AcDb2dVertex
 10
177.1778157109139
 20
424.8397012284255
 30
0.0
  0
VERTEX
  5
1301
330
1274
100
AcDbEntity
  8
Piper
 62
   250
420
  2301728
370
     9
100
AcDbVertex
100
AcDb2dVertex
 10
177.2401719391969
 20
425.188517146307
 30
0.0
  0
VERTEX
  5
1302
330
1274
100
AcDbEntity
  8
Piper
 62
   250
420
  2301728
370
     9
100
AcDbVertex
100
AcDb2dVertex
 10
177.3114854157415
 20
425.5483573697413
 30
0.0
  0
VERTEX
  5
1303
330
1274
100
AcDbEntity
  8
Piper
 62
   250
420
  2301728
370
     9
100
AcDbVertex
100
AcDb2dVertex
 10
177.3921006500964
 20
425.8864934916187
 30
0.0
  0
VERTEX
  5
1304
330
1274
100
AcDbEntity
  8
Piper
 62
   250
420
  2301728
370
     9
100
AcDbVertex
100
AcDb2dVertex
 10
177.4809841136159
 20
426.2244573587216
 30
0.0
  0
VERTEX
  5
1305
330
1274
100
AcDbEntity
  8
Piper
 62
   250
420
  2301728
370
     9
100
AcDbVertex
100
AcDb2dVertex
 10
177.5254258453756
 20
426.3989514450496
 30
0.0
  0
VERTEX
  5
1306
330
1274
100
AcDbEntity
  8
Piper
 62
   250
420
  2301728
370
     9
100
AcDbVertex
100
AcDb2dVertex
 10
177.5788248253969
 20
426.5625934805989
 30
0.0
  0
VERTEX
  5
1307
330
1274
100
AcDbEntity
  8
Piper
 62
   250
420
  2301728
370
     9
100
AcDbVertex
100
AcDb2dVertex
 10
177.6415255632285
 20
426.726063261374
 30
0.0
  0
VERTEX
  5
1308
330
1274
100
AcDbEntity
  8
Piper
 62
   250
420
  2301728
370
     9
100
AcDbVertex
100
AcDb2dVertex
 10
177.703537281963
 20
426.9005573477019
 30
0.0
  0
VERTEX
  5
1309
330
1274
100
AcDbEntity
  8
Piper
 62
   250
420
  2301728
370
     9
100
AcDbVertex
100
AcDb2dVertex
 10
177.7751952680562
 20
427.053519587247
 30
0.0
  0
VERTEX
  5
130A
330
1274
100
AcDbEntity
  8
Piper
 62
   250
420
  2301728
370
     9
100
AcDbVertex
100
AcDb2dVertex
 10
177.8465087446008
 20
427.2168171132478
 30
0.0
  0
VERTEX
  5
130B
330
1274
100
AcDbEntity
  8
Piper
 62
   250
420
  2301728
370
     9
100
AcDbVertex
100
AcDb2dVertex
 10
177.9357367176688
 20
427.3694348432444
 30
0.0
  0
VERTEX
  5
130C
330
1274
100
AcDbEntity
  8
Piper
 62
   250
420
  2301728
370
     9
100
AcDbVertex
100
AcDb2dVertex
 10
178.0246201811883
 20
427.5112005224625
 30
0.0
  0
VERTEX
  5
130D
330
1274
100
AcDbEntity
  8
Piper
 62
   250
420
  2301728
370
     9
100
AcDbVertex
100
AcDb2dVertex
 10
178.1228054025179
 20
427.6421141509019
 30
0.0
  0
VERTEX
  5
130E
330
1274
100
AcDbEntity
  8
Piper
 62
   250
420
  2301728
370
     9
100
AcDbVertex
100
AcDb2dVertex
 10
178.2389051203708
 20
427.7728555245672
 30
0.0
  0
VERTEX
  5
130F
330
1274
100
AcDbEntity
  8
Piper
 62
   250
420
  2301728
370
     9
100
AcDbVertex
100
AcDb2dVertex
 10
178.3546603286752
 20
427.8820650514496
 30
0.0
  0
VERTEX
  5
1310
330
1274
100
AcDbEntity
  8
Piper
 62
   250
420
  2301728
370
     9
100
AcDbVertex
100
AcDb2dVertex
 10
178.4704155369796
 20
427.9911023235578
 30
0.0
  0
VERTEX
  5
1311
330
1274
100
AcDbEntity
  8
Piper
 62
   250
420
  2301728
370
     9
100
AcDbVertex
100
AcDb2dVertex
 10
178.6044297513558
 20
428.0891152901132
 30
0.0
  0
VERTEX
  5
1312
330
1274
100
AcDbEntity
  8
Piper
 62
   250
420
  2301728
370
     9
100
AcDbVertex
100
AcDb2dVertex
 10
178.737754946635
 20
428.17627620589
 30
0.0
  0
VERTEX
  5
1313
330
1274
100
AcDbEntity
  8
Piper
 62
   250
420
  2301728
370
     9
100
AcDbVertex
100
AcDb2dVertex
 10
178.8717691610112
 20
428.2525850708882
 30
0.0
  0
VERTEX
  5
1314
330
1274
100
AcDbEntity
  8
Piper
 62
   250
420
  2301728
370
     9
100
AcDbVertex
100
AcDb2dVertex
 10
179.0143961141005
 20
428.3073620891037
 30
0.0
  0
VERTEX
  5
1315
330
1274
100
AcDbEntity
  8
Piper
 62
   250
420
  2301728
370
     9
100
AcDbVertex
100
AcDb2dVertex
 10
179.1570230671899
 20
428.3619668525449
 30
0.0
  0
VERTEX
  5
1316
330
1274
100
AcDbEntity
  8
Piper
 62
   250
420
  2301728
370
     9
100
AcDbVertex
100
AcDb2dVertex
 10
179.2996500202792
 20
428.3945230048805
 30
0.0
  0
VERTEX
  5
1317
330
1274
100
AcDbEntity
  8
Piper
 62
   250
420
  2301728
370
     9
100
AcDbVertex
100
AcDb2dVertex
 10
179.4422769733686
 20
428.4274236667647
 30
0.0
  0
VERTEX
  5
1318
330
1274
100
AcDbEntity
  8
Piper
 62
   250
420
  2301728
370
     9
100
AcDbVertex
100
AcDb2dVertex
 10
179.5935166651711
 20
428.4491277683217
 30
0.0
  0
VERTEX
  5
1319
330
1274
100
AcDbEntity
  8
Piper
 62
   250
420
  2301728
370
     9
100
AcDbVertex
100
AcDb2dVertex
 10
179.7364881278089
 20
428.4599798191003
 30
0.0
  0
VERTEX
  5
131A
330
1274
100
AcDbEntity
  8
Piper
 62
   250
420
  2301728
370
     9
100
AcDbVertex
100
AcDb2dVertex
 10
179.8880723291599
 20
428.4599798191003
 30
0.0
  0
SEQEND
  5
131B
330
1274
100
AcDbEntity
  8
Piper
370
     9
  0
ENDBLK
  5
131C
330
1272
100
AcDbEntity
  8
0
100
AcDbBlockEnd
  0
BLOCK
  5
1758
330
1754
100
AcDbEntity
  8
0
100
AcDbBlockBegin
  2
A$C6B835688
 70
     0
 10
0.0
 20
0.0
 30
0.0
  3
A$C6B835688
  1

  0
TEXT
  5
1755
330
1754
100
AcDbEntity
  8
Text
100
AcDbText
 10
20.05809457991563
 20
71.4206408735415
 30
0.0
 40
178.9271249552682
  1
HX240W
 41
1.000399999999999
100
AcDbText
  0
ENDBLK
  5
1759
330
1754
100
AcDbEntity
  8
0
100
AcDbBlockEnd
  0
BLOCK
  5
175F
330
175B
100
AcDbEntity
  8
0
100
AcDbBlockBegin
  2
A$C0E421B07
 70
     0
 10
0.0
 20
0.0
 30
0.0
  3
A$C0E421B07
  1

  0
MTEXT
  5
175C
330
175B
100
AcDbEntity
  8
Text
100
AcDbMText
 10
14.27712973271264
 20
21.02744203741076
 30
0.0
 40
53.97543178650614
 41
0.0
 46
0.0
 71
     7
 72
     1
  1
Pendants
 73
     1
 44
1.0
  0
ENDBLK
  5
1760
330
175B
100
AcDbEntity
  8
0
100
AcDbBlockEnd
  0
BLOCK
  5
17A5
330
17A4
100
AcDbEntity
  8
0
100
AcDbBlockBegin
  2
_Oblique
 70
     0
 10
0.0
 20
0.0
 30
0.0
  3
_Oblique
  1

  0
LINE
  5
17A6
330
17A4
100
AcDbEntity
  8
0
  6
ByBlock
 62
     0
370
    -2
100
AcDbLine
 10
-0.5
 20
-0.5
 30
0.0
 11
0.5
 21
0.5
 31
0.0
  0
ENDBLK
  5
17A7
330
17A4
100
AcDbEntity
  8
0
100
AcDbBlockEnd
  0
ENDSEC
  0
SECTION
  2
ENTITIES
  0
MTEXT
  5
1340
330
1F
100
AcDbEntity
  8
Text
100
AcDbMText
 10
49.0
 20
2271.700164178058
 30
0.0
 40
53.97543178650614
 41
0.0
 46
0.0
 71
     7
 72
     1
  1
Pendants
 73
     1
 44
1.0
  0
POLYLINE
  5
1341
330
1F
100
AcDbEntity
  8
Text
100
AcDb2dPolyline
 66
     1
 10
0.0
 20
0.0
 30
0.0
  0
VERTEX
  5
1342
330
1341
100
AcDbEntity
  8
Text
100
AcDbVertex
100
AcDb2dVertex
 10
49.0
 20
2460.5
 30
0.0
  0
VERTEX
  5
1343
330
1341
100
AcDbEntity
  8
Text
100
AcDbVertex
100
AcDb2dVertex
 10
3257.5
 20
2460.5
 30
0.0
  0
SEQEND
  5
1344
330
1341
100
AcDbEntity
  8
Text
  0
MTEXT
  5
1345
330
1F
100
AcDbEntity
  8
Text
100
AcDbMText
 10
49.0
 20
2847.875714922688
 30
0.0
 40
44.4503555888874
 41
0.0
 46
0.0
 71
     7
 72
     1
  1
DAWN
 73
     1
 44
1.0
  0
MTEXT
  5
1346
330
1F
100
AcDbEntity
  8
Text
100
AcDbMText
 10
49.0
 20
2723.678015842408
 30
0.0
 40
44.4503555888874
 41
0.0
 46
0.0
 71
     7
 72
     1
  1
—
 73
     1
 44
1.0
  0
MTEXT
  5
1347
330
1F
100
AcDbEntity
  8
Text
100
AcDbMText
 10
49.0
 20
2592.941675875093
 30
0.0
 40
57.15045718571238
 41
0.0
 46
0.0
 71
     7
 72
     1
  1
DIMENSIONS 
 73
     1
 44
1.0
  0
MTEXT
  5
1348
330
1F
100
AcDbEntity
  8
Dimension
100
AcDbMText
 10
1042.713824570892
 20
1506.350859536991
 30
0.0
 40
41.27533018968118
 41
0.0
 46
0.0
 71
     7
 72
     1
  1
{\fApercu|b0|i0|c0|p34;\W1.0004;15}
 73
     1
 44
1.0
  0
MTEXT
  5
134B
330
1F
100
AcDbEntity
  8
Dimension
100
AcDbMText
 10
1186.65967824095
 20
1691.03782640488
 30
0.0
 40
41.27533018968118
 41
0.0
 46
0.0
 71
     7
 72
     1
  1
{\fApercu|b0|i0|c0|p34;\W1.0004;20}
 73
     1
 44
1.0
  0
MTEXT
  5
134F
330
1F
100
AcDbEntity
  8
Dimension
100
AcDbMText
 10
2027.0
 20
1691.015027796486
 30
0.0
 40
41.27533018968118
 41
0.0
 46
0.0
 71
     7
 72
     1
  1
{\fApercu|b0|i0|c0|p34;\W1.0004;45}
 73
     1
 44
1.0
  0
MTEXT
  5
1358
330
1F
100
AcDbEntity
  8
Text
100
AcDbMText
 10
2513.0
 20
2035.836994093122
 30
0.0
 40
41.27533018968118
 41
0.0
 46
0.0
 71
     7
 72
     1
  1
\fApercu|b0|i0|c0|p34;\W1.0004;200cm of cable provided
 73
     1
 44
1.0
  0
MTEXT
  5
1762
330
1F
100
AcDbEntity
  8
Text
100
AcDbMText
 10
969.0
 20
1378.027442037411
 30
0.0
 40
53.97543178650614
 41
0.0
 46
0.0
 71
     7
 72
     1
  1
DW15
 73
     1
 44
1.0
  0
MTEXT
  5
176A
330
1F
100
AcDbEntity
  8
Text
100
AcDbMText
 10
1688.0
 20
1378.027442037411
 30
0.0
 40
53.97543178650614
 41
0.0
 46
0.0
 71
     7
 72
     1
  1
DW35
 73
     1
 44
1.0
  0
LINE
  5
17CF
330
1F
100
AcDbEntity
  8
Visible (ANSI)
100
AcDbLine
 10
1064.249999964695
 20
1747.816024353075
 30
0.0
 11
1074.749999964695
 21
1747.816024353075
 31
0.0
  0
LINE
  5
17D0
330
1F
100
AcDbEntity
  8
Visible (ANSI)
100
AcDbLine
 10
1144.499999964694
 20
1568.0
 30
0.0
 11
994.4999999646947
 21
1568.0
 31
0.0
  0
ARC
  5
17D1
330
1F
100
AcDbEntity
  8
Visible (ANSI)
100
AcDbCircle
 10
1069.499999964695
 20
1673.0
 30
0.0
 40
75.0
100
AcDbArc
 50
94.01398721805287
 51
180.0
  0
ARC
  5
17D2
330
1F
100
AcDbEntity
  8
Visible (ANSI)
100
AcDbCircle
 10
1069.499999964695
 20
1673.0
 30
0.0
 40
75.00000000000001
100
AcDbArc
 50
0.0
 51
85.98601278194712
  0
LINE
  5
17D3
330
1F
100
AcDbEntity
  8
Visible (ANSI)
100
AcDbLine
 10
994.4999999646947
 20
1568.0
 30
0.0
 11
994.4999999646947
 21
1673.0
 31
0.0
  0
LINE
  5
17D4
330
1F
100
AcDbEntity
  8
Visible (ANSI)
100
AcDbLine
 10
1144.499999964694
 20
1568.0
 30
0.0
 11
1144.499999964694
 21
1673.0
 31
0.0
  0
ARC
  5
17D5
330
1F
100
AcDbEntity
  8
Visible (ANSI)
100
AcDbCircle
 10
1075.349999964695
 20
1748.657356703695
 30
0.0
 40
0.8000000000000003
100
AcDbArc
 50
270.0
 51
90.0
  0
ARC
  5
17D6
330
1F
100
AcDbEntity
  8
Visible (ANSI)
100
AcDbCircle
 10
1063.649999964695
 20
1748.657356703695
 30
0.0
 40
0.8000000000000003
100
AcDbArc
 50
90.0
 51
270.0
  0
LINE
  5
17D7
330
1F
100
AcDbEntity
  8
Visible (ANSI)
100
AcDbLine
 10
1063.649999964695
 20
1747.857356703695
 30
0.0
 11
1075.349999964695
 21
1747.857356703695
 31
0.0
  0
LINE
  5
17D8
330
1F
100
AcDbEntity
  8
Visible (ANSI)
100
AcDbLine
 10
1076.499999964695
 20
1769.257356703695
 30
0.0
 11
1062.499999964694
 21
1769.257356703695
 31
0.0
  0
LINE
  5
17D9
330
1F
100
AcDbEntity
  8
Visible (ANSI)
100
AcDbLine
 10
1062.699999964695
 20
1769.457356703695
 30
0.0
 11
1076.299999964695
 21
1769.457356703695
 31
0.0
  0
LINE
  5
17DA
330
1F
100
AcDbEntity
  8
Visible (ANSI)
100
AcDbLine
 10
1076.299999964695
 20
1769.457356703695
 30
0.0
 11
1076.499999964695
 21
1769.257356703695
 31
0.0
  0
LINE
  5
17DB
330
1F
100
AcDbEntity
  8
Visible (ANSI)
100
AcDbLine
 10
1062.699999964695
 20
1769.457356703695
 30
0.0
 11
1062.499999964694
 21
1769.257356703695
 31
0.0
  0
LINE
  5
17DC
330
1F
100
AcDbEntity
  8
Visible (ANSI)
100
AcDbLine
 10
1062.499999964694
 20
1749.457356703695
 30
0.0
 11
1076.499999964695
 21
1749.457356703695
 31
0.0
  0
LINE
  5
17DD
330
1F
100
AcDbEntity
  8
Visible (ANSI)
100
AcDbLine
 10
1062.499999964694
 20
1749.457356703695
 30
0.0
 11
1062.499999964694
 21
1769.257356703695
 31
0.0
  0
LINE
  5
17DE
330
1F
100
AcDbEntity
  8
Visible (ANSI)
100
AcDbLine
 10
1076.499999964695
 20
1749.457356703695
 30
0.0
 11
1076.499999964695
 21
1769.257356703695
 31
0.0
  0
LINE
  5
17DF
330
1F
100
AcDbEntity
  8
Visible (ANSI)
100
AcDbLine
 10
1066.249999964695
 20
1769.457356703695
 30
0.0
 11
1066.249999964695
 21
2183.65828125556
 31
0.0
  0
LINE
  5
17E0
330
1F
100
AcDbEntity
  8
Visible (ANSI)
100
AcDbLine
 10
1072.749999964695
 20
1769.457356703695
 30
0.0
 11
1072.749999964695
 21
2183.65828125556
 31
0.0
  0
LINE
  5
17E1
330
1F
100
AcDbEntity
  8
Visible (ANSI)
100
AcDbLine
 10
1064.499999964695
 20
1747.816024353075
 30
0.0
 11
1064.499999964695
 21
1747.857356703695
 31
0.0
  0
LINE
  5
17E2
330
1F
100
AcDbEntity
  8
Visible (ANSI)
100
AcDbLine
 10
1074.499999964695
 20
1747.816024353075
 30
0.0
 11
1074.499999964695
 21
1747.857356703695
 31
0.0
  0
LINE
  5
17E3
330
1F
100
AcDbEntity
  8
Visible (ANSI)
100
AcDbLine
 10
1109.499999964695
 20
2224.658281255561
 30
0.0
 11
1029.499999964694
 21
2224.658281255561
 31
0.0
  0
LINE
  5
17E4
330
1F
100
AcDbEntity
  8
Visible (ANSI)
100
AcDbLine
 10
1106.499999964695
 20
2199.658281255561
 30
0.0
 11
1032.499999964695
 21
2199.658281255561
 31
0.0
  0
ARC
  5
17E5
330
1F
100
AcDbEntity
  8
Visible (ANSI)
100
AcDbCircle
 10
1106.499999964695
 20
2202.65828125556
 30
0.0
 40
2.999999999999996
100
AcDbArc
 50
270.0
 51
0.0
  0
ARC
  5
17E6
330
1F
100
AcDbEntity
  8
Visible (ANSI)
100
AcDbCircle
 10
1032.499999964695
 20
2202.65828125556
 30
0.0
 40
2.999999999999996
100
AcDbArc
 50
180.0
 51
270.0
  0
LINE
  5
17E7
330
1F
100
AcDbEntity
  8
Visible (ANSI)
100
AcDbLine
 10
1029.499999964694
 20
2202.65828125556
 30
0.0
 11
1029.499999964694
 21
2224.658281255561
 31
0.0
  0
LINE
  5
17E8
330
1F
100
AcDbEntity
  8
Visible (ANSI)
100
AcDbLine
 10
1109.499999964695
 20
2202.65828125556
 30
0.0
 11
1109.499999964695
 21
2224.658281255561
 31
0.0
  0
LINE
  5
17E9
330
1F
100
AcDbEntity
  8
Visible (ANSI)
100
AcDbLine
 10
1074.499999964695
 20
2183.65828125556
 30
0.0
 11
1064.499999964695
 21
2183.65828125556
 31
0.0
  0
LINE
  5
17EA
330
1F
100
AcDbEntity
  8
Visible (ANSI)
100
AcDbLine
 10
1064.499999964695
 20
2183.65828125556
 30
0.0
 11
1062.499999964694
 21
2199.658281255561
 31
0.0
  0
LINE
  5
17EB
330
1F
100
AcDbEntity
  8
Visible (ANSI)
100
AcDbLine
 10
1074.499999964695
 20
2183.65828125556
 30
0.0
 11
1076.499999964695
 21
2199.658281255561
 31
0.0
  0
LINE
  5
1834
330
1F
100
AcDbEntity
  8
Visible (ANSI)
100
AcDbLine
 10
1983.711136119587
 20
1563.400002408566
 30
0.0
 11
1633.711136119587
 21
1563.400002408566
 31
0.0
  0
LINE
  5
1835
330
1F
100
AcDbEntity
  8
Visible (ANSI)
100
AcDbLine
 10
1633.711136119587
 20
1563.400002408566
 30
0.0
 11
1633.711136119587
 21
1813.400002408566
 31
0.0
  0
LINE
  5
1836
330
1F
100
AcDbEntity
  8
Visible (ANSI)
100
AcDbLine
 10
1983.711136119587
 20
1563.400002408566
 30
0.0
 11
1983.711136119587
 21
1813.400002408566
 31
0.0
  0
ARC
  5
1837
330
1F
100
AcDbEntity
  8
Visible (ANSI)
100
AcDbCircle
 10
1808.711136119588
 20
1813.400002408566
 30
0.0
 40
175.0
100
AcDbArc
 50
92.03398081787021
 51
180.0
  0
ARC
  5
1838
330
1F
100
AcDbEntity
  8
Visible (ANSI)
100
AcDbCircle
 10
1808.711136119588
 20
1813.400002408566
 30
0.0
 40
175.0
100
AcDbArc
 50
0.0
 51
87.9660191821298
  0
ARC
  5
1839
330
1F
100
AcDbEntity
  8
Visible (ANSI)
100
AcDbCircle
 10
1814.561136119587
 20
1989.003593428054
 30
0.0
 40
0.8000000000000005
100
AcDbArc
 50
296.834835833134
 51
90.0
  0
ARC
  5
183A
330
1F
100
AcDbEntity
  8
Visible (ANSI)
100
AcDbCircle
 10
1802.861136119588
 20
1989.003593428054
 30
0.0
 40
0.8000000000000005
100
AcDbArc
 50
90.0
 51
243.1651641668659
  0
LINE
  5
183B
330
1F
100
AcDbEntity
  8
Visible (ANSI)
100
AcDbLine
 10
1815.711136119588
 20
2019.603593428055
 30
0.0
 11
1801.711136119587
 21
2019.603593428055
 31
0.0
  0
LINE
  5
183C
330
1F
100
AcDbEntity
  8
Visible (ANSI)
100
AcDbLine
 10
1801.911136119587
 20
2019.803593428054
 30
0.0
 11
1815.511136119588
 21
2019.803593428054
 31
0.0
  0
LINE
  5
183D
330
1F
100
AcDbEntity
  8
Visible (ANSI)
100
AcDbLine
 10
1815.511136119588
 20
2019.803593428054
 30
0.0
 11
1815.711136119588
 21
2019.603593428055
 31
0.0
  0
LINE
  5
183E
330
1F
100
AcDbEntity
  8
Visible (ANSI)
100
AcDbLine
 10
1801.911136119587
 20
2019.803593428054
 30
0.0
 11
1801.711136119587
 21
2019.603593428055
 31
0.0
  0
LINE
  5
183F
330
1F
100
AcDbEntity
  8
Visible (ANSI)
100
AcDbLine
 10
1801.711136119587
 20
1989.803593428054
 30
0.0
 11
1815.711136119588
 21
1989.803593428054
 31
0.0
  0
LINE
  5
1840
330
1F
100
AcDbEntity
  8
Visible (ANSI)
100
AcDbLine
 10
1801.711136119587
 20
1989.803593428054
 30
0.0
 11
1801.711136119587
 21
2019.603593428055
 31
0.0
  0
LINE
  5
1841
330
1F
100
AcDbEntity
  8
Visible (ANSI)
100
AcDbLine
 10
1815.711136119588
 20
1989.803593428054
 30
0.0
 11
1815.711136119588
 21
2019.603593428055
 31
0.0
  0
LINE
  5
1842
330
1F
100
AcDbEntity
  8
Visible (ANSI)
100
AcDbLine
 10
1809.211136119587
 20
2413.963175035935
 30
0.0
 11
1808.211136119587
 21
2413.963175035935
 31
0.0
  0
LINE
  5
1843
330
1F
100
AcDbEntity
  8
Visible (ANSI)
100
AcDbLine
 10
1808.211136119587
 20
2413.312438041045
 30
0.0
 11
1808.211136119587
 21
2413.963175035935
 31
0.0
  0
LINE
  5
1844
330
1F
100
AcDbEntity
  8
Visible (ANSI)
100
AcDbLine
 10
1809.211136119587
 20
2413.312438041045
 30
0.0
 11
1809.211136119587
 21
2413.963175035935
 31
0.0
  0
LINE
  5
1845
330
1F
100
AcDbEntity
  8
Visible (ANSI)
100
AcDbLine
 10
1805.711136119587
 20
2038.364027227502
 30
0.0
 11
1805.711136119587
 21
2019.803593428054
 31
0.0
  0
LINE
  5
1846
330
1F
100
AcDbEntity
  8
Visible (ANSI)
100
AcDbLine
 10
1811.711136119587
 20
2019.803593428054
 30
0.0
 11
1811.711136119587
 21
2038.364027227502
 31
0.0
  0
LINE
  5
1847
330
1F
100
AcDbEntity
  8
Visible (ANSI)
100
AcDbLine
 10
1811.711136119587
 20
2373.312438041045
 30
0.0
 11
1811.711136119587
 21
2038.364027227502
 31
0.0
  0
LINE
  5
1848
330
1F
100
AcDbEntity
  8
Visible (ANSI)
100
AcDbLine
 10
1805.711136119587
 20
2373.312438041045
 30
0.0
 11
1805.711136119587
 21
2038.364027227502
 31
0.0
  0
LINE
  5
1849
330
1F
100
AcDbEntity
  8
Visible (ANSI)
100
AcDbLine
 10
1768.711136119587
 20
2413.312438041045
 30
0.0
 11
1848.711136119587
 21
2413.312438041045
 31
0.0
  0
LINE
  5
184A
330
1F
100
AcDbEntity
  8
Visible (ANSI)
100
AcDbLine
 10
1769.711136119587
 20
2388.312438041046
 30
0.0
 11
1847.711136119588
 21
2388.312438041046
 31
0.0
  0
LINE
  5
184B
330
1F
100
AcDbEntity
  8
Visible (ANSI)
100
AcDbLine
 10
1848.711136119587
 20
2413.312438041045
 30
0.0
 11
1848.711136119587
 21
2389.312438041045
 31
0.0
  0
LINE
  5
184C
330
1F
100
AcDbEntity
  8
Visible (ANSI)
100
AcDbLine
 10
1768.711136119587
 20
2413.312438041045
 30
0.0
 11
1768.711136119587
 21
2389.312438041045
 31
0.0
  0
ARC
  5
184D
330
1F
100
AcDbEntity
  8
Visible (ANSI)
100
AcDbCircle
 10
1769.711136119587
 20
2389.312438041045
 30
0.0
 40
1.0
100
AcDbArc
 50
180.0
 51
270.0
  0
ARC
  5
184E
330
1F
100
AcDbEntity
  8
Visible (ANSI)
100
AcDbCircle
 10
1847.711136119588
 20
2389.312438041045
 30
0.0
 40
1.0
100
AcDbArc
 50
270.0
 51
0.0
  0
ARC
  5
184F
330
1F
100
AcDbEntity
  8
Visible (ANSI)
100
AcDbCircle
 10
1803.711136119587
 20
2380.312438041045
 30
0.0
 40
2.0
100
AcDbArc
 50
180.0
 51
240.0000000000141
  0
ARC
  5
1850
330
1F
100
AcDbEntity
  8
Visible (ANSI)
100
AcDbCircle
 10
1813.711136119587
 20
2380.312438041045
 30
0.0
 40
2.0
100
AcDbArc
 50
299.9999999999972
 51
0.0
  0
LINE
  5
1851
330
1F
100
AcDbEntity
  8
Visible (ANSI)
100
AcDbLine
 10
1815.711136119588
 20
2388.312438041046
 30
0.0
 11
1815.711136119588
 21
2380.312438041045
 31
0.0
  0
LINE
  5
1852
330
1F
100
AcDbEntity
  8
Visible (ANSI)
100
AcDbLine
 10
1801.711136119587
 20
2388.312438041046
 30
0.0
 11
1801.711136119587
 21
2380.312438041045
 31
0.0
  0
LINE
  5
1853
330
1F
100
AcDbEntity
  8
Visible (ANSI)
100
AcDbLine
 10
1814.711136119587
 20
2373.312438041045
 30
0.0
 11
1802.711136119587
 21
2373.312438041045
 31
0.0
  0
LINE
  5
1854
330
1F
100
AcDbEntity
  8
Visible (ANSI)
100
AcDbLine
 10
1802.711136119587
 20
2373.312438041045
 30
0.0
 11
1802.711136119587
 21
2388.312438041046
 31
0.0
  0
LINE
  5
1855
330
1F
100
AcDbEntity
  8
Visible (ANSI)
100
AcDbLine
 10
1814.711136119587
 20
2373.312438041045
 30
0.0
 11
1814.711136119587
 21
2388.312438041046
 31
0.0
  0
MTEXT
  5
188D
330
1F
100
AcDbEntity
  8
Dimension
100
AcDbMText
 10
1774.311138469229
 20
1500.0
 30
0.0
 40
41.27533018968118
 41
0.0
 46
0.0
 71
     7
 72
     1
  1
{\fApercu|b0|i0|c0|p34;\W1.0004;35}
 73
     1
 44
1.0
  0
ENDSEC
  0
SECTION
  2
OBJECTS
  0
DICTIONARY
  5
C
330
0
100
AcDbDictionary
281
     1
  3
ACAD_CIP_PREVIOUS_PRODUCT_INFO
350
1A5
  3
ACAD_COLOR
350
73
  3
ACAD_DETAILVIEWSTYLE
350
1AB
  3
ACAD_GROUP
350
D
  3
ACAD_LAYOUT
350
1A
  3
ACAD_MATERIAL
350
72
  3
ACAD_MLEADERSTYLE
350
D7
  3
ACAD_MLINESTYLE
350
17
  3
ACAD_PLOTSETTINGS
350
19
  3
ACAD_PLOTSTYLENAME
350
E
  3
ACAD_SCALELIST
350
B6
  3
ACAD_SECTIONVIEWSTYLE
350
1A8
  3
ACAD_TABLESTYLE
350
86
  3
ACAD_VISUALSTYLE
350
99
  3
ACDB_RECOMPOSE_DATA
350
18C0
  3
AcDbVariableDictionary
350
66
  3
AcDsDecomposeData
350
18C6
  3
AEC_PROPERTY_SET_DEFS
350
175A
  0
DICTIONARY
  5
18E
330
2
100
AcDbDictionary
280
     1
281
     1
  3
ACAD_LAYERSTATES
360
18F
  0
DICTIONARY
  5
E6
330
10
100
AcDbDictionary
280
     1
281
     1
  0
DICTIONARY
  5
1DC
330
1DB
100
AcDbDictionary
280
     1
281
     1
  0
DICTIONARY
  5
1DE
330
1DD
100
AcDbDictionary
280
     1
281
     1
  0
DICTIONARY
  5
1E0
330
1DF
100
AcDbDictionary
280
     1
281
     1
  0
DICTIONARY
  5
15D
330
1F
100
AcDbDictionary
280
     1
281
     1
  3
ACAD_SORTENTS
360
1367
  0
DICTIONARY
  5
1756
330
1754
100
AcDbDictionary
280
     1
281
     1
  3
ACAD_SORTENTS
360
1757
  0
DICTIONARY
  5
175D
330
175B
100
AcDbDictionary
280
     1
281
     1
  3
ACAD_SORTENTS
360
175E
  0
XRECORD
  5
1A5
102
{ACAD_REACTORS
330
C
102
}
330
C
100
AcDbXrecord
280
     1
300
AMECH_PP
300
2019
300

  0
DICTIONARY
  5
73
102
{ACAD_REACTORS
330
C
102
}
330
C
100
AcDbDictionary
281
     1
  0
DICTIONARY
  5
1AB
102
{ACAD_REACTORS
330
C
102
}
330
C
100
AcDbDictionary
281
     1
  3
Imperial24
350
1AC
  3
Metric50
350
17AC
  0
DICTIONARY
  5
D
102
{ACAD_REACTORS
330
C
102
}
330
C
100
AcDbDictionary
281
     1
  0
DICTIONARY
  5
1A
102
{ACAD_REACTORS
330
C
102
}
330
C
100
AcDbDictionary
281
     1
  3
Layout1
350
59
  3
Layout2
350
5E
  3
Model
350
22
  0
DICTIONARY
  5
72
102
{ACAD_REACTORS
330
C
102
}
330
C
100
AcDbDictionary
281
     1
  3
ByBlock
350
97
  3
ByLayer
350
96
  3
Global
350
98
  0
DICTIONARY
  5
D7
102
{ACAD_REACTORS
330
C
102
}
330
C
100
AcDbDictionary
281
     1
  3
Annotative
350
E5
  3
Standard
350
D8
  0
DICTIONARY
  5
17
102
{ACAD_REACTORS
330
C
102
}
330
C
100
AcDbDictionary
281
     1
  3
Standard
350
18
  0
DICTIONARY
  5
19
102
{ACAD_REACTORS
330
C
102
}
330
C
100
AcDbDictionary
281
     1
  0
ACDBDICTIONARYWDFLT
  5
E
102
{ACAD_REACTORS
330
C
102
}
330
C
100
AcDbDictionary
281
     1
  3
Normal
350
F
100
AcDbDictionaryWithDefault
340
F
  0
DICTIONARY
  5
B6
102
{ACAD_REACTORS
330
C
102
}
330
C
100
AcDbDictionary
281
     1
  3
A0
350
B7
  3
A1
350
124
  3
A2
350
125
  3
A3
350
126
  3
A4
350
127
  3
A5
350
128
  3
A6
350
129
  3
A7
350
12A
  3
A8
350
12B
  3
A9
350
12C
  3
B0
350
12D
  3
B1
350
12E
  3
B2
350
12F
  3
B3
350
130
  3
B4
350
131
  3
B5
350
132
  3
B6
350
133
  3
B7
350
134
  3
B8
350
135
  3
B9
350
136
  3
C0
350
137
  3
C1
350
138
  3
C2
350
139
  3
C3
350
13A
  3
C4
350
13B
  3
C5
350
13C
  3
C6
350
13D
  3
C7
350
13E
  3
C8
350
13F
  3
C9
350
140
  3
D0
350
141
  3
D1
350
142
  3
D2
350
143
  0
DICTIONARY
  5
1A8
102
{ACAD_REACTORS
330
C
102
}
330
C
100
AcDbDictionary
281
     1
  3
Imperial24
350
1AA
  3
Metric50
350
17AB
  0
DICTIONARY
  5
86
102
{ACAD_REACTORS
330
C
102
}
330
C
100
AcDbDictionary
281
     1
  3
Standard
350
87
  0
DICTIONARY
  5
99
102
{ACAD_REACTORS
330
C
102
}
330
C
100
AcDbDictionary
281
     1
  3
2dWireframe
350
9F
  3
3D Hidden
350
109D
  3
3dWireframe
350
109C
  3
Basic
350
9E
  3
Brighten
350
A5
  3
ColorChange
350
A9
  3
Conceptual
350
A2
  3
Dim
350
A4
  3
EdgeColorOff
350
175
  3
Facepattern
350
A8
  3
Flat
350
9A
  3
FlatWithEdges
350
9B
  3
Gouraud
350
9C
  3
GouraudWithEdges
350
9D
  3
Hidden
350
A1
  3
JitterOff
350
173
  3
Linepattern
350
A7
  3
OverhangOff
350
174
  3
Realistic
350
A3
  3
Shaded
350
182
  3
Shaded with edges
350
181
  3
Shades of Gray
350
17E
  3
Sketchy
350
17F
  3
Thicken
350
A6
  3
Wireframe
350
A0
  3
X-Ray
350
180
  0
XRECORD
  5
18C0
102
{ACAD_REACTORS
330
C
102
}
330
C
100
AcDbXrecord
280
     1
 90
        1
330
87
  0
DICTIONARY
  5
66
102
{ACAD_REACTORS
330
C
102
}
330
C
100
AcDbDictionary
281
     1
  3
CANNOSCALE
350
F0
  3
CMLEADERSTYLE
350
EF
  3
CTABLESTYLE
350
89
  3
CVIEWDETAILSTYLE
350
1B7
  3
CVIEWSECTIONSTYLE
350
1B8
  3
DIMASSOC
350
67
  3
HIDETEXT
350
6B
  3
LAYEREVAL
350
14D
  3
LAYERNOTIFY
350
14E
  0
DICTIONARY
  5
18C6
102
{ACAD_REACTORS
330
C
102
}
330
C
100
AcDbDictionary
281
     1
  3
AcDsRecords
350
18C8
  3
AcDsSchemas
350
18C7
1001
ACAD
1070
     2
  0
DICTIONARY
  5
175A
102
{ACAD_REACTORS
330
C
102
}
330
C
100
AcDbDictionary
281
     1
  0
DICTIONARY
  5
18F
102
{ACAD_REACTORS
330
18E
102
}
330
18E
100
AcDbDictionary
281
     1
  0
SORTENTSTABLE
  5
1367
102
{ACAD_REACTORS
330
15D
102
}
330
15D
100
AcDbSortentsTable
330
1F
  0
SORTENTSTABLE
  5
1757
102
{ACAD_REACTORS
330
1756
102
}
330
1756
100
AcDbSortentsTable
330
1754
  0
SORTENTSTABLE
  5
175E
102
{ACAD_REACTORS
330
175D
102
}
330
175D
100
AcDbSortentsTable
330
175B
  0
ACDBDETAILVIEWSTYLE
  5
1AC
102
{ACAD_XDICTIONARY
360
18CB
102
}
102
{ACAD_REACTORS
330
1AB
102
}
330
1AB
100
AcDbModelDocViewStyle
 70
     0
  3
Imperial24
290
     0
100
AcDbDetailViewStyle
 70
     0
 71
     0
 90
        3
 71
     1
340
11
 62
   256
 40
0.24
340
0
 62
   256
 40
0.24
300

 40
0.36
280
     3
 71
     2
340
16
 90
       25
 62
   256
 71
     3
340
11
 62
   256
 40
0.24
 90
        1
 40
0.75
 90
        1
300
%<\AcVar ViewType \f "%tc1">% %<\AcVar ViewDetailId>%\PSCALE %<\AcVar ViewScale \f "%sn">%
 71
     4
340
16
 90
       25
 62
   256
340
16
 90
       25
 62
   256
280
     0
  0
ACDBDETAILVIEWSTYLE
  5
17AC
102
{ACAD_XDICTIONARY
360
18CF
102
}
102
{ACAD_REACTORS
330
1AB
102
}
330
1AB
100
AcDbModelDocViewStyle
 70
     0
  3
Metric50
290
     0
100
AcDbDetailViewStyle
 70
     0
 71
     0
 90
        3
 71
     1
340
11
 62
   256
 40
5.0
340
0
 62
   256
 40
5.0
300

 40
0.0
280
     1
 71
     2
340
16
 90
       25
 62
   256
 71
     3
340
11
 62
   256
 40
5.0
 90
        0
 40
15.0
 90
        1
300
%<\AcVar ViewDetailId>% (%<\AcVar ViewScale \f "%sn">%)
 71
     4
340
16
 90
       25
 62
   256
340
16
 90
       25
 62
   256
280
     0
  0
LAYOUT
  5
59
102
{ACAD_REACTORS
330
1A
102
}
330
1A
100
AcDbPlotSettings
  1

  2
None
  4

  6

 40
0.0
 41
0.0
 42
0.0
 43
0.0
 44
0.0
 45
0.0
 46
0.0
 47
0.0
 48
0.0
 49
0.0
140
0.0
141
0.0
142
1.0
143
1.0
 70
   688
 72
     0
 73
     0
 74
     5
  7

 75
    16
147
1.0
 76
     0
 77
     2
 78
   300
148
0.0
149
0.0
100
AcDbLayout
  1
Layout1
 70
     1
 71
     1
 10
0.0
 20
0.0
 11
12.0
 21
9.0
 12
0.0
 22
0.0
 32
0.0
 14
0.0
 24
0.0
 34
0.0
 15
0.0
 25
0.0
 35
0.0
146
0.0
 13
0.0
 23
0.0
 33
0.0
 16
1.0
 26
0.0
 36
0.0
 17
0.0
 27
1.0
 37
0.0
 76
     0
330
58
  0
LAYOUT
  5
5E
102
{ACAD_REACTORS
330
1A
102
}
330
1A
100
AcDbPlotSettings
  1

  2
None
  4

  6

 40
0.0
 41
0.0
 42
0.0
 43
0.0
 44
0.0
 45
0.0
 46
0.0
 47
0.0
 48
0.0
 49
0.0
140
0.0
141
0.0
142
1.0
143
1.0
 70
   688
 72
     0
 73
     0
 74
     5
  7

 75
    16
147
1.0
 76
     0
 77
     2
 78
   300
148
0.0
149
0.0
100
AcDbLayout
  1
Layout2
 70
     1
 71
     2
 10
0.0
 20
0.0
 11
12.0
 21
9.0
 12
0.0
 22
0.0
 32
0.0
 14
0.0
 24
0.0
 34
0.0
 15
0.0
 25
0.0
 35
0.0
146
0.0
 13
0.0
 23
0.0
 33
0.0
 16
1.0
 26
0.0
 36
0.0
 17
0.0
 27
1.0
 37
0.0
 76
     0
330
5D
  0
LAYOUT
  5
22
102
{ACAD_XDICTIONARY
360
194
102
}
102
{ACAD_REACTORS
330
1A
102
}
330
1A
100
AcDbPlotSettings
  1

  2
none_device
  4
ANSI_A_(8.50_x_11.00_Inches)
  6

 40
6.349999904632568
 41
19.04999923706055
 42
6.350006103515625
 43
19.04998779296875
 44
215.8999938964844
 45
279.3999938964844
 46
0.0
 47
0.0
 48
0.0
 49
0.0
140
0.0
141
0.0
142
1.0
143
2.584895464708373
 70
 11952
 72
     0
 73
     1
 74
     0
  7

 75
     0
147
0.3868628397755418
 76
     0
 77
     2
 78
   300
148
0.0
149
0.0
100
AcDbLayout
  1
Model
 70
     1
 71
     0
 10
0.0
 20
0.0
 11
12.0
 21
9.0
 12
0.0
 22
0.0
 32
0.0
 14
0.0
 24
0.0
 34
0.0
 15
0.0
 25
0.0
 35
0.0
146
0.0
 13
0.0
 23
0.0
 33
0.0
 16
1.0
 26
0.0
 36
0.0
 17
0.0
 27
1.0
 37
0.0
 76
     0
330
1F
331
94
  0
MATERIAL
  5
97
102
{ACAD_XDICTIONARY
360
188
102
}
102
{ACAD_REACTORS
330
72
102
}
330
72
100
AcDbMaterial
  1
ByBlock
 94
       63
  0
MATERIAL
  5
96
102
{ACAD_XDICTIONARY
360
186
102
}
102
{ACAD_REACTORS
330
72
102
}
330
72
100
AcDbMaterial
  1
ByLayer
 94
       63
  0
MATERIAL
  5
98
102
{ACAD_XDICTIONARY
360
110
102
}
102
{ACAD_REACTORS
330
72
102
}
330
72
100
AcDbMaterial
  1
Global
 43
0.0208000000566244
 43
0.0
 43
0.0
 43
0.0
 43
0.0
 43
0.0208000000566244
 43
0.0
 43
0.0
 43
0.0
 43
0.0
 43
1.0
 43
0.0
 43
0.0
 43
0.0
 43
0.0
 43
1.0
 49
0.0208000000566244
 49
0.0
 49
0.0
 49
0.0
 49
0.0
 49
0.0208000000566244
 49
0.0
 49
0.0
 49
0.0
 49
0.0
 49
1.0
 49
0.0
 49
0.0
 49
0.0
 49
0.0
 49
1.0
142
0.0208000000566244
142
0.0
142
0.0
142
0.0
142
0.0
142
0.0208000000566244
142
0.0
142
0.0
142
0.0
142
0.0
142
1.0
142
0.0
142
0.0
142
0.0
142
0.0
142
1.0
144
0.0208000000566244
144
0.0
144
0.0
144
0.0
144
0.0
144
0.0208000000566244
144
0.0
144
0.0
144
0.0
144
0.0
144
1.0
144
0.0
144
0.0
144
0.0
144
0.0
144
1.0
 94
       63
1001
ACAD
1070
    -1
1070
     3
1070
     0
1000

1071
        0
1070
     0
  0
MLEADERSTYLE
  5
E5
102
{ACAD_REACTORS
330
D7
102
}
330
D7
100
AcDbMLeaderStyle
179
     2
170
     2
171
     1
172
     0
 90
        2
 40
0.0
 41
0.0
173
     1
 91
-1056964608
340
14
 92
       -2
290
     1
 42
0.09
291
     1
 43
0.36
  3
Standard
 44
0.18
300

342
11
174
     1
178
     1
175
     1
176
     0
 93
-1056964608
 45
0.18
292
     0
297
     0
 46
0.18
 94
-1056964608
 47
1.0
 49
1.0
140
1.0
293
     1
141
0.0
294
     1
177
     0
142
1.0
295
     0
296
     1
143
0.125
271
     0
272
     9
273
     9
298
     0
  0
MLEADERSTYLE
  5
D8
102
{ACAD_REACTORS
330
D7
102
}
330
D7
100
AcDbMLeaderStyle
179
     2
170
     2
171
     1
172
     0
 90
        2
 40
0.0
 41
0.0
173
     1
 91
-1056964608
340
14
 92
       -2
290
     1
 42
0.09
291
     1
 43
0.36
  3
Standard
 44
0.18
300

342
11
174
     1
178
     1
175
     1
176
     0
 93
-1056964608
 45
0.18
292
     0
297
     0
 46
0.18
 94
-1056964608
 47
1.0
 49
1.0
140
1.0
293
     1
141
0.0
294
     1
177
     0
142
1.0
295
     0
296
     0
143
0.125
271
     0
272
     9
273
     9
298
     0
  0
MLINESTYLE
  5
18
102
{ACAD_REACTORS
330
17
102
}
330
17
100
AcDbMlineStyle
  2
STANDARD
 70
     0
  3

 62
   256
 51
90.0
 52
90.0
 71
     2
 49
0.5
 62
   256
  6
BYLAYER
 49
-0.5
 62
   256
  6
BYLAYER
  0
ACDBPLACEHOLDER
  5
F
102
{ACAD_REACTORS
330
E
102
}
330
E
  0
SCALE
  5
B7
102
{ACAD_REACTORS
330
B6
102
}
330
B6
100
AcDbScale
 70
     0
300
1:1
140
1.0
141
1.0
290
     1
  0
SCALE
  5
124
102
{ACAD_REACTORS
330
B6
102
}
330
B6
100
AcDbScale
 70
     0
300
1:2
140
1.0
141
2.0
290
     0
  0
SCALE
  5
125
102
{ACAD_REACTORS
330
B6
102
}
330
B6
100
AcDbScale
 70
     0
300
1:4
140
1.0
141
4.0
290
     0
  0
SCALE
  5
126
102
{ACAD_REACTORS
330
B6
102
}
330
B6
100
AcDbScale
 70
     0
300
1:5
140
1.0
141
5.0
290
     0
  0
SCALE
  5
127
102
{ACAD_REACTORS
330
B6
102
}
330
B6
100
AcDbScale
 70
     0
300
1:8
140
1.0
141
8.0
290
     0
  0
SCALE
  5
128
102
{ACAD_REACTORS
330
B6
102
}
330
B6
100
AcDbScale
 70
     0
300
1:10
140
1.0
141
10.0
290
     0
  0
SCALE
  5
129
102
{ACAD_REACTORS
330
B6
102
}
330
B6
100
AcDbScale
 70
     0
300
1:16
140
1.0
141
16.0
290
     0
  0
SCALE
  5
12A
102
{ACAD_REACTORS
330
B6
102
}
330
B6
100
AcDbScale
 70
     0
300
1:20
140
1.0
141
20.0
290
     0
  0
SCALE
  5
12B
102
{ACAD_REACTORS
330
B6
102
}
330
B6
100
AcDbScale
 70
     0
300
1:30
140
1.0
141
30.0
290
     0
  0
SCALE
  5
12C
102
{ACAD_REACTORS
330
B6
102
}
330
B6
100
AcDbScale
 70
     0
300
1:40
140
1.0
141
40.0
290
     0
  0
SCALE
  5
12D
102
{ACAD_REACTORS
330
B6
102
}
330
B6
100
AcDbScale
 70
     0
300
1:50
140
1.0
141
50.0
290
     0
  0
SCALE
  5
12E
102
{ACAD_REACTORS
330
B6
102
}
330
B6
100
AcDbScale
 70
     0
300
1:100
140
1.0
141
100.0
290
     0
  0
SCALE
  5
12F
102
{ACAD_REACTORS
330
B6
102
}
330
B6
100
AcDbScale
 70
     0
300
2:1
140
2.0
141
1.0
290
     0
  0
SCALE
  5
130
102
{ACAD_REACTORS
330
B6
102
}
330
B6
100
AcDbScale
 70
     0
300
4:1
140
4.0
141
1.0
290
     0
  0
SCALE
  5
131
102
{ACAD_REACTORS
330
B6
102
}
330
B6
100
AcDbScale
 70
     0
300
8:1
140
8.0
141
1.0
290
     0
  0
SCALE
  5
132
102
{ACAD_REACTORS
330
B6
102
}
330
B6
100
AcDbScale
 70
     0
300
10:1
140
10.0
141
1.0
290
     0
  0
SCALE
  5
133
102
{ACAD_REACTORS
330
B6
102
}
330
B6
100
AcDbScale
 70
     0
300
100:1
140
100.0
141
1.0
290
     0
  0
SCALE
  5
134
102
{ACAD_REACTORS
330
B6
102
}
330
B6
100
AcDbScale
 70
     0
300
1/128" = 1'-0"
140
0.0078125
141
12.0
290
     0
  0
SCALE
  5
135
102
{ACAD_REACTORS
330
B6
102
}
330
B6
100
AcDbScale
 70
     0
300
1/64" = 1'-0"
140
0.015625
141
12.0
290
     0
  0
SCALE
  5
136
102
{ACAD_REACTORS
330
B6
102
}
330
B6
100
AcDbScale
 70
     0
300
1/32" = 1'-0"
140
0.03125
141
12.0
290
     0
  0
SCALE
  5
137
102
{ACAD_REACTORS
330
B6
102
}
330
B6
100
AcDbScale
 70
     0
300
1/16" = 1'-0"
140
0.0625
141
12.0
290
     0
  0
SCALE
  5
138
102
{ACAD_REACTORS
330
B6
102
}
330
B6
100
AcDbScale
 70
     0
300
3/32" = 1'-0"
140
0.09375
141
12.0
290
     0
  0
SCALE
  5
139
102
{ACAD_REACTORS
330
B6
102
}
330
B6
100
AcDbScale
 70
     0
300
1/8" = 1'-0"
140
0.125
141
12.0
290
     0
  0
SCALE
  5
13A
102
{ACAD_REACTORS
330
B6
102
}
330
B6
100
AcDbScale
 70
     0
300
3/16" = 1'-0"
140
0.1875
141
12.0
290
     0
  0
SCALE
  5
13B
102
{ACAD_REACTORS
330
B6
102
}
330
B6
100
AcDbScale
 70
     0
300
1/4" = 1'-0"
140
0.25
141
12.0
290
     0
  0
SCALE
  5
13C
102
{ACAD_REACTORS
330
B6
102
}
330
B6
100
AcDbScale
 70
     0
300
3/8" = 1'-0"
140
0.375
141
12.0
290
     0
  0
SCALE
  5
13D
102
{ACAD_REACTORS
330
B6
102
}
330
B6
100
AcDbScale
 70
     0
300
1/2" = 1'-0"
140
0.5
141
12.0
290
     0
  0
SCALE
  5
13E
102
{ACAD_REACTORS
330
B6
102
}
330
B6
100
AcDbScale
 70
     0
300
3/4" = 1'-0"
140
0.75
141
12.0
290
     0
  0
SCALE
  5
13F
102
{ACAD_REACTORS
330
B6
102
}
330
B6
100
AcDbScale
 70
     0
300
1" = 1'-0"
140
1.0
141
12.0
290
     0
  0
SCALE
  5
140
102
{ACAD_REACTORS
330
B6
102
}
330
B6
100
AcDbScale
 70
     0
300
1-1/2" = 1'-0"
140
1.5
141
12.0
290
     0
  0
SCALE
  5
141
102
{ACAD_REACTORS
330
B6
102
}
330
B6
100
AcDbScale
 70
     0
300
3" = 1'-0"
140
3.0
141
12.0
290
     0
  0
SCALE
  5
142
102
{ACAD_REACTORS
330
B6
102
}
330
B6
100
AcDbScale
 70
     0
300
6" = 1'-0"
140
6.0
141
12.0
290
     0
  0
SCALE
  5
143
102
{ACAD_REACTORS
330
B6
102
}
330
B6
100
AcDbScale
 70
     0
300
1'-0" = 1'-0"
140
12.0
141
12.0
290
     0
  0
ACDBSECTIONVIEWSTYLE
  5
1AA
102
{ACAD_XDICTIONARY
360
18C9
102
}
102
{ACAD_REACTORS
330
1A8
102
}
330
1A8
100
AcDbModelDocViewStyle
 70
     0
  3
Imperial24
290
     0
100
AcDbSectionViewStyle
 70
     0
 71
     0
 90
       78
 71
     1
340
11
 62
   256
 40
0.24
340
0
340
0
 62
   256
 40
0.24
300
I, O, Q, S, X, Z
 40
0.48
 90
        3
 40
0.18
 90
        1
 71
     2
340
16
 90
       25
 62
   256
340
16
 90
       50
 62
   256
 40
0.24
 40
0.0
 40
0.24
 71
     3
340
11
 62
   256
 40
0.24
 90
        1
 40
0.75
 90
        1
300
%<\AcVar ViewType \f "%tc1">% %<\AcVar ViewSectionStartId>%-%<\AcVar ViewSectionEndId>%\PSCALE %<\AcVar ViewScale \f "%sn">%
 71
     4
 62
   256
 62
   257
300
ANSI31
 40
1.0
 90
        0
290
     0
290
     0
 90
        6
 40
0.0
 40
1.570796326794896
 40
0.2617993877991494
 40
1.308996938995747
 40
-0.2617993877991494
 40
1.832595714594046
  0
ACDBSECTIONVIEWSTYLE
  5
17AB
102
{ACAD_XDICTIONARY
360
18CD
102
}
102
{ACAD_REACTORS
330
1A8
102
}
330
1A8
100
AcDbModelDocViewStyle
 70
     0
  3
Metric50
290
     0
100
AcDbSectionViewStyle
 70
     0
 71
     0
 90
      102
 71
     1
340
11
 62
   256
 40
5.0
340
0
340
0
 62
   256
 40
5.0
300
I, O, Q, S, X, Z
 40
10.0
 90
        0
 40
2.5
 90
        0
 71
     2
340
16
 90
       25
 62
   256
340
16
 90
       50
 62
   256
 40
5.0
 40
2.5
 40
5.0
 71
     3
340
11
 62
   256
 40
5.0
 90
        0
 40
15.0
 90
        1
300
%<\AcVar ViewSectionStartId>%-%<\AcVar ViewSectionEndId>% (%<\AcVar ViewScale \f "%sn">%)
 71
     4
 62
   256
 62
   257
300
ANSI31
 40
1.0
 90
        0
290
     0
290
     0
 90
        6
 40
0.0
 40
1.570796326794896
 40
0.2617993877991494
 40
1.308996938995747
 40
-0.2617993877991494
 40
1.832595714594046
  0
TABLESTYLE
  5
87
102
{ACAD_XDICTIONARY
360
104
102
}
102
{ACAD_REACTORS
330
86
102
}
330
86
100
AcDbTableStyle
280
     0
  3
Standard
 70
     0
 71
     0
 40
0.06
 41
0.06
280
     0
281
     0
  7
Standard
140
0.18
170
     2
 62
     0
 63
     7
283
     0
 90
      512
 91
        0
  1

274
    -2
284
     1
 64
     0
275
    -2
285
     1
 65
     0
276
    -2
286
     1
 66
     0
277
    -2
287
     1
 67
     0
278
    -2
288
     1
 68
     0
279
    -2
289
     1
 69
     0
  7
Standard
140
0.25
170
     5
 62
     0
 63
     7
283
     0
 90
      512
 91
        0
  1

274
    -2
284
     1
 64
     0
275
    -2
285
     1
 65
     0
276
    -2
286
     1
 66
     0
277
    -2
287
     1
 67
     0
278
    -2
288
     1
 68
     0
279
    -2
289
     1
 69
     0
  7
Standard
140
0.18
170
     5
 62
     0
 63
     7
283
     0
 90
      512
 91
        0
  1

274
    -2
284
     1
 64
     0
275
    -2
285
     1
 65
     0
276
    -2
286
     1
 66
     0
277
    -2
287
     1
 67
     0
278
    -2
288
     1
 68
     0
279
    -2
289
     1
 69
     0
  0
VISUALSTYLE
  5
9F
102
{ACAD_XDICTIONARY
360
1072
102
}
102
{ACAD_REACTORS
330
99
102
}
330
99
100
AcDbVisualStyle
  2
2dWireframe
 70
     4
177
     3
291
     0
 70
    58
 90
        0
176
     1
 90
        2
176
     1
 90
        1
176
     1
 90
        0
176
     1
 40
0.6
176
     1
 40
30.0
176
     1
 62
     7
420
 16777215
176
     1
 90
        1
176
     1
 90
        4
176
     1
 62
     7
176
     1
 62
   257
176
     1
 90
        1
176
     1
 90
        1
176
     1
 40
1.0
176
     1
 90
        0
176
     1
 62
   257
176
     1
 40
1.0
176
     1
 90
        1
176
     1
 90
        6
176
     1
 90
        2
176
     1
 62
     7
176
     1
 90
        5
176
     1
 90
        0
176
     1
 90
        0
176
     1
290
     0
176
     1
 90
        1
176
     1
 40
0.0
176
     1
 90
        0
176
     1
290
     1
176
     1
290
     1
176
     1
290
     0
176
     1
290
     0
176
     1
290
     0
176
     1
290
     0
176
     1
290
     0
176
     1
290
     0
176
     1
290
     0
176
     1
 90
       50
176
     1
 40
0.0
176
     1
 40
1.0
176
     1
 90
        0
176
     1
 62
    18
420
        0
176
     1
 90
       50
176
     1
 90
        3
176
     1
 62
     5
420
      255
176
     1
290
     0
176
     1
 90
       50
176
     1
 90
       50
176
     1
 90
       50
176
     1
290
     0
176
     1
 90
       50
176
     1
 62
   256
176
     0
 40
1.0
176
     0
 90
        2
176
     1
  1
strokes_ogs.tif
176
     1
290
     0
176
     1
 40
1.0
176
     1
 40
1.0
176
     1
1001
ACAD
1000
AcDbSavedByObjectVersion
1070
     0
  0
VISUALSTYLE
  5
109D
102
{ACAD_REACTORS
330
99
102
}
330
99
100
AcDbVisualStyle
  2
3D Hidden
 70
     6
177
     3
291
     0
 70
    58
 90
        1
176
     1
 90
        2
176
     1
 90
        2
176
     1
 90
        0
176
     1
 40
0.6
176
     1
 40
30.0
176
     1
 62
     7
420
 16777215
176
     1
 90
        2
176
     1
 90
        2
176
     1
 62
     7
176
     1
 62
   257
176
     1
 90
        2
176
     1
 90
        1
176
     1
 40
179.0
176
     1
 90
        0
176
     1
 62
   257
176
     1
 40
1.0
176
     1
 90
        1
176
     1
 90
        6
176
     1
 90
        2
176
     1
 62
     7
176
     1
 90
        3
176
     1
 90
        0
176
     1
 90
        0
176
     1
290
     0
176
     1
 90
        1
176
     1
 40
0.0
176
     1
 90
        0
176
     1
290
     0
176
     1
290
     1
176
     1
290
     1
176
     1
290
     0
176
     1
290
     0
176
     1
290
     0
176
     1
290
     0
176
     1
290
     0
176
     1
290
     0
176
     1
 90
       50
176
     1
 40
0.0
176
     1
 40
1.0
176
     1
 90
        0
176
     1
 62
    18
420
        0
176
     1
 90
       50
176
     1
 90
        3
176
     1
 62
     5
420
      255
176
     1
290
     0
176
     1
 90
       50
176
     1
 90
       50
176
     1
 90
       50
176
     1
290
     0
176
     1
 90
       50
176
     1
 62
   256
176
     0
 40
1.0
176
     0
 90
        2
176
     1
  1
strokes_ogs.tif
176
     1
290
     0
176
     1
 40
1.0
176
     1
 40
1.0
176
     1
1001
ACAD
1000
AcDbSavedByObjectVersion
1070
     0
  0
VISUALSTYLE
  5
109C
102
{ACAD_REACTORS
330
99
102
}
330
99
100
AcDbVisualStyle
  2
3dWireframe
 70
     5
177
     3
291
     0
 70
    58
 90
        0
176
     1
 90
        2
176
     1
 90
        0
176
     1
 90
        0
176
     1
 40
0.6
176
     1
 40
30.0
176
     1
 62
     7
420
 16777215
176
     1
 90
        1
176
     1
 90
        4
176
     1
 62
     7
176
     1
 62
   257
176
     1
 90
        1
176
     1
 90
        1
176
     1
 40
1.0
176
     1
 90
        0
176
     1
 62
   257
176
     1
 40
1.0
176
     1
 90
        1
176
     1
 90
        6
176
     1
 90
        2
176
     1
 62
     7
176
     1
 90
        5
176
     1
 90
        0
176
     1
 90
        0
176
     1
290
     0
176
     1
 90
        1
176
     1
 40
0.0
176
     1
 90
        0
176
     1
290
     0
176
     1
290
     1
176
     1
290
     1
176
     1
290
     0
176
     1
290
     0
176
     1
290
     0
176
     1
290
     0
176
     1
290
     0
176
     1
290
     0
176
     1
 90
       50
176
     1
 40
0.0
176
     1
 40
1.0
176
     1
 90
        0
176
     1
 62
    18
420
        0
176
     1
 90
       50
176
     1
 90
        3
176
     1
 62
     5
420
      255
176
     1
290
     0
176
     1
 90
       50
176
     1
 90
       50
176
     1
 90
       50
176
     1
290
     0
176
     1
 90
       50
176
     1
 62
   256
176
     0
 40
1.0
176
     0
 90
        2
176
     1
  1
strokes_ogs.tif
176
     1
290
     0
176
     1
 40
1.0
176
     1
 40
1.0
176
     1
1001
ACAD
1000
AcDbSavedByObjectVersion
1070
     0
  0
VISUALSTYLE
  5
9E
102
{ACAD_XDICTIONARY
360
1070
102
}
102
{ACAD_REACTORS
330
99
102
}
330
99
100
AcDbVisualStyle
  2
Basic
 70
     7
177
     3
291
     1
 70
    58
 90
        1
176
     1
 90
        0
176
     1
 90
        1
176
     1
 90
        0
176
     1
 40
0.6
176
     1
 40
30.0
176
     1
 62
     7
420
 16777215
176
     1
 90
        0
176
     1
 90
        4
176
     1
 62
     7
176
     1
 62
   257
176
     1
 90
        1
176
     1
 90
        1
176
     1
 40
1.0
176
     1
 90
        8
176
     1
 62
     7
176
     1
 40
1.0
176
     1
 90
        1
176
     1
 90
        6
176
     1
 90
        2
176
     1
 62
     7
176
     1
 90
        5
176
     1
 90
        0
176
     1
 90
        0
176
     1
290
     0
176
     1
 90
        1
176
     1
 40
0.0
176
     1
 90
        0
176
     1
290
     0
176
     1
290
     1
176
     1
290
     1
176
     1
290
     0
176
     1
290
     0
176
     1
290
     0
176
     1
290
     0
176
     1
290
     0
176
     1
290
     0
176
     1
 90
       50
176
     1
 40
0.0
176
     1
 40
1.0
176
     1
 90
        0
176
     1
 62
    18
420
        0
176
     1
 90
       50
176
     1
 90
        3
176
     1
 62
     5
420
      255
176
     1
290
     0
176
     1
 90
       50
176
     1
 90
       50
176
     1
 90
       50
176
     1
290
     0
176
     1
 90
       50
176
     1
 62
   256
176
     0
 40
1.0
176
     0
 90
        2
176
     1
  1
strokes_ogs.tif
176
     1
290
     0
176
     1
 40
1.0
176
     1
 40
1.0
176
     1
1001
ACAD
1000
AcDbSavedByObjectVersion
1070
     0
  0
VISUALSTYLE
  5
A5
102
{ACAD_XDICTIONARY
360
107E
102
}
102
{ACAD_REACTORS
330
99
102
}
330
99
100
AcDbVisualStyle
  2
Brighten
 70
    12
177
     3
291
     1
 70
    58
 90
        2
176
     1
 90
        2
176
     1
 90
        1
176
     1
 90
        0
176
     1
 40
0.6
176
     1
 40
30.0
176
     1
 62
     7
420
 16777215
176
     1
 90
        1
176
     1
 90
        4
176
     1
 62
     7
176
     1
 62
   257
176
     1
 90
        1
176
     1
 90
        1
176
     1
 40
1.0
176
     1
 90
        8
176
     1
 62
     7
176
     1
 40
1.0
176
     1
 90
        1
176
     1
 90
        6
176
     1
 90
        2
176
     1
 62
     7
176
     1
 90
        5
176
     1
 90
        0
176
     1
 90
        0
176
     1
290
     0
176
     1
 90
        1
176
     1
 40
50.0
176
     1
 90
        0
176
     1
290
     0
176
     1
290
     1
176
     1
290
     1
176
     1
290
     0
176
     1
290
     0
176
     1
290
     0
176
     1
290
     0
176
     1
290
     0
176
     1
290
     0
176
     1
 90
       50
176
     1
 40
0.0
176
     1
 40
1.0
176
     1
 90
        0
176
     1
 62
    18
420
        0
176
     1
 90
       50
176
     1
 90
        3
176
     1
 62
     5
420
      255
176
     1
290
     0
176
     1
 90
       50
176
     1
 90
       50
176
     1
 90
       50
176
     1
290
     0
176
     1
 90
       50
176
     1
 62
   256
176
     0
 40
1.0
176
     0
 90
        2
176
     1
  1
strokes_ogs.tif
176
     1
290
     0
176
     1
 40
1.0
176
     1
 40
1.0
176
     1
1001
ACAD
1000
AcDbSavedByObjectVersion
1070
     0
  0
VISUALSTYLE
  5
A9
102
{ACAD_XDICTIONARY
360
1086
102
}
102
{ACAD_REACTORS
330
99
102
}
330
99
100
AcDbVisualStyle
  2
ColorChange
 70
    16
177
     3
291
     1
 70
    58
 90
        2
176
     1
 90
        2
176
     1
 90
        3
176
     1
 90
        0
176
     1
 40
0.6
176
     1
 40
30.0
176
     1
 62
     8
420
  8421504
176
     1
 90
        1
176
     1
 90
        4
176
     1
 62
     7
176
     1
 62
   257
176
     1
 90
        1
176
     1
 90
        1
176
     1
 40
1.0
176
     1
 90
        8
176
     1
 62
     8
420
  8421504
176
     1
 40
1.0
176
     1
 90
        1
176
     1
 90
        6
176
     1
 90
        2
176
     1
 62
     7
176
     1
 90
        5
176
     1
 90
        0
176
     1
 90
        0
176
     1
290
     0
176
     1
 90
        1
176
     1
 40
0.0
176
     1
 90
        0
176
     1
290
     0
176
     1
290
     1
176
     1
290
     1
176
     1
290
     0
176
     1
290
     0
176
     1
290
     0
176
     1
290
     0
176
     1
290
     0
176
     1
290
     0
176
     1
 90
       50
176
     1
 40
0.0
176
     1
 40
1.0
176
     1
 90
        0
176
     1
 62
    18
420
        0
176
     1
 90
       50
176
     1
 90
        3
176
     1
 62
     5
420
      255
176
     1
290
     0
176
     1
 90
       50
176
     1
 90
       50
176
     1
 90
       50
176
     1
290
     0
176
     1
 90
       50
176
     1
 62
   256
176
     0
 40
1.0
176
     0
 90
        2
176
     1
  1
strokes_ogs.tif
176
     1
290
     0
176
     1
 40
1.0
176
     1
 40
1.0
176
     1
1001
ACAD
1000
AcDbSavedByObjectVersion
1070
     0
  0
VISUALSTYLE
  5
A2
102
{ACAD_XDICTIONARY
360
1078
102
}
102
{ACAD_REACTORS
330
99
102
}
330
99
100
AcDbVisualStyle
  2
Conceptual
 70
     9
177
     3
291
     0
 70
    58
 90
        3
176
     1
 90
        2
176
     1
 90
        1
176
     1
 90
        0
176
     1
 40
0.6
176
     1
 40
30.0
176
     1
 62
     7
420
 16777215
176
     1
 90
        2
176
     1
 90
        2
176
     1
 62
     7
176
     1
 62
   257
176
     1
 90
        1
176
     1
 90
        1
176
     1
 40
40.0
176
     1
 90
        8
176
     1
 62
     7
176
     1
 40
1.0
176
     1
 90
        1
176
     1
 90
        6
176
     1
 90
        2
176
     1
 62
     7
176
     1
 90
        3
176
     1
 90
        0
176
     1
 90
        0
176
     1
290
     0
176
     1
 90
        1
176
     1
 40
0.0
176
     1
 90
        0
176
     1
290
     0
176
     1
290
     1
176
     1
290
     1
176
     1
290
     0
176
     1
290
     0
176
     1
290
     0
176
     1
290
     0
176
     1
290
     0
176
     1
290
     0
176
     1
 90
       50
176
     1
 40
0.0
176
     1
 40
1.0
176
     1
 90
        0
176
     1
 62
    18
420
        0
176
     1
 90
       50
176
     1
 90
        3
176
     1
 62
     5
420
      255
176
     1
290
     0
176
     1
 90
       50
176
     1
 90
       50
176
     1
 90
       50
176
     1
290
     0
176
     1
 90
       50
176
     1
 62
   256
176
     0
 40
1.0
176
     0
 90
        2
176
     1
  1
strokes_ogs.tif
176
     1
290
     0
176
     1
 40
1.0
176
     1
 40
1.0
176
     1
1001
ACAD
1000
AcDbSavedByObjectVersion
1070
     0
  0
VISUALSTYLE
  5
A4
102
{ACAD_XDICTIONARY
360
107C
102
}
102
{ACAD_REACTORS
330
99
102
}
330
99
100
AcDbVisualStyle
  2
Dim
 70
    11
177
     3
291
     1
 70
    58
 90
        2
176
     1
 90
        2
176
     1
 90
        1
176
     1
 90
        0
176
     1
 40
0.6
176
     1
 40
30.0
176
     1
 62
     7
420
 16777215
176
     1
 90
        1
176
     1
 90
        4
176
     1
 62
     7
176
     1
 62
   257
176
     1
 90
        1
176
     1
 90
        1
176
     1
 40
1.0
176
     1
 90
        8
176
     1
 62
     7
176
     1
 40
1.0
176
     1
 90
        1
176
     1
 90
        6
176
     1
 90
        2
176
     1
 62
     7
176
     1
 90
        5
176
     1
 90
        0
176
     1
 90
        0
176
     1
290
     0
176
     1
 90
        1
176
     1
 40
-50.0
176
     1
 90
        0
176
     1
290
     0
176
     1
290
     1
176
     1
290
     1
176
     1
290
     0
176
     1
290
     0
176
     1
290
     0
176
     1
290
     0
176
     1
290
     0
176
     1
290
     0
176
     1
 90
       50
176
     1
 40
0.0
176
     1
 40
1.0
176
     1
 90
        0
176
     1
 62
    18
420
        0
176
     1
 90
       50
176
     1
 90
        3
176
     1
 62
     5
420
      255
176
     1
290
     0
176
     1
 90
       50
176
     1
 90
       50
176
     1
 90
       50
176
     1
290
     0
176
     1
 90
       50
176
     1
 62
   256
176
     0
 40
1.0
176
     0
 90
        2
176
     1
  1
strokes_ogs.tif
176
     1
290
     0
176
     1
 40
1.0
176
     1
 40
1.0
176
     1
1001
ACAD
1000
AcDbSavedByObjectVersion
1070
     0
  0
VISUALSTYLE
  5
175
102
{ACAD_XDICTIONARY
360
108C
102
}
102
{ACAD_REACTORS
330
99
102
}
330
99
100
AcDbVisualStyle
  2
EdgeColorOff
 70
    22
177
     3
291
     1
 70
    58
 90
        2
176
     0
 90
        2
176
     0
 90
        0
176
     0
 90
        0
176
     0
 40
0.6
176
     0
 40
30.0
176
     0
 62
     7
420
 16777215
176
     0
 90
        1
176
     0
 90
        4
176
     0
 62
     7
176
     0
 62
   257
176
     0
 90
        1
176
     0
 90
        1
176
     0
 40
1.0
176
     0
 90
        8
176
     2
 62
     7
176
     0
 40
1.0
176
     0
 90
        1
176
     0
 90
        6
176
     0
 90
        2
176
     0
 62
     7
176
     0
 90
        5
176
     0
 90
        0
176
     0
 90
        0
176
     0
290
     0
176
     0
 90
        1
176
     0
 40
0.0
176
     0
 90
        0
176
     0
290
     0
176
     1
290
     1
176
     1
290
     1
176
     1
290
     0
176
     1
290
     0
176
     1
290
     0
176
     1
290
     0
176
     1
290
     0
176
     1
290
     0
176
     1
 90
       50
176
     1
 40
0.0
176
     1
 40
1.0
176
     1
 90
        0
176
     1
 62
    18
420
        0
176
     1
 90
       50
176
     1
 90
        3
176
     1
 62
     5
420
      255
176
     1
290
     0
176
     1
 90
       50
176
     1
 90
       50
176
     1
 90
       50
176
     1
290
     0
176
     1
 90
       50
176
     1
 62
   256
176
     0
 40
1.0
176
     0
 90
        2
176
     1
  1
strokes_ogs.tif
176
     1
290
     0
176
     1
 40
1.0
176
     1
 40
1.0
176
     1
1001
ACAD
1000
AcDbSavedByObjectVersion
1070
     0
  0
VISUALSTYLE
  5
A8
102
{ACAD_XDICTIONARY
360
1084
102
}
102
{ACAD_REACTORS
330
99
102
}
330
99
100
AcDbVisualStyle
  2
Facepattern
 70
    15
177
     3
291
     1
 70
    58
 90
        2
176
     1
 90
        2
176
     1
 90
        1
176
     1
 90
        0
176
     1
 40
0.6
176
     1
 40
30.0
176
     1
 62
     7
420
 16777215
176
     1
 90
        1
176
     1
 90
        4
176
     1
 62
     7
176
     1
 62
   257
176
     1
 90
        1
176
     1
 90
        1
176
     1
 40
1.0
176
     1
 90
        8
176
     1
 62
     7
176
     1
 40
1.0
176
     1
 90
        1
176
     1
 90
        6
176
     1
 90
        2
176
     1
 62
     7
176
     1
 90
        5
176
     1
 90
        0
176
     1
 90
        0
176
     1
290
     0
176
     1
 90
        1
176
     1
 40
0.0
176
     1
 90
        0
176
     1
290
     0
176
     1
290
     1
176
     1
290
     1
176
     1
290
     0
176
     1
290
     0
176
     1
290
     0
176
     1
290
     0
176
     1
290
     0
176
     1
290
     0
176
     1
 90
       50
176
     1
 40
0.0
176
     1
 40
1.0
176
     1
 90
        0
176
     1
 62
    18
420
        0
176
     1
 90
       50
176
     1
 90
        3
176
     1
 62
     5
420
      255
176
     1
290
     0
176
     1
 90
       50
176
     1
 90
       50
176
     1
 90
       50
176
     1
290
     0
176
     1
 90
       50
176
     1
 62
   256
176
     0
 40
1.0
176
     0
 90
        2
176
     1
  1
strokes_ogs.tif
176
     1
290
     0
176
     1
 40
1.0
176
     1
 40
1.0
176
     1
1001
ACAD
1000
AcDbSavedByObjectVersion
1070
     0
  0
VISUALSTYLE
  5
9A
102
{ACAD_XDICTIONARY
360
1068
102
}
102
{ACAD_REACTORS
330
99
102
}
330
99
100
AcDbVisualStyle
  2
Flat
 70
     0
177
     3
291
     1
 70
    58
 90
        2
176
     1
 90
        1
176
     1
 90
        1
176
     1
 90
        2
176
     1
 40
0.6
176
     1
 40
30.0
176
     1
 62
     7
420
 16777215
176
     1
 90
        0
176
     1
 90
        0
176
     1
 62
     7
176
     1
 62
   257
176
     1
 90
        1
176
     1
 90
        1
176
     1
 40
1.0
176
     1
 90
        8
176
     1
 62
     7
176
     1
 40
1.0
176
     1
 90
        1
176
     1
 90
        6
176
     1
 90
        2
176
     1
 62
     7
176
     1
 90
        5
176
     1
 90
        0
176
     1
 90
        0
176
     1
290
     0
176
     1
 90
       13
176
     1
 40
0.0
176
     1
 90
        0
176
     1
290
     0
176
     1
290
     1
176
     1
290
     1
176
     1
290
     0
176
     1
290
     0
176
     1
290
     0
176
     1
290
     0
176
     1
290
     0
176
     1
290
     0
176
     1
 90
       50
176
     1
 40
0.0
176
     1
 40
1.0
176
     1
 90
        0
176
     1
 62
    18
420
        0
176
     1
 90
       50
176
     1
 90
        3
176
     1
 62
     5
420
      255
176
     1
290
     0
176
     1
 90
       50
176
     1
 90
       50
176
     1
 90
       50
176
     1
290
     0
176
     1
 90
       50
176
     1
 62
   256
176
     0
 40
1.0
176
     0
 90
        2
176
     1
  1
strokes_ogs.tif
176
     1
290
     0
176
     1
 40
1.0
176
     1
 40
1.0
176
     1
1001
ACAD
1000
AcDbSavedByObjectVersion
1070
     0
  0
VISUALSTYLE
  5
9B
102
{ACAD_XDICTIONARY
360
106A
102
}
102
{ACAD_REACTORS
330
99
102
}
330
99
100
AcDbVisualStyle
  2
FlatWithEdges
 70
     1
177
     3
291
     1
 70
    58
 90
        2
176
     1
 90
        1
176
     1
 90
        1
176
     1
 90
        2
176
     1
 40
0.6
176
     1
 40
30.0
176
     1
 62
     7
420
 16777215
176
     1
 90
        1
176
     1
 90
        0
176
     1
 62
     7
176
     1
 62
   257
176
     1
 90
        1
176
     1
 90
        1
176
     1
 40
1.0
176
     1
 90
        0
176
     1
 62
   257
176
     1
 40
1.0
176
     1
 90
        1
176
     1
 90
        6
176
     1
 90
        2
176
     1
 62
     7
176
     1
 90
        5
176
     1
 90
        0
176
     1
 90
        0
176
     1
290
     0
176
     1
 90
       13
176
     1
 40
0.0
176
     1
 90
        0
176
     1
290
     0
176
     1
290
     1
176
     1
290
     1
176
     1
290
     0
176
     1
290
     0
176
     1
290
     0
176
     1
290
     0
176
     1
290
     0
176
     1
290
     0
176
     1
 90
       50
176
     1
 40
0.0
176
     1
 40
1.0
176
     1
 90
        0
176
     1
 62
    18
420
        0
176
     1
 90
       50
176
     1
 90
        3
176
     1
 62
     5
420
      255
176
     1
290
     0
176
     1
 90
       50
176
     1
 90
       50
176
     1
 90
       50
176
     1
290
     0
176
     1
 90
       50
176
     1
 62
   256
176
     0
 40
1.0
176
     0
 90
        2
176
     1
  1
strokes_ogs.tif
176
     1
290
     0
176
     1
 40
1.0
176
     1
 40
1.0
176
     1
1001
ACAD
1000
AcDbSavedByObjectVersion
1070
     0
  0
VISUALSTYLE
  5
9C
102
{ACAD_XDICTIONARY
360
106C
102
}
102
{ACAD_REACTORS
330
99
102
}
330
99
100
AcDbVisualStyle
  2
Gouraud
 70
     2
177
     3
291
     1
 70
    58
 90
        2
176
     1
 90
        2
176
     1
 90
        1
176
     1
 90
        2
176
     1
 40
0.6
176
     1
 40
30.0
176
     1
 62
     7
420
 16777215
176
     1
 90
        0
176
     1
 90
        0
176
     1
 62
     7
176
     1
 62
   257
176
     1
 90
        1
176
     1
 90
        1
176
     1
 40
1.0
176
     1
 90
        0
176
     1
 62
     7
176
     1
 40
1.0
176
     1
 90
        1
176
     1
 90
        6
176
     1
 90
        2
176
     1
 62
     7
176
     1
 90
        5
176
     1
 90
        0
176
     1
 90
        0
176
     1
290
     0
176
     1
 90
       13
176
     1
 40
0.0
176
     1
 90
        0
176
     1
290
     0
176
     1
290
     1
176
     1
290
     1
176
     1
290
     0
176
     1
290
     0
176
     1
290
     0
176
     1
290
     0
176
     1
290
     0
176
     1
290
     0
176
     1
 90
       50
176
     1
 40
0.0
176
     1
 40
1.0
176
     1
 90
        0
176
     1
 62
    18
420
        0
176
     1
 90
       50
176
     1
 90
        3
176
     1
 62
     5
420
      255
176
     1
290
     0
176
     1
 90
       50
176
     1
 90
       50
176
     1
 90
       50
176
     1
290
     0
176
     1
 90
       50
176
     1
 62
   256
176
     0
 40
1.0
176
     0
 90
        2
176
     1
  1
strokes_ogs.tif
176
     1
290
     0
176
     1
 40
1.0
176
     1
 40
1.0
176
     1
1001
ACAD
1000
AcDbSavedByObjectVersion
1070
     0
  0
VISUALSTYLE
  5
9D
102
{ACAD_XDICTIONARY
360
106E
102
}
102
{ACAD_REACTORS
330
99
102
}
330
99
100
AcDbVisualStyle
  2
GouraudWithEdges
 70
     3
177
     3
291
     1
 70
    58
 90
        2
176
     1
 90
        2
176
     1
 90
        1
176
     1
 90
        2
176
     1
 40
0.6
176
     1
 40
30.0
176
     1
 62
     7
420
 16777215
176
     1
 90
        1
176
     1
 90
        0
176
     1
 62
     7
176
     1
 62
   257
176
     1
 90
        1
176
     1
 90
        1
176
     1
 40
1.0
176
     1
 90
        0
176
     1
 62
   257
176
     1
 40
1.0
176
     1
 90
        1
176
     1
 90
        6
176
     1
 90
        2
176
     1
 62
     7
176
     1
 90
        5
176
     1
 90
        0
176
     1
 90
        0
176
     1
290
     0
176
     1
 90
       13
176
     1
 40
0.0
176
     1
 90
        0
176
     1
290
     0
176
     1
290
     1
176
     1
290
     1
176
     1
290
     0
176
     1
290
     0
176
     1
290
     0
176
     1
290
     0
176
     1
290
     0
176
     1
290
     0
176
     1
 90
       50
176
     1
 40
0.0
176
     1
 40
1.0
176
     1
 90
        0
176
     1
 62
    18
420
        0
176
     1
 90
       50
176
     1
 90
        3
176
     1
 62
     5
420
      255
176
     1
290
     0
176
     1
 90
       50
176
     1
 90
       50
176
     1
 90
       50
176
     1
290
     0
176
     1
 90
       50
176
     1
 62
   256
176
     0
 40
1.0
176
     0
 90
        2
176
     1
  1
strokes_ogs.tif
176
     1
290
     0
176
     1
 40
1.0
176
     1
 40
1.0
176
     1
1001
ACAD
1000
AcDbSavedByObjectVersion
1070
     0
  0
VISUALSTYLE
  5
A1
102
{ACAD_XDICTIONARY
360
1076
102
}
102
{ACAD_REACTORS
330
99
102
}
330
99
100
AcDbVisualStyle
  2
Hidden
 70
     6
177
     3
291
     0
 70
    58
 90
        1
176
     1
 90
        2
176
     1
 90
        2
176
     1
 90
        0
176
     1
 40
0.6
176
     1
 40
30.0
176
     1
 62
     7
420
 16777215
176
     1
 90
        2
176
     1
 90
        2
176
     1
 62
     7
176
     1
 62
   257
176
     1
 90
        2
176
     1
 90
        1
176
     1
 40
40.0
176
     1
 90
        0
176
     1
 62
   257
176
     1
 40
1.0
176
     1
 90
        1
176
     1
 90
        6
176
     1
 90
        2
176
     1
 62
     7
176
     1
 90
        3
176
     1
 90
        0
176
     1
 90
        0
176
     1
290
     0
176
     1
 90
        1
176
     1
 40
0.0
176
     1
 90
        0
176
     1
290
     0
176
     1
290
     1
176
     1
290
     1
176
     1
290
     0
176
     1
290
     0
176
     1
290
     0
176
     1
290
     0
176
     1
290
     0
176
     1
290
     0
176
     1
 90
       50
176
     1
 40
0.0
176
     1
 40
1.0
176
     1
 90
        0
176
     1
 62
    18
420
        0
176
     1
 90
       50
176
     1
 90
        3
176
     1
 62
     5
420
      255
176
     1
290
     0
176
     1
 90
       50
176
     1
 90
       50
176
     1
 90
       50
176
     1
290
     0
176
     1
 90
       50
176
     1
 62
   256
176
     0
 40
1.0
176
     0
 90
        2
176
     1
  1
strokes_ogs.tif
176
     1
290
     0
176
     1
 40
1.0
176
     1
 40
1.0
176
     1
1001
ACAD
1000
AcDbSavedByObjectVersion
1070
     0
  0
VISUALSTYLE
  5
173
102
{ACAD_XDICTIONARY
360
1088
102
}
102
{ACAD_REACTORS
330
99
102
}
330
99
100
AcDbVisualStyle
  2
JitterOff
 70
    20
177
     3
291
     1
 70
    58
 90
        2
176
     0
 90
        2
176
     0
 90
        0
176
     0
 90
        0
176
     0
 40
0.6
176
     0
 40
30.0
176
     0
 62
     7
420
 16777215
176
     0
 90
        1
176
     0
 90
        4
176
     0
 62
     7
176
     0
 62
   257
176
     0
 90
        1
176
     0
 90
        1
176
     0
 40
1.0
176
     0
 90
       10
176
     2
 62
     7
176
     0
 40
1.0
176
     0
 90
        1
176
     0
 90
        6
176
     0
 90
        2
176
     0
 62
     7
176
     0
 90
        5
176
     0
 90
        0
176
     0
 90
        0
176
     0
290
     0
176
     0
 90
        1
176
     0
 40
0.0
176
     0
 90
        0
176
     0
290
     0
176
     1
290
     1
176
     1
290
     1
176
     1
290
     0
176
     1
290
     0
176
     1
290
     0
176
     1
290
     0
176
     1
290
     0
176
     1
290
     0
176
     1
 90
       50
176
     1
 40
0.0
176
     1
 40
1.0
176
     1
 90
        0
176
     1
 62
    18
420
        0
176
     1
 90
       50
176
     1
 90
        3
176
     1
 62
     5
420
      255
176
     1
290
     0
176
     1
 90
       50
176
     1
 90
       50
176
     1
 90
       50
176
     1
290
     0
176
     1
 90
       50
176
     1
 62
   256
176
     0
 40
1.0
176
     0
 90
        2
176
     1
  1
strokes_ogs.tif
176
     1
290
     0
176
     1
 40
1.0
176
     1
 40
1.0
176
     1
1001
ACAD
1000
AcDbSavedByObjectVersion
1070
     0
  0
VISUALSTYLE
  5
A7
102
{ACAD_XDICTIONARY
360
1082
102
}
102
{ACAD_REACTORS
330
99
102
}
330
99
100
AcDbVisualStyle
  2
Linepattern
 70
    14
177
     3
291
     1
 70
    58
 90
        2
176
     1
 90
        2
176
     1
 90
        1
176
     1
 90
        0
176
     1
 40
0.6
176
     1
 40
30.0
176
     1
 62
     7
420
 16777215
176
     1
 90
        1
176
     1
 90
        4
176
     1
 62
     7
176
     1
 62
   257
176
     1
 90
        7
176
     1
 90
        7
176
     1
 40
1.0
176
     1
 90
        8
176
     1
 62
     7
176
     1
 40
1.0
176
     1
 90
        1
176
     1
 90
        6
176
     1
 90
        2
176
     1
 62
     7
176
     1
 90
        5
176
     1
 90
        0
176
     1
 90
        0
176
     1
290
     0
176
     1
 90
        1
176
     1
 40
0.0
176
     1
 90
        0
176
     1
290
     0
176
     1
290
     1
176
     1
290
     1
176
     1
290
     0
176
     1
290
     0
176
     1
290
     0
176
     1
290
     0
176
     1
290
     0
176
     1
290
     0
176
     1
 90
       50
176
     1
 40
0.0
176
     1
 40
1.0
176
     1
 90
        0
176
     1
 62
    18
420
        0
176
     1
 90
       50
176
     1
 90
        3
176
     1
 62
     5
420
      255
176
     1
290
     0
176
     1
 90
       50
176
     1
 90
       50
176
     1
 90
       50
176
     1
290
     0
176
     1
 90
       50
176
     1
 62
   256
176
     0
 40
1.0
176
     0
 90
        2
176
     1
  1
strokes_ogs.tif
176
     1
290
     0
176
     1
 40
1.0
176
     1
 40
1.0
176
     1
1001
ACAD
1000
AcDbSavedByObjectVersion
1070
     0
  0
VISUALSTYLE
  5
174
102
{ACAD_XDICTIONARY
360
108A
102
}
102
{ACAD_REACTORS
330
99
102
}
330
99
100
AcDbVisualStyle
  2
OverhangOff
 70
    21
177
     3
291
     1
 70
    58
 90
        2
176
     0
 90
        2
176
     0
 90
        0
176
     0
 90
        0
176
     0
 40
0.6
176
     0
 40
30.0
176
     0
 62
     7
420
 16777215
176
     0
 90
        1
176
     0
 90
        4
176
     0
 62
     7
176
     0
 62
   257
176
     0
 90
        1
176
     0
 90
        1
176
     0
 40
1.0
176
     0
 90
        9
176
     2
 62
     7
176
     0
 40
1.0
176
     0
 90
        1
176
     0
 90
        6
176
     0
 90
        2
176
     0
 62
     7
176
     0
 90
        5
176
     0
 90
        0
176
     0
 90
        0
176
     0
290
     0
176
     0
 90
        1
176
     0
 40
0.0
176
     0
 90
        0
176
     0
290
     0
176
     1
290
     1
176
     1
290
     1
176
     1
290
     0
176
     1
290
     0
176
     1
290
     0
176
     1
290
     0
176
     1
290
     0
176
     1
290
     0
176
     1
 90
       50
176
     1
 40
0.0
176
     1
 40
1.0
176
     1
 90
        0
176
     1
 62
    18
420
        0
176
     1
 90
       50
176
     1
 90
        3
176
     1
 62
     5
420
      255
176
     1
290
     0
176
     1
 90
       50
176
     1
 90
       50
176
     1
 90
       50
176
     1
290
     0
176
     1
 90
       50
176
     1
 62
   256
176
     0
 40
1.0
176
     0
 90
        2
176
     1
  1
strokes_ogs.tif
176
     1
290
     0
176
     1
 40
1.0
176
     1
 40
1.0
176
     1
1001
ACAD
1000
AcDbSavedByObjectVersion
1070
     0
  0
VISUALSTYLE
  5
A3
102
{ACAD_XDICTIONARY
360
107A
102
}
102
{ACAD_REACTORS
330
99
102
}
330
99
100
AcDbVisualStyle
  2
Realistic
 70
     8
177
     3
291
     0
 70
    58
 90
        2
176
     1
 90
        2
176
     1
 90
        0
176
     1
 90
        2
176
     1
 40
0.6
176
     1
 40
30.0
176
     1
 62
     7
420
 16777215
176
     1
 90
        0
176
     1
 90
        0
176
     1
 62
     7
176
     1
 62
   257
176
     1
 90
        1
176
     1
 90
        1
176
     1
 40
1.0
176
     1
 90
        8
176
     1
 62
   257
176
     1
 40
1.0
176
     1
 90
        1
176
     1
 90
        6
176
     1
 90
        2
176
     1
 62
     7
176
     1
 90
        3
176
     1
 90
        0
176
     1
 90
        0
176
     1
290
     0
176
     1
 90
       13
176
     1
 40
0.0
176
     1
 90
        0
176
     1
290
     0
176
     1
290
     1
176
     1
290
     1
176
     1
290
     0
176
     1
290
     0
176
     1
290
     0
176
     1
290
     0
176
     1
290
     0
176
     1
290
     0
176
     1
 90
       50
176
     1
 40
0.0
176
     1
 40
1.0
176
     1
 90
        0
176
     1
 62
    18
420
        0
176
     1
 90
       50
176
     1
 90
        3
176
     1
 62
     5
420
      255
176
     1
290
     0
176
     1
 90
       50
176
     1
 90
       50
176
     1
 90
       50
176
     1
290
     0
176
     1
 90
       50
176
     1
 62
   256
176
     0
 40
1.0
176
     0
 90
        2
176
     1
  1
strokes_ogs.tif
176
     1
290
     0
176
     1
 40
1.0
176
     1
 40
1.0
176
     1
1001
ACAD
1000
AcDbSavedByObjectVersion
1070
     0
  0
VISUALSTYLE
  5
182
102
{ACAD_XDICTIONARY
360
1096
102
}
102
{ACAD_REACTORS
330
99
102
}
330
99
100
AcDbVisualStyle
  2
Shaded
 70
    27
177
     3
291
     0
 70
    58
 90
        2
176
     1
 90
        2
176
     1
 90
        1
176
     1
 90
        2
176
     1
 40
0.6
176
     1
 40
30.0
176
     1
 62
     7
420
 16777215
176
     1
 90
        0
176
     1
 90
        4
176
     1
 62
     7
176
     1
 62
   257
176
     1
 90
        1
176
     1
 90
        1
176
     1
 40
1.0
176
     1
 90
        8
176
     1
 62
   257
176
     1
 40
1.0
176
     1
 90
        1
176
     1
 90
        6
176
     1
 90
        2
176
     1
 62
     8
420
  7895160
176
     1
 90
        3
176
     1
 90
        0
176
     1
 90
        0
176
     1
290
     0
176
     1
 90
        5
176
     1
 40
0.0
176
     1
 90
        0
176
     1
290
     0
176
     1
290
     1
176
     1
290
     1
176
     1
290
     0
176
     1
290
     0
176
     1
290
     0
176
     1
290
     0
176
     1
290
     0
176
     1
290
     0
176
     1
 90
       50
176
     1
 40
0.0
176
     1
 40
1.0
176
     1
 90
        0
176
     1
 62
    18
420
        0
176
     1
 90
       50
176
     1
 90
        3
176
     1
 62
     5
420
      255
176
     1
290
     0
176
     1
 90
       50
176
     1
 90
       50
176
     1
 90
       50
176
     1
290
     0
176
     1
 90
       50
176
     1
 62
   256
176
     0
 40
1.0
176
     0
 90
        2
176
     1
  1
strokes_ogs.tif
176
     1
290
     0
176
     1
 40
1.0
176
     1
 40
1.0
176
     1
1001
ACAD
1000
AcDbSavedByObjectVersion
1070
     0
  0
VISUALSTYLE
  5
181
102
{ACAD_XDICTIONARY
360
1094
102
}
102
{ACAD_REACTORS
330
99
102
}
330
99
100
AcDbVisualStyle
  2
Shaded with edges
 70
    26
177
     3
291
     0
 70
    58
 90
        2
176
     1
 90
        2
176
     1
 90
        1
176
     1
 90
        2
176
     1
 40
0.6
176
     1
 40
30.0
176
     1
 62
     7
420
 16777215
176
     1
 90
        1
176
     1
 90
        2
176
     1
 62
     7
176
     1
 62
   257
176
     1
 90
        2
176
     1
 90
        1
176
     1
 40
1.0
176
     1
 90
        8
176
     1
 62
   257
176
     1
 40
1.0
176
     1
 90
        1
176
     1
 90
        6
176
     1
 90
        2
176
     1
 62
     7
176
     1
 90
        3
176
     1
 90
        0
176
     1
 90
        0
176
     1
290
     0
176
     1
 90
        5
176
     1
 40
0.0
176
     1
 90
        0
176
     1
290
     0
176
     1
290
     1
176
     1
290
     1
176
     1
290
     0
176
     1
290
     0
176
     1
290
     0
176
     1
290
     0
176
     1
290
     0
176
     1
290
     0
176
     1
 90
       50
176
     1
 40
0.0
176
     1
 40
1.0
176
     1
 90
        0
176
     1
 62
    18
420
        0
176
     1
 90
       50
176
     1
 90
        3
176
     1
 62
     5
420
      255
176
     1
290
     0
176
     1
 90
       50
176
     1
 90
       50
176
     1
 90
       50
176
     1
290
     0
176
     1
 90
       50
176
     1
 62
   256
176
     0
 40
1.0
176
     0
 90
        2
176
     1
  1
strokes_ogs.tif
176
     1
290
     0
176
     1
 40
1.0
176
     1
 40
1.0
176
     1
1001
ACAD
1000
AcDbSavedByObjectVersion
1070
     0
  0
VISUALSTYLE
  5
17E
102
{ACAD_XDICTIONARY
360
108E
102
}
102
{ACAD_REACTORS
330
99
102
}
330
99
100
AcDbVisualStyle
  2
Shades of Gray
 70
    23
177
     3
291
     0
 70
    58
 90
        2
176
     1
 90
        2
176
     1
 90
        3
176
     1
 90
        0
176
     1
 40
0.6
176
     1
 40
30.0
176
     1
 62
     7
420
 16777215
176
     1
 90
        2
176
     1
 90
        2
176
     1
 62
     7
176
     1
 62
     7
176
     1
 90
        1
176
     1
 90
        1
176
     1
 40
40.0
176
     1
 90
        8
176
     1
 62
     7
176
     1
 40
1.0
176
     1
 90
        1
176
     1
 90
        6
176
     1
 90
        2
176
     1
 62
     7
176
     1
 90
        3
176
     1
 90
        0
176
     1
 90
        0
176
     1
290
     0
176
     1
 90
        1
176
     1
 40
0.0
176
     1
 90
        0
176
     1
290
     0
176
     1
290
     1
176
     1
290
     1
176
     1
290
     0
176
     1
290
     0
176
     1
290
     0
176
     1
290
     0
176
     1
290
     0
176
     1
290
     0
176
     1
 90
       50
176
     1
 40
0.0
176
     1
 40
1.0
176
     1
 90
        0
176
     1
 62
    18
420
        0
176
     1
 90
       50
176
     1
 90
        3
176
     1
 62
     5
420
      255
176
     1
290
     0
176
     1
 90
       50
176
     1
 90
       50
176
     1
 90
       50
176
     1
290
     0
176
     1
 90
       50
176
     1
 62
   256
176
     0
 40
1.0
176
     0
 90
        2
176
     1
  1
strokes_ogs.tif
176
     1
290
     0
176
     1
 40
1.0
176
     1
 40
1.0
176
     1
1001
ACAD
1000
AcDbSavedByObjectVersion
1070
     0
  0
VISUALSTYLE
  5
17F
102
{ACAD_XDICTIONARY
360
1090
102
}
102
{ACAD_REACTORS
330
99
102
}
330
99
100
AcDbVisualStyle
  2
Sketchy
 70
    24
177
     3
291
     0
 70
    58
 90
        1
176
     1
 90
        2
176
     1
 90
        2
176
     1
 90
        0
176
     1
 40
0.6
176
     1
 40
30.0
176
     1
 62
     7
420
 16777215
176
     1
 90
        2
176
     1
 90
        2
176
     1
 62
     7
176
     1
 62
     7
176
     1
 90
        1
176
     1
 90
        1
176
     1
 40
40.0
176
     1
 90
       11
176
     1
 62
     7
176
     1
 40
1.0
176
     1
 90
        1
176
     1
 90
        6
176
     1
 90
        2
176
     1
 62
     7
176
     1
 90
        6
176
     1
 90
        0
176
     1
 90
        0
176
     1
290
     0
176
     1
 90
        1
176
     1
 40
0.0
176
     1
 90
        0
176
     1
290
     0
176
     1
290
     1
176
     1
290
     1
176
     1
290
     0
176
     1
290
     0
176
     1
290
     0
176
     1
290
     0
176
     1
290
     0
176
     1
290
     0
176
     1
 90
       50
176
     1
 40
0.0
176
     1
 40
1.0
176
     1
 90
        0
176
     1
 62
    18
420
        0
176
     1
 90
       50
176
     1
 90
        3
176
     1
 62
     5
420
      255
176
     1
290
     0
176
     1
 90
       50
176
     1
 90
       50
176
     1
 90
       50
176
     1
290
     0
176
     1
 90
       50
176
     1
 62
   256
176
     0
 40
1.0
176
     0
 90
        2
176
     1
  1
strokes_ogs.tif
176
     1
290
     0
176
     1
 40
1.0
176
     1
 40
1.0
176
     1
1001
ACAD
1000
AcDbSavedByObjectVersion
1070
     0
  0
VISUALSTYLE
  5
A6
102
{ACAD_XDICTIONARY
360
1080
102
}
102
{ACAD_REACTORS
330
99
102
}
330
99
100
AcDbVisualStyle
  2
Thicken
 70
    13
177
     3
291
     1
 70
    58
 90
        2
176
     1
 90
        2
176
     1
 90
        1
176
     1
 90
        0
176
     1
 40
0.6
176
     1
 40
30.0
176
     1
 62
     7
420
 16777215
176
     1
 90
        1
176
     1
 90
        4
176
     1
 62
     7
176
     1
 62
   257
176
     1
 90
        1
176
     1
 90
        1
176
     1
 40
1.0
176
     1
 90
       12
176
     1
 62
     7
176
     1
 40
1.0
176
     1
 90
        1
176
     1
 90
        6
176
     1
 90
        2
176
     1
 62
     7
176
     1
 90
        5
176
     1
 90
        0
176
     1
 90
        0
176
     1
290
     0
176
     1
 90
        1
176
     1
 40
0.0
176
     1
 90
        0
176
     1
290
     0
176
     1
290
     1
176
     1
290
     1
176
     1
290
     0
176
     1
290
     0
176
     1
290
     0
176
     1
290
     0
176
     1
290
     0
176
     1
290
     0
176
     1
 90
       50
176
     1
 40
0.0
176
     1
 40
1.0
176
     1
 90
        0
176
     1
 62
    18
420
        0
176
     1
 90
       50
176
     1
 90
        3
176
     1
 62
     5
420
      255
176
     1
290
     0
176
     1
 90
       50
176
     1
 90
       50
176
     1
 90
       50
176
     1
290
     0
176
     1
 90
       50
176
     1
 62
   256
176
     0
 40
1.0
176
     0
 90
        2
176
     1
  1
strokes_ogs.tif
176
     1
290
     0
176
     1
 40
1.0
176
     1
 40
1.0
176
     1
1001
ACAD
1000
AcDbSavedByObjectVersion
1070
     0
  0
VISUALSTYLE
  5
A0
102
{ACAD_XDICTIONARY
360
1074
102
}
102
{ACAD_REACTORS
330
99
102
}
330
99
100
AcDbVisualStyle
  2
Wireframe
 70
     5
177
     3
291
     0
 70
    58
 90
        0
176
     1
 90
        2
176
     1
 90
        0
176
     1
 90
        0
176
     1
 40
0.6
176
     1
 40
30.0
176
     1
 62
     7
420
 16777215
176
     1
 90
        1
176
     1
 90
        4
176
     1
 62
     7
176
     1
 62
   257
176
     1
 90
        1
176
     1
 90
        1
176
     1
 40
1.0
176
     1
 90
        0
176
     1
 62
   257
176
     1
 40
1.0
176
     1
 90
        1
176
     1
 90
        6
176
     1
 90
        2
176
     1
 62
     7
176
     1
 90
        3
176
     1
 90
        0
176
     1
 90
        0
176
     1
290
     0
176
     1
 90
        1
176
     1
 40
0.0
176
     1
 90
        0
176
     1
290
     0
176
     1
290
     1
176
     1
290
     1
176
     1
290
     0
176
     1
290
     0
176
     1
290
     0
176
     1
290
     0
176
     1
290
     0
176
     1
290
     0
176
     1
 90
       50
176
     1
 40
0.0
176
     1
 40
1.0
176
     1
 90
        0
176
     1
 62
    18
420
        0
176
     1
 90
       50
176
     1
 90
        3
176
     1
 62
     5
420
      255
176
     1
290
     0
176
     1
 90
       50
176
     1
 90
       50
176
     1
 90
       50
176
     1
290
     0
176
     1
 90
       50
176
     1
 62
   256
176
     0
 40
1.0
176
     0
 90
        2
176
     1
  1
strokes_ogs.tif
176
     1
290
     0
176
     1
 40
1.0
176
     1
 40
1.0
176
     1
1001
ACAD
1000
AcDbSavedByObjectVersion
1070
     0
  0
VISUALSTYLE
  5
180
102
{ACAD_XDICTIONARY
360
1092
102
}
102
{ACAD_REACTORS
330
99
102
}
330
99
100
AcDbVisualStyle
  2
X-Ray
 70
    25
177
     3
291
     0
 70
    58
 90
        2
176
     1
 90
        2
176
     1
 90
        1
176
     1
 90
        1
176
     1
 40
0.5
176
     1
 40
30.0
176
     1
 62
     7
420
 16777215
176
     1
 90
        1
176
     1
 90
        0
176
     1
 62
     7
176
     1
 62
   257
176
     1
 90
        1
176
     1
 90
        1
176
     1
 40
1.0
176
     1
 90
        8
176
     1
 62
     7
176
     1
 40
1.0
176
     1
 90
        1
176
     1
 90
        6
176
     1
 90
        2
176
     1
 62
     7
176
     1
 90
        3
176
     1
 90
        0
176
     1
 90
        0
176
     1
290
     0
176
     1
 90
       13
176
     1
 40
0.0
176
     1
 90
        0
176
     1
290
     0
176
     1
290
     1
176
     1
290
     1
176
     1
290
     0
176
     1
290
     0
176
     1
290
     0
176
     1
290
     0
176
     1
290
     0
176
     1
290
     0
176
     1
 90
       50
176
     1
 40
0.0
176
     1
 40
1.0
176
     1
 90
        0
176
     1
 62
    18
420
        0
176
     1
 90
       50
176
     1
 90
        3
176
     1
 62
     5
420
      255
176
     1
290
     0
176
     1
 90
       50
176
     1
 90
       50
176
     1
 90
       50
176
     1
290
     0
176
     1
 90
       50
176
     1
 62
   256
176
     0
 40
1.0
176
     0
 90
        2
176
     1
  1
strokes_ogs.tif
176
     1
290
     0
176
     1
 40
1.0
176
     1
 40
1.0
176
     1
1001
ACAD
1000
AcDbSavedByObjectVersion
1070
     0
  0
DICTIONARYVAR
  5
F0
102
{ACAD_REACTORS
330
66
102
}
330
66
100
DictionaryVariables
280
     0
  1
1:1
  0
DICTIONARYVAR
  5
EF
102
{ACAD_REACTORS
330
66
102
}
330
66
100
DictionaryVariables
280
     0
  1
STANDARD
  0
DICTIONARYVAR
  5
89
102
{ACAD_REACTORS
330
66
102
}
330
66
100
DictionaryVariables
280
     0
  1
STANDARD
  0
DICTIONARYVAR
  5
1B7
102
{ACAD_REACTORS
330
66
102
}
330
66
100
DictionaryVariables
280
     0
  1
Imperial24
  0
DICTIONARYVAR
  5
1B8
102
{ACAD_REACTORS
330
66
102
}
330
66
100
DictionaryVariables
280
     0
  1
Imperial24
  0
DICTIONARYVAR
  5
67
102
{ACAD_REACTORS
330
66
102
}
330
66
100
DictionaryVariables
280
     0
  1
2
  0
DICTIONARYVAR
  5
6B
102
{ACAD_REACTORS
330
66
102
}
330
66
100
DictionaryVariables
280
     0
  1
1
  0
DICTIONARYVAR
  5
14D
102
{ACAD_REACTORS
330
66
102
}
330
66
100
DictionaryVariables
280
     0
  1
0
  0
DICTIONARYVAR
  5
14E
102
{ACAD_REACTORS
330
66
102
}
330
66
100
DictionaryVariables
280
     0
  1
0
  0
DICTIONARY
  5
18C8
102
{ACAD_REACTORS
330
18C6
102
}
330
18C6
100
AcDbDictionary
281
     1
  0
DICTIONARY
  5
18C7
102
{ACAD_REACTORS
330
18C6
102
}
330
18C6
100
AcDbDictionary
281
     1
  3
887843216
350
18C1
  3
887843232
350
18C2
  3
887843248
350
18C3
  3
887843264
350
18C4
  3
887843280
350
18C5
  0
DICTIONARY
  5
18CB
330
1AC
100
AcDbDictionary
280
     1
281
     1
  3
ACAD_XREC_ROUNDTRIP
360
18CC
  0
DICTIONARY
  5
18CF
330
17AC
100
AcDbDictionary
280
     1
281
     1
  3
ACAD_XREC_ROUNDTRIP
360
18D0
  0
DICTIONARY
  5
194
330
22
100
AcDbDictionary
280
     1
281
     1
  0
DICTIONARY
  5
188
330
97
100
AcDbDictionary
280
     1
281
     1
  3
FBXASSET
360
189
  0
DICTIONARY
  5
186
330
96
100
AcDbDictionary
280
     1
281
     1
  3
FBXASSET
360
187
  0
DICTIONARY
  5
110
330
98
100
AcDbDictionary
280
     1
281
     1
  3
BUMPTILE
360
112
  3
DIFFUSETILE
360
111
  3
FBXASSET
360
18A
  3
OPACITYTILE
360
113
  3
REFLECTIONTILE
360
114
  0
DICTIONARY
  5
18C9
330
1AA
100
AcDbDictionary
280
     1
281
     1
  3
ACAD_XREC_ROUNDTRIP
360
18CA
  0
DICTIONARY
  5
18CD
330
17AB
100
AcDbDictionary
280
     1
281
     1
  3
ACAD_XREC_ROUNDTRIP
360
18CE
  0
DICTIONARY
  5
104
330
87
100
AcDbDictionary
280
     1
281
     1
  3
ACAD_ROUNDTRIP_2008_TABLESTYLE_CELLSTYLEMAP
360
18BF
  0
DICTIONARY
  5
1072
330
9F
100
AcDbDictionary
280
     1
281
     1
  3
ACAD_XREC_ROUNDTRIP
360
1073
  0
DICTIONARY
  5
1070
330
9E
100
AcDbDictionary
280
     1
281
     1
  3
ACAD_XREC_ROUNDTRIP
360
1071
  0
DICTIONARY
  5
107E
330
A5
100
AcDbDictionary
280
     1
281
     1
  3
ACAD_XREC_ROUNDTRIP
360
107F
  0
DICTIONARY
  5
1086
330
A9
100
AcDbDictionary
280
     1
281
     1
  3
ACAD_XREC_ROUNDTRIP
360
1087
  0
DICTIONARY
  5
1078
330
A2
100
AcDbDictionary
280
     1
281
     1
  3
ACAD_XREC_ROUNDTRIP
360
1079
  0
DICTIONARY
  5
107C
330
A4
100
AcDbDictionary
280
     1
281
     1
  3
ACAD_XREC_ROUNDTRIP
360
107D
  0
DICTIONARY
  5
108C
330
175
100
AcDbDictionary
280
     1
281
     1
  3
ACAD_XREC_ROUNDTRIP
360
108D
  0
DICTIONARY
  5
1084
330
A8
100
AcDbDictionary
280
     1
281
     1
  3
ACAD_XREC_ROUNDTRIP
360
1085
  0
DICTIONARY
  5
1068
330
9A
100
AcDbDictionary
280
     1
281
     1
  3
ACAD_XREC_ROUNDTRIP
360
1069
  0
DICTIONARY
  5
106A
330
9B
100
AcDbDictionary
280
     1
281
     1
  3
ACAD_XREC_ROUNDTRIP
360
106B
  0
DICTIONARY
  5
106C
330
9C
100
AcDbDictionary
280
     1
281
     1
  3
ACAD_XREC_ROUNDTRIP
360
106D
  0
DICTIONARY
  5
106E
330
9D
100
AcDbDictionary
280
     1
281
     1
  3
ACAD_XREC_ROUNDTRIP
360
106F
  0
DICTIONARY
  5
1076
330
A1
100
AcDbDictionary
280
     1
281
     1
  3
ACAD_XREC_ROUNDTRIP
360
1077
  0
DICTIONARY
  5
1088
330
173
100
AcDbDictionary
280
     1
281
     1
  3
ACAD_XREC_ROUNDTRIP
360
1089
  0
DICTIONARY
  5
1082
330
A7
100
AcDbDictionary
280
     1
281
     1
  3
ACAD_XREC_ROUNDTRIP
360
1083
  0
DICTIONARY
  5
108A
330
174
100
AcDbDictionary
280
     1
281
     1
  3
ACAD_XREC_ROUNDTRIP
360
108B
  0
DICTIONARY
  5
107A
330
A3
100
AcDbDictionary
280
     1
281
     1
  3
ACAD_XREC_ROUNDTRIP
360
107B
  0
DICTIONARY
  5
1096
330
182
100
AcDbDictionary
280
     1
281
     1
  3
ACAD_XREC_ROUNDTRIP
360
1097
  0
DICTIONARY
  5
1094
330
181
100
AcDbDictionary
280
     1
281
     1
  3
ACAD_XREC_ROUNDTRIP
360
1095
  0
DICTIONARY
  5
108E
330
17E
100
AcDbDictionary
280
     1
281
     1
  3
ACAD_XREC_ROUNDTRIP
360
108F
  0
DICTIONARY
  5
1090
330
17F
100
AcDbDictionary
280
     1
281
     1
  3
ACAD_XREC_ROUNDTRIP
360
1091
  0
DICTIONARY
  5
1080
330
A6
100
AcDbDictionary
280
     1
281
     1
  3
ACAD_XREC_ROUNDTRIP
360
1081
  0
DICTIONARY
  5
1074
330
A0
100
AcDbDictionary
280
     1
281
     1
  3
ACAD_XREC_ROUNDTRIP
360
1075
  0
DICTIONARY
  5
1092
330
180
100
AcDbDictionary
280
     1
281
     1
  3
ACAD_XREC_ROUNDTRIP
360
1093
  0
XRECORD
  5
18C1
102
{ACAD_REACTORS
330
18C7
102
}
330
18C7
100
AcDbXrecord
280
     1
  1
AcDb_Thumbnail_Schema
102
{ATTRRECORD
341
18C2
  2
AcDbDs::TreatedAsObjectData
280
     1
291
     1
102
ATTRRECORD}
102
{ATTRRECORD
341
18C3
  2
AcDbDs::Legacy
280
     1
291
     1
102
ATTRRECORD}
  2
AcDbDs::ID
280
    10
 91
        8
102
{ATTRRECORD
341
18C4
  2
AcDs:Indexable
280
     1
291
     1
102
ATTRRECORD}
102
{ATTRRECORD
341
18C5
  2
AcDbDs::HandleAttribute
280
     7
282
     1
102
ATTRRECORD}
  2
Thumbnail_Data
280
    15
 91
        0
  0
XRECORD
  5
18C2
102
{ACAD_REACTORS
330
18C7
102
}
330
18C7
100
AcDbXrecord
280
     1
  1
AcDbDs::TreatedAsObjectDataSchema
  2
AcDbDs::TreatedAsObjectData
280
     1
 91
        0
  0
XRECORD
  5
18C3
102
{ACAD_REACTORS
330
18C7
102
}
330
18C7
100
AcDbXrecord
280
     1
  1
AcDbDs::LegacySchema
  2
AcDbDs::Legacy
280
     1
 91
        0
  0
XRECORD
  5
18C4
102
{ACAD_REACTORS
330
18C7
102
}
330
18C7
100
AcDbXrecord
280
     1
  1
AcDbDs::IndexedPropertySchema
  2
AcDs:Indexable
280
     1
 91
        0
  0
XRECORD
  5
18C5
102
{ACAD_REACTORS
330
18C7
102
}
330
18C7
100
AcDbXrecord
280
     1
  1
AcDbDs::HandleAttributeSchema
  2
AcDbDs::HandleAttribute
280
     7
 91
        1
284
     1
  0
XRECORD
  5
18CC
102
{ACAD_REACTORS
330
18CB
102
}
330
18CB
100
AcDbXrecord
280
     1
102
DISPLAYNAME
  1
Imperial24
102
FLAGS
 90
        0
  0
XRECORD
  5
18D0
102
{ACAD_REACTORS
330
18CF
102
}
330
18CF
100
AcDbXrecord
280
     1
102
DISPLAYNAME
  1
Metric50
102
FLAGS
 90
        0
  0
XRECORD
  5
189
102
{ACAD_REACTORS
330
188
102
}
330
188
100
AcDbXrecord
280
     1
 70
     1
 90
429727718
  1
508B35C9-AEE7-456F-BE74-D52651303AC6
310
504B03040A0000080000B670623B3DEE336E79000000790000001B0000006175746F6465736B2D64657369676E2D7061636B6167652E786D6C3C3F786D6C2076657273696F6E3D22312E302220656E636F64696E673D227574662D3822203F3E3C666F726D6174733E3C666F726D61743E687474703A2F2F736368656D612E
310
6175746F6465736B2E636F6D2F64657369676E2D7061636B6167652F323030393C2F666F726D61743E3C2F666F726D6174733E504B0304140006080800B670623BD486FD9CA0000000F4000000130000005B436F6E74656E745F54797065735D2E786D6C7D8EC10E82300C865F65E91D8A1E8C310C0EEA1BF002731658846E
310
D98AC1B77784ABF1D8FE5FBFBF75BBCE937A534CCEB38643598122B6FEE978D0B0485F9C41B54DDD7D022595594E1A469170414C76A4D9A4D207E29CF43ECE46F218070CC6BECC4078ACAA135ACF422C856C0E68EA1BF5669944DDD7BCDE7B1F8E415D77AECB980613C2E4AC91FC167A2B244592486606FC29C8FD7F045B9A
310
EF7053A7E60B504B0304140006080800B670623B28ED286BEB0000007C01000008000000636F72652E786D6C8D90416EC3201045AF82665B6183218D6D61A254764FD00B204C5C94182C03558F5F9C3852BBEB6A467FFE9B197D71FA9E6FE8CBACC17AD7012D0820E3B41FAD9B3A48F1826B40272956EFE32F1B20A766D3C1
310
268314D3EAD3B24BDABB685CCCAAF3A3D94515828980F42D371D04FD696655A814B3235C8B45E9AB9A4C419F5D8653B2237A1CB163DE672FD6AC209BF3C08E0D1B30EB19C3FC9D72FCC6EB231EFA33EDE96BDD341517E5064B11EDFCBCAF57A3A2194156843498524CAA0FCA5B7268F9E185D42D21A2DCEC7FA0B48CFF8492
310
759155FBBB0F2C80A4F991FB408A72CB22977B50B96EB9C91F504B0304140006080800B670623B55019EA25F0000007C00000007000000636E782E786D6C4DCB3B0E80201045D1AD90E915ED2CF8AC45050C11660C8261F98AB1B07AC9C97D42D718D865D3E909258CFD00CCE24AC6E326A164D74DC0B4128928FF32603847
310
2BA13128B1252AC747C6BAB984FC68F0B87FE8960A5C09FE86CFB69FBA01504B0304140006080800B670623B7BC41AC871010000D40300000C0000006662782F636F72652E786D6CC553ED6E8320147D15C2DF4501B56B6D90A64BBB27D80B50A5CE54C120983EFEAE1F4DD7A56BBA5FF3879273EEE59E7310BE393735EA95
310
ED2AA333CC428A91D2B9292A5D66D8BB63B0C26823B835C67D2BC348CB46657880B1E0A535BE9DA1DC68A7B403549B42CDA0EC3AE530CA6B5864B8CB3F552343E91D5474A7B095F949962A6421D0502778E72C0840D390E18DC5F170E664C205F7BE2A66B62A605A75AC94C522DDEEE3651AEF837817C741F2CE92E02D592D
310
83FD6ECB76EC7595A651C2C9D02CB8AB9A8BBADC2AE954814544691A3016D0E883256BBA58278B17BA5A53CAC9507ED3E4DBE2C9265F691747B3DCA9ADC382819091F8E1162272A8933DE82182932144F88C09DF060D8140C84E1EEA8B8F1340BDCA9DB1093085F157AA97B557309586747CD0EF0B4EA64E983A6E0EAEEFCE
310
889E9EF17847386AA94B30211D2C0FDE0D3AF9A4610EAD5536E8DD1969631B593F67E381C33F5157F17725E5A636F6BF1491F980C8FC7B90E13E8A2F504B0304140006080800B670623B70102A487D0000009D0000000B0000006662782F636E782E786D6C4DCCD10A83201886E15B91FFDC95A5C30335ACCDFB886521330D
310
A76397BF1A1DECE883878F57749FD5A3B74D2F17830472A901D9F088930B8B849267CC01754AA418F3DF0D5018572BE160506249B16C274D761E8BCFBB7A179E27F65CB39A0F14D396184C9921B81F34C3ACA1B4B99ABB6E6F062A25AA5F69DF23ACBE504B0304140006080800B670623B3610CA3329010000120200003100
310
00006662782F42384135303843342D343331462D343546312D424341352D3532343432364645413344462F636F72652E786D6C8D515B6EC32010BC0AE22B55850D0E446E848992B43E412FE000495162B07854397EA176A4F62F3F2C9A9D991D58BEBB8F37F0AD7D30CE76905418026DA553C65E3A98E219B510EC04F7CEC5
310
3F3408EC30EA0E16180A7EF12E4D0B249D8DDAC68C5AA7F4020E21E80881BCE54B0783FCD2E3500D296646B856D320AFC34557A4CAEDCC133C449F0380794839A138B47B86DB2345744D7A44594FD0E1B867883594369BFE63BF7EEF793D0B054FC9A8456E548E63CE46FB674D8A58F068C6477CE9F510B582A2C1F80D1182
310
70F349E816B32D65AFB8DD62CCEB42FF274A937A52948C8DEB66893BCB021484D7734370E5D2E9F608A3EF93F3119479ABA0E50B14B8C298119A43CCC4FCFCECB8A18B6388CEE7EF5D5D4F994BD86CBBA182D76543B9FCAE2FD7B24DF103504B0304140006080800B670623B1B8617914E0100003303000030000000666278
310
2F42384135303843342D343331462D343546312D424341352D3532343432364645413344462F636E782E786D6CD593C16EC32010447F0571AD6CE3D489D20813A9877E410FBD62D82434182CC055F3F75D1292E692438FBD206B7698593D61BEFD1E2DF982108D773D6D6B460938E5B571FB9ECE6957AD29D90A1EBC4F7736
310
4A9C1CA1A759A682EF839FA72269D8C9D92654AD71C72206887E0E0A22CAF926B15E498B01E0AA19451807D01A34B919F16B070157417138917400F2F6FA41FCF0092A45DEE414C19BDC21783E4BD39D891265658C3D8DEA00A3ACE59CBC8678ACB54CB26EEB6BD7839D7E9348BE70AD9C8321B9BCA7F9A4A26C542347DEE0
310
50F09802D22BA6749A800A394DD62899107273365E3C82CFC6A55557BC06C10774B7ABE7AEC3B0F34CF06446280E154026D0542C187BA9DAB6628BF7B6DBB0E5A65B3EB1F58631DE64BBE083F7B65CC218087E22CABB042E51D1F2268F1FE12B3EA24D40D63E9CFE00120194D60B9D5BC67FE6D39CDF37E20AF817881F504B
310
0304140006080800B670623BBFEF2E3B690500003C100000340000006662782F42384135303843342D343331462D343546312D424341352D3532343432364645413344462F6F626A656374732E786D6CAD575D739B3814FD2B0CFB0C98D84E931D4227B6938EA793B6534F3BFB90198F0099B001899144EAECAFDF231018B0
310
D37A3FFC609090EEE7B94757C1FB7D915B2F54C88CB31BDB7727B64559CC938CA53776A576CE956DBD0F03C1B9EA2DB32D460A7A63EB693B0C52C1ABD24C257447AA5C8D66EF177F5832A68CDA569C13296F6C193FD182B8A4523CA1F2D94D88226EBADBBBBEDB2C1C8A4D05299F46424B222853B014F30C52ACC6287F389C
310
D85E1878FA7B18E87FB36AFAF62AAFF667A83F635211161F291B8999FAB3D5DDC5FCDA99CF6653677679E13B8BFBC5CAF1DF4D27CBCBE5F2FAF6EE1A8AA51290642C117467871F101B91C581D77CEA2C36869F3229E68CD1B8F61F1ED6361B89092D294B90C78C4A68EB793D190E7D1D9BDEE7A91E1B95FDE9F3BCEAEFE809
310
6A6D6F9F7D4B79F4275C90E7A04248AA51D5C4C738DAE06F72885AC4796EBE65D22A88A22223B995679120E2D50EB1542F098381188D4EA111AE3DB043FF20AF6F2B4AE3D7D83D65E5AECA730D4D3BAC91BD05FEA992B565D95F549CD6069B90AB2A63EACA38A45E4B6A87D781574F86817E4C2FCCC72690D62E2729520E37
310
9BAF234797BAF6D62B3BFC781FED37BA1E4F2B2F052FA9501A3E80569BB8F6A9A364D4FA67654E6F803383981F82F21591FF84F23D9882BC896C3FDBCF8C162508933B2E0AE4C69DD43F6BD2BE38DDDBF10BF86CB4FA784D37F3AF16075E67EC9030DECA1FC0A55373F5DFF3378C591FA9BDF485C10B0A8C8BA909E5262639
310
A8E72163488806A595734C81CB77D1DE0ED7604A303B76913CEC0272F412782FF88EFF4636D8AA56DF7B322474C4B767303F625997056C7B032C473C592B36CEBD15F3F9FF5233B7ABCDC74D257624A60F8658567497B14CE1EC3C80B76FD02011038F9EE9EB0F2E12387A9C844D3F09855125116D1D731DF8B43D2CF4E0A0
310
79A020C6BE946BCE0B7EA1E1219331CD73C228AF5A2DDD31A4B1DA918CE91350854D40A71723140BFA92E94E62B0626016CEFA5864A50E5977E8753CEDBEE1CBB7F52780D20E17AF0BA0F5F9B02A3AD07DCC732EB6D1EBB661421BE0C39E21BABF0FE16D22EA6929407C8DE596724C88B749B6DB5512BC7B228ADFD7CB7EA6
310
3A22397E690BA8D5D8D4E40CEC8CDA23C2C0B7D5898640101CEC9C6D331CE328CB93CAFBBAC70A642DF70DF95155945B52F08AA973C23469FD69ADEF84F7BB18F983A8F8C90E37F5D35980B2139A1C523540813E824EF83448CF7C72B598CE97D7CEEDDDDD3B6736BFBC771677EF66CE6A7E7139F7A793E9EDF2B2B3A8B624
310
0CDA13AA5F8388264EC4A0129909F3B7F5A16CEDF08128E97D680ACA4B9BE7B7B58BB638F0B00700EF36AE8B32A705658A68F83EE897FC2B41573190D1CCAF0B92D233A47CFEB019D9809933F67DD1A5467F8CF69AD9A5AE859342D45355448C64F968A371DC2D596ADC6E43D93D1B466F877A64E2893E54F23C4B40388995
310
525E5005DA3983ED45412510D3EFCA13737B3863F74BD30F2A12E5B4B5E489A025CE25500DB855B11ACE5BBFA185D35DD48D8DC3CE7DC69F2944DB42AA6F6CF09BCA622ADD08C7A36E7C6AE18000BAB08E040135C2D21C9D75B3A91B77BB746C403F38018DFE6EC939DD92F16B40BC05294B9CDA035AAD6D330AE27FE4786B
310
8E45145EA34A75BE1C263A676A35A8ACC6297337400BF16C54EF515F3F77CB77EB3583889C754FFA29081AA98E2222ADEF05DA3E63D2EDEA8B8756C05A7FB6CABC4A91CBF325398202CC952E70A008A830324BA200D5E5EF8F5F04C75DB4B0EE3340E071C98B823333B83577596BF3849B69F2085AA0FAFA212F26BEFF5877
310
FDE622B28D88A42E49E43326DA82D31E8CB006401E1DA726059ECEC168F97A6599036306A135688F9AD2E61A6EA178F4CD51974A9F2CCB9F36FE5EBD14601068D9C3BF01504B0304140006080000B670623B000000000000000000000000350000006662782F42384135303843342D343331462D343546312D424341352D35
310
32343432364645413344462F76657274696365732E62696E504B0304140006080800B670623BF270F1330600000004000000360000006662782F42384135303843342D343331462D343546312D424341352D3532343432364645413344462F747269616E676C65732E62696E636660600000504B0304140006080000B67062
310
3B000000000000000000000000370000006662782F42384135303843342D343331462D343546312D424341352D3532343432364645413344462F617474726962757465732E62696E504B0304140006080800B670623B08DA0BD19000000041010000360000006662782F42384135303843342D343331462D343546312D4243
310
41352D3532343432364645413344462F6469726563746F72792E786D6C858F410AC3201045AF22B36F53E9A60B35CBEEBAE80D244E44489C6234F4F835464A48035D0DF398FF9F8AF63D0E6CC63039F212F8F9020C7D47C6792B21C5FE7403D62A1188E2E60C98D7234A5830286103A55745067B9D86B8A3CF9C7F90C11DE6
310
07FB144396D7B6A82D282E9A152AD114D5EF2CB866EEE831B8EEA07A7BB5A8D7D61A2BAAEB7FD5F70921FF497D00504B0304140006080800B670623B3B4606F3FE000000A00100003B0000006662782F42384135303843342D343331462D343546312D424341352D3532343432364645413344462F7265736F75726365732F
310
636F72652E786D6C8D504B6E833010BD0A9A6D65B08134808CA354A427E8052C332156828DFCA97AFC9A40A576D7CDCCE87D344F8F9FBEE647F689CE6B6B7A6039850C8DB2A336530F315C4903D94970676DF82583CCC8197B5861107C72362E3BA4AC096842428D1D7107A5F71820538F74F4E0D50D6799CB1892C2DFF345
310
AABB9C306779A2934E701F5C0A906D4FD609C2A1B7D129F4BCD858C163D4E3AED163FAA9AF1A1D88F67CA98E6D35906AA82A52BFB39ABCD5CD915C86331BD86BD3B665CD8BD52C78D0F34F46E550061C419494B6843142CB0F5677F4D0D58717DA7494F26295FF31C565FCA7296A13AA728FBBD93C0896823C09C18BB5AFB4
310
9E65A6BD762BBE01504B010214000A0000080000B670623B3DEE336E79000000790000001B00000000000000000000000000000000006175746F6465736B2D64657369676E2D7061636B6167652E786D6C504B01021400140006080800B670623BD486FD9CA0000000F40000001300000000000000000000000000B2000000
310
5B436F6E74656E745F54797065735D2E786D6C504B01021400140006080800B670623B28ED286BEB0000007C010000080000000000000000000000000083010000636F72652E786D6C504B01021400140006080800B670623B55019EA25F0000007C000000070000000000000000000000000094020000636E782E786D6C50
310
4B01021400140006080800B670623B7BC41AC871010000D40300000C00000000000000000000000000180300006662782F636F72652E786D6C504B01021400140006080800B670623B70102A487D0000009D0000000B00000000000000000000000000B30400006662782F636E782E786D6C504B01021400140006080800B6
310
70623B3610CA3329010000120200003100000000000000000000000000590500006662782F42384135303843342D343331462D343546312D424341352D3532343432364645413344462F636F72652E786D6C504B01021400140006080800B670623B1B8617914E010000330300003000000000000000000000000000D10600
310
006662782F42384135303843342D343331462D343546312D424341352D3532343432364645413344462F636E782E786D6C504B01021400140006080800B670623BBFEF2E3B690500003C10000034000000000000000000000000006D0800006662782F42384135303843342D343331462D343546312D424341352D35323434
310
32364645413344462F6F626A656374732E786D6C504B01021400140006080000B670623B0000000000000000000000003500000000000000000000000000280E00006662782F42384135303843342D343331462D343546312D424341352D3532343432364645413344462F76657274696365732E62696E504B010214001400
310
06080800B670623BF270F133060000000400000036000000000000000000000000007B0E00006662782F42384135303843342D343331462D343546312D424341352D3532343432364645413344462F747269616E676C65732E62696E504B01021400140006080000B670623B00000000000000000000000037000000000000
310
00000000000000D50E00006662782F42384135303843342D343331462D343546312D424341352D3532343432364645413344462F617474726962757465732E62696E504B01021400140006080800B670623B08DA0BD1900000004101000036000000000000000000000000002A0F00006662782F42384135303843342D3433
310
31462D343546312D424341352D3532343432364645413344462F6469726563746F72792E786D6C504B01021400140006080800B670623B3B4606F3FE000000A00100003B000000000000000000000000000E1000006662782F42384135303843342D343331462D343546312D424341352D3532343432364645413344462F72
310
65736F75726365732F636F72652E786D6C504B0506000000000E000E0080040000651100000000
  0
XRECORD
  5
187
102
{ACAD_REACTORS
330
186
102
}
330
186
100
AcDbXrecord
280
     1
 70
     1
 90
429727718
  1
887D55A9-D0DD-414E-B741-A7DCD4DA2B4C
310
504B03040A0000080000B670623B3DEE336E79000000790000001B0000006175746F6465736B2D64657369676E2D7061636B6167652E786D6C3C3F786D6C2076657273696F6E3D22312E302220656E636F64696E673D227574662D3822203F3E3C666F726D6174733E3C666F726D61743E687474703A2F2F736368656D612E
310
6175746F6465736B2E636F6D2F64657369676E2D7061636B6167652F323030393C2F666F726D61743E3C2F666F726D6174733E504B0304140006080800B670623BD486FD9CA0000000F4000000130000005B436F6E74656E745F54797065735D2E786D6C7D8EC10E82300C865F65E91D8A1E8C310C0EEA1BF002731658846E
310
D98AC1B77784ABF1D8FE5FBFBF75BBCE937A534CCEB38643598122B6FEE978D0B0485F9C41B54DDD7D022595594E1A469170414C76A4D9A4D207E29CF43ECE46F218070CC6BECC4078ACAA135ACF422C856C0E68EA1BF5669944DDD7BCDE7B1F8E415D77AECB980613C2E4AC91FC167A2B244592486606FC29C8FD7F045B9A
310
EF7053A7E60B504B0304140006080800B670623BBC1638F5EC0000007C01000008000000636F72652E786D6C8D90416EC3201045AF82665B61836BE2D8C24471DB9CA01740401C94182C03558F5F9C3852BBEB6A467FFE9B197D7EF89E6EE8CB2CC17AD7032D0820E394D7D68D3DA478C67B4007C117EFE32F1B202727D3C3
310
2A83E0E3E2D3BC49CABB685CCCAAF3DA6CA20CC14440EA969B1E82BA98491632C5EC08D76296EA2A4753D06797E194AC468F2356E77DF66CCD02825543D50CACC62D39ED70FDC68EB8FD68F6F8787A6784342D1DDA1D2F5758F068A7E77DB518198D065111D2624A31A93E69DD11D6D5EC85EC3B4278B9DAFF4069D6FF8492
310
75F1B5DADE7D600104CD8FDC0782976B16B9DC83CA75CD4DFC00504B0304140006080800B670623B55019EA25F0000007C00000007000000636E782E786D6C4DCB3B0E80201045D1AD90E915ED2CF8AC45050C11660C8261F98AB1B07AC9C97D42D718D865D3E909258CFD00CCE24AC6E326A164D74DC0B4128928FF326038
310
472BA13128B1252AC747C6BAB984FC68F0B87FE8960A5C09FE86CFB69FBA01504B0304140006080800B670623B3586FFB671010000D40300000C0000006662782F636F72652E786D6CC553ED6E8320147D15C2DF4541A76D6D90A6DDD627D80B50A4CE54C120983EFEAE1F4DD7A55BBA5FF3879273EEE59E7310B6393735EA
310
95ED2AA3731C851423A5A5292A5DE6D8BB63B0C268C39935C67D29C3488B46E578803167A535BE9D2169B453DA01AA4DA16650749D7218C91A1639EEE4876A4428BC838AEE14B6429E44A9C228041AEA38EB9C0501681A32BC313F1ECE8C4C3867DE57C5CC56054CAB8E95B298A7F12E5EEED224C8E87E11242FE936C8DE96
310
AB60BB7F4D295D66D12E5B30323473E6AAE6A24E5A259C2A308F29CD82280A68FC1E256B9AAE93F489AED694323294DF34F9B678B0C957DA3DC7B3DCA9ADC33C022123F1CD2D44E450277AD04338234388F01913BE0D1A0281909D38D4171F27807A259DB1093085F157AA17B557309586747CD0CF0B46A64E983A6E0EAEEF
310
CE881F9EF1FB8E70D44297604238581EBC1B74B249C31C5AAB6CD0BB33D2C636A27ECCC62F0EFF445DC5DF95244D6DEC7F2922F30191F9F720C37DE49F504B0304140006080800B670623B4220A0FF7D0000009D0000000B0000006662782F636E782E786D6C4DCCD10A83201886E15B91FFDCE542CB0335D0EC3E6259C84A
310
C3E9D8E5AF46073BFAE0E1E315DD675BD1DBA5978F41C2FD4600B9F088930F8B849267CC01754AA418F3DF0D50183727E164506249B1EC174D6E1ECB9A0F5D7D785E68DB8151CD286E5A5363CA6B8A39E90D36D40E96B086F55A43A544F52B1D7B86D517504B0304140006080800B670623B2FA3FEDE290100001202000031
310
0000006662782F45374635344235342D363743322D343832342D383044432D4334454645303536354442422F636F72652E786D6C8D515B6EC32010BC0AE22B55850D2E386E848994D7097A0117488A1283C5A3CAF10BB523B57FF961D1ECCCECC0F2ED7DBC816FED8371B687A4C210682B9D32F6D2C314CFA883602BB8772E
310
FEA141608751F7B0C050F08B77695A20E96CD43666D43AA5177008414708E42D5F7A18E4971E876A483133C2B59A06791D2EBA22556E679EE021FA1C00CC43CA09C5717D6274C7286AD7FB06D1AEA1A8C3873DDAD3E3E98859CB0EBB1DAF67A1E02919B5C88DCA71CCD968FFAC49110B1ECDF8882FBD1EA256503418BF2342
310
106E3E08DD60B6A1EC15771B8C795DE8FF4469524F8A92B1F1AD59E2CEB20005E1F5DC105CB9F4797B84D1F7C9F908CABC55D0F2050A5C61CC1AD2F27A26E6E767C7962E8E213A9FBF7775FDCC5CC266DB960A5E970DE5F2BBBE5CCB36C50F504B0304140006080800B670623B1B8617914E01000033030000300000006662
310
782F45374635344235342D363743322D343832342D383044432D4334454645303536354442422F636E782E786D6CD593C16EC32010447F0571AD6CE3D489D20813A9877E410FBD62D82434182CC055F3F75D1292E692438FBD206B7698593D61BEFD1E2DF982108D773D6D6B460938E5B571FB9ECE6957AD29D90A1EBC4F77
310
364A9C1CA1A759A682EF839FA72269D8C9D92654AD71C72206887E0E0A22CAF926B15E498B01E0AA19451807D01A34B919F16B070157417138917400F2F6FA41FCF0092A45DEE414C19BDC21783E4BD39D891265658C3D8DEA00A3ACE59CBC8678ACB54CB26EEB6BD7839D7E9348BE70AD9C8321B9BCA7F9A4A26C542347DE
310
E050F09802D22BA6749A800A394DD62899107273365E3C82CFC6A55557BC06C10774B7ABE7AEC3B0F34CF06446280E154026D0542C187BA9DAB6628BF7B6DBB0E5A65B3EB1F58631DE64BBE083F7B65CC218087E22CABB042E51D1F2268F1FE12B3EA24D40D63E9CFE00120194D60B9D5BC67FE6D39CDF37E20AF817881F50
310
4B0304140006080800B670623B29652116630500003C100000340000006662782F45374635344235342D363743322D343832342D383044432D4334454645303536354442422F6F626A656374732E786D6CAD575D739B3814FD2B0CFB0C989834C90EA1639B24E3E9A6EDD4D3CE3E64C623834CD8006224913AFDF57B040203
310
B65BEF871F0C12D2FD3CF7E8CA7FBFCB33E3957291B2E2D674ED8969D02262715A24B76625B7D6B569BC0F7CCE98EC2D338D82E4F4D654D366E0279C55A59E8AE99654991CCDDECFFF3444440B6A1A514684B83545F44C7362934AB2988A173B2692D8C97667BB76B3702836E1A47C1E092D09A78584A5982F20C5688C7287
310
C389E904BEA3BE07BEFAD7ABA6A75739B53F43FD69212429A20365233153D70BEF2E2E6FAC4BCF9B5ADEBB0BD79ADFCF43CBBD9A4E16EF168B9BD9DD0D140BC921495BC2E9D60C1E101B9E46BED37CEA2CD6861F3329624541A3DA7F7858DBAC25C6B4A4458C3CA654405BCFEBC970E8AAD8F43E4FD558ABEC4F9FE7557F47
310
4F506B7BFBEC5BCA367FC105710E2AB8A00A554D7CB4A30DFE26FBA86D18CBF4B75418399194A72433B274C3097F33032C554B027F2046A1932B842B0FCCC0DDCBEBDB8AD2F835768F59B9ADB24C41D30C6A64AF817F2A456D59FA83F2E3DA60137255A585BCD60EC9B7929AC18DEFD49381AF1ED30BFDB109A4B1CD488294
310
C3CDE6EBC8D185AABD6568061FEE37BB95AAC7E3CA4BCE4ACAA5820FA0D526AE7DAA2869B5EE5999531BE0CC20E6FBA07C41E43FA27CF7A6206F3CDD793B4F6B919C1462CB788EDCD893FA674CDA17AB7B3B7C019F8D561FAEE966FED562DFE98C1D12C6A9FC015C2A35D7FF3D7FC398F591DA4B5FE0BFA2C0189FEA50AE22
310
92817A1ED3020951A03432862970F976B33383259812CC8E5D240BBA801CBCF8CE2BBEE3BF910DB6AAD5F79E05123AE2DB33981FB1ACCB02B69D00CB014FD68AB573A7627EF9BFD4CC2C5C7D58557C4B22FAA88925A4DBB44825CECE3D78FB060D1231F0E885BE7D673C86A3874958F593906B5502D1563157814FDAC3420D
310
F69A070A22EC4B98E23CFF171A1E5311D12C23056555ABA53B8614563B92D17D02AAB009E8F46284624E5F53D5490C560CCCC2591FF1B45421EB0EBD8EA7ED13BE7C5D7E0428CD60FEF60779EB13E6664FF711CB185F6FDED60D139A001FF60CD1FD6D086F1D51474901E26B2CB794A343BC8ED3EDB612E0DD2351FCB65CF4
310
33D511C9E14B5B40ADC6A6263DB0336A8F700DDF56271A024E70B0B3629DE21847591E55DED73D56206AB927E46FAABC5C939C55853C274C93D69FD6FA4E78BF8B11DF898C9ECD60553FAD39283BA6F18984AA23E8884F83F45C5F5F859797B31B2B9C84A1E5B9DE9D35BFF25C6B76152E422F9C5DCC3D847F5801ED09D5AF
310
41441327A25FF15487F9EB725FB666F048A4701E9A827292E6F97569A32DF61DEC01C0BB8DCBBCCC684E0B49147C1FD54BF685A0AB18C868E6973949E819523E3DAC463660E68C7D9F55A9D1EFA3BD7A76A16AE1A810F95CE59B82A4D968A376DC2E8B44BBDD86B27B368CDE0ED548C7137DA860591A83706223A12CA712B4
310
7306DBF39C0A20A6DF95C7FAF670C6EED7A61F946493D1D6926782963813403548A78AE470DEF80D2D9CEAA26E4D1C76F60BFE74219A06527D6B82DF641A51616F703CAAC6A7160E08A00BEB4810A0274592A1B36E3675E36E978A0DE80727A0D6DF2D39A75BD27E0D8837276589537B40ABB56D5A41F48F1C6FCD3188C4EB
310
A6929D2FFB89CE995A4D00AE813BDD032DC48B56BD437DFDDC2DD7AED70C2272D63DE9A72068A45A92F0A4BE17A8A06B9366E16707AD80B1FC649459952097E74BB23805982B55E0401150A165964402AA8BDF9F3E7386BB686EDCA780C0D382E5392BF460A6EFB2C6EA1937D3F809B440D5F5435C4C5CF7A9EEFAF54564BD
310
2182DA24162F98680B4E7930C21A0079709CEAEB99A372305ABE0C0D7D6078105A83F6A0296DAEE1068A47DD1C55A9F4C9B2FC69E3EFD44B81028E963DF81B504B0304140006080000B670623B000000000000000000000000350000006662782F45374635344235342D363743322D343832342D383044432D433445464530
310
3536354442422F76657274696365732E62696E504B0304140006080800B670623BF270F1330600000004000000360000006662782F45374635344235342D363743322D343832342D383044432D4334454645303536354442422F747269616E676C65732E62696E636660600000504B0304140006080000B670623B00000000
310
0000000000000000370000006662782F45374635344235342D363743322D343832342D383044432D4334454645303536354442422F617474726962757465732E62696E504B0304140006080800B670623B08DA0BD19000000041010000360000006662782F45374635344235342D363743322D343832342D383044432D4334
310
454645303536354442422F6469726563746F72792E786D6C858F410AC3201045AF22B36F53E9A60B35CBEEBAE80D244E44489C6234F4F835464A48035D0DF398FF9F8AF63D0E6CC63039F212F8F9020C7D47C6792B21C5FE7403D62A1188E2E60C98D7234A5830286103A55745067B9D86B8A3CF9C7F90C11DE607FB144396
310
D7B6A82D282E9A152AD114D5EF2CB866EEE831B8EEA07A7BB5A8D7D61A2BAAEB7FD5F70921FF497D00504B0304140006080800B670623B6378F24DFF000000A00100003B0000006662782F45374635344235342D363743322D343832342D383044432D4334454645303536354442422F7265736F75726365732F636F72652E
310
786D6C8D504B6E833010BD0A9A6D65B0094E42641C85B639412F6099496225D8C89FAAC7AF09546A77DDCC8CDE47F3F4C4F16B7C149FE88371B603565228D06A37187BED20C50BD9437194C23B177FC9A0B06AC40E6618A4B87A97A615D2CE46B431A3D60DB8822A048C50E8473E3A08FA86A32A558A5911EEE5A4F45D5DB1
310
6465A6B34E8A107D0E502C4FE609D26370C96B0CA25A58295232C3AA3143FE692E063D485EF7F5AEE71BD2D2F39634AFFC44DAF7DD9E9CCE6F9CD25DCBFA762BAAD92C4534E34F46ED51451C40D694B6843142EB0FD61C283F34FC85EE0F948A6A96FF31A569F8A729191B37F51A77B105902C0779125254735F793DCBCC7B
310
EE567E03504B010214000A0000080000B670623B3DEE336E79000000790000001B00000000000000000000000000000000006175746F6465736B2D64657369676E2D7061636B6167652E786D6C504B01021400140006080800B670623BD486FD9CA0000000F40000001300000000000000000000000000B20000005B436F6E
310
74656E745F54797065735D2E786D6C504B01021400140006080800B670623BBC1638F5EC0000007C010000080000000000000000000000000083010000636F72652E786D6C504B01021400140006080800B670623B55019EA25F0000007C000000070000000000000000000000000095020000636E782E786D6C504B010214
310
00140006080800B670623B3586FFB671010000D40300000C00000000000000000000000000190300006662782F636F72652E786D6C504B01021400140006080800B670623B4220A0FF7D0000009D0000000B00000000000000000000000000B40400006662782F636E782E786D6C504B01021400140006080800B670623B2F
310
A3FEDE290100001202000031000000000000000000000000005A0500006662782F45374635344235342D363743322D343832342D383044432D4334454645303536354442422F636F72652E786D6C504B01021400140006080800B670623B1B8617914E010000330300003000000000000000000000000000D2060000666278
310
2F45374635344235342D363743322D343832342D383044432D4334454645303536354442422F636E782E786D6C504B01021400140006080800B670623B29652116630500003C10000034000000000000000000000000006E0800006662782F45374635344235342D363743322D343832342D383044432D4334454645303536
310
354442422F6F626A656374732E786D6C504B01021400140006080000B670623B0000000000000000000000003500000000000000000000000000230E00006662782F45374635344235342D363743322D343832342D383044432D4334454645303536354442422F76657274696365732E62696E504B01021400140006080800
310
B670623BF270F13306000000040000003600000000000000000000000000760E00006662782F45374635344235342D363743322D343832342D383044432D4334454645303536354442422F747269616E676C65732E62696E504B01021400140006080000B670623B0000000000000000000000003700000000000000000000
310
000000D00E00006662782F45374635344235342D363743322D343832342D383044432D4334454645303536354442422F617474726962757465732E62696E504B01021400140006080800B670623B08DA0BD190000000410100003600000000000000000000000000250F00006662782F45374635344235342D363743322D34
310
3832342D383044432D4334454645303536354442422F6469726563746F72792E786D6C504B01021400140006080800B670623B6378F24DFF000000A00100003B00000000000000000000000000091000006662782F45374635344235342D363743322D343832342D383044432D4334454645303536354442422F7265736F75
310
726365732F636F72652E786D6C504B0506000000000E000E0080040000611100000000
  0
XRECORD
  5
112
102
{ACAD_REACTORS
330
110
102
}
330
110
100
AcDbXrecord
280
     1
270
     1
271
     1
  0
XRECORD
  5
111
102
{ACAD_REACTORS
330
110
102
}
330
110
100
AcDbXrecord
280
     1
270
     1
271
     1
  0
XRECORD
  5
18A
102
{ACAD_REACTORS
330
110
102
}
330
110
100
AcDbXrecord
280
     1
 70
     0
 90
1778669749
  1
9BF507EE-FAF7-4A99-A33D-4EE51894BC40
310
504B03040A0000080000B670623B3DEE336E79000000790000001B0000006175746F6465736B2D64657369676E2D7061636B6167652E786D6C3C3F786D6C2076657273696F6E3D22312E302220656E636F64696E673D227574662D3822203F3E3C666F726D6174733E3C666F726D61743E687474703A2F2F736368656D612E
310
6175746F6465736B2E636F6D2F64657369676E2D7061636B6167652F323030393C2F666F726D61743E3C2F666F726D6174733E504B0304140006080800B670623BD486FD9CA0000000F4000000130000005B436F6E74656E745F54797065735D2E786D6C7D8EC10E82300C865F65E91D8A1E8C310C0EEA1BF002731658846E
310
D98AC1B77784ABF1D8FE5FBFBF75BBCE937A534CCEB38643598122B6FEE978D0B0485F9C41B54DDD7D022595594E1A469170414C76A4D9A4D207E29CF43ECE46F218070CC6BECC4078ACAA135ACF422C856C0E68EA1BF5669944DDD7BCDE7B1F8E415D77AECB980613C2E4AC91FC167A2B244592486606FC29C8FD7F045B9A
310
EF7053A7E60B504B0304140006080800B670623BCA089DFFEC0000007C01000008000000636F72652E786D6C8D90416E83301045AF62CDB632D8402020E32882F604BD80653BC44AB011B6AB1EBF262152BBEB6A467FFE9B197D76FA9EEFE84BAFDE38DB03CD08206DA553C64E3DC470C1474027CE56E7C22F1B202B66DDC3
310
260367D3EAE2B24BD2D9A06D48AA754AEFA2F05E0740F29E9A1EBCBCEA59642286E4F0B76C11F226269DD15797E0188D42CF2346A57DE662F40ABCAEC77628C6120F654571D50C04B7F5B9C1E3997CD4F550BE3745C3F20DE62C98F9755FAE5A04AD801784B498524C8A4F5A75E4D055873772EC0861F966FF03C545FD138A
310
C686B2D8DF7D621E384D8F3C069CE55B16A93C824A75CB8DFF00504B0304140006080800B670623B55019EA25F0000007C00000007000000636E782E786D6C4DCB3B0E80201045D1AD90E915ED2CF8AC45050C11660C8261F98AB1B07AC9C97D42D718D865D3E909258CFD00CCE24AC6E326A164D74DC0B4128928FF326038
310
472BA13128B1252AC747C6BAB984FC68F0B87FE8960A5C09FE86CFB69FBA01504B0304140006080800B670623B68FC0B7272010000D40300000C0000006662782F636F72652E786D6CC5535B6E833010BC8AE5DF0A6C1E8124328E22D29EA01770C0A128602363A31CBFCB234A53A555FA553EC09AD9F5CE8C31DB5DDA060D
310
D2F4B556190E7C8A9154852E6B5565D8D993B7C668C799D1DA7E29C3488956667884316795D1AE5BA0422B2B950554E9522EA0E87B69312A1A5864B82F3E642B7CE12C54F467BF13C55954D20F7CA0A18EB3DE1A1080E621E31BF3D3F1C2C88C73E65C5D2E6C5DC2B4FA544B8379921C36797888BC3C8A032F4E73EA6D927D
310
EA1DF6F42D49F2E8350D5346C666CE6CDD5ED515460A2B4BCC434A375E1078347C0FE22D5D6DE3D50B5D6F2965642CBF6B725DF96493AB958DC245EEDCD6631E809089F8E61622B2A81703E8219C913144F84C09DF070D8140C8561C9BAB8F3340832CAC363130A576376A108D933095FA747AD0CF0B46E64E983A6D0EAE1F
310
CE089F9EF1FB8E70D44255604258581E9D1D75B259C3125A278D37D80B52DAB4A279CEC62F0EFF44DDC43F9454E8469BFF5244960322CBEF41C6FBC83F01504B0304140006080800B670623B0F71DDB67E0000009D0000000B0000006662782F636E782E786D6C4DCCD10A83201886E15B91FFDCA54DB73F502386BB8F5816
310
32D3703976F9ABD1C18E3E78F87855FB990379BBFCF2296AE02706C4C5471A7C9C349475A408A4352AA7B4FEDD80C47E761A7606A3A69CCA72D0E0C6BE8475D3E0E3F3409428EA6B27A84079A782899AA2EC1A7AE3ECCC2FD858CB2D544655BFD2B67BD87C01504B0304140006080800B670623BE134B4FB28010000120200
310
00310000006662782F38353834323741342D343835462D343034322D383541392D4331303331363839454531452F636F72652E786D6C8D515B6EC32010BC0AE22B55850D0EA424C24451959EA0172086A42831583CAA1CBF503B52FB971F16CDCECC0EACD8DFC71BF836215AEF7A481A0C817183D7D65D7A98D3197108F652
310
04EFD31F1A044E8DA6871586525C82CFD3020DDE25E352419DD76601558C264130DCCAA58771F832A36A544E8511AFCDA486ABBA988634A55D7852C4144A00300FA927949C71DABD1D28A29C7D208A6987383B6CD13BC16BB2E1DBE3911C453B0BA5C8D9EA456E758963CFD684674DAA588A64C747FC2118958C86B2C3788B
310
0841B8FB247487D98EB257CC77188BB6D2FF89F2A49F1465EBD2BA5BE2CEB2082511EDDC9042FB7CBA3DC298FBE4430275DE2A9AE1054ADC60CC08E3A29D89E5F9C5714317C7987C28DFBBBA9E0A97B0D97643A568EB864AF95D5FA9759BF207504B0304140006080800B670623B1B8617914E010000330300003000000066
310
62782F38353834323741342D343835462D343034322D383541392D4331303331363839454531452F636E782E786D6CD593C16EC32010447F0571AD6CE3D489D20813A9877E410FBD62D82434182CC055F3F75D1292E692438FBD206B7698593D61BEFD1E2DF982108D773D6D6B460938E5B571FB9ECE6957AD29D90A1EBC4F
310
77364A9C1CA1A759A682EF839FA72269D8C9D92654AD71C72206887E0E0A22CAF926B15E498B01E0AA19451807D01A34B919F16B070157417138917400F2F6FA41FCF0092A45DEE414C19BDC21783E4BD39D891265658C3D8DEA00A3ACE59CBC8678ACB54CB26EEB6BD7839D7E9348BE70AD9C8321B9BCA7F9A4A26C542347
310
DEE050F09802D22BA6749A800A394DD62899107273365E3C82CFC6A55557BC06C10774B7ABE7AEC3B0F34CF06446280E154026D0542C187BA9DAB6628BF7B6DBB0E5A65B3EB1F58631DE64BBE083F7B65CC218087E22CABB042E51D1F2268F1FE12B3EA24D40D63E9CFE00120194D60B9D5BC67FE6D39CDF37E20AF817881F
310
504B0304140006080800B670623B5933D422630500003B100000340000006662782F38353834323741342D343835462D343034322D383541392D4331303331363839454531452F6F626A656374732E786D6CAD575B6FA33814FE2B887D0642934E9B156594264D158D3A534DD4D13E548A0C38942D60649B4EBABF7E3F8321
310
40924EF6928780CDF1B97EE762EFF32E4B8D37CA45C2F21BD3B547A641F39045491EDF98A5DC5AD7A6F1D9F73863B243661A39C9E88DA9B64DDF8B392B0BBD15D12D295339D85DDEFE618890E6D434C2940871638AF08566C426A5641115AF764424B1E3EDCE76ED9AB0CF36E6A47819302D08A7B984A6D8CFC1C5A89572FB
310
CB91E9F89EA3BEFB9EFAD754E3D3544E654F5F7E920B49F2F040D880CDD89D2CEE2E2EA7D6E56432B6269F2E5CEB7679BBB0DCABF168FE693E9FCEEEA6102C240727AD09A75BD3BF876F78127A4EFDA9D5582B7E4CA590E5390D2BFB6161A5B3E618D182E611E2985001691DAB47FDA5AB7CD3F93C566B2DB2BB7D9E55DD13
310
1D468DEECDB3AB290BFE8409E21C54704115AA6AFF68436BFC8DF65E0B184BF5B74418199194272435D224E084BF9B3E481589EFF5D828747285706581E9BB7B7E5D5D911ABFC6EE312DB7659A2A689A7E85EC0DF04FA5A8344BFEA2FCB834E8845895492EAFB541F2BDA0A63FF59C6AD3F7D4637CA13FD68E34B629891172
310
98597F1D183A57B9B75A98FE9765B05BAB7C3C2EBCE0ACA05C2AF8005A4DE09AA7F29216EB9E15397500C6F47CBE77CA7778FE2BD277AF0AE2C693DD6437D1522427B9D8329E2136F6A8FA19A3E6C56ADF0E5F50CF06D48734EDCEBF22F69C56D97EC138153F804B85E6FABFC7AFEFB32E523BE1F3BD372418E363EDCA7548
310
52949E8724474014288D94610BB57C1BEC4C7F854A89CA8E5324F55B871CBC78CE1BBEE3BFE68D6A5589EF3C730474506FCFA8FCF0659516D0ED04580EEA6425581B77CAE797FF4BCECC16EB2FEB926F49481F746159D06D922712BD730FDEAE42BD40F42C7AA5EF3F198F60E86110D6DD20645A9480B795CF95E3E3A659A8
310
C55E724F408873315335CFFB8584874484344D494E59D94869DB90C26A5B64F49C802CAC1D3ABE18A098D3B7444D123D8A9E5AE8F5214F0AE5B2B6E9B575DA3E61CBD3EA2B4009FA940524DD1305FB6A1FB294F14DF0BEA90BA109ECE1481FDC3FFAE8D60E75141700BE82725371B4873751B2DD960265F788137FACE6DD40
310
B575E4F0A5C99F46629D92131467A41EE11ABD8D4CCC039CA0AFB37C93A08B232B8F0AEFCA1E0A1015DF13FC83322B362463652ECF71D3A8B1A7D1BE65DE1D62C44F22C317D35F574FEB16153BA2D13E543D10A80E74C4A65E78A6B7CBCBD1D5DD9DB59C2DAFACC96C3AB566E3F1C29ADCDD5DBAD7D3C9ED7C822ED74F80A6
310
41755310DE4443F44A9E68373FADF6596BFA0F440AE7BECE2727AE9F4F2B1B53B1E7E00CF0DD1E5C65454A339A4BA2D0FBA05ED2EF0443458F47BDBFCA484CCFE0F2ED7E3DD0013B679C7B5499467F0ECEEADDB9CA85A34CE44B99053949D2C1416DB85DE4B136BB7165FBAC0B7AB3542BED4F8CA182A549847A1319316519
310
95A83A67147B9E5101C47487F2485F1ECE38FD568F839204296D3479219888530154036E6528FBFBC66F98E0D4107563A2D7D9AFF8D389681A08F58D89F22693900A3B407754734FC51C10C010D6D640809EE4718AC1BA3ED4AEDB53CA37283F68805A7E4B72CEB0A4EDEAD5DD8C14059A76AFAA56BA6901E13F32BC51C720
310
12AF41295B5BF61BAD3195181FB506E6B40F4C10AF5AF40EF9F5B159AE5DD1F43C72D635E94310D45C2D49785C5D0B94D3B54AB3C5A38349C0587D338AB48C11CBF339599C02CCA54A70A008A8D03C0B2201D5F9EFCF8F9CE12A9A19CB0410789EB32C63B95ECCF455D658BFE0621A3DA32C5075FB101723D77DAE867E7D0F
310
D90444509B44E2151B4DC2290B065803200FBAA9BE9D392A0603F2D5C2D00D6302A615680F66D2FA166E2079D4C551A54AB758161FCEFD4E450A14704CECFEDF504B0304140006080000B670623B000000000000000000000000350000006662782F38353834323741342D343835462D343034322D383541392D4331303331
310
363839454531452F76657274696365732E62696E504B0304140006080800B670623BF270F1330600000004000000360000006662782F38353834323741342D343835462D343034322D383541392D4331303331363839454531452F747269616E676C65732E62696E636660600000504B0304140006080000B670623B000000
310
000000000000000000370000006662782F38353834323741342D343835462D343034322D383541392D4331303331363839454531452F617474726962757465732E62696E504B0304140006080800B670623B08DA0BD19000000041010000360000006662782F38353834323741342D343835462D343034322D383541392D43
310
31303331363839454531452F6469726563746F72792E786D6C858F410AC3201045AF22B36F53E9A60B35CBEEBAE80D244E44489C6234F4F835464A48035D0DF398FF9F8AF63D0E6CC63039F212F8F9020C7D47C6792B21C5FE7403D62A1188E2E60C98D7234A5830286103A55745067B9D86B8A3CF9C7F90C11DE607FB1443
310
96D7B6A82D282E9A152AD114D5EF2CB866EEE831B8EEA07A7BB5A8D7D61A2BAAEB7FD5F70921FF497D00504B0304140006080800B670623BD9A3B367FE000000A00100003B0000006662782F38353834323741342D343835462D343034322D383541392D4331303331363839454531452F7265736F75726365732F636F7265
310
2E786D6C8D504B6E833010BD0A9A6D65B01D0201194711694FD00B586642AD043BF2A7EAF16B122AB5BB6E6646EFA3797AE2F8B5DC8A4FF4C1383B002B291468B59B8C9D0748F1420E501CA5F0CEC55F3228AC5A708015062966EFD27D83B4B3116DCCA875136EA00A012314FA968F0182FEC045952AC5AC08D7F2AEF455CD
310
58B232D3592745883E07289E4FD609D26370C96B0CA27AB252A464A64D63A6FCD35C0C7A904D73EE467EE664DCD58CD4ED4849D79C5A723ED1B7A61977AF2D6F45B59AA58866F9C9A83DAA8813484E6947182394BFB3BAA7FBBEDEBFD0434FA9A856F91F53BA4FFF342563E38E6F719FB60092E5200F428A6AED2BAF479979
310
AFDDCA6F504B010214000A0000080000B670623B3DEE336E79000000790000001B00000000000000000000000000000000006175746F6465736B2D64657369676E2D7061636B6167652E786D6C504B01021400140006080800B670623BD486FD9CA0000000F40000001300000000000000000000000000B20000005B436F6E
310
74656E745F54797065735D2E786D6C504B01021400140006080800B670623BCA089DFFEC0000007C010000080000000000000000000000000083010000636F72652E786D6C504B01021400140006080800B670623B55019EA25F0000007C000000070000000000000000000000000095020000636E782E786D6C504B010214
310
00140006080800B670623B68FC0B7272010000D40300000C00000000000000000000000000190300006662782F636F72652E786D6C504B01021400140006080800B670623B0F71DDB67E0000009D0000000B00000000000000000000000000B50400006662782F636E782E786D6C504B01021400140006080800B670623BE1
310
34B4FB280100001202000031000000000000000000000000005C0500006662782F38353834323741342D343835462D343034322D383541392D4331303331363839454531452F636F72652E786D6C504B01021400140006080800B670623B1B8617914E010000330300003000000000000000000000000000D3060000666278
310
2F38353834323741342D343835462D343034322D383541392D4331303331363839454531452F636E782E786D6C504B01021400140006080800B670623B5933D422630500003B10000034000000000000000000000000006F0800006662782F38353834323741342D343835462D343034322D383541392D4331303331363839
310
454531452F6F626A656374732E786D6C504B01021400140006080000B670623B0000000000000000000000003500000000000000000000000000240E00006662782F38353834323741342D343835462D343034322D383541392D4331303331363839454531452F76657274696365732E62696E504B01021400140006080800
310
B670623BF270F13306000000040000003600000000000000000000000000770E00006662782F38353834323741342D343835462D343034322D383541392D4331303331363839454531452F747269616E676C65732E62696E504B01021400140006080000B670623B0000000000000000000000003700000000000000000000
310
000000D10E00006662782F38353834323741342D343835462D343034322D383541392D4331303331363839454531452F617474726962757465732E62696E504B01021400140006080800B670623B08DA0BD190000000410100003600000000000000000000000000260F00006662782F38353834323741342D343835462D34
310
3034322D383541392D4331303331363839454531452F6469726563746F72792E786D6C504B01021400140006080800B670623BD9A3B367FE000000A00100003B000000000000000000000000000A1000006662782F38353834323741342D343835462D343034322D383541392D4331303331363839454531452F7265736F75
310
726365732F636F72652E786D6C504B0506000000000E000E0080040000611100000000
  0
XRECORD
  5
113
102
{ACAD_REACTORS
330
110
102
}
330
110
100
AcDbXrecord
280
     1
270
     1
271
     1
  0
XRECORD
  5
114
102
{ACAD_REACTORS
330
110
102
}
330
110
100
AcDbXrecord
280
     1
270
     1
271
     1
  0
XRECORD
  5
18CA
102
{ACAD_REACTORS
330
18C9
102
}
330
18C9
100
AcDbXrecord
280
     1
102
DISPLAYNAME
  1
Imperial24
102
FLAGS
 90
        0
  0
XRECORD
  5
18CE
102
{ACAD_REACTORS
330
18CD
102
}
330
18CD
100
AcDbXrecord
280
     1
102
DISPLAYNAME
  1
Metric50
102
FLAGS
 90
        0
  0
CELLSTYLEMAP
  5
18BF
102
{ACAD_REACTORS
330
104
102
}
330
104
100
AcDbCellStyleMap
 90
        3
300
CELLSTYLE
  1
TABLEFORMAT_BEGIN
 90
        5
170
     1
 91
        0
 92
    32768
 62
   257
 93
        1
300
CONTENTFORMAT
  1
CONTENTFORMAT_BEGIN
 90
        0
 91
        0
 92
      512
 93
        0
300

 40
0.0
140
1.0
 94
        5
 62
     0
340
11
144
0.25
309
CONTENTFORMAT_END
171
     1
301
MARGIN
  1
CELLMARGIN_BEGIN
 40
0.06
 40
0.06
 40
0.06
 40
0.06
 40
0.18
 40
0.18
309
CELLMARGIN_END
 94
        6
 95
        1
302
GRIDFORMAT
  1
GRIDFORMAT_BEGIN
 90
        0
 91
        1
 62
     0
 92
       -2
340
0
 93
        0
 40
0.045
309
GRIDFORMAT_END
 95
        2
302
GRIDFORMAT
  1
GRIDFORMAT_BEGIN
 90
        0
 91
        1
 62
     0
 92
       -2
340
0
 93
        0
 40
0.045
309
GRIDFORMAT_END
 95
        4
302
GRIDFORMAT
  1
GRIDFORMAT_BEGIN
 90
        0
 91
        1
 62
     0
 92
       -2
340
0
 93
        0
 40
0.045
309
GRIDFORMAT_END
 95
        8
302
GRIDFORMAT
  1
GRIDFORMAT_BEGIN
 90
        0
 91
        1
 62
     0
 92
       -2
340
0
 93
        0
 40
0.045
309
GRIDFORMAT_END
 95
       16
302
GRIDFORMAT
  1
GRIDFORMAT_BEGIN
 90
        0
 91
        1
 62
     0
 92
       -2
340
0
 93
        0
 40
0.045
309
GRIDFORMAT_END
 95
       32
302
GRIDFORMAT
  1
GRIDFORMAT_BEGIN
 90
        0
 91
        1
 62
     0
 92
       -2
340
0
 93
        0
 40
0.045
309
GRIDFORMAT_END
309
TABLEFORMAT_END
  1
CELLSTYLE_BEGIN
 90
        1
 91
        1
300
_TITLE
309
CELLSTYLE_END
300
CELLSTYLE
  1
TABLEFORMAT_BEGIN
 90
        5
170
     1
 91
        0
 92
        0
 62
   257
 93
        1
300
CONTENTFORMAT
  1
CONTENTFORMAT_BEGIN
 90
        0
 91
        0
 92
      512
 93
        0
300

 40
0.0
140
1.0
 94
        5
 62
     0
340
11
144
0.18
309
CONTENTFORMAT_END
171
     1
301
MARGIN
  1
CELLMARGIN_BEGIN
 40
0.06
 40
0.06
 40
0.06
 40
0.06
 40
0.18
 40
0.18
309
CELLMARGIN_END
 94
        6
 95
        1
302
GRIDFORMAT
  1
GRIDFORMAT_BEGIN
 90
        0
 91
        1
 62
     0
 92
       -2
340
0
 93
        0
 40
0.045
309
GRIDFORMAT_END
 95
        2
302
GRIDFORMAT
  1
GRIDFORMAT_BEGIN
 90
        0
 91
        1
 62
     0
 92
       -2
340
0
 93
        0
 40
0.045
309
GRIDFORMAT_END
 95
        4
302
GRIDFORMAT
  1
GRIDFORMAT_BEGIN
 90
        0
 91
        1
 62
     0
 92
       -2
340
0
 93
        0
 40
0.045
309
GRIDFORMAT_END
 95
        8
302
GRIDFORMAT
  1
GRIDFORMAT_BEGIN
 90
        0
 91
        1
 62
     0
 92
       -2
340
0
 93
        0
 40
0.045
309
GRIDFORMAT_END
 95
       16
302
GRIDFORMAT
  1
GRIDFORMAT_BEGIN
 90
        0
 91
        1
 62
     0
 92
       -2
340
0
 93
        0
 40
0.045
309
GRIDFORMAT_END
 95
       32
302
GRIDFORMAT
  1
GRIDFORMAT_BEGIN
 90
        0
 91
        1
 62
     0
 92
       -2
340
0
 93
        0
 40
0.045
309
GRIDFORMAT_END
309
TABLEFORMAT_END
  1
CELLSTYLE_BEGIN
 90
        2
 91
        1
300
_HEADER
309
CELLSTYLE_END
300
CELLSTYLE
  1
TABLEFORMAT_BEGIN
 90
        5
170
     1
 91
        0
 92
        0
 62
   257
 93
        1
300
CONTENTFORMAT
  1
CONTENTFORMAT_BEGIN
 90
        0
 91
        0
 92
      512
 93
        0
300

 40
0.0
140
1.0
 94
        2
 62
     0
340
11
144
0.18
309
CONTENTFORMAT_END
171
     1
301
MARGIN
  1
CELLMARGIN_BEGIN
 40
0.06
 40
0.06
 40
0.06
 40
0.06
 40
0.18
 40
0.18
309
CELLMARGIN_END
 94
        6
 95
        1
302
GRIDFORMAT
  1
GRIDFORMAT_BEGIN
 90
        0
 91
        1
 62
     0
 92
       -2
340
0
 93
        0
 40
0.045
309
GRIDFORMAT_END
 95
        2
302
GRIDFORMAT
  1
GRIDFORMAT_BEGIN
 90
        0
 91
        1
 62
     0
 92
       -2
340
0
 93
        0
 40
0.045
309
GRIDFORMAT_END
 95
        4
302
GRIDFORMAT
  1
GRIDFORMAT_BEGIN
 90
        0
 91
        1
 62
     0
 92
       -2
340
0
 93
        0
 40
0.045
309
GRIDFORMAT_END
 95
        8
302
GRIDFORMAT
  1
GRIDFORMAT_BEGIN
 90
        0
 91
        1
 62
     0
 92
       -2
340
0
 93
        0
 40
0.045
309
GRIDFORMAT_END
 95
       16
302
GRIDFORMAT
  1
GRIDFORMAT_BEGIN
 90
        0
 91
        1
 62
     0
 92
       -2
340
0
 93
        0
 40
0.045
309
GRIDFORMAT_END
 95
       32
302
GRIDFORMAT
  1
GRIDFORMAT_BEGIN
 90
        0
 91
        1
 62
     0
 92
       -2
340
0
 93
        0
 40
0.045
309
GRIDFORMAT_END
309
TABLEFORMAT_END
  1
CELLSTYLE_BEGIN
 90
        3
 91
        2
300
_DATA
309
CELLSTYLE_END
  0
XRECORD
  5
1073
102
{ACAD_REACTORS
330
1072
102
}
330
1072
100
AcDbXrecord
280
     1
102
RTVSPropertyOp28
 70
     1
102
RTVSPropertyOp29
 70
     1
102
RTVSPropertyOp30
 70
     1
102
RTVSPropertyOp31
 70
     1
102
RTVSPropertyOp32
 70
     1
102
RTVSPropertyOp33
 70
     1
102
RTVSPropertyOp34
 70
     1
102
RTVSPropertyOp35
 70
     1
102
RTVSPropertyOp36
 70
     1
102
RTVSPropertyOp37
 70
     1
102
RTVSPropertyOp38
 70
     1
102
RTVSPropertyOp39
 70
     1
102
RTVSPropertyOp40
 70
     1
102
RTVSPropertyOp41
 70
     1
102
RTVSPropertyOp42
 70
     1
102
RTVSPropertyOp43
 70
     1
102
RTVSPropertyOp44
 70
     1
102
RTVSPropertyOp45
 70
     1
102
RTVSPropertyOp46
 70
     1
102
RTVSPropertyOp47
 70
     1
102
RTVSPropertyOp48
 70
     1
102
RTVSPropertyOp49
 70
     1
102
RTVSPropertyOp50
 70
     1
102
RTVSPropertyOp51
 70
     0
102
RTVSPropertyOp52
 70
     0
102
RTVSPropertyOp53
 70
     1
102
RTVSPropertyOp54
 70
     1
102
RTVSPropertyOp55
 70
     1
102
RTVSPropertyOp56
 70
     1
102
RTVSPropertyOp57
 70
     1
102
RTVSPropertyOp58
 70
     1
102
RTVSPropertyOp59
 70
     1
102
RTVSPropertyOp60
 70
     1
102
RTVSPropertyOp61
 70
     1
102
RTVSPropertyOp62
 70
     1
  0
XRECORD
  5
1071
102
{ACAD_REACTORS
330
1070
102
}
330
1070
100
AcDbXrecord
280
     1
102
RTVSPropertyOp28
 70
     1
102
RTVSPropertyOp29
 70
     1
102
RTVSPropertyOp30
 70
     1
102
RTVSPropertyOp31
 70
     1
102
RTVSPropertyOp32
 70
     1
102
RTVSPropertyOp33
 70
     1
102
RTVSPropertyOp34
 70
     1
102
RTVSPropertyOp35
 70
     1
102
RTVSPropertyOp36
 70
     1
102
RTVSPropertyOp37
 70
     1
102
RTVSPropertyOp38
 70
     1
102
RTVSPropertyOp39
 70
     1
102
RTVSPropertyOp40
 70
     1
102
RTVSPropertyOp41
 70
     1
102
RTVSPropertyOp42
 70
     1
102
RTVSPropertyOp43
 70
     1
102
RTVSPropertyOp44
 70
     1
102
RTVSPropertyOp45
 70
     1
102
RTVSPropertyOp46
 70
     1
102
RTVSPropertyOp47
 70
     1
102
RTVSPropertyOp48
 70
     1
102
RTVSPropertyOp49
 70
     1
102
RTVSPropertyOp50
 70
     1
102
RTVSPropertyOp51
 70
     0
102
RTVSPropertyOp52
 70
     0
102
RTVSPropertyOp53
 70
     1
102
RTVSPropertyOp54
 70
     1
102
RTVSPropertyOp55
 70
     1
102
RTVSPropertyOp56
 70
     1
102
RTVSPropertyOp57
 70
     1
102
RTVSPropertyOp58
 70
     1
102
RTVSPropertyOp59
 70
     1
102
RTVSPropertyOp60
 70
     1
102
RTVSPropertyOp61
 70
     1
102
RTVSPropertyOp62
 70
     1
  0
XRECORD
  5
107F
102
{ACAD_REACTORS
330
107E
102
}
330
107E
100
AcDbXrecord
280
     1
102
RTVSPropertyOp28
 70
     1
102
RTVSPropertyOp29
 70
     1
102
RTVSPropertyOp30
 70
     1
102
RTVSPropertyOp31
 70
     1
102
RTVSPropertyOp32
 70
     1
102
RTVSPropertyOp33
 70
     1
102
RTVSPropertyOp34
 70
     1
102
RTVSPropertyOp35
 70
     1
102
RTVSPropertyOp36
 70
     1
102
RTVSPropertyOp37
 70
     1
102
RTVSPropertyOp38
 70
     1
102
RTVSPropertyOp39
 70
     1
102
RTVSPropertyOp40
 70
     1
102
RTVSPropertyOp41
 70
     1
102
RTVSPropertyOp42
 70
     1
102
RTVSPropertyOp43
 70
     1
102
RTVSPropertyOp44
 70
     1
102
RTVSPropertyOp45
 70
     1
102
RTVSPropertyOp46
 70
     1
102
RTVSPropertyOp47
 70
     1
102
RTVSPropertyOp48
 70
     1
102
RTVSPropertyOp49
 70
     1
102
RTVSPropertyOp50
 70
     1
102
RTVSPropertyOp51
 70
     0
102
RTVSPropertyOp52
 70
     0
102
RTVSPropertyOp53
 70
     1
102
RTVSPropertyOp54
 70
     1
102
RTVSPropertyOp55
 70
     1
102
RTVSPropertyOp56
 70
     1
102
RTVSPropertyOp57
 70
     1
102
RTVSPropertyOp58
 70
     1
102
RTVSPropertyOp59
 70
     1
102
RTVSPropertyOp60
 70
     1
102
RTVSPropertyOp61
 70
     1
102
RTVSPropertyOp62
 70
     1
  0
XRECORD
  5
1087
102
{ACAD_REACTORS
330
1086
102
}
330
1086
100
AcDbXrecord
280
     1
102
RTVSPropertyOp28
 70
     1
102
RTVSPropertyOp29
 70
     1
102
RTVSPropertyOp30
 70
     1
102
RTVSPropertyOp31
 70
     1
102
RTVSPropertyOp32
 70
     1
102
RTVSPropertyOp33
 70
     1
102
RTVSPropertyOp34
 70
     1
102
RTVSPropertyOp35
 70
     1
102
RTVSPropertyOp36
 70
     1
102
RTVSPropertyOp37
 70
     1
102
RTVSPropertyOp38
 70
     1
102
RTVSPropertyOp39
 70
     1
102
RTVSPropertyOp40
 70
     1
102
RTVSPropertyOp41
 70
     1
102
RTVSPropertyOp42
 70
     1
102
RTVSPropertyOp43
 70
     1
102
RTVSPropertyOp44
 70
     1
102
RTVSPropertyOp45
 70
     1
102
RTVSPropertyOp46
 70
     1
102
RTVSPropertyOp47
 70
     1
102
RTVSPropertyOp48
 70
     1
102
RTVSPropertyOp49
 70
     1
102
RTVSPropertyOp50
 70
     1
102
RTVSPropertyOp51
 70
     0
102
RTVSPropertyOp52
 70
     0
102
RTVSPropertyOp53
 70
     1
102
RTVSPropertyOp54
 70
     1
102
RTVSPropertyOp55
 70
     1
102
RTVSPropertyOp56
 70
     1
102
RTVSPropertyOp57
 70
     1
102
RTVSPropertyOp58
 70
     1
102
RTVSPropertyOp59
 70
     1
102
RTVSPropertyOp60
 70
     1
102
RTVSPropertyOp61
 70
     1
102
RTVSPropertyOp62
 70
     1
  0
XRECORD
  5
1079
102
{ACAD_REACTORS
330
1078
102
}
330
1078
100
AcDbXrecord
280
     1
102
RTVSPropertyOp28
 70
     1
102
RTVSPropertyOp29
 70
     1
102
RTVSPropertyOp30
 70
     1
102
RTVSPropertyOp31
 70
     1
102
RTVSPropertyOp32
 70
     1
102
RTVSPropertyOp33
 70
     1
102
RTVSPropertyOp34
 70
     1
102
RTVSPropertyOp35
 70
     1
102
RTVSPropertyOp36
 70
     1
102
RTVSPropertyOp37
 70
     1
102
RTVSPropertyOp38
 70
     1
102
RTVSPropertyOp39
 70
     1
102
RTVSPropertyOp40
 70
     1
102
RTVSPropertyOp41
 70
     1
102
RTVSPropertyOp42
 70
     1
102
RTVSPropertyOp43
 70
     1
102
RTVSPropertyOp44
 70
     1
102
RTVSPropertyOp45
 70
     1
102
RTVSPropertyOp46
 70
     1
102
RTVSPropertyOp47
 70
     1
102
RTVSPropertyOp48
 70
     1
102
RTVSPropertyOp49
 70
     1
102
RTVSPropertyOp50
 70
     1
102
RTVSPropertyOp51
 70
     0
102
RTVSPropertyOp52
 70
     0
102
RTVSPropertyOp53
 70
     1
102
RTVSPropertyOp54
 70
     1
102
RTVSPropertyOp55
 70
     1
102
RTVSPropertyOp56
 70
     1
102
RTVSPropertyOp57
 70
     1
102
RTVSPropertyOp58
 70
     1
102
RTVSPropertyOp59
 70
     1
102
RTVSPropertyOp60
 70
     1
102
RTVSPropertyOp61
 70
     1
102
RTVSPropertyOp62
 70
     1
  0
XRECORD
  5
107D
102
{ACAD_REACTORS
330
107C
102
}
330
107C
100
AcDbXrecord
280
     1
102
RTVSPropertyOp28
 70
     1
102
RTVSPropertyOp29
 70
     1
102
RTVSPropertyOp30
 70
     1
102
RTVSPropertyOp31
 70
     1
102
RTVSPropertyOp32
 70
     1
102
RTVSPropertyOp33
 70
     1
102
RTVSPropertyOp34
 70
     1
102
RTVSPropertyOp35
 70
     1
102
RTVSPropertyOp36
 70
     1
102
RTVSPropertyOp37
 70
     1
102
RTVSPropertyOp38
 70
     1
102
RTVSPropertyOp39
 70
     1
102
RTVSPropertyOp40
 70
     1
102
RTVSPropertyOp41
 70
     1
102
RTVSPropertyOp42
 70
     1
102
RTVSPropertyOp43
 70
     1
102
RTVSPropertyOp44
 70
     1
102
RTVSPropertyOp45
 70
     1
102
RTVSPropertyOp46
 70
     1
102
RTVSPropertyOp47
 70
     1
102
RTVSPropertyOp48
 70
     1
102
RTVSPropertyOp49
 70
     1
102
RTVSPropertyOp50
 70
     1
102
RTVSPropertyOp51
 70
     0
102
RTVSPropertyOp52
 70
     0
102
RTVSPropertyOp53
 70
     1
102
RTVSPropertyOp54
 70
     1
102
RTVSPropertyOp55
 70
     1
102
RTVSPropertyOp56
 70
     1
102
RTVSPropertyOp57
 70
     1
102
RTVSPropertyOp58
 70
     1
102
RTVSPropertyOp59
 70
     1
102
RTVSPropertyOp60
 70
     1
102
RTVSPropertyOp61
 70
     1
102
RTVSPropertyOp62
 70
     1
  0
XRECORD
  5
108D
102
{ACAD_REACTORS
330
108C
102
}
330
108C
100
AcDbXrecord
280
     1
102
RTVSPropertyOp28
 70
     1
102
RTVSPropertyOp29
 70
     1
102
RTVSPropertyOp30
 70
     1
102
RTVSPropertyOp31
 70
     1
102
RTVSPropertyOp32
 70
     1
102
RTVSPropertyOp33
 70
     1
102
RTVSPropertyOp34
 70
     1
102
RTVSPropertyOp35
 70
     1
102
RTVSPropertyOp36
 70
     1
102
RTVSPropertyOp37
 70
     1
102
RTVSPropertyOp38
 70
     1
102
RTVSPropertyOp39
 70
     1
102
RTVSPropertyOp40
 70
     1
102
RTVSPropertyOp41
 70
     1
102
RTVSPropertyOp42
 70
     1
102
RTVSPropertyOp43
 70
     1
102
RTVSPropertyOp44
 70
     1
102
RTVSPropertyOp45
 70
     1
102
RTVSPropertyOp46
 70
     1
102
RTVSPropertyOp47
 70
     1
102
RTVSPropertyOp48
 70
     1
102
RTVSPropertyOp49
 70
     1
102
RTVSPropertyOp50
 70
     1
102
RTVSPropertyOp51
 70
     0
102
RTVSPropertyOp52
 70
     0
102
RTVSPropertyOp53
 70
     1
102
RTVSPropertyOp54
 70
     1
102
RTVSPropertyOp55
 70
     1
102
RTVSPropertyOp56
 70
     1
102
RTVSPropertyOp57
 70
     1
102
RTVSPropertyOp58
 70
     1
102
RTVSPropertyOp59
 70
     1
102
RTVSPropertyOp60
 70
     1
102
RTVSPropertyOp61
 70
     1
102
RTVSPropertyOp62
 70
     1
  0
XRECORD
  5
1085
102
{ACAD_REACTORS
330
1084
102
}
330
1084
100
AcDbXrecord
280
     1
102
RTVSPropertyOp28
 70
     1
102
RTVSPropertyOp29
 70
     1
102
RTVSPropertyOp30
 70
     1
102
RTVSPropertyOp31
 70
     1
102
RTVSPropertyOp32
 70
     1
102
RTVSPropertyOp33
 70
     1
102
RTVSPropertyOp34
 70
     1
102
RTVSPropertyOp35
 70
     1
102
RTVSPropertyOp36
 70
     1
102
RTVSPropertyOp37
 70
     1
102
RTVSPropertyOp38
 70
     1
102
RTVSPropertyOp39
 70
     1
102
RTVSPropertyOp40
 70
     1
102
RTVSPropertyOp41
 70
     1
102
RTVSPropertyOp42
 70
     1
102
RTVSPropertyOp43
 70
     1
102
RTVSPropertyOp44
 70
     1
102
RTVSPropertyOp45
 70
     1
102
RTVSPropertyOp46
 70
     1
102
RTVSPropertyOp47
 70
     1
102
RTVSPropertyOp48
 70
     1
102
RTVSPropertyOp49
 70
     1
102
RTVSPropertyOp50
 70
     1
102
RTVSPropertyOp51
 70
     0
102
RTVSPropertyOp52
 70
     0
102
RTVSPropertyOp53
 70
     1
102
RTVSPropertyOp54
 70
     1
102
RTVSPropertyOp55
 70
     1
102
RTVSPropertyOp56
 70
     1
102
RTVSPropertyOp57
 70
     1
102
RTVSPropertyOp58
 70
     1
102
RTVSPropertyOp59
 70
     1
102
RTVSPropertyOp60
 70
     1
102
RTVSPropertyOp61
 70
     1
102
RTVSPropertyOp62
 70
     1
  0
XRECORD
  5
1069
102
{ACAD_REACTORS
330
1068
102
}
330
1068
100
AcDbXrecord
280
     1
102
RTVSPropertyOp28
 70
     1
102
RTVSPropertyOp29
 70
     1
102
RTVSPropertyOp30
 70
     1
102
RTVSPropertyOp31
 70
     1
102
RTVSPropertyOp32
 70
     1
102
RTVSPropertyOp33
 70
     1
102
RTVSPropertyOp34
 70
     1
102
RTVSPropertyOp35
 70
     1
102
RTVSPropertyOp36
 70
     1
102
RTVSPropertyOp37
 70
     1
102
RTVSPropertyOp38
 70
     1
102
RTVSPropertyOp39
 70
     1
102
RTVSPropertyOp40
 70
     1
102
RTVSPropertyOp41
 70
     1
102
RTVSPropertyOp42
 70
     1
102
RTVSPropertyOp43
 70
     1
102
RTVSPropertyOp44
 70
     1
102
RTVSPropertyOp45
 70
     1
102
RTVSPropertyOp46
 70
     1
102
RTVSPropertyOp47
 70
     1
102
RTVSPropertyOp48
 70
     1
102
RTVSPropertyOp49
 70
     1
102
RTVSPropertyOp50
 70
     1
102
RTVSPropertyOp51
 70
     0
102
RTVSPropertyOp52
 70
     0
102
RTVSPropertyOp53
 70
     1
102
RTVSPropertyOp54
 70
     1
102
RTVSPropertyOp55
 70
     1
102
RTVSPropertyOp56
 70
     1
102
RTVSPropertyOp57
 70
     1
102
RTVSPropertyOp58
 70
     1
102
RTVSPropertyOp59
 70
     1
102
RTVSPropertyOp60
 70
     1
102
RTVSPropertyOp61
 70
     1
102
RTVSPropertyOp62
 70
     1
  0
XRECORD
  5
106B
102
{ACAD_REACTORS
330
106A
102
}
330
106A
100
AcDbXrecord
280
     1
102
RTVSPropertyOp28
 70
     1
102
RTVSPropertyOp29
 70
     1
102
RTVSPropertyOp30
 70
     1
102
RTVSPropertyOp31
 70
     1
102
RTVSPropertyOp32
 70
     1
102
RTVSPropertyOp33
 70
     1
102
RTVSPropertyOp34
 70
     1
102
RTVSPropertyOp35
 70
     1
102
RTVSPropertyOp36
 70
     1
102
RTVSPropertyOp37
 70
     1
102
RTVSPropertyOp38
 70
     1
102
RTVSPropertyOp39
 70
     1
102
RTVSPropertyOp40
 70
     1
102
RTVSPropertyOp41
 70
     1
102
RTVSPropertyOp42
 70
     1
102
RTVSPropertyOp43
 70
     1
102
RTVSPropertyOp44
 70
     1
102
RTVSPropertyOp45
 70
     1
102
RTVSPropertyOp46
 70
     1
102
RTVSPropertyOp47
 70
     1
102
RTVSPropertyOp48
 70
     1
102
RTVSPropertyOp49
 70
     1
102
RTVSPropertyOp50
 70
     1
102
RTVSPropertyOp51
 70
     0
102
RTVSPropertyOp52
 70
     0
102
RTVSPropertyOp53
 70
     1
102
RTVSPropertyOp54
 70
     1
102
RTVSPropertyOp55
 70
     1
102
RTVSPropertyOp56
 70
     1
102
RTVSPropertyOp57
 70
     1
102
RTVSPropertyOp58
 70
     1
102
RTVSPropertyOp59
 70
     1
102
RTVSPropertyOp60
 70
     1
102
RTVSPropertyOp61
 70
     1
102
RTVSPropertyOp62
 70
     1
  0
XRECORD
  5
106D
102
{ACAD_REACTORS
330
106C
102
}
330
106C
100
AcDbXrecord
280
     1
102
RTVSPropertyOp28
 70
     1
102
RTVSPropertyOp29
 70
     1
102
RTVSPropertyOp30
 70
     1
102
RTVSPropertyOp31
 70
     1
102
RTVSPropertyOp32
 70
     1
102
RTVSPropertyOp33
 70
     1
102
RTVSPropertyOp34
 70
     1
102
RTVSPropertyOp35
 70
     1
102
RTVSPropertyOp36
 70
     1
102
RTVSPropertyOp37
 70
     1
102
RTVSPropertyOp38
 70
     1
102
RTVSPropertyOp39
 70
     1
102
RTVSPropertyOp40
 70
     1
102
RTVSPropertyOp41
 70
     1
102
RTVSPropertyOp42
 70
     1
102
RTVSPropertyOp43
 70
     1
102
RTVSPropertyOp44
 70
     1
102
RTVSPropertyOp45
 70
     1
102
RTVSPropertyOp46
 70
     1
102
RTVSPropertyOp47
 70
     1
102
RTVSPropertyOp48
 70
     1
102
RTVSPropertyOp49
 70
     1
102
RTVSPropertyOp50
 70
     1
102
RTVSPropertyOp51
 70
     0
102
RTVSPropertyOp52
 70
     0
102
RTVSPropertyOp53
 70
     1
102
RTVSPropertyOp54
 70
     1
102
RTVSPropertyOp55
 70
     1
102
RTVSPropertyOp56
 70
     1
102
RTVSPropertyOp57
 70
     1
102
RTVSPropertyOp58
 70
     1
102
RTVSPropertyOp59
 70
     1
102
RTVSPropertyOp60
 70
     1
102
RTVSPropertyOp61
 70
     1
102
RTVSPropertyOp62
 70
     1
  0
XRECORD
  5
106F
102
{ACAD_REACTORS
330
106E
102
}
330
106E
100
AcDbXrecord
280
     1
102
RTVSPropertyOp28
 70
     1
102
RTVSPropertyOp29
 70
     1
102
RTVSPropertyOp30
 70
     1
102
RTVSPropertyOp31
 70
     1
102
RTVSPropertyOp32
 70
     1
102
RTVSPropertyOp33
 70
     1
102
RTVSPropertyOp34
 70
     1
102
RTVSPropertyOp35
 70
     1
102
RTVSPropertyOp36
 70
     1
102
RTVSPropertyOp37
 70
     1
102
RTVSPropertyOp38
 70
     1
102
RTVSPropertyOp39
 70
     1
102
RTVSPropertyOp40
 70
     1
102
RTVSPropertyOp41
 70
     1
102
RTVSPropertyOp42
 70
     1
102
RTVSPropertyOp43
 70
     1
102
RTVSPropertyOp44
 70
     1
102
RTVSPropertyOp45
 70
     1
102
RTVSPropertyOp46
 70
     1
102
RTVSPropertyOp47
 70
     1
102
RTVSPropertyOp48
 70
     1
102
RTVSPropertyOp49
 70
     1
102
RTVSPropertyOp50
 70
     1
102
RTVSPropertyOp51
 70
     0
102
RTVSPropertyOp52
 70
     0
102
RTVSPropertyOp53
 70
     1
102
RTVSPropertyOp54
 70
     1
102
RTVSPropertyOp55
 70
     1
102
RTVSPropertyOp56
 70
     1
102
RTVSPropertyOp57
 70
     1
102
RTVSPropertyOp58
 70
     1
102
RTVSPropertyOp59
 70
     1
102
RTVSPropertyOp60
 70
     1
102
RTVSPropertyOp61
 70
     1
102
RTVSPropertyOp62
 70
     1
  0
XRECORD
  5
1077
102
{ACAD_REACTORS
330
1076
102
}
330
1076
100
AcDbXrecord
280
     1
102
RTVSPropertyOp28
 70
     1
102
RTVSPropertyOp29
 70
     1
102
RTVSPropertyOp30
 70
     1
102
RTVSPropertyOp31
 70
     1
102
RTVSPropertyOp32
 70
     1
102
RTVSPropertyOp33
 70
     1
102
RTVSPropertyOp34
 70
     1
102
RTVSPropertyOp35
 70
     1
102
RTVSPropertyOp36
 70
     1
102
RTVSPropertyOp37
 70
     1
102
RTVSPropertyOp38
 70
     1
102
RTVSPropertyOp39
 70
     1
102
RTVSPropertyOp40
 70
     1
102
RTVSPropertyOp41
 70
     1
102
RTVSPropertyOp42
 70
     1
102
RTVSPropertyOp43
 70
     1
102
RTVSPropertyOp44
 70
     1
102
RTVSPropertyOp45
 70
     1
102
RTVSPropertyOp46
 70
     1
102
RTVSPropertyOp47
 70
     1
102
RTVSPropertyOp48
 70
     1
102
RTVSPropertyOp49
 70
     1
102
RTVSPropertyOp50
 70
     1
102
RTVSPropertyOp51
 70
     0
102
RTVSPropertyOp52
 70
     0
102
RTVSPropertyOp53
 70
     1
102
RTVSPropertyOp54
 70
     1
102
RTVSPropertyOp55
 70
     1
102
RTVSPropertyOp56
 70
     1
102
RTVSPropertyOp57
 70
     1
102
RTVSPropertyOp58
 70
     1
102
RTVSPropertyOp59
 70
     1
102
RTVSPropertyOp60
 70
     1
102
RTVSPropertyOp61
 70
     1
102
RTVSPropertyOp62
 70
     1
  0
XRECORD
  5
1089
102
{ACAD_REACTORS
330
1088
102
}
330
1088
100
AcDbXrecord
280
     1
102
RTVSPropertyOp28
 70
     1
102
RTVSPropertyOp29
 70
     1
102
RTVSPropertyOp30
 70
     1
102
RTVSPropertyOp31
 70
     1
102
RTVSPropertyOp32
 70
     1
102
RTVSPropertyOp33
 70
     1
102
RTVSPropertyOp34
 70
     1
102
RTVSPropertyOp35
 70
     1
102
RTVSPropertyOp36
 70
     1
102
RTVSPropertyOp37
 70
     1
102
RTVSPropertyOp38
 70
     1
102
RTVSPropertyOp39
 70
     1
102
RTVSPropertyOp40
 70
     1
102
RTVSPropertyOp41
 70
     1
102
RTVSPropertyOp42
 70
     1
102
RTVSPropertyOp43
 70
     1
102
RTVSPropertyOp44
 70
     1
102
RTVSPropertyOp45
 70
     1
102
RTVSPropertyOp46
 70
     1
102
RTVSPropertyOp47
 70
     1
102
RTVSPropertyOp48
 70
     1
102
RTVSPropertyOp49
 70
     1
102
RTVSPropertyOp50
 70
     1
102
RTVSPropertyOp51
 70
     0
102
RTVSPropertyOp52
 70
     0
102
RTVSPropertyOp53
 70
     1
102
RTVSPropertyOp54
 70
     1
102
RTVSPropertyOp55
 70
     1
102
RTVSPropertyOp56
 70
     1
102
RTVSPropertyOp57
 70
     1
102
RTVSPropertyOp58
 70
     1
102
RTVSPropertyOp59
 70
     1
102
RTVSPropertyOp60
 70
     1
102
RTVSPropertyOp61
 70
     1
102
RTVSPropertyOp62
 70
     1
  0
XRECORD
  5
1083
102
{ACAD_REACTORS
330
1082
102
}
330
1082
100
AcDbXrecord
280
     1
102
RTVSPropertyOp28
 70
     1
102
RTVSPropertyOp29
 70
     1
102
RTVSPropertyOp30
 70
     1
102
RTVSPropertyOp31
 70
     1
102
RTVSPropertyOp32
 70
     1
102
RTVSPropertyOp33
 70
     1
102
RTVSPropertyOp34
 70
     1
102
RTVSPropertyOp35
 70
     1
102
RTVSPropertyOp36
 70
     1
102
RTVSPropertyOp37
 70
     1
102
RTVSPropertyOp38
 70
     1
102
RTVSPropertyOp39
 70
     1
102
RTVSPropertyOp40
 70
     1
102
RTVSPropertyOp41
 70
     1
102
RTVSPropertyOp42
 70
     1
102
RTVSPropertyOp43
 70
     1
102
RTVSPropertyOp44
 70
     1
102
RTVSPropertyOp45
 70
     1
102
RTVSPropertyOp46
 70
     1
102
RTVSPropertyOp47
 70
     1
102
RTVSPropertyOp48
 70
     1
102
RTVSPropertyOp49
 70
     1
102
RTVSPropertyOp50
 70
     1
102
RTVSPropertyOp51
 70
     0
102
RTVSPropertyOp52
 70
     0
102
RTVSPropertyOp53
 70
     1
102
RTVSPropertyOp54
 70
     1
102
RTVSPropertyOp55
 70
     1
102
RTVSPropertyOp56
 70
     1
102
RTVSPropertyOp57
 70
     1
102
RTVSPropertyOp58
 70
     1
102
RTVSPropertyOp59
 70
     1
102
RTVSPropertyOp60
 70
     1
102
RTVSPropertyOp61
 70
     1
102
RTVSPropertyOp62
 70
     1
  0
XRECORD
  5
108B
102
{ACAD_REACTORS
330
108A
102
}
330
108A
100
AcDbXrecord
280
     1
102
RTVSPropertyOp28
 70
     1
102
RTVSPropertyOp29
 70
     1
102
RTVSPropertyOp30
 70
     1
102
RTVSPropertyOp31
 70
     1
102
RTVSPropertyOp32
 70
     1
102
RTVSPropertyOp33
 70
     1
102
RTVSPropertyOp34
 70
     1
102
RTVSPropertyOp35
 70
     1
102
RTVSPropertyOp36
 70
     1
102
RTVSPropertyOp37
 70
     1
102
RTVSPropertyOp38
 70
     1
102
RTVSPropertyOp39
 70
     1
102
RTVSPropertyOp40
 70
     1
102
RTVSPropertyOp41
 70
     1
102
RTVSPropertyOp42
 70
     1
102
RTVSPropertyOp43
 70
     1
102
RTVSPropertyOp44
 70
     1
102
RTVSPropertyOp45
 70
     1
102
RTVSPropertyOp46
 70
     1
102
RTVSPropertyOp47
 70
     1
102
RTVSPropertyOp48
 70
     1
102
RTVSPropertyOp49
 70
     1
102
RTVSPropertyOp50
 70
     1
102
RTVSPropertyOp51
 70
     0
102
RTVSPropertyOp52
 70
     0
102
RTVSPropertyOp53
 70
     1
102
RTVSPropertyOp54
 70
     1
102
RTVSPropertyOp55
 70
     1
102
RTVSPropertyOp56
 70
     1
102
RTVSPropertyOp57
 70
     1
102
RTVSPropertyOp58
 70
     1
102
RTVSPropertyOp59
 70
     1
102
RTVSPropertyOp60
 70
     1
102
RTVSPropertyOp61
 70
     1
102
RTVSPropertyOp62
 70
     1
  0
XRECORD
  5
107B
102
{ACAD_REACTORS
330
107A
102
}
330
107A
100
AcDbXrecord
280
     1
102
RTVSPropertyOp28
 70
     1
102
RTVSPropertyOp29
 70
     1
102
RTVSPropertyOp30
 70
     1
102
RTVSPropertyOp31
 70
     1
102
RTVSPropertyOp32
 70
     1
102
RTVSPropertyOp33
 70
     1
102
RTVSPropertyOp34
 70
     1
102
RTVSPropertyOp35
 70
     1
102
RTVSPropertyOp36
 70
     1
102
RTVSPropertyOp37
 70
     1
102
RTVSPropertyOp38
 70
     1
102
RTVSPropertyOp39
 70
     1
102
RTVSPropertyOp40
 70
     1
102
RTVSPropertyOp41
 70
     1
102
RTVSPropertyOp42
 70
     1
102
RTVSPropertyOp43
 70
     1
102
RTVSPropertyOp44
 70
     1
102
RTVSPropertyOp45
 70
     1
102
RTVSPropertyOp46
 70
     1
102
RTVSPropertyOp47
 70
     1
102
RTVSPropertyOp48
 70
     1
102
RTVSPropertyOp49
 70
     1
102
RTVSPropertyOp50
 70
     1
102
RTVSPropertyOp51
 70
     0
102
RTVSPropertyOp52
 70
     0
102
RTVSPropertyOp53
 70
     1
102
RTVSPropertyOp54
 70
     1
102
RTVSPropertyOp55
 70
     1
102
RTVSPropertyOp56
 70
     1
102
RTVSPropertyOp57
 70
     1
102
RTVSPropertyOp58
 70
     1
102
RTVSPropertyOp59
 70
     1
102
RTVSPropertyOp60
 70
     1
102
RTVSPropertyOp61
 70
     1
102
RTVSPropertyOp62
 70
     1
  0
XRECORD
  5
1097
102
{ACAD_REACTORS
330
1096
102
}
330
1096
100
AcDbXrecord
280
     1
102
RTVSPropertyOp28
 70
     1
102
RTVSPropertyOp29
 70
     1
102
RTVSPropertyOp30
 70
     1
102
RTVSPropertyOp31
 70
     1
102
RTVSPropertyOp32
 70
     1
102
RTVSPropertyOp33
 70
     1
102
RTVSPropertyOp34
 70
     1
102
RTVSPropertyOp35
 70
     1
102
RTVSPropertyOp36
 70
     1
102
RTVSPropertyOp37
 70
     1
102
RTVSPropertyOp38
 70
     1
102
RTVSPropertyOp39
 70
     1
102
RTVSPropertyOp40
 70
     1
102
RTVSPropertyOp41
 70
     1
102
RTVSPropertyOp42
 70
     1
102
RTVSPropertyOp43
 70
     1
102
RTVSPropertyOp44
 70
     1
102
RTVSPropertyOp45
 70
     1
102
RTVSPropertyOp46
 70
     1
102
RTVSPropertyOp47
 70
     1
102
RTVSPropertyOp48
 70
     1
102
RTVSPropertyOp49
 70
     1
102
RTVSPropertyOp50
 70
     1
102
RTVSPropertyOp51
 70
     0
102
RTVSPropertyOp52
 70
     0
102
RTVSPropertyOp53
 70
     1
102
RTVSPropertyOp54
 70
     1
102
RTVSPropertyOp55
 70
     1
102
RTVSPropertyOp56
 70
     1
102
RTVSPropertyOp57
 70
     1
102
RTVSPropertyOp58
 70
     1
102
RTVSPropertyOp59
 70
     1
102
RTVSPropertyOp60
 70
     1
102
RTVSPropertyOp61
 70
     1
102
RTVSPropertyOp62
 70
     1
  0
XRECORD
  5
1095
102
{ACAD_REACTORS
330
1094
102
}
330
1094
100
AcDbXrecord
280
     1
102
RTVSPropertyOp28
 70
     1
102
RTVSPropertyOp29
 70
     1
102
RTVSPropertyOp30
 70
     1
102
RTVSPropertyOp31
 70
     1
102
RTVSPropertyOp32
 70
     1
102
RTVSPropertyOp33
 70
     1
102
RTVSPropertyOp34
 70
     1
102
RTVSPropertyOp35
 70
     1
102
RTVSPropertyOp36
 70
     1
102
RTVSPropertyOp37
 70
     1
102
RTVSPropertyOp38
 70
     1
102
RTVSPropertyOp39
 70
     1
102
RTVSPropertyOp40
 70
     1
102
RTVSPropertyOp41
 70
     1
102
RTVSPropertyOp42
 70
     1
102
RTVSPropertyOp43
 70
     1
102
RTVSPropertyOp44
 70
     1
102
RTVSPropertyOp45
 70
     1
102
RTVSPropertyOp46
 70
     1
102
RTVSPropertyOp47
 70
     1
102
RTVSPropertyOp48
 70
     1
102
RTVSPropertyOp49
 70
     1
102
RTVSPropertyOp50
 70
     1
102
RTVSPropertyOp51
 70
     0
102
RTVSPropertyOp52
 70
     0
102
RTVSPropertyOp53
 70
     1
102
RTVSPropertyOp54
 70
     1
102
RTVSPropertyOp55
 70
     1
102
RTVSPropertyOp56
 70
     1
102
RTVSPropertyOp57
 70
     1
102
RTVSPropertyOp58
 70
     1
102
RTVSPropertyOp59
 70
     1
102
RTVSPropertyOp60
 70
     1
102
RTVSPropertyOp61
 70
     1
102
RTVSPropertyOp62
 70
     1
  0
XRECORD
  5
108F
102
{ACAD_REACTORS
330
108E
102
}
330
108E
100
AcDbXrecord
280
     1
102
RTVSPropertyOp28
 70
     1
102
RTVSPropertyOp29
 70
     1
102
RTVSPropertyOp30
 70
     1
102
RTVSPropertyOp31
 70
     1
102
RTVSPropertyOp32
 70
     1
102
RTVSPropertyOp33
 70
     1
102
RTVSPropertyOp34
 70
     1
102
RTVSPropertyOp35
 70
     1
102
RTVSPropertyOp36
 70
     1
102
RTVSPropertyOp37
 70
     1
102
RTVSPropertyOp38
 70
     1
102
RTVSPropertyOp39
 70
     1
102
RTVSPropertyOp40
 70
     1
102
RTVSPropertyOp41
 70
     1
102
RTVSPropertyOp42
 70
     1
102
RTVSPropertyOp43
 70
     1
102
RTVSPropertyOp44
 70
     1
102
RTVSPropertyOp45
 70
     1
102
RTVSPropertyOp46
 70
     1
102
RTVSPropertyOp47
 70
     1
102
RTVSPropertyOp48
 70
     1
102
RTVSPropertyOp49
 70
     1
102
RTVSPropertyOp50
 70
     1
102
RTVSPropertyOp51
 70
     0
102
RTVSPropertyOp52
 70
     0
102
RTVSPropertyOp53
 70
     1
102
RTVSPropertyOp54
 70
     1
102
RTVSPropertyOp55
 70
     1
102
RTVSPropertyOp56
 70
     1
102
RTVSPropertyOp57
 70
     1
102
RTVSPropertyOp58
 70
     1
102
RTVSPropertyOp59
 70
     1
102
RTVSPropertyOp60
 70
     1
102
RTVSPropertyOp61
 70
     1
102
RTVSPropertyOp62
 70
     1
  0
XRECORD
  5
1091
102
{ACAD_REACTORS
330
1090
102
}
330
1090
100
AcDbXrecord
280
     1
102
RTVSPropertyOp28
 70
     1
102
RTVSPropertyOp29
 70
     1
102
RTVSPropertyOp30
 70
     1
102
RTVSPropertyOp31
 70
     1
102
RTVSPropertyOp32
 70
     1
102
RTVSPropertyOp33
 70
     1
102
RTVSPropertyOp34
 70
     1
102
RTVSPropertyOp35
 70
     1
102
RTVSPropertyOp36
 70
     1
102
RTVSPropertyOp37
 70
     1
102
RTVSPropertyOp38
 70
     1
102
RTVSPropertyOp39
 70
     1
102
RTVSPropertyOp40
 70
     1
102
RTVSPropertyOp41
 70
     1
102
RTVSPropertyOp42
 70
     1
102
RTVSPropertyOp43
 70
     1
102
RTVSPropertyOp44
 70
     1
102
RTVSPropertyOp45
 70
     1
102
RTVSPropertyOp46
 70
     1
102
RTVSPropertyOp47
 70
     1
102
RTVSPropertyOp48
 70
     1
102
RTVSPropertyOp49
 70
     1
102
RTVSPropertyOp50
 70
     1
102
RTVSPropertyOp51
 70
     0
102
RTVSPropertyOp52
 70
     0
102
RTVSPropertyOp53
 70
     1
102
RTVSPropertyOp54
 70
     1
102
RTVSPropertyOp55
 70
     1
102
RTVSPropertyOp56
 70
     1
102
RTVSPropertyOp57
 70
     1
102
RTVSPropertyOp58
 70
     1
102
RTVSPropertyOp59
 70
     1
102
RTVSPropertyOp60
 70
     1
102
RTVSPropertyOp61
 70
     1
102
RTVSPropertyOp62
 70
     1
  0
XRECORD
  5
1081
102
{ACAD_REACTORS
330
1080
102
}
330
1080
100
AcDbXrecord
280
     1
102
RTVSPropertyOp28
 70
     1
102
RTVSPropertyOp29
 70
     1
102
RTVSPropertyOp30
 70
     1
102
RTVSPropertyOp31
 70
     1
102
RTVSPropertyOp32
 70
     1
102
RTVSPropertyOp33
 70
     1
102
RTVSPropertyOp34
 70
     1
102
RTVSPropertyOp35
 70
     1
102
RTVSPropertyOp36
 70
     1
102
RTVSPropertyOp37
 70
     1
102
RTVSPropertyOp38
 70
     1
102
RTVSPropertyOp39
 70
     1
102
RTVSPropertyOp40
 70
     1
102
RTVSPropertyOp41
 70
     1
102
RTVSPropertyOp42
 70
     1
102
RTVSPropertyOp43
 70
     1
102
RTVSPropertyOp44
 70
     1
102
RTVSPropertyOp45
 70
     1
102
RTVSPropertyOp46
 70
     1
102
RTVSPropertyOp47
 70
     1
102
RTVSPropertyOp48
 70
     1
102
RTVSPropertyOp49
 70
     1
102
RTVSPropertyOp50
 70
     1
102
RTVSPropertyOp51
 70
     0
102
RTVSPropertyOp52
 70
     0
102
RTVSPropertyOp53
 70
     1
102
RTVSPropertyOp54
 70
     1
102
RTVSPropertyOp55
 70
     1
102
RTVSPropertyOp56
 70
     1
102
RTVSPropertyOp57
 70
     1
102
RTVSPropertyOp58
 70
     1
102
RTVSPropertyOp59
 70
     1
102
RTVSPropertyOp60
 70
     1
102
RTVSPropertyOp61
 70
     1
102
RTVSPropertyOp62
 70
     1
  0
XRECORD
  5
1075
102
{ACAD_REACTORS
330
1074
102
}
330
1074
100
AcDbXrecord
280
     1
102
RTVSPropertyOp28
 70
     1
102
RTVSPropertyOp29
 70
     1
102
RTVSPropertyOp30
 70
     1
102
RTVSPropertyOp31
 70
     1
102
RTVSPropertyOp32
 70
     1
102
RTVSPropertyOp33
 70
     1
102
RTVSPropertyOp34
 70
     1
102
RTVSPropertyOp35
 70
     1
102
RTVSPropertyOp36
 70
     1
102
RTVSPropertyOp37
 70
     1
102
RTVSPropertyOp38
 70
     1
102
RTVSPropertyOp39
 70
     1
102
RTVSPropertyOp40
 70
     1
102
RTVSPropertyOp41
 70
     1
102
RTVSPropertyOp42
 70
     1
102
RTVSPropertyOp43
 70
     1
102
RTVSPropertyOp44
 70
     1
102
RTVSPropertyOp45
 70
     1
102
RTVSPropertyOp46
 70
     1
102
RTVSPropertyOp47
 70
     1
102
RTVSPropertyOp48
 70
     1
102
RTVSPropertyOp49
 70
     1
102
RTVSPropertyOp50
 70
     1
102
RTVSPropertyOp51
 70
     0
102
RTVSPropertyOp52
 70
     0
102
RTVSPropertyOp53
 70
     1
102
RTVSPropertyOp54
 70
     1
102
RTVSPropertyOp55
 70
     1
102
RTVSPropertyOp56
 70
     1
102
RTVSPropertyOp57
 70
     1
102
RTVSPropertyOp58
 70
     1
102
RTVSPropertyOp59
 70
     1
102
RTVSPropertyOp60
 70
     1
102
RTVSPropertyOp61
 70
     1
102
RTVSPropertyOp62
 70
     1
  0
XRECORD
  5
1093
102
{ACAD_REACTORS
330
1092
102
}
330
1092
100
AcDbXrecord
280
     1
102
RTVSPropertyOp28
 70
     1
102
RTVSPropertyOp29
 70
     1
102
RTVSPropertyOp30
 70
     1
102
RTVSPropertyOp31
 70
     1
102
RTVSPropertyOp32
 70
     1
102
RTVSPropertyOp33
 70
     1
102
RTVSPropertyOp34
 70
     1
102
RTVSPropertyOp35
 70
     1
102
RTVSPropertyOp36
 70
     1
102
RTVSPropertyOp37
 70
     1
102
RTVSPropertyOp38
 70
     1
102
RTVSPropertyOp39
 70
     1
102
RTVSPropertyOp40
 70
     1
102
RTVSPropertyOp41
 70
     1
102
RTVSPropertyOp42
 70
     1
102
RTVSPropertyOp43
 70
     1
102
RTVSPropertyOp44
 70
     1
102
RTVSPropertyOp45
 70
     1
102
RTVSPropertyOp46
 70
     1
102
RTVSPropertyOp47
 70
     1
102
RTVSPropertyOp48
 70
     1
102
RTVSPropertyOp49
 70
     1
102
RTVSPropertyOp50
 70
     1
102
RTVSPropertyOp51
 70
     0
102
RTVSPropertyOp52
 70
     0
102
RTVSPropertyOp53
 70
     1
102
RTVSPropertyOp54
 70
     1
102
RTVSPropertyOp55
 70
     1
102
RTVSPropertyOp56
 70
     1
102
RTVSPropertyOp57
 70
     1
102
RTVSPropertyOp58
 70
     1
102
RTVSPropertyOp59
 70
     1
102
RTVSPropertyOp60
 70
     1
102
RTVSPropertyOp61
 70
     1
102
RTVSPropertyOp62
 70
     1
  0
ENDSEC
  0
SECTION
  2
ACDSDATA
 70
     2
 71
     8
  0
ACDSSCHEMA
 90
        0
  1
AcDb_Thumbnail_Schema
  2
AcDbDs::ID
280
    10
 91
        8
  2
Thumbnail_Data
280
    15
 91
        0
101
ACDSRECORD
 95
        0
 90
        1
  2
AcDbDs::TreatedAsObjectData
280
     1
291
     1
101
ACDSRECORD
 95
        0
 90
        2
  2
AcDbDs::Legacy
280
     1
291
     1
101
ACDSRECORD
  1
AcDbDs::ID
 90
        3
  2
AcDs:Indexable
280
     1
291
     1
101
ACDSRECORD
  1
AcDbDs::ID
 90
        4
  2
AcDbDs::HandleAttribute
280
     7
282
     1
  0
ACDSSCHEMA
 90
        1
  1
AcDbDs::TreatedAsObjectDataSchema
  2
AcDbDs::TreatedAsObjectData
280
     1
 91
        0
  0
ACDSSCHEMA
 90
        2
  1
AcDbDs::LegacySchema
  2
AcDbDs::Legacy
280
     1
 91
        0
  0
ACDSSCHEMA
 90
        3
  1
AcDbDs::IndexedPropertySchema
  2
AcDs:Indexable
280
     1
 91
        0
  0
ACDSSCHEMA
 90
        4
  1
AcDbDs::HandleAttributeSchema
  2
AcDbDs::HandleAttribute
280
     7
 91
        1
284
     1
  0
ACDSRECORD
 90
        0
  2
AcDbDs::ID
280
    10
320
22
  2
Thumbnail_Data
280
    15
 94
     1118
310
89504E470D0A1A0A0000000D4948445200000100000000770803000000DBFC6E9900000300504C5445212830FFFFFF2128300000000000000000000000000000000000000000000000000000330000660000990000CC0000FF0033000033330033660033990033CC0033FF0066000066330066660066990066CC0066FF0099
310
000099330099660099990099CC0099FF00CC0000CC3300CC6600CC9900CCCC00CCFF00FF0000FF3300FF6600FF9900FFCC00FFFF3300003300333300663300993300CC3300FF3333003333333333663333993333CC3333FF3366003366333366663366993366CC3366FF3399003399333399663399993399CC3399FF33CC00
310
33CC3333CC6633CC9933CCCC33CCFF33FF0033FF3333FF6633FF9933FFCC33FFFF6600006600336600666600996600CC6600FF6633006633336633666633996633CC6633FF6666006666336666666666996666CC6666FF6699006699336699666699996699CC6699FF66CC0066CC3366CC6666CC9966CCCC66CCFF66FF0066
310
FF3366FF6666FF9966FFCC66FFFF9900009900339900669900999900CC9900FF9933009933339933669933999933CC9933FF9966009966339966669966999966CC9966FF9999009999339999669999999999CC9999FF99CC0099CC3399CC6699CC9999CCCC99CCFF99FF0099FF3399FF6699FF9999FFCC99FFFFCC0000CC00
310
33CC0066CC0099CC00CCCC00FFCC3300CC3333CC3366CC3399CC33CCCC33FFCC6600CC6633CC6666CC6699CC66CCCC66FFCC9900CC9933CC9966CC9999CC99CCCC99FFCCCC00CCCC33CCCC66CCCC99CCCCCCCCCCFFCCFF00CCFF33CCFF66CCFF99CCFFCCCCFFFFFF0000FF0033FF0066FF0099FF00CCFF00FFFF3300FF3333
310
FF3366FF3399FF33CCFF33FFFF6600FF6633FF6666FF6699FF66CCFF66FFFF9900FF9933FF9966FF9999FF99CCFF99FFFFCC00FFCC33FFCC66FFCC99FFCCCCFFCCFFFFFF00FFFF33FFFF66FFFF99FFFFCCFFFFFF0000000D0D0D1A1A1A2828283535354343435050505D5D5D6B6B6B787878868686939393A1A1A1AEAEAEBB
310
BBBBC9C9C9D6D6D6E4E4E4F1F1F1FFFFFF0000000000000000000000000000000000000000000000000000000000002E4550F1000000AC4944415478DAEDD94B0A02311400C1DCFFBED9AB20F899A8088290AEDAE96EDABC4C246300000000000000000000F0C6BC1000C22320005E835702407B047E66E75AF9E5521F988D
310
F70001A201BE1B7801EA3B9E00027C3E490A600404D836C08C1D04565FCC7080599B82B9FED8F94BFC22C0102014E07EB9DF02340A9C1FF3F1496B2BE0F0CECB05783ED7E76E90F2376573B92F90F9FD8FC3DEBA4116A01E000000000000000000E0CF4E58D8159A0F041FB80000000049454E44AE42608282F4584513BF03
310
DE0F7026D182BB40D2E1F132EF2E709407CFFA6CDA707AF52F5FCCABE5349C8F472C7E1D20C03F0780BDB780E22B26A746E4CD1102082000A357C0378F7A132F000104D83C00000000000000000000C060176E2ECFF0F502E6BE0000000049454E44AE426082
  0
ENDSEC
  0
EOF
