  0
SECTION
  2
HEADER
  9
$ACADVER
  1
AC1032
  9
$ACADMAINTVER
 90
        4
  9
$DWGCODEPAGE
  3
ANSI_1252
  9
$LASTSAVEDBY
  1
jesse.cowley
  9
$REQUIREDVERSIONS
160
                 0
  9
$INSBASE
 10
0.0
 20
0.0
 30
0.0
  9
$EXTMIN
 10
-2645.594278065027
 20
-2417.973882080131
 30
0.0
  9
$EXTMAX
 10
11074.21307892823
 20
2512.415255316188
 30
0.0
  9
$LIMMIN
 10
0.0
 20
0.0
  9
$LIMMAX
 10
12.0
 20
9.0
  9
$ORTHOMODE
 70
     0
  9
$REGENMODE
 70
     1
  9
$FILLMODE
 70
     1
  9
$QTEXTMODE
 70
     0
  9
$MIRRTEXT
 70
     1
  9
$LTSCALE
 40
1.0
  9
$ATTMODE
 70
     1
  9
$TEXTSIZE
 40
0.2
  9
$TRACEWID
 40
0.05
  9
$TEXTSTYLE
  7
Standard
  9
$CLAYER
  8
0
  9
$CELTYPE
  6
ByLayer
  9
$CECOLOR
 62
   256
  9
$CELTSCALE
 40
1.0
  9
$DISPSILH
 70
     0
  9
$DIMSCALE
 40
1.0
  9
$DIMASZ
 40
0.18
  9
$DIMEXO
 40
0.0625
  9
$DIMDLI
 40
0.38
  9
$DIMRND
 40
0.0
  9
$DIMDLE
 40
0.0
  9
$DIMEXE
 40
0.18
  9
$DIMTP
 40
0.0
  9
$DIMTM
 40
0.0
  9
$DIMTXT
 40
0.18
  9
$DIMCEN
 40
0.09
  9
$DIMTSZ
 40
0.0
  9
$DIMTOL
 70
     0
  9
$DIMLIM
 70
     0
  9
$DIMTIH
 70
     1
  9
$DIMTOH
 70
     1
  9
$DIMSE1
 70
     0
  9
$DIMSE2
 70
     0
  9
$DIMTAD
 70
     0
  9
$DIMZIN
 70
     0
  9
$DIMBLK
  1

  9
$DIMASO
 70
     1
  9
$DIMSHO
 70
     1
  9
$DIMPOST
  1

  9
$DIMAPOST
  1

  9
$DIMALT
 70
     0
  9
$DIMALTD
 70
     2
  9
$DIMALTF
 40
25.4
  9
$DIMLFAC
 40
1.0
  9
$DIMTOFL
 70
     0
  9
$DIMTVP
 40
0.0
  9
$DIMTIX
 70
     0
  9
$DIMSOXD
 70
     0
  9
$DIMSAH
 70
     0
  9
$DIMBLK1
  1

  9
$DIMBLK2
  1

  9
$DIMSTYLE
  2
Standard
  9
$DIMCLRD
 70
     0
  9
$DIMCLRE
 70
     0
  9
$DIMCLRT
 70
     0
  9
$DIMTFAC
 40
1.0
  9
$DIMGAP
 40
0.09
  9
$DIMJUST
 70
     0
  9
$DIMSD1
 70
     0
  9
$DIMSD2
 70
     0
  9
$DIMTOLJ
 70
     1
  9
$DIMTZIN
 70
     0
  9
$DIMALTZ
 70
     0
  9
$DIMALTTZ
 70
     0
  9
$DIMUPT
 70
     0
  9
$DIMDEC
 70
     4
  9
$DIMTDEC
 70
     4
  9
$DIMALTU
 70
     2
  9
$DIMALTTD
 70
     2
  9
$DIMTXSTY
  7
Standard
  9
$DIMAUNIT
 70
     0
  9
$DIMADEC
 70
     0
  9
$DIMALTRND
 40
0.0
  9
$DIMAZIN
 70
     0
  9
$DIMDSEP
 70
    46
  9
$DIMATFIT
 70
     3
  9
$DIMFRAC
 70
     0
  9
$DIMLDRBLK
  1

  9
$DIMLUNIT
 70
     2
  9
$DIMLWD
 70
    -2
  9
$DIMLWE
 70
    -2
  9
$DIMTMOVE
 70
     0
  9
$DIMFXL
 40
1.0
  9
$DIMFXLON
 70
     0
  9
$DIMJOGANG
 40
0.7853981633974483
  9
$DIMTFILL
 70
     0
  9
$DIMTFILLCLR
 70
     0
  9
$DIMARCSYM
 70
     0
  9
$DIMLTYPE
  6

  9
$DIMLTEX1
  6

  9
$DIMLTEX2
  6

  9
$DIMTXTDIRECTION
 70
     0
  9
$LUNITS
 70
     2
  9
$LUPREC
 70
     4
  9
$SKETCHINC
 40
0.1
  9
$FILLETRAD
 40
0.5
  9
$AUNITS
 70
     0
  9
$AUPREC
 70
     0
  9
$MENU
  1
.
  9
$ELEVATION
 40
0.0
  9
$PELEVATION
 40
0.0
  9
$THICKNESS
 40
0.0
  9
$LIMCHECK
 70
     0
  9
$CHAMFERA
 40
0.5
  9
$CHAMFERB
 40
0.5
  9
$CHAMFERC
 40
1.0
  9
$CHAMFERD
 40
0.0
  9
$SKPOLY
 70
     0
  9
$TDCREATE
 40
2456463.656504630
  9
$TDUCREATE
 40
2456463.239844283
  9
$TDUPDATE
 40
2458444.454861111
  9
$TDUUPDATE
 40
2458443.996527778
  9
$TDINDWG
 40
0.0103739699
  9
$TDUSRTIMER
 40
0.0103739699
  9
$USRTIMER
 70
     1
  9
$ANGBASE
 50
0.0
  9
$ANGDIR
 70
     0
  9
$PDMODE
 70
     0
  9
$PDSIZE
 40
0.0
  9
$PLINEWID
 40
0.0
  9
$SPLFRAME
 70
     0
  9
$SPLINETYPE
 70
     6
  9
$SPLINESEGS
 70
     8
  9
$HANDSEED
  5
7A7
  9
$SURFTAB1
 70
     6
  9
$SURFTAB2
 70
     6
  9
$SURFTYPE
 70
     6
  9
$SURFU
 70
     6
  9
$SURFV
 70
     6
  9
$UCSBASE
  2

  9
$UCSNAME
  2

  9
$UCSORG
 10
0.0
 20
0.0
 30
0.0
  9
$UCSXDIR
 10
1.0
 20
0.0
 30
0.0
  9
$UCSYDIR
 10
0.0
 20
1.0
 30
0.0
  9
$UCSORTHOREF
  2

  9
$UCSORTHOVIEW
 70
     0
  9
$UCSORGTOP
 10
0.0
 20
0.0
 30
0.0
  9
$UCSORGBOTTOM
 10
0.0
 20
0.0
 30
0.0
  9
$UCSORGLEFT
 10
0.0
 20
0.0
 30
0.0
  9
$UCSORGRIGHT
 10
0.0
 20
0.0
 30
0.0
  9
$UCSORGFRONT
 10
0.0
 20
0.0
 30
0.0
  9
$UCSORGBACK
 10
0.0
 20
0.0
 30
0.0
  9
$PUCSBASE
  2

  9
$PUCSNAME
  2

  9
$PUCSORG
 10
0.0
 20
0.0
 30
0.0
  9
$PUCSXDIR
 10
1.0
 20
0.0
 30
0.0
  9
$PUCSYDIR
 10
0.0
 20
1.0
 30
0.0
  9
$PUCSORTHOREF
  2

  9
$PUCSORTHOVIEW
 70
     0
  9
$PUCSORGTOP
 10
0.0
 20
0.0
 30
0.0
  9
$PUCSORGBOTTOM
 10
0.0
 20
0.0
 30
0.0
  9
$PUCSORGLEFT
 10
0.0
 20
0.0
 30
0.0
  9
$PUCSORGRIGHT
 10
0.0
 20
0.0
 30
0.0
  9
$PUCSORGFRONT
 10
0.0
 20
0.0
 30
0.0
  9
$PUCSORGBACK
 10
0.0
 20
0.0
 30
0.0
  9
$USERI1
 70
     0
  9
$USERI2
 70
     0
  9
$USERI3
 70
     0
  9
$USERI4
 70
     0
  9
$USERI5
 70
     0
  9
$USERR1
 40
0.0
  9
$USERR2
 40
0.0
  9
$USERR3
 40
0.0
  9
$USERR4
 40
0.0
  9
$USERR5
 40
0.0
  9
$WORLDVIEW
 70
     1
  9
$SHADEDGE
 70
     3
  9
$SHADEDIF
 70
    70
  9
$TILEMODE
 70
     1
  9
$MAXACTVP
 70
    64
  9
$PINSBASE
 10
0.0
 20
0.0
 30
0.0
  9
$PLIMCHECK
 70
     0
  9
$PEXTMIN
 10
1.000000000000000E+20
 20
1.000000000000000E+20
 30
1.000000000000000E+20
  9
$PEXTMAX
 10
-1.000000000000000E+20
 20
-1.000000000000000E+20
 30
-1.000000000000000E+20
  9
$PLIMMIN
 10
0.0
 20
0.0
  9
$PLIMMAX
 10
12.0
 20
9.0
  9
$UNITMODE
 70
     0
  9
$VISRETAIN
 70
     1
  9
$PLINEGEN
 70
     0
  9
$PSLTSCALE
 70
     1
  9
$TREEDEPTH
 70
  3020
  9
$CMLSTYLE
  2
Standard
  9
$CMLJUST
 70
     0
  9
$CMLSCALE
 40
1.0
  9
$PROXYGRAPHICS
 70
     1
  9
$MEASUREMENT
 70
     0
  9
$CELWEIGHT
370
    -1
  9
$ENDCAPS
280
     0
  9
$JOINSTYLE
280
     0
  9
$LWDISPLAY
290
     1
  9
$INSUNITS
 70
     1
  9
$HYPERLINKBASE
  1

  9
$STYLESHEET
  1

  9
$XEDIT
290
     1
  9
$CEPSNTYPE
380
     0
  9
$PSTYLEMODE
290
     1
  9
$FINGERPRINTGUID
  2
{7655C409-EACD-403C-ADFF-20378CD25D2E}
  9
$VERSIONGUID
  2
{0AB06E66-346D-9D47-ADDC-EFDAD5716374}
  9
$EXTNAMES
290
     1
  9
$PSVPSCALE
 40
0.0
  9
$OLESTARTUP
290
     0
  9
$SORTENTS
280
   127
  9
$INDEXCTL
280
     0
  9
$HIDETEXT
280
     1
  9
$XCLIPFRAME
280
     0
  9
$HALOGAP
280
     0
  9
$OBSCOLOR
 70
   257
  9
$OBSLTYPE
280
     0
  9
$INTERSECTIONDISPLAY
280
     0
  9
$INTERSECTIONCOLOR
 70
   257
  9
$DIMASSOC
280
     2
  9
$PROJECTNAME
  1

  9
$CAMERADISPLAY
290
     0
  9
$LENSLENGTH
 40
50.0
  9
$CAMERAHEIGHT
 40
0.0
  9
$STEPSPERSEC
 40
2.0
  9
$STEPSIZE
 40
6.0
  9
$3DDWFPREC
 40
2.0
  9
$PSOLWIDTH
 40
0.25
  9
$PSOLHEIGHT
 40
4.0
  9
$LOFTANG1
 40
1.570796326794896
  9
$LOFTANG2
 40
1.570796326794896
  9
$LOFTMAG1
 40
0.0
  9
$LOFTMAG2
 40
0.0
  9
$LOFTPARAM
 70
     7
  9
$LOFTNORMALS
280
     1
  9
$LATITUDE
 40
37.795
  9
$LONGITUDE
 40
-122.394
  9
$NORTHDIRECTION
 40
0.0
  9
$TIMEZONE
 70
 -8000
  9
$LIGHTGLYPHDISPLAY
280
     1
  9
$TILEMODELIGHTSYNCH
280
     1
  9
$CMATERIAL
347
25F
  9
$SOLIDHIST
280
     1
  9
$SHOWHIST
280
     1
  9
$DWFFRAME
280
     2
  9
$DGNFRAME
280
     0
  9
$REALWORLDSCALE
290
     1
  9
$INTERFERECOLOR
 62
     1
  9
$INTERFEREOBJVS
345
33
  9
$INTERFEREVPVS
346
389
  9
$CSHADOW
280
     0
  9
$SHADOWPLANELOCATION
 40
0.0
  0
ENDSEC
  0
SECTION
  2
CLASSES
  0
CLASS
  1
ACDBDICTIONARYWDFLT
  2
AcDbDictionaryWithDefault
  3
ObjectDBX Classes
 90
        0
 91
        1
280
     0
281
     0
  0
CLASS
  1
VISUALSTYLE
  2
AcDbVisualStyle
  3
ObjectDBX Classes
 90
     4095
 91
       26
280
     0
281
     0
  0
CLASS
  1
MATERIAL
  2
AcDbMaterial
  3
ObjectDBX Classes
 90
     1153
 91
        3
280
     0
281
     0
  0
CLASS
  1
TABLESTYLE
  2
AcDbTableStyle
  3
ObjectDBX Classes
 90
     4095
 91
        1
280
     0
281
     0
  0
CLASS
  1
SCALE
  2
AcDbScale
  3
ObjectDBX Classes
 90
     1153
 91
       33
280
     0
281
     0
  0
CLASS
  1
MLEADERSTYLE
  2
AcDbMLeaderStyle
  3
ACDB_MLEADERSTYLE_CLASS
 90
     4095
 91
        1
280
     0
281
     0
  0
CLASS
  1
ACME_DOCUMENT
  2
AcMeDbDoc
  3
AcMeServices
 90
     1024
 91
        0
280
     0
281
     0
  0
CLASS
  1
AMGSETTINGSOBJ
  2
AmgSettingsObj
  3
"AcadM|Product Description: AutoCAD Mechanical|Company: Autodesk, Inc."
 90
     1024
 91
        2
280
     0
281
     0
  0
CLASS
  1
ACMESCOPE
  2
AcMeScope
  3
AcMeServices
 90
     1024
 91
        1
280
     0
281
     0
  0
CLASS
  1
ACMECOMMANDHISTORY
  2
AcMeCommandHistory
  3
AcMeServices
 90
     1024
 91
        1
280
     0
281
     0
  0
CLASS
  1
ACIMSYSVARMAN
  2
AcImSysVarManager
  3
AcMeServices
 90
     1024
 91
        5
280
     0
281
     0
  0
CLASS
  1
ACIMINTSYSVAR
  2
AcImIntSysVar
  3
AcMeServices
 90
     1024
 91
       27
280
     0
281
     0
  0
CLASS
  1
ACMEDRAWINGMAN
  2
AcMeDrawingMan
  3
AcMeServices
 90
     1024
 91
        1
280
     0
281
     0
  0
CLASS
  1
ACMEVIEW
  2
AcMeView
  3
AcMeServices
 90
     1024
 91
        1
280
     0
281
     0
  0
CLASS
  1
ACDBENTITYCACHE
  2
AcMeEntityCache
  3
AcMeServices
 90
     1024
 91
        0
280
     0
281
     0
  0
CLASS
  1
ACMESTATEMGR
  2
AcMeStateMgr
  3
AcMeServices
 90
     1024
 91
        1
280
     0
281
     0
  0
CLASS
  1
ACGREFMASTER
  2
AcGrefMaster
  3
AcAttribServices
 90
     1024
 91
        1
280
     0
281
     0
  0
CLASS
  1
AM_DRAWING_MGR
  2
AcDmDwgMgr
  3
AcMechDwgViewMgmt
 90
     1024
 91
        1
280
     0
281
     0
  0
CLASS
  1
AM_DWG_DOCUMENT
  2
AcDmDwgDocument
  3
AcMechDwgViewMgmt
 90
     1024
 91
        1
280
     0
281
     0
  0
CLASS
  1
AM_DWG_SHEET
  2
AcDmSheet
  3
AcMechDwgViewMgmt
 90
     1024
 91
        2
280
     0
281
     0
  0
CLASS
  1
AM_VIEWDIMPARMAP
  2
AcDmViewDimParMap
  3
AcMechDwgViewMgmt
 90
     1024
 91
        2
280
     0
281
     0
  0
CLASS
  1
AMDTINTERNALREACTOR
  2
AmdtInternalReactor
  3
AcMeServices
 90
     1024
 91
        0
280
     0
281
     0
  0
CLASS
  1
ACIMREALSYSVAR
  2
AcImRealSysVar
  3
AcMeServices
 90
     1024
 91
        1
280
     0
281
     0
  0
CLASS
  1
AM_DWGMGR_NAME
  2
AcDmDwgMgrName
  3
AcMechDwgViewMgmt
 90
     1024
 91
        1
280
     0
281
     0
  0
CLASS
  1
ACME_DATABASE
  2
AcMeDbDatabase
  3
AcMeServices
 90
     1024
 91
        0
280
     0
281
     0
  0
CLASS
  1
ACRFINSADJUSTERMGR
  2
AcRfInsAdjusterMgr
  3
AcMeServices
 90
     1024
 91
        0
280
     0
281
     0
  0
CLASS
  1
ACGREFACADMASTER
  2
AcGrefacadMaster
  3
AcGrefServices
 90
     1024
 91
        1
280
     0
281
     0
  0
CLASS
  1
AMDTMENUSTATEMGR
  2
AmdtMenuStateMgr
  3
McadcomServices
 90
     1024
 91
        0
280
     0
281
     0
  0
CLASS
  1
AMDTMCOMMENUSTATE
  2
AmdtMcomMenuState
  3
McadcomServices
 90
     1024
 91
        0
280
     0
281
     0
  0
CLASS
  1
AMIMASTER
  2
AmiMaster
  3
AmiServices
 90
     1024
 91
        1
280
     0
281
     0
  0
CLASS
  1
MAPIAMMOUDLE
  2
MApiAmModule
  3
MApiAmServices
 90
     1024
 91
        1
280
     0
281
     0
  0
CLASS
  1
ACIMSTRSYSVAR
  2
AcImStrSysVar
  3
AcMeServices
 90
     1024
 91
        5
280
     0
281
     0
  0
CLASS
  1
AMDTADMENUSTATE
  2
AmdtAdMenuState
  3
DesignerServices
 90
     1024
 91
        0
280
     0
281
     0
  0
CLASS
  1
ADAPPL
  2
AcAdAppl
  3
DesignerServices
 90
     1024
 91
        1
280
     0
281
     0
  0
CLASS
  1
DEPMGR
  2
AcAdDepMgr
  3
DesignerServices
 90
     1024
 91
        1
280
     0
281
     0
  0
CLASS
  1
PARAMMGR
  2
AcAdParamMgr
  3
DesignerServices
 90
     1024
 91
        1
280
     0
281
     0
  0
CLASS
  1
PARAMSCOPE
  2
AcAdParamScope
  3
DesignerServices
 90
     1024
 91
        1
280
     0
281
     0
  0
CLASS
  1
NAMEDAPPL
  2
AcAdNamedAppl
  3
DesignerServices
 90
     1024
 91
        1
280
     0
281
     0
  0
CLASS
  1
AMDTDMMENUSTATE
  2
AmdtDmMenuState
  3
AcMechDwgViewMgmt
 90
     1024
 91
        0
280
     0
281
     0
  0
CLASS
  1
AMDTAMMENUSTATE
  2
AmdtAmMenuState
  3
DesignerAssemblies
 90
     1024
 91
        0
280
     0
281
     0
  0
CLASS
  1
ACAMPROJECT
  2
AcAmProject
  3
DesignerAssemblies
 90
     1024
 91
        1
280
     0
281
     0
  0
CLASS
  1
ACAMGRCOMPDEF
  2
AcAmGrCompDef
  3
DesignerAssemblies
 90
     1024
 91
        1
280
     0
281
     0
  0
CLASS
  1
ACAMCOMPDEF
  2
AcAmCompDef
  3
DesignerAssemblies
 90
     1024
 91
        1
280
     0
281
     0
  0
CLASS
  1
ACAMCOMPDEFMGR
  2
AcAmCompDefMgr
  3
DesignerAssemblies
 90
     1024
 91
        1
280
     0
281
     0
  0
CLASS
  1
AMCONTEXTMGR
  2
AcAmContextMgr
  3
DesignerAssemblies
 90
     1024
 91
        1
280
     0
281
     0
  0
CLASS
  1
ACAMCONTEXTMODELER
  2
AcAmContextModeler
  3
DesignerAssemblies
 90
     1024
 91
        1
280
     0
281
     0
  0
CLASS
  1
ACMDATADICTIONARY
  2
AcmDataDictionary
  3
"AcmSymBB|Product Description: AutoCAD Mechanical|Company: Autodesk, Inc."
 90
     1024
 91
        1
280
     0
281
     0
  0
CLASS
  1
CATALOGSTATE
  2
AcAmCatalogState
  3
DesignerAssemblies
 90
     1024
 91
        1
280
     0
281
     0
  0
CLASS
  1
ACAMGRCOMPDEFSET
  2
AcAmGrCompDefSet
  3
DesignerAssemblies
 90
     1024
 91
        0
280
     0
281
     0
  0
CLASS
  1
AMDTBROWSERDBTAB
  2
AmdtBrowserDbTab
  3
McadcomServices
 90
     1024
 91
        0
280
     0
281
     0
  0
CLASS
  1
CBROWSERAPPOBJECT
  2
CBrowserAppObject
  3
McadcomServices
 90
     1024
 91
        0
280
     0
281
     0
  0
CLASS
  1
DM_PLACEHOLDER
  2
AcDmSelsetPlaceholder
  3
AcMechDwgViewMgmt
 90
     1024
 91
        0
280
     0
281
     0
  0
CLASS
  1
EXACXREFPANELOBJECT
  2
ExAcXREFPanelObject
  3
EXAC_ESW
 90
     1025
 91
        1
280
     0
281
     0
  0
CLASS
  1
NPOCOLLECTION
  2
AcDbImpNonPersistentObjectsCollection
  3
ObjectDBX Classes
 90
     1153
 91
        1
280
     0
281
     0
  0
CLASS
  1
ACMSTANDARDANSI
  2
AcmStandardANSI
  3
"Amdt_StdImp|Product Description: AutoCAD Mechanical|Company: Autodesk, Inc."
 90
     1024
 91
        1
280
     0
281
     0
  0
CLASS
  1
ACMSURFSTANDARDANSI
  2
AcmSurfTextStdANSI
  3
"Amdt_StdImp|Product Description: AutoCAD Mechanical|Company: Autodesk, Inc."
 90
     1024
 91
        1
280
     0
281
     0
  0
CLASS
  1
ACMFCFSTANDARDANSI
  2
AcmFCFStdANSI
  3
"Amdt_StdImp|Product Description: AutoCAD Mechanical|Company: Autodesk, Inc."
 90
     1024
 91
        1
280
     0
281
     0
  0
CLASS
  1
ACMWELDSTANDARDANSI
  2
AcmWeldingStdANSI
  3
"Amdt_StdImp|Product Description: AutoCAD Mechanical|Company: Autodesk, Inc."
 90
     1024
 91
        1
280
     0
281
     0
  0
CLASS
  1
ACMIDSTANDARDANSI
  2
AcmIdStdANSI
  3
"Amdt_StdImp|Product Description: AutoCAD Mechanical|Company: Autodesk, Inc."
 90
     1024
 91
        1
280
     0
281
     0
  0
CLASS
  1
ACMDATUMSTANDARDANSI
  2
AcmDatumStdANSI
  3
"Amdt_StdImp|Product Description: AutoCAD Mechanical|Company: Autodesk, Inc."
 90
     1024
 91
        1
280
     0
281
     0
  0
CLASS
  1
ACMBOMSTANDARDANSI
  2
AcmBOMStdANSI
  3
"Amdt_StdImp|Product Description: AutoCAD Mechanical|Company: Autodesk, Inc."
 90
     1024
 91
        1
280
     0
281
     0
  0
CLASS
  1
ACMDETAILSTANDARDANSI
  2
AmdtDetailSymStdANSI
  3
"Amdt_StdImp|Product Description: AutoCAD Mechanical|Company: Autodesk, Inc."
 90
     1024
 91
        1
280
     0
281
     0
  0
CLASS
  1
ACMSECTIONSTANDARDANSI
  2
AmdtSectionSymStdANSI
  3
"Amdt_StdImp|Product Description: AutoCAD Mechanical|Company: Autodesk, Inc."
 90
     1024
 91
        1
280
     0
281
     0
  0
CLASS
  1
ACMCENTERLINESTANDARDANSI
  2
AmdtCenterLineStdANSI
  3
"Amdt_StdImp|Product Description: AutoCAD Mechanical|Company: Autodesk, Inc."
 90
     1024
 91
        1
280
     0
281
     0
  0
CLASS
  1
ACMTHREADLINESTANDARDANSI
  2
AmdtThreadLineStdANSI
  3
"Amdt_StdImp|Product Description: AutoCAD Mechanical|Company: Autodesk, Inc."
 90
     1024
 91
        1
280
     0
281
     0
  0
CLASS
  1
ACMNOTESTANDARDANSI
  2
AmdtNoteStdANSI
  3
"Amdt_StdImp|Product Description: AutoCAD Mechanical|Company: Autodesk, Inc."
 90
     1024
 91
        1
280
     0
281
     0
  0
CLASS
  1
ACMTAPERSTANDARDANSI
  2
AcmTaperStdANSI
  3
"Amdt_StdImp|Product Description: AutoCAD Mechanical|Company: Autodesk, Inc."
 90
     1024
 91
        1
280
     0
281
     0
  0
CLASS
  1
ACMANOOTATIONVIEWSTANDARDANSI
  2
AmdtAnViewStdANSI
  3
"Amdt_StdImp|Product Description: AutoCAD Mechanical|Company: Autodesk, Inc."
 90
     1024
 91
        1
280
     0
281
     0
  0
CLASS
  1
ACAMGLAYSTD
  2
AcAmgLayStd
  3
"AmgLay|Product Description: AutoCAD Mechanical|Company: Autodesk, Inc."
 90
     1024
 91
        1
280
     0
281
     0
  0
CLASS
  1
ACAMGDIMSTD
  2
AcAmgDimStd
  3
"AmgDim|Product Description: AutoCAD Mechanical|Company: Autodesk, Inc."
 90
     1024
 91
        1
280
     0
281
     0
  0
CLASS
  1
AMGOBJPROPCFG
  2
AmgObjPropCfg
  3
"AmgLay|Product Description: AutoCAD Mechanical|Company: Autodesk, Inc."
 90
     1025
 91
        1
280
     0
281
     0
  0
CLASS
  1
ACAMGHOLECHARTSTDANSI
  2
AcAmgHoleChartStdANSI
  3
AmgDim|Product Description: AutoCAD Mechanical|Company: Autodesk, Inc.
 90
     1024
 91
        1
280
     0
281
     0
  0
CLASS
  1
ACAMGTITLESTD
  2
AcAmgTitleStd
  3
"AmgTitle|Product Description: AutoCAD Mechanical|Company: Autodesk, Inc."
 90
     4095
 91
        1
280
     0
281
     0
  0
CLASS
  1
AMDTNOTETEMPLATEDB
  2
AmdtNoteTemplateDB
  3
AcmSymBB|Product Description: AutoCAD Mechanical|Company: Autodesk, Inc.
 90
     1024
 91
        6
280
     0
281
     0
  0
CLASS
  1
ACAMGFILTERDAT
  2
AcAmgFilterDat
  3
"AcadM|Product Description: AutoCAD Mechanical|Company: Autodesk, Inc."
 90
     1024
 91
        6
280
     0
281
     0
  0
CLASS
  1
CAMSSTRUCTBTNSTATE
  2
StructBtnState
  3
DesignerAssemblies
 90
     1024
 91
        1
280
     0
281
     0
  0
CLASS
  1
DICTIONARYVAR
  2
AcDbDictionaryVar
  3
ObjectDBX Classes
 90
        0
 91
        9
280
     0
281
     0
  0
CLASS
  1
ACDBSECTIONVIEWSTYLE
  2
AcDbSectionViewStyle
  3
ObjectDBX Classes
 90
     1025
 91
        1
280
     0
281
     0
  0
CLASS
  1
ACDBDETAILVIEWSTYLE
  2
AcDbDetailViewStyle
  3
ObjectDBX Classes
 90
     1025
 91
        1
280
     0
281
     0
  0
CLASS
  1
SORTENTSTABLE
  2
AcDbSortentsTable
  3
ObjectDBX Classes
 90
        0
 91
        1
280
     0
281
     0
  0
CLASS
  1
CELLSTYLEMAP
  2
AcDbCellStyleMap
  3
ObjectDBX Classes
 90
     1152
 91
        1
280
     0
281
     0
  0
ENDSEC
  0
SECTION
  2
TABLES
  0
TABLE
  2
VPORT
  5
8
330
0
100
AcDbSymbolTable
 70
     1
  0
VPORT
  5
29
330
8
100
AcDbSymbolTableRecord
100
AcDbViewportTableRecord
  2
*Active
 70
     0
 10
0.0
 20
0.0
 11
1.0
 21
1.0
 12
3172.295652579889
 22
210.0788640852024
 13
0.0
 23
0.0
 14
0.5
 24
0.5
 15
0.5
 25
0.5
 16
0.0
 26
0.0
 36
1.0
 17
148.4999796178229
 27
-105.0008259828643
 37
0.0
 40
12213.64682220946
 41
2.292712066905615
 42
50.0
 43
0.0
 44
0.0
 50
0.0
 51
0.0
 71
     0
 72
   100
 73
     1
 74
     3
 75
     0
 76
     0
 77
     0
 78
     0
281
     0
 65
     1
110
0.0
120
0.0
130
0.0
111
1.0
121
0.0
131
0.0
112
0.0
122
1.0
132
0.0
 79
     0
146
0.0
348
2F
 60
     3
 61
     5
292
     1
282
     1
141
0.0
142
0.0
 63
   250
421
  3355443
1001
ACAD_NAV_VCDISPLAY
1070
     3
  0
ENDTAB
  0
TABLE
  2
LTYPE
  5
5
330
0
100
AcDbSymbolTable
 70
    16
  0
LTYPE
  5
14
330
5
100
AcDbSymbolTableRecord
100
AcDbLinetypeTableRecord
  2
ByBlock
 70
     0
  3

 72
    65
 73
     0
 40
0.0
  0
LTYPE
  5
15
330
5
100
AcDbSymbolTableRecord
100
AcDbLinetypeTableRecord
  2
ByLayer
 70
     0
  3

 72
    65
 73
     0
 40
0.0
  0
LTYPE
  5
16
330
5
100
AcDbSymbolTableRecord
100
AcDbLinetypeTableRecord
  2
Continuous
 70
     0
  3
Solid line
 72
    65
 73
     0
 40
0.0
  0
LTYPE
  5
2D6
330
5
100
AcDbSymbolTableRecord
100
AcDbLinetypeTableRecord
  2
HIDDEN
 70
     0
  3
Hidden __ __ __ __ __ __ __ __ __ __ __ __ __ _
 72
    65
 73
     2
 40
0.375
 49
0.25
 74
     0
 49
-0.125
 74
     0
  0
LTYPE
  5
2D7
330
5
100
AcDbSymbolTableRecord
100
AcDbLinetypeTableRecord
  2
PHANTOM2
 70
     0
  3
Phantom (.5x) ___ _ _ ___ _ _ ___ _ _ ___ _ _
 72
    65
 73
     6
 40
1.25
 49
0.625
 74
     0
 49
-0.125
 74
     0
 49
0.125
 74
     0
 49
-0.125
 74
     0
 49
0.125
 74
     0
 49
-0.125
 74
     0
  0
LTYPE
  5
2D8
330
5
100
AcDbSymbolTableRecord
100
AcDbLinetypeTableRecord
  2
CENTER
 70
     0
  3
Center ____ _ ____ _ ____ _ ____ _ ____ _ ____
 72
    65
 73
     4
 40
2.0
 49
1.25
 74
     0
 49
-0.25
 74
     0
 49
0.25
 74
     0
 49
-0.25
 74
     0
  0
LTYPE
  5
31F
330
5
100
AcDbSymbolTableRecord
100
AcDbLinetypeTableRecord
  2
AM_ISO02W050
 70
     0
  3
__ __ __ __ __ __ __ __ __ __ __ __ __ __ __
 72
    65
 73
     2
 40
7.5
 49
6.0
 74
     0
 49
-1.5
 74
     0
  0
LTYPE
  5
320
330
5
100
AcDbSymbolTableRecord
100
AcDbLinetypeTableRecord
  2
AM_ISO08W050
 70
     0
  3
____ . ____ . ____ . ____ . ____ . ____ . ____
 72
    65
 73
     4
 40
18.0
 49
12.0
 74
     0
 49
-1.5
 74
     0
 49
3.0
 74
     0
 49
-1.5
 74
     0
  0
LTYPE
  5
321
330
5
100
AcDbSymbolTableRecord
100
AcDbLinetypeTableRecord
  2
AM_ISO09W050
 70
     0
  3
_____ . . _____ . . _____ . . ____ .. ____
 72
    65
 73
     6
 40
22.5
 49
12.0
 74
     0
 49
-1.5
 74
     0
 49
3.0
 74
     0
 49
-1.5
 74
     0
 49
3.0
 74
     0
 49
-1.5
 74
     0
  0
LTYPE
  5
322
330
5
100
AcDbSymbolTableRecord
100
AcDbLinetypeTableRecord
  2
Amconstr
 70
     0
  3
_______________________
 72
    65
 73
     2
 40
9999.0
 49
9999.0
 74
     0
 49
0.0
 74
     0
  0
LTYPE
  5
323
330
5
100
AcDbSymbolTableRecord
100
AcDbLinetypeTableRecord
  2
AM_ISO08W050x2
 70
     0
  3
__ . __ . __ . __ . __ . __
 72
    65
 73
     4
 40
9.0
 49
6.0
 74
     0
 49
-0.75
 74
     0
 49
1.5
 74
     0
 49
-0.75
 74
     0
  0
LTYPE
  5
324
330
5
100
AcDbSymbolTableRecord
100
AcDbLinetypeTableRecord
  2
AM_ISO02W050x2
 70
     0
  3
 _ _ _ _ _ _ _ _ _ _ _ _
 72
    65
 73
     2
 40
3.75
 49
3.0
 74
     0
 49
-0.75
 74
     0
  0
LTYPE
  5
327
330
5
100
AcDbSymbolTableRecord
100
AcDbLinetypeTableRecord
  2
Amzigzag
 70
     0
  3
/\/-/\/-/\/-/\/-/\/-/\/
 72
    65
 73
     2
 40
11.0001
 49
0.0001
 74
     4
 75
   136
340
326
 46
0.04
 50
0.0
 44
0.0
 45
0.0
 49
-11.0
 74
     0
  0
LTYPE
  5
328
330
5
100
AcDbSymbolTableRecord
100
AcDbLinetypeTableRecord
  2
CENTER2
 70
     0
  3
Center (.5x) ___ _ ___ _ ___ _ ___ _ ___ _ ___
 72
    65
 73
     4
 40
1.125
 49
0.75
 74
     0
 49
-0.125
 74
     0
 49
0.125
 74
     0
 49
-0.125
 74
     0
  0
LTYPE
  5
329
330
5
100
AcDbSymbolTableRecord
100
AcDbLinetypeTableRecord
  2
HIDDEN2
 70
     0
  3
Hidden (.5x) _ _ _ _ _ _ _ _ _ _ _ _ _ _ _ _ _
 72
    65
 73
     2
 40
0.1875
 49
0.125
 74
     0
 49
-0.0625
 74
     0
  0
LTYPE
  5
32A
330
5
100
AcDbSymbolTableRecord
100
AcDbLinetypeTableRecord
  2
Amzigzag2
 70
     0
  3
/\/-/\/-/\/-/\/-/\/-/\/
 72
    65
 73
     2
 40
0.4401
 49
0.0001
 74
     4
 75
   136
340
326
 46
0.0016
 50
0.0
 44
0.0
 45
0.0
 49
-0.4400000000000001
 74
     0
  0
LTYPE
  5
338
330
5
100
AcDbSymbolTableRecord
100
AcDbLinetypeTableRecord
  2
ACANSTGB
 70
     0
  3
__ . . __ . .
 72
    65
 73
     6
 40
0.35433070866
 49
0.15748031496
 74
     0
 49
-0.03937007874
 74
     0
 49
0.03937007874
 74
     0
 49
-0.03937007874
 74
     0
 49
0.03937007874
 74
     0
 49
-0.03937007874
 74
     0
  0
LTYPE
  5
339
330
5
100
AcDbSymbolTableRecord
100
AcDbLinetypeTableRecord
  2
ACANSTGL
 70
     0
  3
_ _ _ _ _
 72
    65
 73
     2
 40
0.11811023622
 49
0.07874015748
 74
     0
 49
-0.03937007874
 74
     0
  0
ENDTAB
  0
TABLE
  2
LAYER
  5
2
102
{ACAD_XDICTIONARY
360
356
102
}
330
0
100
AcDbSymbolTable
 70
     5
  0
LAYER
  5
10
102
{ACAD_XDICTIONARY
360
34E
102
}
330
2
100
AcDbSymbolTableRecord
100
AcDbLayerTableRecord
  2
0
 70
     0
 62
     7
  6
Continuous
370
    -3
390
F
347
26F
348
0
  0
LAYER
  5
3B
102
{ACAD_XDICTIONARY
360
350
102
}
330
2
100
AcDbSymbolTableRecord
100
AcDbLayerTableRecord
  2
Layer 1
 70
     0
 62
     7
  6
Continuous
370
    -3
390
F
347
26F
348
0
  0
LAYER
  5
39D
330
2
100
AcDbSymbolTableRecord
100
AcDbLayerTableRecord
  2
Dimensions
 70
     0
 62
     7
  6
Continuous
370
    -3
390
F
347
26F
348
0
1001
AcAecLayerStandard
1000

1000

1001
AcCmTransparency
1071
        0
  0
LAYER
  5
3A0
330
2
100
AcDbSymbolTableRecord
100
AcDbLayerTableRecord
  2
Text
 70
     0
 62
     7
  6
Continuous
370
    -3
390
F
347
26F
348
0
1001
AcAecLayerStandard
1000

1000

1001
AcCmTransparency
1071
        0
  0
LAYER
  5
3A1
330
2
100
AcDbSymbolTableRecord
100
AcDbLayerTableRecord
  2
Furniture
 70
     0
 62
     7
  6
Continuous
370
    -3
390
F
347
26F
348
0
1001
AcAecLayerStandard
1000

1000

1001
AcCmTransparency
1071
        0
  0
ENDTAB
  0
TABLE
  2
STYLE
  5
3
330
0
100
AcDbSymbolTable
 70
     4
  0
STYLE
  5
11
330
3
100
AcDbSymbolTableRecord
100
AcDbTextStyleTableRecord
  2
Standard
 70
     0
 40
0.0
 41
1.000099999999999
 50
0.0
 71
     0
 42
0.2
  3
apercu_regular-webfont.ttf
  4

1001
ACAD
1000
Apercu
1071
        2
  0
STYLE
  5
326
330
3
100
AcDbSymbolTableRecord
100
AcDbTextStyleTableRecord
  2

 70
     1
 40
0.0
 41
1.0
 50
0.0
 71
     0
 42
0.2
  3
genltshp.shx
  4

  0
STYLE
  5
336
330
3
100
AcDbSymbolTableRecord
100
AcDbTextStyleTableRecord
  2
ACANSTS
 70
     0
 40
1.0
 41
1.0
 50
0.0
 71
     0
 42
0.2
  3
romans.shx
  4

  0
STYLE
  5
337
330
3
100
AcDbSymbolTableRecord
100
AcDbTextStyleTableRecord
  2
ACANSGDT
 70
     0
 40
0.0
 41
1.0
 50
0.0
 71
     0
 42
0.2
  3
amgdt.shx
  4

  0
ENDTAB
  0
TABLE
  2
VIEW
  5
6
330
0
100
AcDbSymbolTable
 70
     1
  0
ENDTAB
  0
TABLE
  2
UCS
  5
7
330
0
100
AcDbSymbolTable
 70
     0
  0
ENDTAB
  0
TABLE
  2
APPID
  5
9
330
0
100
AcDbSymbolTable
 70
    15
  0
APPID
  5
12
330
9
100
AcDbSymbolTableRecord
100
AcDbRegAppTableRecord
  2
ACAD
 70
     0
  0
APPID
  5
2A9
330
9
100
AcDbSymbolTableRecord
100
AcDbRegAppTableRecord
  2
MCAD_NO_VIS
 70
     0
  0
APPID
  5
2AA
330
9
100
AcDbSymbolTableRecord
100
AcDbRegAppTableRecord
  2
ACAD_TEMP_GRAPHIC
 70
     0
  0
APPID
  5
2DA
330
9
100
AcDbSymbolTableRecord
100
AcDbRegAppTableRecord
  2
AD_DRAW
 70
     0
  0
APPID
  5
2DD
330
9
100
AcDbSymbolTableRecord
100
AcDbRegAppTableRecord
  2
ACATTRIBSERVICES
 70
     0
  0
APPID
  5
2FD
330
9
100
AcDbSymbolTableRecord
100
AcDbRegAppTableRecord
  2
DESIGNERASSEMBLIES
 70
     0
  0
APPID
  5
303
330
9
100
AcDbSymbolTableRecord
100
AcDbRegAppTableRecord
  2
ACADM_DIM_EDIT
 70
     0
  0
APPID
  5
304
330
9
100
AcDbSymbolTableRecord
100
AcDbRegAppTableRecord
  2
AMDT_DM_ADJ
 70
     0
  0
APPID
  5
31C
330
9
100
AcDbSymbolTableRecord
100
AcDbRegAppTableRecord
  2
ACAD_DSTYLE_DIMJAG
 70
     0
  0
APPID
  5
31D
330
9
100
AcDbSymbolTableRecord
100
AcDbRegAppTableRecord
  2
ACAD_DSTYLE_DIMBREAK
 70
     0
  0
APPID
  5
347
330
9
100
AcDbSymbolTableRecord
100
AcDbRegAppTableRecord
  2
ACAD_EXEMPT_FROM_CAD_STANDARDS
 70
     0
  0
APPID
  5
39E
330
9
100
AcDbSymbolTableRecord
100
AcDbRegAppTableRecord
  2
AcAecLayerStandard
 70
     0
  0
APPID
  5
39F
330
9
100
AcDbSymbolTableRecord
100
AcDbRegAppTableRecord
  2
AcCmTransparency
 70
     0
  0
APPID
  5
6E9
330
9
100
AcDbSymbolTableRecord
100
AcDbRegAppTableRecord
  2
ACAD_NAV_VCDISPLAY
 70
     0
  0
APPID
  5
73A
330
9
100
AcDbSymbolTableRecord
100
AcDbRegAppTableRecord
  2
AcadAnnoPO
 70
     0
  0
ENDTAB
  0
TABLE
  2
DIMSTYLE
  5
A
330
0
100
AcDbSymbolTable
 70
     7
100
AcDbDimStyleTable
 71
     1
340
27
  0
DIMSTYLE
105
27
330
A
100
AcDbSymbolTableRecord
100
AcDbDimStyleTableRecord
  2
Standard
 70
     0
340
11
  0
DIMSTYLE
105
31B
102
{ACAD_REACTORS
330
30B
102
}
330
A
100
AcDbSymbolTableRecord
100
AcDbDimStyleTableRecord
  2
AM_ANSI
 70
     0
  4
mm
 41
0.12
 42
0.05
 43
0.5
 44
0.1
 47
0.1
 48
0.1
 78
     7
 79
     2
 90
     1
140
0.12
141
0.0
146
0.71
147
0.06
176
   256
177
   256
178
   140
274
     4
284
     7
340
11
345
14
346
14
347
14
371
    -1
372
    -1
1001
ACAD_DSTYLE_DIMJAG
1070
   388
1040
1.5
1001
ACAD_DSTYLE_DIMBREAK
1070
   391
1040
0.125
  0
DIMSTYLE
105
32B
330
A
100
AcDbSymbolTableRecord
100
AcDbDimStyleTableRecord
  2
AM_ANSI$3
 70
     0
  4
mm
 41
0.12
 42
0.05
 43
0.5
 44
0.1
 47
0.1
 48
0.1
 78
     7
 79
     2
 90
     1
140
0.12
141
0.0
146
0.71
147
0.06
176
   256
177
   256
178
   140
274
     4
284
     7
288
     1
289
     0
340
11
345
14
346
14
347
14
371
    -1
372
    -1
1001
ACAD_DSTYLE_DIMBREAK
1070
   391
1040
0.125
1001
ACAD_DSTYLE_DIMJAG
1070
   388
1040
1.5
  0
DIMSTYLE
105
32C
330
A
100
AcDbSymbolTableRecord
100
AcDbDimStyleTableRecord
  2
AM_ANSI$4
 70
     0
  4
mm
 41
0.12
 42
0.05
 43
0.5
 44
0.1
 47
0.1
 48
0.1
 78
     7
 79
     2
 90
     1
140
0.12
141
0.0
146
0.71
147
0.06
176
   256
177
   256
178
   140
274
     4
284
     7
288
     1
289
     0
340
11
345
14
346
14
347
14
371
    -1
372
    -1
1001
ACAD_DSTYLE_DIMBREAK
1070
   391
1040
0.125
1001
ACAD_DSTYLE_DIMJAG
1070
   388
1040
1.5
  0
DIMSTYLE
105
32D
330
A
100
AcDbSymbolTableRecord
100
AcDbDimStyleTableRecord
  2
AM_ANSI$7
 70
     0
  4
mm
 41
0.12
 42
0.05
 43
0.5
 44
0.1
 47
0.1
 48
0.1
 78
     7
 79
     2
 90
     1
140
0.12
141
0.0
146
0.71
147
0.06
176
   256
177
   256
178
   140
274
     4
284
     7
340
11
345
14
346
14
347
14
371
    -1
372
    -1
1001
ACAD_DSTYLE_DIMBREAK
1070
   391
1040
0.125
1001
ACAD_DSTYLE_DIMJAG
1070
   388
1040
1.5
  0
DIMSTYLE
105
32E
330
A
100
AcDbSymbolTableRecord
100
AcDbDimStyleTableRecord
  2
AM_ANSI$SF
 70
     0
  4
mm
 41
0.12
 42
0.05
 43
0.5
 44
0.1
 47
0.1
 48
0.1
 75
     1
 76
     1
 78
     7
 79
     2
 90
     1
140
0.12
141
0.0
146
0.71
147
0.06
176
   256
177
   256
178
   140
274
     4
284
     7
340
11
345
14
346
14
347
14
371
    -1
372
    -1
1001
ACAD_DSTYLE_DIMBREAK
1070
   391
1040
0.125
1001
ACAD_DSTYLE_DIMJAG
1070
   388
1040
1.5
  0
DIMSTYLE
105
333
330
A
100
AcDbSymbolTableRecord
100
AcDbDimStyleTableRecord
  2
AM_ANSI$SH
 70
     0
  4
mm
 41
0.12
 42
0.05
 43
0.5
 44
0.1
 47
0.1
 48
0.1
 75
     1
 76
     1
 78
     7
 79
     2
 90
     1
140
0.12
141
0.0
146
0.71
147
0.06
173
     1
176
   256
177
   256
178
   140
274
     4
284
     7
340
11
343
32F
345
14
346
14
347
14
371
    -1
372
    -1
1001
ACAD_DSTYLE_DIMBREAK
1070
   391
1040
0.125
1001
ACAD_DSTYLE_DIMJAG
1070
   388
1040
1.5
  0
ENDTAB
  0
TABLE
  2
BLOCK_RECORD
  5
1
330
0
100
AcDbSymbolTable
 70
    20
  0
BLOCK_RECORD
  5
1F
102
{ACAD_XDICTIONARY
360
3A3
102
}
330
1
100
AcDbSymbolTableRecord
100
AcDbBlockTableRecord
  2
*Model_Space
340
22
 70
     0
280
     1
281
     0
  0
BLOCK_RECORD
  5
1B
330
1
100
AcDbSymbolTableRecord
100
AcDbBlockTableRecord
  2
*Paper_Space
340
1E
 70
     0
280
     1
281
     0
  0
BLOCK_RECORD
  5
23
330
1
100
AcDbSymbolTableRecord
100
AcDbBlockTableRecord
  2
*Paper_Space0
340
26
 70
     0
280
     1
281
     0
  0
BLOCK_RECORD
  5
3C
330
1
100
AcDbSymbolTableRecord
100
AcDbBlockTableRecord
  2
block 2
340
0
102
{BLKREFS
331
3D
102
}
 70
     0
280
     1
281
     0
  0
BLOCK_RECORD
  5
40
330
1
100
AcDbSymbolTableRecord
100
AcDbBlockTableRecord
  2
block 3
340
0
102
{BLKREFS
331
41
102
}
 70
     0
280
     1
281
     0
  0
BLOCK_RECORD
  5
44
330
1
100
AcDbSymbolTableRecord
100
AcDbBlockTableRecord
  2
block 4
340
0
102
{BLKREFS
331
45
102
}
 70
     0
280
     1
281
     0
  0
BLOCK_RECORD
  5
48
330
1
100
AcDbSymbolTableRecord
100
AcDbBlockTableRecord
  2
block 5
340
0
102
{BLKREFS
331
49
102
}
 70
     0
280
     1
281
     0
  0
BLOCK_RECORD
  5
4C
330
1
100
AcDbSymbolTableRecord
100
AcDbBlockTableRecord
  2
block 6
340
0
102
{BLKREFS
331
4D
102
}
 70
     0
280
     1
281
     0
  0
BLOCK_RECORD
  5
51
330
1
100
AcDbSymbolTableRecord
100
AcDbBlockTableRecord
  2
block 7
340
0
 70
     0
280
     1
281
     0
  0
BLOCK_RECORD
  5
56
330
1
100
AcDbSymbolTableRecord
100
AcDbBlockTableRecord
  2
block 8
340
0
102
{BLKREFS
331
57
102
}
 70
     0
280
     1
281
     0
  0
BLOCK_RECORD
  5
176
330
1
100
AcDbSymbolTableRecord
100
AcDbBlockTableRecord
  2
block 9
340
0
 70
     0
280
     1
281
     0
  0
BLOCK_RECORD
  5
17C
330
1
100
AcDbSymbolTableRecord
100
AcDbBlockTableRecord
  2
block 10
340
0
102
{BLKREFS
331
17D
102
}
 70
     0
280
     1
281
     0
  0
BLOCK_RECORD
  5
18D
330
1
100
AcDbSymbolTableRecord
100
AcDbBlockTableRecord
  2
block 11
340
0
 70
     0
280
     1
281
     0
  0
BLOCK_RECORD
  5
192
330
1
100
AcDbSymbolTableRecord
100
AcDbBlockTableRecord
  2
block 12
340
0
102
{BLKREFS
331
193
102
}
 70
     0
280
     1
281
     0
  0
BLOCK_RECORD
  5
230
330
1
100
AcDbSymbolTableRecord
100
AcDbBlockTableRecord
  2
block 13
340
0
 70
     0
280
     1
281
     0
  0
BLOCK_RECORD
  5
236
330
1
100
AcDbSymbolTableRecord
100
AcDbBlockTableRecord
  2
block 14
340
0
102
{BLKREFS
331
237
102
}
 70
     0
280
     1
281
     0
  0
BLOCK_RECORD
  5
247
330
1
100
AcDbSymbolTableRecord
100
AcDbBlockTableRecord
  2
block 15
340
0
102
{BLKREFS
331
248
102
}
 70
     0
280
     1
281
     0
  0
BLOCK_RECORD
  5
24B
330
1
100
AcDbSymbolTableRecord
100
AcDbBlockTableRecord
  2
block 16
340
0
102
{BLKREFS
331
24C
102
}
 70
     0
280
     1
281
     0
  0
BLOCK_RECORD
  5
24F
330
1
100
AcDbSymbolTableRecord
100
AcDbBlockTableRecord
  2
block 17
340
0
102
{BLKREFS
331
250
102
}
 70
     0
280
     1
281
     0
  0
BLOCK_RECORD
  5
253
330
1
100
AcDbSymbolTableRecord
100
AcDbBlockTableRecord
  2
block 18
340
0
102
{BLKREFS
331
254
102
}
 70
     0
280
     1
281
     0
  0
BLOCK_RECORD
  5
2F5
330
1
100
AcDbSymbolTableRecord
100
AcDbBlockTableRecord
  2
*U18
340
0
 70
     0
280
     1
281
     0
  0
BLOCK_RECORD
  5
32F
330
1
100
AcDbSymbolTableRecord
100
AcDbBlockTableRecord
  2
GENAXEH
340
0
 70
     0
280
     1
281
     0
  0
ENDTAB
  0
ENDSEC
  0
SECTION
  2
BLOCKS
  0
BLOCK
  5
20
330
1F
100
AcDbEntity
  8
0
100
AcDbBlockBegin
  2
*Model_Space
 70
     0
 10
0.0
 20
0.0
 30
0.0
  3
*Model_Space
  1

  0
ENDBLK
  5
21
330
1F
100
AcDbEntity
  8
0
100
AcDbBlockEnd
  0
BLOCK
  5
1C
330
1B
100
AcDbEntity
 67
     1
  8
0
100
AcDbBlockBegin
  2
*Paper_Space
 70
     0
 10
0.0
 20
0.0
 30
0.0
  3
*Paper_Space
  1

  0
ENDBLK
  5
1D
330
1B
100
AcDbEntity
 67
     1
  8
0
100
AcDbBlockEnd
  0
BLOCK
  5
24
330
23
100
AcDbEntity
 67
     1
  8
0
100
AcDbBlockBegin
  2
*Paper_Space0
 70
     0
 10
0.0
 20
0.0
 30
0.0
  3
*Paper_Space0
  1

  0
ENDBLK
  5
25
330
23
100
AcDbEntity
 67
     1
  8
0
100
AcDbBlockEnd
  0
BLOCK
  5
3E
330
3C
100
AcDbEntity
  8
0
100
AcDbBlockBegin
  2
block 2
 70
     0
 10
0.0
 20
0.0
 30
0.0
  3
block 2
  1

  0
ENDBLK
  5
3F
330
3C
100
AcDbEntity
  8
0
100
AcDbBlockEnd
  0
BLOCK
  5
42
330
40
100
AcDbEntity
  8
0
100
AcDbBlockBegin
  2
block 3
 70
     0
 10
0.0
 20
0.0
 30
0.0
  3
block 3
  1

  0
ENDBLK
  5
43
330
40
100
AcDbEntity
  8
0
100
AcDbBlockEnd
  0
BLOCK
  5
46
330
44
100
AcDbEntity
  8
0
100
AcDbBlockBegin
  2
block 4
 70
     0
 10
0.0
 20
0.0
 30
0.0
  3
block 4
  1

  0
INSERT
  5
49
330
44
100
AcDbEntity
  8
Layer 1
100
AcDbBlockReference
  2
block 5
 10
0.0
 20
0.0
 30
0.0
  0
INSERT
  5
4D
330
44
100
AcDbEntity
  8
Layer 1
100
AcDbBlockReference
  2
block 6
 10
0.0
 20
0.0
 30
0.0
  0
ENDBLK
  5
47
330
44
100
AcDbEntity
  8
0
100
AcDbBlockEnd
  0
BLOCK
  5
4A
330
48
100
AcDbEntity
  8
0
100
AcDbBlockBegin
  2
block 5
 70
     0
 10
0.0
 20
0.0
 30
0.0
  3
block 5
  1

  0
ENDBLK
  5
4B
330
48
100
AcDbEntity
  8
0
100
AcDbBlockEnd
  0
BLOCK
  5
4E
330
4C
100
AcDbEntity
  8
0
100
AcDbBlockBegin
  2
block 6
 70
     0
 10
0.0
 20
0.0
 30
0.0
  3
block 6
  1

  0
ENDBLK
  5
4F
330
4C
100
AcDbEntity
  8
0
100
AcDbBlockEnd
  0
BLOCK
  5
53
330
51
100
AcDbEntity
  8
0
100
AcDbBlockBegin
  2
block 7
 70
     0
 10
0.0
 20
0.0
 30
0.0
  3
block 7
  1

  0
MTEXT
  5
55
330
51
100
AcDbEntity
  8
Layer 1
 62
   251
100
AcDbMText
 10
142.6086940832714
 20
-83.55097247260184
 30
0.0
 40
1.559277777387958
 41
0.0
 46
0.0
 71
     7
 72
     1
  1
\fApercu|b0|i0|c0|p34;\W1.0004;45
 73
     1
 44
1.0
  0
INSERT
  5
57
330
51
100
AcDbEntity
  8
Layer 1
100
AcDbBlockReference
  2
block 8
 10
0.0
 20
0.0
 30
0.0
  0
ENDBLK
  5
54
330
51
100
AcDbEntity
  8
0
100
AcDbBlockEnd
  0
BLOCK
  5
58
330
56
100
AcDbEntity
  8
0
100
AcDbBlockBegin
  2
block 8
 70
     0
 10
0.0
 20
0.0
 30
0.0
  3
block 8
  1

  0
POLYLINE
  5
5A
330
56
100
AcDbEntity
  8
Layer 1
 62
   250
370
     9
100
AcDb2dPolyline
 66
     1
 10
0.0
 20
0.0
 30
0.0
  0
VERTEX
  5
5B
330
5A
100
AcDbEntity
  8
Layer 1
 62
   250
370
     9
100
AcDbVertex
100
AcDb2dVertex
 10
141.1421169352006
 20
-79.99253334588728
 30
0.0
  0
VERTEX
  5
5C
330
5A
100
AcDbEntity
  8
Layer 1
 62
   250
370
     9
100
AcDbVertex
100
AcDb2dVertex
 10
140.9495360975751
 20
-80.15169675730582
 30
0.0
  0
VERTEX
  5
5D
330
5A
100
AcDbEntity
  8
Layer 1
 62
   250
370
     9
100
AcDbVertex
100
AcDb2dVertex
 10
135.4618434991206
 20
-80.15169675730582
 30
0.0
  0
VERTEX
  5
5E
330
5A
100
AcDbEntity
  8
Layer 1
 62
   250
370
     9
100
AcDbVertex
100
AcDb2dVertex
 10
135.2692626614952
 20
-79.99253334588728
 30
0.0
  0
SEQEND
  5
5F
330
5A
100
AcDbEntity
  8
Layer 1
370
     9
  0
POLYLINE
  5
60
330
56
100
AcDbEntity
  8
Layer 1
 62
   250
370
     9
100
AcDb2dPolyline
 66
     1
 10
0.0
 20
0.0
 30
0.0
  0
VERTEX
  5
61
330
60
100
AcDbEntity
  8
Layer 1
 62
   250
370
     9
100
AcDbVertex
100
AcDb2dVertex
 10
135.322317131968
 20
-79.90606144920751
 30
0.0
  0
VERTEX
  5
62
330
60
100
AcDbEntity
  8
Layer 1
 62
   250
370
     9
100
AcDbVertex
100
AcDb2dVertex
 10
141.0956081461497
 20
-79.90606144920751
 30
0.0
  0
SEQEND
  5
63
330
60
100
AcDbEntity
  8
Layer 1
370
     9
  0
SPLINE
  5
64
330
56
100
AcDbEntity
  8
Layer 1
 62
   250
370
     9
100
AcDbSpline
210
0.0
220
0.0
230
1.0
 70
     8
 71
     3
 72
     8
 73
     4
 74
     0
 42
0.000000001
 43
0.0000000001
 40
0.0
 40
0.0
 40
0.0
 40
0.0
 40
1.0
 40
1.0
 40
1.0
 40
1.0
 10
135.3195610555798
 20
-79.90606144920751
 30
0.0
 10
135.2920002916978
 20
-79.90606144920751
 30
0.0
 10
135.2692626614952
 20
-79.9286268246359
 30
0.0
 10
135.2692626614952
 20
-79.9561875885179
 30
0.0
  0
SPLINE
  5
65
330
56
100
AcDbEntity
  8
Layer 1
 62
   250
370
     9
100
AcDbSpline
210
0.0
220
0.0
230
1.0
 70
     8
 71
     3
 72
     8
 73
     4
 74
     0
 42
0.000000001
 43
0.0000000001
 40
0.0
 40
0.0
 40
0.0
 40
0.0
 40
1.0
 40
1.0
 40
1.0
 40
1.0
 10
141.1421169352006
 20
-79.9561875885179
 30
0.0
 10
141.1421169352006
 20
-79.9286268246359
 30
0.0
 10
141.1197238145464
 20
-79.90606144920751
 30
0.0
 10
141.0921630506644
 20
-79.90606144920751
 30
0.0
  0
POLYLINE
  5
66
330
56
100
AcDbEntity
  8
Layer 1
 62
   250
370
     9
100
AcDb2dPolyline
 66
     1
 10
0.0
 20
0.0
 30
0.0
  0
VERTEX
  5
67
330
66
100
AcDbEntity
  8
Layer 1
 62
   250
370
     9
100
AcDbVertex
100
AcDb2dVertex
 10
135.2692626614952
 20
-79.99253334588728
 30
0.0
  0
VERTEX
  5
68
330
66
100
AcDbEntity
  8
Layer 1
 62
   250
370
     9
100
AcDbVertex
100
AcDb2dVertex
 10
135.2692626614952
 20
-79.95946042922888
 30
0.0
  0
SEQEND
  5
69
330
66
100
AcDbEntity
  8
Layer 1
370
     9
  0
POLYLINE
  5
6A
330
56
100
AcDbEntity
  8
Layer 1
 62
   250
370
     9
100
AcDb2dPolyline
 66
     1
 10
0.0
 20
0.0
 30
0.0
  0
VERTEX
  5
6B
330
6A
100
AcDbEntity
  8
Layer 1
 62
   250
370
     9
100
AcDbVertex
100
AcDb2dVertex
 10
141.1421169352006
 20
-79.99253334588728
 30
0.0
  0
VERTEX
  5
6C
330
6A
100
AcDbEntity
  8
Layer 1
 62
   250
370
     9
100
AcDbVertex
100
AcDb2dVertex
 10
141.1421169352006
 20
-79.95946042922888
 30
0.0
  0
SEQEND
  5
6D
330
6A
100
AcDbEntity
  8
Layer 1
370
     9
  0
POLYLINE
  5
6E
330
56
100
AcDbEntity
  8
Layer 1
 62
   250
370
     9
100
AcDb2dPolyline
 66
     1
 10
0.0
 20
0.0
 30
0.0
  0
VERTEX
  5
6F
330
6E
100
AcDbEntity
  8
Layer 1
 62
   250
370
     9
100
AcDbVertex
100
AcDb2dVertex
 10
138.50765241763
 20
-85.75910642387272
 30
0.0
  0
VERTEX
  5
70
330
6E
100
AcDbEntity
  8
Layer 1
 62
   250
370
     9
100
AcDbVertex
100
AcDb2dVertex
 10
138.5011067362081
 20
-85.77219778671667
 30
0.0
  0
VERTEX
  5
71
330
6E
100
AcDbEntity
  8
Layer 1
 62
   250
370
     9
100
AcDbVertex
100
AcDb2dVertex
 10
138.5011067362081
 20
-85.7789157229129
 30
0.0
  0
VERTEX
  5
72
330
6E
100
AcDbEntity
  8
Layer 1
 62
   250
370
     9
100
AcDbVertex
100
AcDb2dVertex
 10
138.4880153733641
 20
-85.78563365910914
 30
0.0
  0
VERTEX
  5
73
330
6E
100
AcDbEntity
  8
Layer 1
 62
   250
370
     9
100
AcDbVertex
100
AcDb2dVertex
 10
138.4811251823936
 20
-85.78563365910914
 30
0.0
  0
SEQEND
  5
74
330
6E
100
AcDbEntity
  8
Layer 1
370
     9
  0
POLYLINE
  5
75
330
56
100
AcDbEntity
  8
Layer 1
 62
   250
370
     9
100
AcDb2dPolyline
 66
     1
 10
0.0
 20
0.0
 30
0.0
  0
VERTEX
  5
76
330
75
100
AcDbEntity
  8
Layer 1
 62
   250
370
     9
100
AcDbVertex
100
AcDb2dVertex
 10
138.4811251823936
 20
-85.78563365910914
 30
0.0
  0
VERTEX
  5
77
330
75
100
AcDbEntity
  8
Layer 1
 62
   250
370
     9
100
AcDbVertex
100
AcDb2dVertex
 10
138.4811251823936
 20
-85.78563365910914
 30
0.0
  0
VERTEX
  5
78
330
75
100
AcDbEntity
  8
Layer 1
 62
   250
370
     9
100
AcDbVertex
100
AcDb2dVertex
 10
138.4745795009716
 20
-85.78563365910914
 30
0.0
  0
VERTEX
  5
79
330
75
100
AcDbEntity
  8
Layer 1
 62
   250
370
     9
100
AcDbVertex
100
AcDb2dVertex
 10
138.4676893100011
 20
-85.78563365910914
 30
0.0
  0
VERTEX
  5
7A
330
75
100
AcDbEntity
  8
Layer 1
 62
   250
370
     9
100
AcDbVertex
100
AcDb2dVertex
 10
138.4614881381277
 20
-85.78563365910914
 30
0.0
  0
VERTEX
  5
7B
330
75
100
AcDbEntity
  8
Layer 1
 62
   250
370
     9
100
AcDbVertex
100
AcDb2dVertex
 10
138.4480522657352
 20
-85.78563365910914
 30
0.0
  0
VERTEX
  5
7C
330
75
100
AcDbEntity
  8
Layer 1
 62
   250
370
     9
100
AcDbVertex
100
AcDb2dVertex
 10
138.4346163933427
 20
-85.78563365910914
 30
0.0
  0
VERTEX
  5
7D
330
75
100
AcDbEntity
  8
Layer 1
 62
   250
370
     9
100
AcDbVertex
100
AcDb2dVertex
 10
138.4215250304988
 20
-85.78563365910914
 30
0.0
  0
VERTEX
  5
7E
330
75
100
AcDbEntity
  8
Layer 1
 62
   250
370
     9
100
AcDbVertex
100
AcDb2dVertex
 10
138.4084336676548
 20
-85.78563365910914
 30
0.0
  0
VERTEX
  5
7F
330
75
100
AcDbEntity
  8
Layer 1
 62
   250
370
     9
100
AcDbVertex
100
AcDb2dVertex
 10
138.3884521138404
 20
-85.78563365910914
 30
0.0
  0
VERTEX
  5
80
330
75
100
AcDbEntity
  8
Layer 1
 62
   250
370
     9
100
AcDbVertex
100
AcDb2dVertex
 10
138.3684705600259
 20
-85.78563365910914
 30
0.0
  0
VERTEX
  5
81
330
75
100
AcDbEntity
  8
Layer 1
 62
   250
370
     9
100
AcDbVertex
100
AcDb2dVertex
 10
138.341598815241
 20
-85.78563365910914
 30
0.0
  0
VERTEX
  5
82
330
75
100
AcDbEntity
  8
Layer 1
 62
   250
370
     9
100
AcDbVertex
100
AcDb2dVertex
 10
138.3154160895531
 20
-85.78563365910914
 30
0.0
  0
VERTEX
  5
83
330
75
100
AcDbEntity
  8
Layer 1
 62
   250
370
     9
100
AcDbVertex
100
AcDb2dVertex
 10
138.2888888543166
 20
-85.78563365910914
 30
0.0
  0
VERTEX
  5
84
330
75
100
AcDbEntity
  8
Layer 1
 62
   250
370
     9
100
AcDbVertex
100
AcDb2dVertex
 10
138.2623616190802
 20
-85.78563365910914
 30
0.0
  0
VERTEX
  5
85
330
75
100
AcDbEntity
  8
Layer 1
 62
   250
370
     9
100
AcDbVertex
100
AcDb2dVertex
 10
138.2354898742953
 20
-85.78563365910914
 30
0.0
  0
VERTEX
  5
86
330
75
100
AcDbEntity
  8
Layer 1
 62
   250
370
     9
100
AcDbVertex
100
AcDb2dVertex
 10
138.2024169576369
 20
-85.78563365910914
 30
0.0
  0
VERTEX
  5
87
330
75
100
AcDbEntity
  8
Layer 1
 62
   250
370
     9
100
AcDbVertex
100
AcDb2dVertex
 10
138.176234231949
 20
-85.78563365910914
 30
0.0
  0
VERTEX
  5
88
330
75
100
AcDbEntity
  8
Layer 1
 62
   250
370
     9
100
AcDbVertex
100
AcDb2dVertex
 10
138.1428168057421
 20
-85.78563365910914
 30
0.0
  0
VERTEX
  5
89
330
75
100
AcDbEntity
  8
Layer 1
 62
   250
370
     9
100
AcDbVertex
100
AcDb2dVertex
 10
138.1162895705056
 20
-85.78563365910914
 30
0.0
  0
VERTEX
  5
8A
330
75
100
AcDbEntity
  8
Layer 1
 62
   250
370
     9
100
AcDbVertex
100
AcDb2dVertex
 10
138.0894178257207
 20
-85.78563365910914
 30
0.0
  0
VERTEX
  5
8B
330
75
100
AcDbEntity
  8
Layer 1
 62
   250
370
     9
100
AcDbVertex
100
AcDb2dVertex
 10
138.0632351000328
 20
-85.78563365910914
 30
0.0
  0
VERTEX
  5
8C
330
75
100
AcDbEntity
  8
Layer 1
 62
   250
370
     9
100
AcDbVertex
100
AcDb2dVertex
 10
138.0432535462183
 20
-85.78563365910914
 30
0.0
  0
VERTEX
  5
8D
330
75
100
AcDbEntity
  8
Layer 1
 62
   250
370
     9
100
AcDbVertex
100
AcDb2dVertex
 10
138.0232719924039
 20
-85.78563365910914
 30
0.0
  0
VERTEX
  5
8E
330
75
100
AcDbEntity
  8
Layer 1
 62
   250
370
     9
100
AcDbVertex
100
AcDb2dVertex
 10
138.0032904385894
 20
-85.78563365910914
 30
0.0
  0
VERTEX
  5
8F
330
75
100
AcDbEntity
  8
Layer 1
 62
   250
370
     9
100
AcDbVertex
100
AcDb2dVertex
 10
137.9901990757455
 20
-85.78563365910914
 30
0.0
  0
VERTEX
  5
90
330
75
100
AcDbEntity
  8
Layer 1
 62
   250
370
     9
100
AcDbVertex
100
AcDb2dVertex
 10
137.970217521931
 20
-85.78563365910914
 30
0.0
  0
VERTEX
  5
91
330
75
100
AcDbEntity
  8
Layer 1
 62
   250
370
     9
100
AcDbVertex
100
AcDb2dVertex
 10
137.9571261590871
 20
-85.78563365910914
 30
0.0
  0
VERTEX
  5
92
330
75
100
AcDbEntity
  8
Layer 1
 62
   250
370
     9
100
AcDbVertex
100
AcDb2dVertex
 10
137.9502359681166
 20
-85.78563365910914
 30
0.0
  0
VERTEX
  5
93
330
75
100
AcDbEntity
  8
Layer 1
 62
   250
370
     9
100
AcDbVertex
100
AcDb2dVertex
 10
137.9440347962431
 20
-85.78563365910914
 30
0.0
  0
VERTEX
  5
94
330
75
100
AcDbEntity
  8
Layer 1
 62
   250
370
     9
100
AcDbVertex
100
AcDb2dVertex
 10
137.9371446052726
 20
-85.78563365910914
 30
0.0
  0
VERTEX
  5
95
330
75
100
AcDbEntity
  8
Layer 1
 62
   250
370
     9
100
AcDbVertex
100
AcDb2dVertex
 10
137.9302544143022
 20
-85.78563365910914
 30
0.0
  0
SEQEND
  5
96
330
75
100
AcDbEntity
  8
Layer 1
370
     9
  0
POLYLINE
  5
97
330
56
100
AcDbEntity
  8
Layer 1
 62
   250
370
     9
100
AcDb2dPolyline
 66
     1
 10
0.0
 20
0.0
 30
0.0
  0
VERTEX
  5
98
330
97
100
AcDbEntity
  8
Layer 1
 62
   250
370
     9
100
AcDbVertex
100
AcDb2dVertex
 10
138.50765241763
 20
-85.75910642387272
 30
0.0
  0
VERTEX
  5
99
330
97
100
AcDbEntity
  8
Layer 1
 62
   250
370
     9
100
AcDbVertex
100
AcDb2dVertex
 10
138.50765241763
 20
-85.75910642387272
 30
0.0
  0
VERTEX
  5
9A
330
97
100
AcDbEntity
  8
Layer 1
 62
   250
370
     9
100
AcDbVertex
100
AcDb2dVertex
 10
138.5011067362081
 20
-85.75910642387272
 30
0.0
  0
VERTEX
  5
9B
330
97
100
AcDbEntity
  8
Layer 1
 62
   250
370
     9
100
AcDbVertex
100
AcDb2dVertex
 10
138.4945610547861
 20
-85.75910642387272
 30
0.0
  0
VERTEX
  5
9C
330
97
100
AcDbEntity
  8
Layer 1
 62
   250
370
     9
100
AcDbVertex
100
AcDb2dVertex
 10
138.4880153733641
 20
-85.75910642387272
 30
0.0
  0
VERTEX
  5
9D
330
97
100
AcDbEntity
  8
Layer 1
 62
   250
370
     9
100
AcDbVertex
100
AcDb2dVertex
 10
138.4745795009716
 20
-85.75910642387272
 30
0.0
  0
VERTEX
  5
9E
330
97
100
AcDbEntity
  8
Layer 1
 62
   250
370
     9
100
AcDbVertex
100
AcDb2dVertex
 10
138.4614881381277
 20
-85.75910642387272
 30
0.0
  0
VERTEX
  5
9F
330
97
100
AcDbEntity
  8
Layer 1
 62
   250
370
     9
100
AcDbVertex
100
AcDb2dVertex
 10
138.4480522657352
 20
-85.75910642387272
 30
0.0
  0
VERTEX
  5
A0
330
97
100
AcDbEntity
  8
Layer 1
 62
   250
370
     9
100
AcDbVertex
100
AcDb2dVertex
 10
138.4280707119207
 20
-85.75910642387272
 30
0.0
  0
VERTEX
  5
A1
330
97
100
AcDbEntity
  8
Layer 1
 62
   250
370
     9
100
AcDbVertex
100
AcDb2dVertex
 10
138.4084336676548
 20
-85.76582436006896
 30
0.0
  0
VERTEX
  5
A2
330
97
100
AcDbEntity
  8
Layer 1
 62
   250
370
     9
100
AcDbVertex
100
AcDb2dVertex
 10
138.3815619228699
 20
-85.76582436006896
 30
0.0
  0
VERTEX
  5
A3
330
97
100
AcDbEntity
  8
Layer 1
 62
   250
370
     9
100
AcDbVertex
100
AcDb2dVertex
 10
138.355379197182
 20
-85.76582436006896
 30
0.0
  0
VERTEX
  5
A4
330
97
100
AcDbEntity
  8
Layer 1
 62
   250
370
     9
100
AcDbVertex
100
AcDb2dVertex
 10
138.328507452397
 20
-85.76582436006896
 30
0.0
  0
VERTEX
  5
A5
330
97
100
AcDbEntity
  8
Layer 1
 62
   250
370
     9
100
AcDbVertex
100
AcDb2dVertex
 10
138.3023247267091
 20
-85.76582436006896
 30
0.0
  0
VERTEX
  5
A6
330
97
100
AcDbEntity
  8
Layer 1
 62
   250
370
     9
100
AcDbVertex
100
AcDb2dVertex
 10
138.2685627909537
 20
-85.76582436006896
 30
0.0
  0
VERTEX
  5
A7
330
97
100
AcDbEntity
  8
Layer 1
 62
   250
370
     9
100
AcDbVertex
100
AcDb2dVertex
 10
138.2354898742953
 20
-85.76582436006896
 30
0.0
  0
VERTEX
  5
A8
330
97
100
AcDbEntity
  8
Layer 1
 62
   250
370
     9
100
AcDbVertex
100
AcDb2dVertex
 10
138.2024169576369
 20
-85.76582436006896
 30
0.0
  0
VERTEX
  5
A9
330
97
100
AcDbEntity
  8
Layer 1
 62
   250
370
     9
100
AcDbVertex
100
AcDb2dVertex
 10
138.1693440409785
 20
-85.76582436006896
 30
0.0
  0
VERTEX
  5
AA
330
97
100
AcDbEntity
  8
Layer 1
 62
   250
370
     9
100
AcDbVertex
100
AcDb2dVertex
 10
138.1362711243201
 20
-85.76582436006896
 30
0.0
  0
VERTEX
  5
AB
330
97
100
AcDbEntity
  8
Layer 1
 62
   250
370
     9
100
AcDbVertex
100
AcDb2dVertex
 10
138.1093993795351
 20
-85.76582436006896
 30
0.0
  0
VERTEX
  5
AC
330
97
100
AcDbEntity
  8
Layer 1
 62
   250
370
     9
100
AcDbVertex
100
AcDb2dVertex
 10
138.0763264628767
 20
-85.76582436006896
 30
0.0
  0
VERTEX
  5
AD
330
97
100
AcDbEntity
  8
Layer 1
 62
   250
370
     9
100
AcDbVertex
100
AcDb2dVertex
 10
138.0497992276403
 20
-85.76582436006896
 30
0.0
  0
VERTEX
  5
AE
330
97
100
AcDbEntity
  8
Layer 1
 62
   250
370
     9
100
AcDbVertex
100
AcDb2dVertex
 10
138.0232719924039
 20
-85.76582436006896
 30
0.0
  0
VERTEX
  5
AF
330
97
100
AcDbEntity
  8
Layer 1
 62
   250
370
     9
100
AcDbVertex
100
AcDb2dVertex
 10
138.0032904385894
 20
-85.75910642387272
 30
0.0
  0
VERTEX
  5
B0
330
97
100
AcDbEntity
  8
Layer 1
 62
   250
370
     9
100
AcDbVertex
100
AcDb2dVertex
 10
137.983308884775
 20
-85.75910642387272
 30
0.0
  0
VERTEX
  5
B1
330
97
100
AcDbEntity
  8
Layer 1
 62
   250
370
     9
100
AcDbVertex
100
AcDb2dVertex
 10
137.9633273309605
 20
-85.75910642387272
 30
0.0
  0
VERTEX
  5
B2
330
97
100
AcDbEntity
  8
Layer 1
 62
   250
370
     9
100
AcDbVertex
100
AcDb2dVertex
 10
137.9502359681166
 20
-85.75910642387272
 30
0.0
  0
VERTEX
  5
B3
330
97
100
AcDbEntity
  8
Layer 1
 62
   250
370
     9
100
AcDbVertex
100
AcDb2dVertex
 10
137.9371446052726
 20
-85.75910642387272
 30
0.0
  0
VERTEX
  5
B4
330
97
100
AcDbEntity
  8
Layer 1
 62
   250
370
     9
100
AcDbVertex
100
AcDb2dVertex
 10
137.9240532424287
 20
-85.75910642387272
 30
0.0
  0
VERTEX
  5
B5
330
97
100
AcDbEntity
  8
Layer 1
 62
   250
370
     9
100
AcDbVertex
100
AcDb2dVertex
 10
137.9171630514582
 20
-85.75910642387272
 30
0.0
  0
VERTEX
  5
B6
330
97
100
AcDbEntity
  8
Layer 1
 62
   250
370
     9
100
AcDbVertex
100
AcDb2dVertex
 10
137.9106173700362
 20
-85.75910642387272
 30
0.0
  0
VERTEX
  5
B7
330
97
100
AcDbEntity
  8
Layer 1
 62
   250
370
     9
100
AcDbVertex
100
AcDb2dVertex
 10
137.9040716886142
 20
-85.75910642387272
 30
0.0
  0
SEQEND
  5
B8
330
97
100
AcDbEntity
  8
Layer 1
370
     9
  0
SPLINE
  5
B9
330
56
100
AcDbEntity
  8
Layer 1
 62
   250
370
     9
100
AcDbSpline
210
0.0
220
0.0
230
1.0
 70
     8
 71
     3
 72
    11
 73
     7
 74
     0
 42
0.000000001
 43
0.0000000001
 40
0.0
 40
0.0
 40
0.0
 40
0.0
 40
1.0
 40
1.0
 40
1.0
 40
2.0
 40
2.0
 40
2.0
 40
2.0
 10
138.4780245964569
 20
-85.78563365910914
 30
0.0
 10
138.4842257683303
 20
-85.78563365910914
 30
0.0
 10
138.4900824306552
 20
-85.78304983749521
 30
0.0
 10
138.4945610547861
 20
-85.77857121336439
 30
0.0
 10
138.4986951693683
 20
-85.77426484400783
 30
0.0
 10
138.5011067362081
 20
-85.76823592690864
 30
0.0
 10
138.5011067362081
 20
-85.76203475503518
 30
0.0
  0
SPLINE
  5
BA
330
56
100
AcDbEntity
  8
Layer 1
 62
   250
370
     9
100
AcDbSpline
210
0.0
220
0.0
230
1.0
 70
     8
 71
     3
 72
    11
 73
     7
 74
     0
 42
0.000000001
 43
0.0000000001
 40
0.0
 40
0.0
 40
0.0
 40
0.0
 40
1.0
 40
1.0
 40
1.0
 40
2.0
 40
2.0
 40
2.0
 40
2.0
 10
137.9106173700362
 20
-85.76203475503518
 30
0.0
 10
137.9102728604877
 20
-85.76823592690864
 30
0.0
 10
137.9130289368759
 20
-85.77426484400783
 30
0.0
 10
137.9171630514582
 20
-85.77857121336439
 30
0.0
 10
137.921641675589
 20
-85.78304983749521
 30
0.0
 10
137.9274983379139
 20
-85.78563365910914
 30
0.0
 10
137.9336995097874
 20
-85.78563365910914
 30
0.0
  0
POLYLINE
  5
BB
330
56
100
AcDbEntity
  8
Layer 1
 62
   250
370
     9
100
AcDb2dPolyline
 66
     1
 10
0.0
 20
0.0
 30
0.0
  0
VERTEX
  5
BC
330
BB
100
AcDbEntity
  8
Layer 1
 62
   250
370
     9
100
AcDbVertex
100
AcDb2dVertex
 10
138.50765241763
 20
-85.75910642387272
 30
0.0
  0
VERTEX
  5
BD
330
BB
100
AcDbEntity
  8
Layer 1
 62
   250
370
     9
100
AcDbVertex
100
AcDb2dVertex
 10
138.4480522657352
 20
-80.15169675730582
 30
0.0
  0
SEQEND
  5
BE
330
BB
100
AcDbEntity
  8
Layer 1
370
     9
  0
POLYLINE
  5
BF
330
56
100
AcDbEntity
  8
Layer 1
 62
   250
370
     9
100
AcDb2dPolyline
 66
     1
 10
0.0
 20
0.0
 30
0.0
  0
VERTEX
  5
C0
330
BF
100
AcDbEntity
  8
Layer 1
 62
   250
370
     9
100
AcDbVertex
100
AcDb2dVertex
 10
137.9040716886142
 20
-85.75910642387272
 30
0.0
  0
VERTEX
  5
C1
330
BF
100
AcDbEntity
  8
Layer 1
 62
   250
370
     9
100
AcDbVertex
100
AcDb2dVertex
 10
137.9633273309605
 20
-80.15169675730582
 30
0.0
  0
SEQEND
  5
C2
330
BF
100
AcDbEntity
  8
Layer 1
370
     9
  0
POLYLINE
  5
C3
330
56
100
AcDbEntity
  8
Layer 1
 62
   250
370
     9
100
AcDb2dPolyline
 66
     1
 10
0.0
 20
0.0
 30
0.0
  0
VERTEX
  5
C4
330
C3
100
AcDbEntity
  8
Layer 1
 62
   250
370
     9
100
AcDbVertex
100
AcDb2dVertex
 10
138.4480522657352
 20
-80.15169675730582
 30
0.0
  0
VERTEX
  5
C5
330
C3
100
AcDbEntity
  8
Layer 1
 62
   250
370
     9
100
AcDbVertex
100
AcDb2dVertex
 10
138.50765241763
 20
-85.75910642387272
 30
0.0
  0
SEQEND
  5
C6
330
C3
100
AcDbEntity
  8
Layer 1
370
     9
  0
POLYLINE
  5
C7
330
56
100
AcDbEntity
  8
Layer 1
 62
   250
370
     9
100
AcDb2dPolyline
 66
     1
 10
0.0
 20
0.0
 30
0.0
  0
VERTEX
  5
C8
330
C7
100
AcDbEntity
  8
Layer 1
 62
   250
370
     9
100
AcDbVertex
100
AcDb2dVertex
 10
135.8666422186375
 20
-85.78563365910914
 30
0.0
  0
VERTEX
  5
C9
330
C7
100
AcDbEntity
  8
Layer 1
 62
   250
370
     9
100
AcDbVertex
100
AcDb2dVertex
 10
135.8666422186375
 20
-85.78563365910914
 30
0.0
  0
VERTEX
  5
CA
330
C7
100
AcDbEntity
  8
Layer 1
 62
   250
370
     9
100
AcDbVertex
100
AcDb2dVertex
 10
135.873532409608
 20
-85.78563365910914
 30
0.0
  0
VERTEX
  5
CB
330
C7
100
AcDbEntity
  8
Layer 1
 62
   250
370
     9
100
AcDbVertex
100
AcDb2dVertex
 10
135.8797335814815
 20
-85.78563365910914
 30
0.0
  0
VERTEX
  5
CC
330
C7
100
AcDbEntity
  8
Layer 1
 62
   250
370
     9
100
AcDbVertex
100
AcDb2dVertex
 10
135.8935139634224
 20
-85.78563365910914
 30
0.0
  0
VERTEX
  5
CD
330
C7
100
AcDbEntity
  8
Layer 1
 62
   250
370
     9
100
AcDbVertex
100
AcDb2dVertex
 10
135.9066053262664
 20
-85.78563365910914
 30
0.0
  0
VERTEX
  5
CE
330
C7
100
AcDbEntity
  8
Layer 1
 62
   250
370
     9
100
AcDbVertex
100
AcDb2dVertex
 10
135.9265868800808
 20
-85.78563365910914
 30
0.0
  0
VERTEX
  5
CF
330
C7
100
AcDbEntity
  8
Layer 1
 62
   250
370
     9
100
AcDbVertex
100
AcDb2dVertex
 10
135.9531141153172
 20
-85.78563365910914
 30
0.0
  0
VERTEX
  5
D0
330
C7
100
AcDbEntity
  8
Layer 1
 62
   250
370
     9
100
AcDbVertex
100
AcDb2dVertex
 10
135.9727511595832
 20
-85.78563365910914
 30
0.0
  0
VERTEX
  5
D1
330
C7
100
AcDbEntity
  8
Layer 1
 62
   250
370
     9
100
AcDbVertex
100
AcDb2dVertex
 10
135.9996229043681
 20
-85.78563365910914
 30
0.0
  0
VERTEX
  5
D2
330
C7
100
AcDbEntity
  8
Layer 1
 62
   250
370
     9
100
AcDbVertex
100
AcDb2dVertex
 10
136.025805630056
 20
-85.78563365910914
 30
0.0
  0
VERTEX
  5
D3
330
C7
100
AcDbEntity
  8
Layer 1
 62
   250
370
     9
100
AcDbVertex
100
AcDb2dVertex
 10
136.052677374841
 20
-85.78563365910914
 30
0.0
  0
VERTEX
  5
D4
330
C7
100
AcDbEntity
  8
Layer 1
 62
   250
370
     9
100
AcDbVertex
100
AcDb2dVertex
 10
136.0857502914994
 20
-85.78563365910914
 30
0.0
  0
VERTEX
  5
D5
330
C7
100
AcDbEntity
  8
Layer 1
 62
   250
370
     9
100
AcDbVertex
100
AcDb2dVertex
 10
136.1122775267358
 20
-85.78563365910914
 30
0.0
  0
VERTEX
  5
D6
330
C7
100
AcDbEntity
  8
Layer 1
 62
   250
370
     9
100
AcDbVertex
100
AcDb2dVertex
 10
136.1456949529427
 20
-85.78563365910914
 30
0.0
  0
VERTEX
  5
D7
330
C7
100
AcDbEntity
  8
Layer 1
 62
   250
370
     9
100
AcDbVertex
100
AcDb2dVertex
 10
136.1718776786306
 20
-85.78563365910914
 30
0.0
  0
VERTEX
  5
D8
330
C7
100
AcDbEntity
  8
Layer 1
 62
   250
370
     9
100
AcDbVertex
100
AcDb2dVertex
 10
136.204950595289
 20
-85.78563365910914
 30
0.0
  0
VERTEX
  5
D9
330
C7
100
AcDbEntity
  8
Layer 1
 62
   250
370
     9
100
AcDbVertex
100
AcDb2dVertex
 10
136.231822340074
 20
-85.78563365910914
 30
0.0
  0
VERTEX
  5
DA
330
C7
100
AcDbEntity
  8
Layer 1
 62
   250
370
     9
100
AcDbVertex
100
AcDb2dVertex
 10
136.2580050657619
 20
-85.78563365910914
 30
0.0
  0
VERTEX
  5
DB
330
C7
100
AcDbEntity
  8
Layer 1
 62
   250
370
     9
100
AcDbVertex
100
AcDb2dVertex
 10
136.2848768105468
 20
-85.78563365910914
 30
0.0
  0
VERTEX
  5
DC
330
C7
100
AcDbEntity
  8
Layer 1
 62
   250
370
     9
100
AcDbVertex
100
AcDb2dVertex
 10
136.3110595362347
 20
-85.78563365910914
 30
0.0
  0
VERTEX
  5
DD
330
C7
100
AcDbEntity
  8
Layer 1
 62
   250
370
     9
100
AcDbVertex
100
AcDb2dVertex
 10
136.3379312810196
 20
-85.78563365910914
 30
0.0
  0
VERTEX
  5
DE
330
C7
100
AcDbEntity
  8
Layer 1
 62
   250
370
     9
100
AcDbVertex
100
AcDb2dVertex
 10
136.3644585162561
 20
-85.78563365910914
 30
0.0
  0
VERTEX
  5
DF
330
C7
100
AcDbEntity
  8
Layer 1
 62
   250
370
     9
100
AcDbVertex
100
AcDb2dVertex
 10
136.384095560522
 20
-85.78563365910914
 30
0.0
  0
VERTEX
  5
E0
330
C7
100
AcDbEntity
  8
Layer 1
 62
   250
370
     9
100
AcDbVertex
100
AcDb2dVertex
 10
136.4040771143365
 20
-85.78563365910914
 30
0.0
  0
VERTEX
  5
E1
330
C7
100
AcDbEntity
  8
Layer 1
 62
   250
370
     9
100
AcDbVertex
100
AcDb2dVertex
 10
136.4240586681509
 20
-85.78563365910914
 30
0.0
  0
VERTEX
  5
E2
330
C7
100
AcDbEntity
  8
Layer 1
 62
   250
370
     9
100
AcDbVertex
100
AcDb2dVertex
 10
136.4440402219654
 20
-85.78563365910914
 30
0.0
  0
VERTEX
  5
E3
330
C7
100
AcDbEntity
  8
Layer 1
 62
   250
370
     9
100
AcDbVertex
100
AcDb2dVertex
 10
136.4574760943578
 20
-85.78563365910914
 30
0.0
  0
VERTEX
  5
E4
330
C7
100
AcDbEntity
  8
Layer 1
 62
   250
370
     9
100
AcDbVertex
100
AcDb2dVertex
 10
136.4705674572018
 20
-85.78563365910914
 30
0.0
  0
VERTEX
  5
E5
330
C7
100
AcDbEntity
  8
Layer 1
 62
   250
370
     9
100
AcDbVertex
100
AcDb2dVertex
 10
136.4836588200457
 20
-85.78563365910914
 30
0.0
  0
VERTEX
  5
E6
330
C7
100
AcDbEntity
  8
Layer 1
 62
   250
370
     9
100
AcDbVertex
100
AcDb2dVertex
 10
136.4902045014677
 20
-85.78563365910914
 30
0.0
  0
VERTEX
  5
E7
330
C7
100
AcDbEntity
  8
Layer 1
 62
   250
370
     9
100
AcDbVertex
100
AcDb2dVertex
 10
136.4970946924382
 20
-85.78563365910914
 30
0.0
  0
SEQEND
  5
E8
330
C7
100
AcDbEntity
  8
Layer 1
370
     9
  0
POLYLINE
  5
E9
330
56
100
AcDbEntity
  8
Layer 1
 62
   250
370
     9
100
AcDb2dPolyline
 66
     1
 10
0.0
 20
0.0
 30
0.0
  0
VERTEX
  5
EA
330
E9
100
AcDbEntity
  8
Layer 1
 62
   250
370
     9
100
AcDbVertex
100
AcDb2dVertex
 10
136.5236219276746
 20
-85.76582436006896
 30
0.0
  0
VERTEX
  5
EB
330
E9
100
AcDbEntity
  8
Layer 1
 62
   250
370
     9
100
AcDbVertex
100
AcDb2dVertex
 10
136.5236219276746
 20
-85.76582436006896
 30
0.0
  0
VERTEX
  5
EC
330
E9
100
AcDbEntity
  8
Layer 1
 62
   250
370
     9
100
AcDbVertex
100
AcDb2dVertex
 10
136.5170762462527
 20
-85.76582436006896
 30
0.0
  0
VERTEX
  5
ED
330
E9
100
AcDbEntity
  8
Layer 1
 62
   250
370
     9
100
AcDbVertex
100
AcDb2dVertex
 10
136.5101860552822
 20
-85.75910642387272
 30
0.0
  0
VERTEX
  5
EE
330
E9
100
AcDbEntity
  8
Layer 1
 62
   250
370
     9
100
AcDbVertex
100
AcDb2dVertex
 10
136.4970946924382
 20
-85.75910642387272
 30
0.0
  0
VERTEX
  5
EF
330
E9
100
AcDbEntity
  8
Layer 1
 62
   250
370
     9
100
AcDbVertex
100
AcDb2dVertex
 10
136.4836588200457
 20
-85.75910642387272
 30
0.0
  0
VERTEX
  5
F0
330
E9
100
AcDbEntity
  8
Layer 1
 62
   250
370
     9
100
AcDbVertex
100
AcDb2dVertex
 10
136.4640217757798
 20
-85.75910642387272
 30
0.0
  0
VERTEX
  5
F1
330
E9
100
AcDbEntity
  8
Layer 1
 62
   250
370
     9
100
AcDbVertex
100
AcDb2dVertex
 10
136.4440402219654
 20
-85.75910642387272
 30
0.0
  0
VERTEX
  5
F2
330
E9
100
AcDbEntity
  8
Layer 1
 62
   250
370
     9
100
AcDbVertex
100
AcDb2dVertex
 10
136.4240586681509
 20
-85.75910642387272
 30
0.0
  0
VERTEX
  5
F3
330
E9
100
AcDbEntity
  8
Layer 1
 62
   250
370
     9
100
AcDbVertex
100
AcDb2dVertex
 10
136.4040771143365
 20
-85.75910642387272
 30
0.0
  0
VERTEX
  5
F4
330
E9
100
AcDbEntity
  8
Layer 1
 62
   250
370
     9
100
AcDbVertex
100
AcDb2dVertex
 10
136.3778943886486
 20
-85.75910642387272
 30
0.0
  0
VERTEX
  5
F5
330
E9
100
AcDbEntity
  8
Layer 1
 62
   250
370
     9
100
AcDbVertex
100
AcDb2dVertex
 10
136.3510226438636
 20
-85.75910642387272
 30
0.0
  0
VERTEX
  5
F6
330
E9
100
AcDbEntity
  8
Layer 1
 62
   250
370
     9
100
AcDbVertex
100
AcDb2dVertex
 10
136.3244954086272
 20
-85.75910642387272
 30
0.0
  0
VERTEX
  5
F7
330
E9
100
AcDbEntity
  8
Layer 1
 62
   250
370
     9
100
AcDbVertex
100
AcDb2dVertex
 10
136.2979681733908
 20
-85.75910642387272
 30
0.0
  0
VERTEX
  5
F8
330
E9
100
AcDbEntity
  8
Layer 1
 62
   250
370
     9
100
AcDbVertex
100
AcDb2dVertex
 10
136.2717854477029
 20
-85.75910642387272
 30
0.0
  0
VERTEX
  5
F9
330
E9
100
AcDbEntity
  8
Layer 1
 62
   250
370
     9
100
AcDbVertex
100
AcDb2dVertex
 10
136.238368021496
 20
-85.75910642387272
 30
0.0
  0
VERTEX
  5
FA
330
E9
100
AcDbEntity
  8
Layer 1
 62
   250
370
     9
100
AcDbVertex
100
AcDb2dVertex
 10
136.204950595289
 20
-85.75910642387272
 30
0.0
  0
VERTEX
  5
FB
330
E9
100
AcDbEntity
  8
Layer 1
 62
   250
370
     9
100
AcDbVertex
100
AcDb2dVertex
 10
136.1787678696011
 20
-85.75910642387272
 30
0.0
  0
VERTEX
  5
FC
330
E9
100
AcDbEntity
  8
Layer 1
 62
   250
370
     9
100
AcDbVertex
100
AcDb2dVertex
 10
136.1456949529427
 20
-85.75910642387272
 30
0.0
  0
VERTEX
  5
FD
330
E9
100
AcDbEntity
  8
Layer 1
 62
   250
370
     9
100
AcDbVertex
100
AcDb2dVertex
 10
136.1122775267358
 20
-85.75910642387272
 30
0.0
  0
VERTEX
  5
FE
330
E9
100
AcDbEntity
  8
Layer 1
 62
   250
370
     9
100
AcDbVertex
100
AcDb2dVertex
 10
136.0788601005289
 20
-85.75910642387272
 30
0.0
  0
VERTEX
  5
FF
330
E9
100
AcDbEntity
  8
Layer 1
 62
   250
370
     9
100
AcDbVertex
100
AcDb2dVertex
 10
136.052677374841
 20
-85.75910642387272
 30
0.0
  0
VERTEX
  5
100
330
E9
100
AcDbEntity
  8
Layer 1
 62
   250
370
     9
100
AcDbVertex
100
AcDb2dVertex
 10
136.0196044581826
 20
-85.75910642387272
 30
0.0
  0
VERTEX
  5
101
330
E9
100
AcDbEntity
  8
Layer 1
 62
   250
370
     9
100
AcDbVertex
100
AcDb2dVertex
 10
135.9861870319756
 20
-85.75910642387272
 30
0.0
  0
VERTEX
  5
102
330
E9
100
AcDbEntity
  8
Layer 1
 62
   250
370
     9
100
AcDbVertex
100
AcDb2dVertex
 10
135.9596597967392
 20
-85.75910642387272
 30
0.0
  0
VERTEX
  5
103
330
E9
100
AcDbEntity
  8
Layer 1
 62
   250
370
     9
100
AcDbVertex
100
AcDb2dVertex
 10
135.9327880519543
 20
-85.75238848767648
 30
0.0
  0
VERTEX
  5
104
330
E9
100
AcDbEntity
  8
Layer 1
 62
   250
370
     9
100
AcDbVertex
100
AcDb2dVertex
 10
135.9066053262664
 20
-85.75238848767648
 30
0.0
  0
VERTEX
  5
105
330
E9
100
AcDbEntity
  8
Layer 1
 62
   250
370
     9
100
AcDbVertex
100
AcDb2dVertex
 10
135.8866237724519
 20
-85.75238848767648
 30
0.0
  0
VERTEX
  5
106
330
E9
100
AcDbEntity
  8
Layer 1
 62
   250
370
     9
100
AcDbVertex
100
AcDb2dVertex
 10
135.873532409608
 20
-85.75238848767648
 30
0.0
  0
VERTEX
  5
107
330
E9
100
AcDbEntity
  8
Layer 1
 62
   250
370
     9
100
AcDbVertex
100
AcDb2dVertex
 10
135.8535508557936
 20
-85.75238848767648
 30
0.0
  0
VERTEX
  5
108
330
E9
100
AcDbEntity
  8
Layer 1
 62
   250
370
     9
100
AcDbVertex
100
AcDb2dVertex
 10
135.846660664823
 20
-85.75238848767648
 30
0.0
  0
VERTEX
  5
109
330
E9
100
AcDbEntity
  8
Layer 1
 62
   250
370
     9
100
AcDbVertex
100
AcDb2dVertex
 10
135.8401149834011
 20
-85.75238848767648
 30
0.0
  0
VERTEX
  5
10A
330
E9
100
AcDbEntity
  8
Layer 1
 62
   250
370
     9
100
AcDbVertex
100
AcDb2dVertex
 10
135.8401149834011
 20
-85.75910642387272
 30
0.0
  0
SEQEND
  5
10B
330
E9
100
AcDbEntity
  8
Layer 1
370
     9
  0
SPLINE
  5
10C
330
56
100
AcDbEntity
  8
Layer 1
 62
   250
370
     9
100
AcDbSpline
210
0.0
220
0.0
230
1.0
 70
     8
 71
     3
 72
    11
 73
     7
 74
     0
 42
0.000000001
 43
0.0000000001
 40
0.0
 40
0.0
 40
0.0
 40
0.0
 40
1.0
 40
1.0
 40
1.0
 40
2.0
 40
2.0
 40
2.0
 40
2.0
 10
135.8404594929496
 20
-85.75876191432419
 30
0.0
 10
135.8397704738525
 20
-85.76547985052043
 30
0.0
 10
135.8414930215952
 20
-85.77237004149095
 30
0.0
 10
135.845971645726
 20
-85.77736542994456
 30
0.0
 10
135.8501057603083
 20
-85.78253307317243
 30
0.0
 10
135.8563069321817
 20
-85.78563365910914
 30
0.0
 10
135.8635416327008
 20
-85.78563365910914
 30
0.0
  0
SPLINE
  5
10D
330
56
100
AcDbEntity
  8
Layer 1
 62
   250
370
     9
100
AcDbSpline
210
0.0
220
0.0
230
1.0
 70
     8
 71
     3
 72
     8
 73
     4
 74
     0
 42
0.000000001
 43
0.0000000001
 40
0.0
 40
0.0
 40
0.0
 40
0.0
 40
1.0
 40
1.0
 40
1.0
 40
1.0
 10
136.5005397879235
 20
-85.78563365910914
 30
0.0
 10
136.5122531125733
 20
-85.78563365910914
 30
0.0
 10
136.521899379932
 20
-85.77684866562178
 30
0.0
 10
136.5232774181261
 20
-85.76530759574618
 30
0.0
  0
POLYLINE
  5
10E
330
56
100
AcDbEntity
  8
Layer 1
 62
   250
370
     9
100
AcDb2dPolyline
 66
     1
 10
0.0
 20
0.0
 30
0.0
  0
VERTEX
  5
10F
330
10E
100
AcDbEntity
  8
Layer 1
 62
   250
370
     9
100
AcDbVertex
100
AcDb2dVertex
 10
135.8401149834011
 20
-85.75910642387272
 30
0.0
  0
VERTEX
  5
110
330
10E
100
AcDbEntity
  8
Layer 1
 62
   250
370
     9
100
AcDbVertex
100
AcDb2dVertex
 10
136.6893310205151
 20
-80.15169675730582
 30
0.0
  0
SEQEND
  5
111
330
10E
100
AcDbEntity
  8
Layer 1
370
     9
  0
POLYLINE
  5
112
330
56
100
AcDbEntity
  8
Layer 1
 62
   250
370
     9
100
AcDb2dPolyline
 66
     1
 10
0.0
 20
0.0
 30
0.0
  0
VERTEX
  5
113
330
112
100
AcDbEntity
  8
Layer 1
 62
   250
370
     9
100
AcDbVertex
100
AcDb2dVertex
 10
137.2467474700286
 20
-80.15169675730582
 30
0.0
  0
VERTEX
  5
114
330
112
100
AcDbEntity
  8
Layer 1
 62
   250
370
     9
100
AcDbVertex
100
AcDb2dVertex
 10
136.5236219276746
 20
-85.76582436006896
 30
0.0
  0
SEQEND
  5
115
330
112
100
AcDbEntity
  8
Layer 1
370
     9
  0
POLYLINE
  5
116
330
56
100
AcDbEntity
  8
Layer 1
 62
   250
370
     9
100
AcDb2dPolyline
 66
     1
 10
0.0
 20
0.0
 30
0.0
  0
VERTEX
  5
117
330
116
100
AcDbEntity
  8
Layer 1
 62
   250
370
     9
100
AcDbVertex
100
AcDb2dVertex
 10
140.0803385066466
 20
-85.75910642387272
 30
0.0
  0
VERTEX
  5
118
330
116
100
AcDbEntity
  8
Layer 1
 62
   250
370
     9
100
AcDbVertex
100
AcDb2dVertex
 10
140.0803385066466
 20
-85.77219778671667
 30
0.0
  0
VERTEX
  5
119
330
116
100
AcDbEntity
  8
Layer 1
 62
   250
370
     9
100
AcDbVertex
100
AcDb2dVertex
 10
140.0803385066466
 20
-85.7789157229129
 30
0.0
  0
VERTEX
  5
11A
330
116
100
AcDbEntity
  8
Layer 1
 62
   250
370
     9
100
AcDbVertex
100
AcDb2dVertex
 10
140.0868841880685
 20
-85.78563365910914
 30
0.0
  0
VERTEX
  5
11B
330
116
100
AcDbEntity
  8
Layer 1
 62
   250
370
     9
100
AcDbVertex
100
AcDb2dVertex
 10
140.093774379039
 20
-85.78563365910914
 30
0.0
  0
SEQEND
  5
11C
330
116
100
AcDbEntity
  8
Layer 1
370
     9
  0
POLYLINE
  5
11D
330
56
100
AcDbEntity
  8
Layer 1
 62
   250
370
     9
100
AcDb2dPolyline
 66
     1
 10
0.0
 20
0.0
 30
0.0
  0
VERTEX
  5
11E
330
11D
100
AcDbEntity
  8
Layer 1
 62
   250
370
     9
100
AcDbVertex
100
AcDb2dVertex
 10
139.9146294138061
 20
-85.78563365910914
 30
0.0
  0
VERTEX
  5
11F
330
11D
100
AcDbEntity
  8
Layer 1
 62
   250
370
     9
100
AcDbVertex
100
AcDb2dVertex
 10
139.9146294138061
 20
-85.78563365910914
 30
0.0
  0
VERTEX
  5
120
330
11D
100
AcDbEntity
  8
Layer 1
 62
   250
370
     9
100
AcDbVertex
100
AcDb2dVertex
 10
139.9208305856795
 20
-85.78563365910914
 30
0.0
  0
VERTEX
  5
121
330
11D
100
AcDbEntity
  8
Layer 1
 62
   250
370
     9
100
AcDbVertex
100
AcDb2dVertex
 10
139.92772077665
 20
-85.78563365910914
 30
0.0
  0
VERTEX
  5
122
330
11D
100
AcDbEntity
  8
Layer 1
 62
   250
370
     9
100
AcDbVertex
100
AcDb2dVertex
 10
139.9346109676205
 20
-85.78563365910914
 30
0.0
  0
VERTEX
  5
123
330
11D
100
AcDbEntity
  8
Layer 1
 62
   250
370
     9
100
AcDbVertex
100
AcDb2dVertex
 10
139.9477023304644
 20
-85.78563365910914
 30
0.0
  0
VERTEX
  5
124
330
11D
100
AcDbEntity
  8
Layer 1
 62
   250
370
     9
100
AcDbVertex
100
AcDb2dVertex
 10
139.9545925214349
 20
-85.78563365910914
 30
0.0
  0
VERTEX
  5
125
330
11D
100
AcDbEntity
  8
Layer 1
 62
   250
370
     9
100
AcDbVertex
100
AcDb2dVertex
 10
139.9676838842789
 20
-85.78563365910914
 30
0.0
  0
VERTEX
  5
126
330
11D
100
AcDbEntity
  8
Layer 1
 62
   250
370
     9
100
AcDbVertex
100
AcDb2dVertex
 10
139.9807752471228
 20
-85.78563365910914
 30
0.0
  0
VERTEX
  5
127
330
11D
100
AcDbEntity
  8
Layer 1
 62
   250
370
     9
100
AcDbVertex
100
AcDb2dVertex
 10
139.9942111195153
 20
-85.78563365910914
 30
0.0
  0
VERTEX
  5
128
330
11D
100
AcDbEntity
  8
Layer 1
 62
   250
370
     9
100
AcDbVertex
100
AcDb2dVertex
 10
140.0207383547517
 20
-85.78563365910914
 30
0.0
  0
VERTEX
  5
129
330
11D
100
AcDbEntity
  8
Layer 1
 62
   250
370
     9
100
AcDbVertex
100
AcDb2dVertex
 10
140.0538112714101
 20
-85.78563365910914
 30
0.0
  0
VERTEX
  5
12A
330
11D
100
AcDbEntity
  8
Layer 1
 62
   250
370
     9
100
AcDbVertex
100
AcDb2dVertex
 10
140.093774379039
 20
-85.78563365910914
 30
0.0
  0
VERTEX
  5
12B
330
11D
100
AcDbEntity
  8
Layer 1
 62
   250
370
     9
100
AcDbVertex
100
AcDb2dVertex
 10
140.1268472956974
 20
-85.78563365910914
 30
0.0
  0
VERTEX
  5
12C
330
11D
100
AcDbEntity
  8
Layer 1
 62
   250
370
     9
100
AcDbVertex
100
AcDb2dVertex
 10
140.1599202123558
 20
-85.78563365910914
 30
0.0
  0
VERTEX
  5
12D
330
11D
100
AcDbEntity
  8
Layer 1
 62
   250
370
     9
100
AcDbVertex
100
AcDb2dVertex
 10
140.1929931290142
 20
-85.78563365910914
 30
0.0
  0
VERTEX
  5
12E
330
11D
100
AcDbEntity
  8
Layer 1
 62
   250
370
     9
100
AcDbVertex
100
AcDb2dVertex
 10
140.2329562366431
 20
-85.78563365910914
 30
0.0
  0
VERTEX
  5
12F
330
11D
100
AcDbEntity
  8
Layer 1
 62
   250
370
     9
100
AcDbVertex
100
AcDb2dVertex
 10
140.272919344272
 20
-85.78563365910914
 30
0.0
  0
VERTEX
  5
130
330
11D
100
AcDbEntity
  8
Layer 1
 62
   250
370
     9
100
AcDbVertex
100
AcDb2dVertex
 10
140.3059922609304
 20
-85.78563365910914
 30
0.0
  0
VERTEX
  5
131
330
11D
100
AcDbEntity
  8
Layer 1
 62
   250
370
     9
100
AcDbVertex
100
AcDb2dVertex
 10
140.3459553685593
 20
-85.78563365910914
 30
0.0
  0
VERTEX
  5
132
330
11D
100
AcDbEntity
  8
Layer 1
 62
   250
370
     9
100
AcDbVertex
100
AcDb2dVertex
 10
140.3790282852177
 20
-85.78563365910914
 30
0.0
  0
VERTEX
  5
133
330
11D
100
AcDbEntity
  8
Layer 1
 62
   250
370
     9
100
AcDbVertex
100
AcDb2dVertex
 10
140.3990098390322
 20
-85.78563365910914
 30
0.0
  0
VERTEX
  5
134
330
11D
100
AcDbEntity
  8
Layer 1
 62
   250
370
     9
100
AcDbVertex
100
AcDb2dVertex
 10
140.4189913928466
 20
-85.78563365910914
 30
0.0
  0
VERTEX
  5
135
330
11D
100
AcDbEntity
  8
Layer 1
 62
   250
370
     9
100
AcDbVertex
100
AcDb2dVertex
 10
140.4320827556906
 20
-85.78563365910914
 30
0.0
  0
VERTEX
  5
136
330
11D
100
AcDbEntity
  8
Layer 1
 62
   250
370
     9
100
AcDbVertex
100
AcDb2dVertex
 10
140.4451741185345
 20
-85.78563365910914
 30
0.0
  0
VERTEX
  5
137
330
11D
100
AcDbEntity
  8
Layer 1
 62
   250
370
     9
100
AcDbVertex
100
AcDb2dVertex
 10
140.465155672349
 20
-85.78563365910914
 30
0.0
  0
VERTEX
  5
138
330
11D
100
AcDbEntity
  8
Layer 1
 62
   250
370
     9
100
AcDbVertex
100
AcDb2dVertex
 10
140.4785915447414
 20
-85.78563365910914
 30
0.0
  0
VERTEX
  5
139
330
11D
100
AcDbEntity
  8
Layer 1
 62
   250
370
     9
100
AcDbVertex
100
AcDb2dVertex
 10
140.4920274171339
 20
-85.78563365910914
 30
0.0
  0
VERTEX
  5
13A
330
11D
100
AcDbEntity
  8
Layer 1
 62
   250
370
     9
100
AcDbVertex
100
AcDb2dVertex
 10
140.5051187799779
 20
-85.78563365910914
 30
0.0
  0
VERTEX
  5
13B
330
11D
100
AcDbEntity
  8
Layer 1
 62
   250
370
     9
100
AcDbVertex
100
AcDb2dVertex
 10
140.5120089709484
 20
-85.78563365910914
 30
0.0
  0
VERTEX
  5
13C
330
11D
100
AcDbEntity
  8
Layer 1
 62
   250
370
     9
100
AcDbVertex
100
AcDb2dVertex
 10
140.5251003337923
 20
-85.78563365910914
 30
0.0
  0
VERTEX
  5
13D
330
11D
100
AcDbEntity
  8
Layer 1
 62
   250
370
     9
100
AcDbVertex
100
AcDb2dVertex
 10
140.5316460152143
 20
-85.78563365910914
 30
0.0
  0
VERTEX
  5
13E
330
11D
100
AcDbEntity
  8
Layer 1
 62
   250
370
     9
100
AcDbVertex
100
AcDb2dVertex
 10
140.5381916966363
 20
-85.78563365910914
 30
0.0
  0
VERTEX
  5
13F
330
11D
100
AcDbEntity
  8
Layer 1
 62
   250
370
     9
100
AcDbVertex
100
AcDb2dVertex
 10
140.5450818876068
 20
-85.78563365910914
 30
0.0
  0
SEQEND
  5
140
330
11D
100
AcDbEntity
  8
Layer 1
370
     9
  0
POLYLINE
  5
141
330
56
100
AcDbEntity
  8
Layer 1
 62
   250
370
     9
100
AcDb2dPolyline
 66
     1
 10
0.0
 20
0.0
 30
0.0
  0
VERTEX
  5
142
330
141
100
AcDbEntity
  8
Layer 1
 62
   250
370
     9
100
AcDbVertex
100
AcDb2dVertex
 10
140.5712646132947
 20
-85.75910642387272
 30
0.0
  0
VERTEX
  5
143
330
141
100
AcDbEntity
  8
Layer 1
 62
   250
370
     9
100
AcDbVertex
100
AcDb2dVertex
 10
140.5712646132947
 20
-85.75238848767648
 30
0.0
  0
VERTEX
  5
144
330
141
100
AcDbEntity
  8
Layer 1
 62
   250
370
     9
100
AcDbVertex
100
AcDb2dVertex
 10
140.5650634414212
 20
-85.75238848767648
 30
0.0
  0
VERTEX
  5
145
330
141
100
AcDbEntity
  8
Layer 1
 62
   250
370
     9
100
AcDbVertex
100
AcDb2dVertex
 10
140.5581732504507
 20
-85.75238848767648
 30
0.0
  0
VERTEX
  5
146
330
141
100
AcDbEntity
  8
Layer 1
 62
   250
370
     9
100
AcDbVertex
100
AcDb2dVertex
 10
140.5512830594802
 20
-85.75238848767648
 30
0.0
  0
VERTEX
  5
147
330
141
100
AcDbEntity
  8
Layer 1
 62
   250
370
     9
100
AcDbVertex
100
AcDb2dVertex
 10
140.5450818876068
 20
-85.75238848767648
 30
0.0
  0
VERTEX
  5
148
330
141
100
AcDbEntity
  8
Layer 1
 62
   250
370
     9
100
AcDbVertex
100
AcDb2dVertex
 10
140.5381916966363
 20
-85.75238848767648
 30
0.0
  0
VERTEX
  5
149
330
141
100
AcDbEntity
  8
Layer 1
 62
   250
370
     9
100
AcDbVertex
100
AcDb2dVertex
 10
140.5251003337923
 20
-85.75238848767648
 30
0.0
  0
VERTEX
  5
14A
330
141
100
AcDbEntity
  8
Layer 1
 62
   250
370
     9
100
AcDbVertex
100
AcDb2dVertex
 10
140.5120089709484
 20
-85.75238848767648
 30
0.0
  0
VERTEX
  5
14B
330
141
100
AcDbEntity
  8
Layer 1
 62
   250
370
     9
100
AcDbVertex
100
AcDb2dVertex
 10
140.4985730985559
 20
-85.75238848767648
 30
0.0
  0
VERTEX
  5
14C
330
141
100
AcDbEntity
  8
Layer 1
 62
   250
370
     9
100
AcDbVertex
100
AcDb2dVertex
 10
140.4785915447414
 20
-85.75238848767648
 30
0.0
  0
VERTEX
  5
14D
330
141
100
AcDbEntity
  8
Layer 1
 62
   250
370
     9
100
AcDbVertex
100
AcDb2dVertex
 10
140.465155672349
 20
-85.75238848767648
 30
0.0
  0
VERTEX
  5
14E
330
141
100
AcDbEntity
  8
Layer 1
 62
   250
370
     9
100
AcDbVertex
100
AcDb2dVertex
 10
140.4451741185345
 20
-85.75910642387272
 30
0.0
  0
VERTEX
  5
14F
330
141
100
AcDbEntity
  8
Layer 1
 62
   250
370
     9
100
AcDbVertex
100
AcDb2dVertex
 10
140.4320827556906
 20
-85.75910642387272
 30
0.0
  0
VERTEX
  5
150
330
141
100
AcDbEntity
  8
Layer 1
 62
   250
370
     9
100
AcDbVertex
100
AcDb2dVertex
 10
140.4121012018761
 20
-85.75910642387272
 30
0.0
  0
VERTEX
  5
151
330
141
100
AcDbEntity
  8
Layer 1
 62
   250
370
     9
100
AcDbVertex
100
AcDb2dVertex
 10
140.3921196480617
 20
-85.75910642387272
 30
0.0
  0
VERTEX
  5
152
330
141
100
AcDbEntity
  8
Layer 1
 62
   250
370
     9
100
AcDbVertex
100
AcDb2dVertex
 10
140.3721380942472
 20
-85.75910642387272
 30
0.0
  0
VERTEX
  5
153
330
141
100
AcDbEntity
  8
Layer 1
 62
   250
370
     9
100
AcDbVertex
100
AcDb2dVertex
 10
140.3525010499813
 20
-85.75910642387272
 30
0.0
  0
VERTEX
  5
154
330
141
100
AcDbEntity
  8
Layer 1
 62
   250
370
     9
100
AcDbVertex
100
AcDb2dVertex
 10
140.3128824519009
 20
-85.75910642387272
 30
0.0
  0
VERTEX
  5
155
330
141
100
AcDbEntity
  8
Layer 1
 62
   250
370
     9
100
AcDbVertex
100
AcDb2dVertex
 10
140.272919344272
 20
-85.75910642387272
 30
0.0
  0
VERTEX
  5
156
330
141
100
AcDbEntity
  8
Layer 1
 62
   250
370
     9
100
AcDbVertex
100
AcDb2dVertex
 10
140.2329562366431
 20
-85.75910642387272
 30
0.0
  0
VERTEX
  5
157
330
141
100
AcDbEntity
  8
Layer 1
 62
   250
370
     9
100
AcDbVertex
100
AcDb2dVertex
 10
140.1929931290142
 20
-85.75910642387272
 30
0.0
  0
VERTEX
  5
158
330
141
100
AcDbEntity
  8
Layer 1
 62
   250
370
     9
100
AcDbVertex
100
AcDb2dVertex
 10
140.1533745309339
 20
-85.75910642387272
 30
0.0
  0
VERTEX
  5
159
330
141
100
AcDbEntity
  8
Layer 1
 62
   250
370
     9
100
AcDbVertex
100
AcDb2dVertex
 10
140.1137559328535
 20
-85.75910642387272
 30
0.0
  0
VERTEX
  5
15A
330
141
100
AcDbEntity
  8
Layer 1
 62
   250
370
     9
100
AcDbVertex
100
AcDb2dVertex
 10
140.0803385066466
 20
-85.75910642387272
 30
0.0
  0
VERTEX
  5
15B
330
141
100
AcDbEntity
  8
Layer 1
 62
   250
370
     9
100
AcDbVertex
100
AcDb2dVertex
 10
140.0407199085662
 20
-85.75910642387272
 30
0.0
  0
VERTEX
  5
15C
330
141
100
AcDbEntity
  8
Layer 1
 62
   250
370
     9
100
AcDbVertex
100
AcDb2dVertex
 10
140.0007568009373
 20
-85.75910642387272
 30
0.0
  0
VERTEX
  5
15D
330
141
100
AcDbEntity
  8
Layer 1
 62
   250
370
     9
100
AcDbVertex
100
AcDb2dVertex
 10
139.9876654380933
 20
-85.75910642387272
 30
0.0
  0
VERTEX
  5
15E
330
141
100
AcDbEntity
  8
Layer 1
 62
   250
370
     9
100
AcDbVertex
100
AcDb2dVertex
 10
139.9745740752494
 20
-85.75910642387272
 30
0.0
  0
VERTEX
  5
15F
330
141
100
AcDbEntity
  8
Layer 1
 62
   250
370
     9
100
AcDbVertex
100
AcDb2dVertex
 10
139.9545925214349
 20
-85.75910642387272
 30
0.0
  0
VERTEX
  5
160
330
141
100
AcDbEntity
  8
Layer 1
 62
   250
370
     9
100
AcDbVertex
100
AcDb2dVertex
 10
139.9408121394939
 20
-85.75910642387272
 30
0.0
  0
VERTEX
  5
161
330
141
100
AcDbEntity
  8
Layer 1
 62
   250
370
     9
100
AcDbVertex
100
AcDb2dVertex
 10
139.9346109676205
 20
-85.75910642387272
 30
0.0
  0
VERTEX
  5
162
330
141
100
AcDbEntity
  8
Layer 1
 62
   250
370
     9
100
AcDbVertex
100
AcDb2dVertex
 10
139.9208305856795
 20
-85.75910642387272
 30
0.0
  0
VERTEX
  5
163
330
141
100
AcDbEntity
  8
Layer 1
 62
   250
370
     9
100
AcDbVertex
100
AcDb2dVertex
 10
139.9146294138061
 20
-85.75910642387272
 30
0.0
  0
VERTEX
  5
164
330
141
100
AcDbEntity
  8
Layer 1
 62
   250
370
     9
100
AcDbVertex
100
AcDb2dVertex
 10
139.9015380509621
 20
-85.75910642387272
 30
0.0
  0
VERTEX
  5
165
330
141
100
AcDbEntity
  8
Layer 1
 62
   250
370
     9
100
AcDbVertex
100
AcDb2dVertex
 10
139.8946478599916
 20
-85.76582436006896
 30
0.0
  0
VERTEX
  5
166
330
141
100
AcDbEntity
  8
Layer 1
 62
   250
370
     9
100
AcDbVertex
100
AcDb2dVertex
 10
139.8877576690211
 20
-85.76582436006896
 30
0.0
  0
SEQEND
  5
167
330
141
100
AcDbEntity
  8
Layer 1
370
     9
  0
POLYLINE
  5
168
330
56
100
AcDbEntity
  8
Layer 1
 62
   250
370
     9
100
AcDb2dPolyline
 66
     1
 10
0.0
 20
0.0
 30
0.0
  0
VERTEX
  5
169
330
168
100
AcDbEntity
  8
Layer 1
 62
   250
370
     9
100
AcDbVertex
100
AcDb2dVertex
 10
140.0803385066466
 20
-85.75910642387272
 30
0.0
  0
VERTEX
  5
16A
330
168
100
AcDbEntity
  8
Layer 1
 62
   250
370
     9
100
AcDbVertex
100
AcDb2dVertex
 10
140.0803385066466
 20
-85.75910642387272
 30
0.0
  0
SEQEND
  5
16B
330
168
100
AcDbEntity
  8
Layer 1
370
     9
  0
SPLINE
  5
16C
330
56
100
AcDbEntity
  8
Layer 1
 62
   250
370
     9
100
AcDbSpline
210
0.0
220
0.0
230
1.0
 70
     8
 71
     3
 72
    11
 73
     7
 74
     0
 42
0.000000001
 43
0.0000000001
 40
0.0
 40
0.0
 40
0.0
 40
0.0
 40
1.0
 40
1.0
 40
1.0
 40
2.0
 40
2.0
 40
2.0
 40
2.0
 10
140.5481824735435
 20
-85.78563365910914
 30
0.0
 10
140.555072664514
 20
-85.78563365910914
 30
0.0
 10
140.561618345936
 20
-85.78253307317243
 30
0.0
 10
140.5657524605183
 20
-85.77736542994456
 30
0.0
 10
140.5702310846491
 20
-85.77237004149095
 30
0.0
 10
140.5722981419402
 20
-85.76547985052043
 30
0.0
 10
140.5712646132947
 20
-85.75876191432419
 30
0.0
  0
SPLINE
  5
16D
330
56
100
AcDbEntity
  8
Layer 1
 62
   250
370
     9
100
AcDbSpline
210
0.0
220
0.0
230
1.0
 70
     8
 71
     3
 72
     8
 73
     4
 74
     0
 42
0.000000001
 43
0.0000000001
 40
0.0
 40
0.0
 40
0.0
 40
0.0
 40
1.0
 40
1.0
 40
1.0
 40
1.0
 10
139.8946478599916
 20
-85.76530759574618
 30
0.0
 10
139.8960258981857
 20
-85.77684866562178
 30
0.0
 10
139.9063611846415
 20
-85.78563365910914
 30
0.0
 10
139.9180745092913
 20
-85.78563365910914
 30
0.0
  0
POLYLINE
  5
16E
330
56
100
AcDbEntity
  8
Layer 1
 62
   250
370
     9
100
AcDb2dPolyline
 66
     1
 10
0.0
 20
0.0
 30
0.0
  0
VERTEX
  5
16F
330
16E
100
AcDbEntity
  8
Layer 1
 62
   250
370
     9
100
AcDbVertex
100
AcDb2dVertex
 10
139.8877576690211
 20
-85.76582436006896
 30
0.0
  0
VERTEX
  5
170
330
16E
100
AcDbEntity
  8
Layer 1
 62
   250
370
     9
100
AcDbVertex
100
AcDb2dVertex
 10
139.1646321266672
 20
-80.15169675730582
 30
0.0
  0
SEQEND
  5
171
330
16E
100
AcDbEntity
  8
Layer 1
370
     9
  0
POLYLINE
  5
172
330
56
100
AcDbEntity
  8
Layer 1
 62
   250
370
     9
100
AcDb2dPolyline
 66
     1
 10
0.0
 20
0.0
 30
0.0
  0
VERTEX
  5
173
330
172
100
AcDbEntity
  8
Layer 1
 62
   250
370
     9
100
AcDbVertex
100
AcDb2dVertex
 10
139.7220485761806
 20
-80.15169675730582
 30
0.0
  0
VERTEX
  5
174
330
172
100
AcDbEntity
  8
Layer 1
 62
   250
370
     9
100
AcDbVertex
100
AcDb2dVertex
 10
140.5712646132947
 20
-85.75910642387272
 30
0.0
  0
SEQEND
  5
175
330
172
100
AcDbEntity
  8
Layer 1
370
     9
  0
ENDBLK
  5
59
330
56
100
AcDbEntity
  8
0
100
AcDbBlockEnd
  0
BLOCK
  5
178
330
176
100
AcDbEntity
  8
0
100
AcDbBlockBegin
  2
block 9
 70
     0
 10
0.0
 20
0.0
 30
0.0
  3
block 9
  1

  0
MTEXT
  5
17A
330
176
100
AcDbEntity
  8
Layer 1
 62
   251
100
AcDbMText
 10
161.6631727026397
 20
-78.40210501512171
 30
0.0
 40
1.559277777387958
 41
0.0
 46
0.0
 71
     7
 72
     1
  1
\fApercu|b0|i0|c0|p34;\W1.0004;45
 73
     1
 44
1.0
  0
MTEXT
  5
17B
330
176
100
AcDbEntity
  8
Layer 1
 62
   251
100
AcDbMText
 10
160.0543131110281
 20
-89.90889619063041
 30
0.0
 40
1.559277777387958
 41
0.0
 46
0.0
 71
     7
 72
     1
  1
\fApercu|b1|i0|c0|p34;\W1.0004;OB45
 73
     1
 44
1.0
  0
INSERT
  5
17D
330
176
100
AcDbEntity
  8
Layer 1
100
AcDbBlockReference
  2
block 10
 10
0.0
 20
0.0
 30
0.0
  0
ENDBLK
  5
179
330
176
100
AcDbEntity
  8
0
100
AcDbBlockEnd
  0
BLOCK
  5
17E
330
17C
100
AcDbEntity
  8
0
100
AcDbBlockBegin
  2
block 10
 70
     0
 10
0.0
 20
0.0
 30
0.0
  3
block 10
  1

  0
SPLINE
  5
180
330
17C
100
AcDbEntity
  8
Layer 1
 62
   250
370
     9
100
AcDbSpline
210
0.0
220
0.0
230
1.0
 70
     8
 71
     3
 72
    17
 73
    13
 74
     0
 42
0.000000001
 43
0.0000000001
 40
0.0
 40
0.0
 40
0.0
 40
0.0
 40
1.0
 40
1.0
 40
1.0
 40
2.0
 40
2.0
 40
2.0
 40
3.0
 40
3.0
 40
3.0
 40
4.0
 40
4.0
 40
4.0
 40
4.0
 10
160.0746391743911
 20
-82.8490342674822
 30
0.0
 10
160.0746391743911
 20
-84.47064071238928
 30
0.0
 10
161.3885985924653
 20
-85.78528914956063
 30
0.0
 10
163.010549546921
 20
-85.78563365910914
 30
0.0
 10
164.6321559918281
 20
-85.78563365910914
 30
0.0
 10
165.9471489385479
 20
-84.4715019862606
 30
0.0
 10
165.9471489385479
 20
-82.8498955413535
 30
0.0
 10
165.947837957645
 20
-81.2282890964464
 30
0.0
 10
164.6331895204736
 20
-79.91346840450081
 30
0.0
 10
163.011927585115
 20
-79.91277938540375
 30
0.0
 10
161.3899766306594
 20
-79.91243487585522
 30
0.0
 10
160.0753281934881
 20
-81.22673880347804
 30
0.0
 10
160.0746391743911
 20
-82.84834524838514
 30
0.0
  0
POLYLINE
  5
181
330
17C
100
AcDbEntity
  8
Layer 1
 62
   250
370
     9
100
AcDb2dPolyline
 66
     1
 10
0.0
 20
0.0
 30
0.0
  0
VERTEX
  5
182
330
181
100
AcDbEntity
  8
Layer 1
 62
   250
370
     9
100
AcDbVertex
100
AcDb2dVertex
 10
163.0174397378915
 20
-81.1406114163468
 30
0.0
  0
VERTEX
  5
183
330
181
100
AcDbEntity
  8
Layer 1
 62
   250
370
     9
100
AcDbVertex
100
AcDb2dVertex
 10
163.0174397378915
 20
-81.69802786586023
 30
0.0
  0
SEQEND
  5
184
330
181
100
AcDbEntity
  8
Layer 1
370
     9
  0
POLYLINE
  5
185
330
17C
100
AcDbEntity
  8
Layer 1
 62
   250
370
     9
100
AcDb2dPolyline
 66
     1
 10
0.0
 20
0.0
 30
0.0
  0
VERTEX
  5
186
330
185
100
AcDbEntity
  8
Layer 1
 62
   250
370
     9
100
AcDbVertex
100
AcDb2dVertex
 10
162.0114718561985
 20
-83.42488197784168
 30
0.0
  0
VERTEX
  5
187
330
185
100
AcDbEntity
  8
Layer 1
 62
   250
370
     9
100
AcDbVertex
100
AcDb2dVertex
 10
161.5284694691665
 20
-83.70031736188742
 30
0.0
  0
SEQEND
  5
188
330
185
100
AcDbEntity
  8
Layer 1
370
     9
  0
POLYLINE
  5
189
330
17C
100
AcDbEntity
  8
Layer 1
 62
   250
370
     9
100
AcDb2dPolyline
 66
     1
 10
0.0
 20
0.0
 30
0.0
  0
VERTEX
  5
18A
330
189
100
AcDbEntity
  8
Layer 1
 62
   250
370
     9
100
AcDbVertex
100
AcDb2dVertex
 10
164.004115084867
 20
-83.43159991403792
 30
0.0
  0
VERTEX
  5
18B
330
189
100
AcDbEntity
  8
Layer 1
 62
   250
370
     9
100
AcDbVertex
100
AcDb2dVertex
 10
164.486428452802
 20
-83.71375323427988
 30
0.0
  0
SEQEND
  5
18C
330
189
100
AcDbEntity
  8
Layer 1
370
     9
  0
ENDBLK
  5
17F
330
17C
100
AcDbEntity
  8
0
100
AcDbBlockEnd
  0
BLOCK
  5
18F
330
18D
100
AcDbEntity
  8
0
100
AcDbBlockBegin
  2
block 11
 70
     0
 10
0.0
 20
0.0
 30
0.0
  3
block 11
  1

  0
MTEXT
  5
191
330
18D
100
AcDbEntity
  8
Layer 1
 62
   251
100
AcDbMText
 10
143.5729763095928
 20
-104.4859564625938
 30
0.0
 40
1.559277777387958
 41
0.0
 46
0.0
 71
     7
 72
     1
  1
\fApercu|b0|i0|c0|p34;\W1.0004;32
 73
     1
 44
1.0
  0
INSERT
  5
193
330
18D
100
AcDbEntity
  8
Layer 1
100
AcDbBlockReference
  2
block 12
 10
0.0
 20
0.0
 30
0.0
  0
ENDBLK
  5
190
330
18D
100
AcDbEntity
  8
0
100
AcDbBlockEnd
  0
BLOCK
  5
194
330
192
100
AcDbEntity
  8
0
100
AcDbBlockBegin
  2
block 12
 70
     0
 10
0.0
 20
0.0
 30
0.0
  3
block 12
  1

  0
POLYLINE
  5
196
330
192
100
AcDbEntity
  8
Layer 1
 62
   250
370
     9
100
AcDb2dPolyline
 66
     1
 10
0.0
 20
0.0
 30
0.0
  0
VERTEX
  5
197
330
196
100
AcDbEntity
  8
Layer 1
 62
   250
370
     9
100
AcDbVertex
100
AcDb2dVertex
 10
142.1773681285182
 20
-101.7691541629258
 30
0.0
  0
VERTEX
  5
198
330
196
100
AcDbEntity
  8
Layer 1
 62
   250
370
     9
100
AcDbVertex
100
AcDb2dVertex
 10
141.9830647431501
 20
-101.9336574723464
 30
0.0
  0
VERTEX
  5
199
330
196
100
AcDbEntity
  8
Layer 1
 62
   250
370
     9
100
AcDbVertex
100
AcDb2dVertex
 10
134.5251220366812
 20
-101.9336574723464
 30
0.0
  0
VERTEX
  5
19A
330
196
100
AcDbEntity
  8
Layer 1
 62
   250
370
     9
100
AcDbVertex
100
AcDb2dVertex
 10
134.3301296322161
 20
-101.7691541629258
 30
0.0
  0
SEQEND
  5
19B
330
196
100
AcDbEntity
  8
Layer 1
370
     9
  0
POLYLINE
  5
19C
330
192
100
AcDbEntity
  8
Layer 1
 62
   250
370
     9
100
AcDb2dPolyline
 66
     1
 10
0.0
 20
0.0
 30
0.0
  0
VERTEX
  5
19D
330
19C
100
AcDbEntity
  8
Layer 1
 62
   250
370
     9
100
AcDbVertex
100
AcDb2dVertex
 10
134.3804280263007
 20
-101.6894002024422
 30
0.0
  0
VERTEX
  5
19E
330
19C
100
AcDbEntity
  8
Layer 1
 62
   250
370
     9
100
AcDbVertex
100
AcDb2dVertex
 10
142.1277587535305
 20
-101.6894002024422
 30
0.0
  0
SEQEND
  5
19F
330
19C
100
AcDbEntity
  8
Layer 1
370
     9
  0
SPLINE
  5
1A0
330
192
100
AcDbEntity
  8
Layer 1
 62
   250
370
     9
100
AcDbSpline
210
0.0
220
0.0
230
1.0
 70
     8
 71
     3
 72
     8
 73
     4
 74
     0
 42
0.000000001
 43
0.0000000001
 40
0.0
 40
0.0
 40
0.0
 40
0.0
 40
1.0
 40
1.0
 40
1.0
 40
1.0
 10
134.3776719499125
 20
-101.6894002024422
 30
0.0
 10
134.3487331478364
 20
-101.6894002024422
 30
0.0
 10
134.3253064985367
 20
-101.7128268517419
 30
0.0
 10
134.3253064985367
 20
-101.741765653818
 30
0.0
  0
SPLINE
  5
1A1
330
192
100
AcDbEntity
  8
Layer 1
 62
   250
370
     9
100
AcDbSpline
210
0.0
220
0.0
230
1.0
 70
     8
 71
     3
 72
     8
 73
     4
 74
     0
 42
0.000000001
 43
0.0000000001
 40
0.0
 40
0.0
 40
0.0
 40
0.0
 40
1.0
 40
1.0
 40
1.0
 40
1.0
 10
142.1773681285182
 20
-101.741765653818
 30
0.0
 10
142.1773681285182
 20
-101.7128268517419
 30
0.0
 10
142.1539414792184
 20
-101.6894002024422
 30
0.0
 10
142.1250026771423
 20
-101.6894002024422
 30
0.0
  0
POLYLINE
  5
1A2
330
192
100
AcDbEntity
  8
Layer 1
 62
   250
370
     9
100
AcDb2dPolyline
 66
     1
 10
0.0
 20
0.0
 30
0.0
  0
VERTEX
  5
1A3
330
1A2
100
AcDbEntity
  8
Layer 1
 62
   250
370
     9
100
AcDbVertex
100
AcDb2dVertex
 10
134.3301296322161
 20
-101.7691541629258
 30
0.0
  0
VERTEX
  5
1A4
330
1A2
100
AcDbEntity
  8
Layer 1
 62
   250
370
     9
100
AcDbVertex
100
AcDb2dVertex
 10
134.3301296322161
 20
-101.7391818322041
 30
0.0
  0
SEQEND
  5
1A5
330
1A2
100
AcDbEntity
  8
Layer 1
370
     9
  0
POLYLINE
  5
1A6
330
192
100
AcDbEntity
  8
Layer 1
 62
   250
370
     9
100
AcDb2dPolyline
 66
     1
 10
0.0
 20
0.0
 30
0.0
  0
VERTEX
  5
1A7
330
1A6
100
AcDbEntity
  8
Layer 1
 62
   250
370
     9
100
AcDbVertex
100
AcDb2dVertex
 10
142.1773681285182
 20
-101.7691541629258
 30
0.0
  0
VERTEX
  5
1A8
330
1A6
100
AcDbEntity
  8
Layer 1
 62
   250
370
     9
100
AcDbVertex
100
AcDb2dVertex
 10
142.1773681285182
 20
-101.7391818322041
 30
0.0
  0
SEQEND
  5
1A9
330
1A6
100
AcDbEntity
  8
Layer 1
370
     9
  0
POLYLINE
  5
1AA
330
192
100
AcDbEntity
  8
Layer 1
 62
   250
370
     9
100
AcDb2dPolyline
 66
     1
 10
0.0
 20
0.0
 30
0.0
  0
VERTEX
  5
1AB
330
1AA
100
AcDbEntity
  8
Layer 1
 62
   250
370
     9
100
AcDbVertex
100
AcDb2dVertex
 10
138.527978480993
 20
-105.8722628858583
 30
0.0
  0
VERTEX
  5
1AC
330
1AA
100
AcDbEntity
  8
Layer 1
 62
   250
370
     9
100
AcDbVertex
100
AcDb2dVertex
 10
138.527978480993
 20
-105.8722628858583
 30
0.0
  0
VERTEX
  5
1AD
330
1AA
100
AcDbEntity
  8
Layer 1
 62
   250
370
     9
100
AcDbVertex
100
AcDb2dVertex
 10
138.5231553473136
 20
-105.8722628858583
 30
0.0
  0
VERTEX
  5
1AE
330
1AA
100
AcDbEntity
  8
Layer 1
 62
   250
370
     9
100
AcDbVertex
100
AcDb2dVertex
 10
138.5179877040858
 20
-105.8722628858583
 30
0.0
  0
VERTEX
  5
1AF
330
1AA
100
AcDbEntity
  8
Layer 1
 62
   250
370
     9
100
AcDbVertex
100
AcDb2dVertex
 10
138.5083414367271
 20
-105.8722628858583
 30
0.0
  0
VERTEX
  5
1B0
330
1AA
100
AcDbEntity
  8
Layer 1
 62
   250
370
     9
100
AcDbVertex
100
AcDb2dVertex
 10
138.4980061502713
 20
-105.8722628858583
 30
0.0
  0
VERTEX
  5
1B1
330
1AA
100
AcDbEntity
  8
Layer 1
 62
   250
370
     9
100
AcDbVertex
100
AcDb2dVertex
 10
138.4835367492333
 20
-105.8722628858583
 30
0.0
  0
VERTEX
  5
1B2
330
1AA
100
AcDbEntity
  8
Layer 1
 62
   250
370
     9
100
AcDbVertex
100
AcDb2dVertex
 10
138.4683783290982
 20
-105.8722628858583
 30
0.0
  0
VERTEX
  5
1B3
330
1AA
100
AcDbEntity
  8
Layer 1
 62
   250
370
     9
100
AcDbVertex
100
AcDb2dVertex
 10
138.4532199089631
 20
-105.8722628858583
 30
0.0
  0
VERTEX
  5
1B4
330
1AA
100
AcDbEntity
  8
Layer 1
 62
   250
370
     9
100
AcDbVertex
100
AcDb2dVertex
 10
138.4332383551486
 20
-105.8722628858583
 30
0.0
  0
VERTEX
  5
1B5
330
1AA
100
AcDbEntity
  8
Layer 1
 62
   250
370
     9
100
AcDbVertex
100
AcDb2dVertex
 10
138.4132568013342
 20
-105.8722628858583
 30
0.0
  0
VERTEX
  5
1B6
330
1AA
100
AcDbEntity
  8
Layer 1
 62
   250
370
     9
100
AcDbVertex
100
AcDb2dVertex
 10
138.3884521138404
 20
-105.8722628858583
 30
0.0
  0
VERTEX
  5
1B7
330
1AA
100
AcDbEntity
  8
Layer 1
 62
   250
370
     9
100
AcDbVertex
100
AcDb2dVertex
 10
138.3636474263466
 20
-105.8722628858583
 30
0.0
  0
VERTEX
  5
1B8
330
1AA
100
AcDbEntity
  8
Layer 1
 62
   250
370
     9
100
AcDbVertex
100
AcDb2dVertex
 10
138.3388427388528
 20
-105.8722628858583
 30
0.0
  0
VERTEX
  5
1B9
330
1AA
100
AcDbEntity
  8
Layer 1
 62
   250
370
     9
100
AcDbVertex
100
AcDb2dVertex
 10
138.3088704081311
 20
-105.8722628858583
 30
0.0
  0
VERTEX
  5
1BA
330
1AA
100
AcDbEntity
  8
Layer 1
 62
   250
370
     9
100
AcDbVertex
100
AcDb2dVertex
 10
138.2788980774094
 20
-105.8722628858583
 30
0.0
  0
VERTEX
  5
1BB
330
1AA
100
AcDbEntity
  8
Layer 1
 62
   250
370
     9
100
AcDbVertex
100
AcDb2dVertex
 10
138.2489257466877
 20
-105.8722628858583
 30
0.0
  0
VERTEX
  5
1BC
330
1AA
100
AcDbEntity
  8
Layer 1
 62
   250
370
     9
100
AcDbVertex
100
AcDb2dVertex
 10
138.2237765496454
 20
-105.8722628858583
 30
0.0
  0
VERTEX
  5
1BD
330
1AA
100
AcDbEntity
  8
Layer 1
 62
   250
370
     9
100
AcDbVertex
100
AcDb2dVertex
 10
138.1941487284723
 20
-105.8722628858583
 30
0.0
  0
VERTEX
  5
1BE
330
1AA
100
AcDbEntity
  8
Layer 1
 62
   250
370
     9
100
AcDbVertex
100
AcDb2dVertex
 10
138.1641763977506
 20
-105.8722628858583
 30
0.0
  0
VERTEX
  5
1BF
330
1AA
100
AcDbEntity
  8
Layer 1
 62
   250
370
     9
100
AcDbVertex
100
AcDb2dVertex
 10
138.1393717102568
 20
-105.8722628858583
 30
0.0
  0
VERTEX
  5
1C0
330
1AA
100
AcDbEntity
  8
Layer 1
 62
   250
370
     9
100
AcDbVertex
100
AcDb2dVertex
 10
138.1142225132145
 20
-105.8722628858583
 30
0.0
  0
VERTEX
  5
1C1
330
1AA
100
AcDbEntity
  8
Layer 1
 62
   250
370
     9
100
AcDbVertex
100
AcDb2dVertex
 10
138.0894178257207
 20
-105.8722628858583
 30
0.0
  0
VERTEX
  5
1C2
330
1AA
100
AcDbEntity
  8
Layer 1
 62
   250
370
     9
100
AcDbVertex
100
AcDb2dVertex
 10
138.0694362719062
 20
-105.8722628858583
 30
0.0
  0
VERTEX
  5
1C3
330
1AA
100
AcDbEntity
  8
Layer 1
 62
   250
370
     9
100
AcDbVertex
100
AcDb2dVertex
 10
138.0494547180918
 20
-105.8722628858583
 30
0.0
  0
VERTEX
  5
1C4
330
1AA
100
AcDbEntity
  8
Layer 1
 62
   250
370
     9
100
AcDbVertex
100
AcDb2dVertex
 10
138.0342962979567
 20
-105.8722628858583
 30
0.0
  0
VERTEX
  5
1C5
330
1AA
100
AcDbEntity
  8
Layer 1
 62
   250
370
     9
100
AcDbVertex
100
AcDb2dVertex
 10
138.0198268969186
 20
-105.8722628858583
 30
0.0
  0
VERTEX
  5
1C6
330
1AA
100
AcDbEntity
  8
Layer 1
 62
   250
370
     9
100
AcDbVertex
100
AcDb2dVertex
 10
138.0094916104629
 20
-105.8722628858583
 30
0.0
  0
VERTEX
  5
1C7
330
1AA
100
AcDbEntity
  8
Layer 1
 62
   250
370
     9
100
AcDbVertex
100
AcDb2dVertex
 10
137.9998453431042
 20
-105.8722628858583
 30
0.0
  0
VERTEX
  5
1C8
330
1AA
100
AcDbEntity
  8
Layer 1
 62
   250
370
     9
100
AcDbVertex
100
AcDb2dVertex
 10
137.9895100566485
 20
-105.8722628858583
 30
0.0
  0
VERTEX
  5
1C9
330
1AA
100
AcDbEntity
  8
Layer 1
 62
   250
370
     9
100
AcDbVertex
100
AcDb2dVertex
 10
137.9846869229691
 20
-105.8722628858583
 30
0.0
  0
VERTEX
  5
1CA
330
1AA
100
AcDbEntity
  8
Layer 1
 62
   250
370
     9
100
AcDbVertex
100
AcDb2dVertex
 10
137.9798637892897
 20
-105.8722628858583
 30
0.0
  0
SEQEND
  5
1CB
330
1AA
100
AcDbEntity
  8
Layer 1
370
     9
  0
SPLINE
  5
1CC
330
192
100
AcDbEntity
  8
Layer 1
 62
   250
370
     9
100
AcDbSpline
210
0.0
220
0.0
230
1.0
 70
     8
 71
     3
 72
    11
 73
     7
 74
     0
 42
0.000000001
 43
0.0000000001
 40
0.0
 40
0.0
 40
0.0
 40
0.0
 40
1.0
 40
1.0
 40
1.0
 40
2.0
 40
2.0
 40
2.0
 40
2.0
 10
138.5255669141533
 20
-105.8722628858583
 30
0.0
 10
138.5331461242208
 20
-105.8722628858583
 30
0.0
 10
138.5400363151914
 20
-105.8691622999216
 30
0.0
 10
138.5452039584192
 20
-105.8639946566937
 30
0.0
 10
138.5503716016471
 20
-105.8588270134658
 30
0.0
 10
138.5531276780353
 20
-105.8519368224953
 30
0.0
 10
138.5531276780353
 20
-105.8443576124278
 30
0.0
  0
SPLINE
  5
1CD
330
192
100
AcDbEntity
  8
Layer 1
 62
   250
370
     9
100
AcDbSpline
210
0.0
220
0.0
230
1.0
 70
     8
 71
     3
 72
    11
 73
     7
 74
     0
 42
0.000000001
 43
0.0000000001
 40
0.0
 40
0.0
 40
0.0
 40
0.0
 40
1.0
 40
1.0
 40
1.0
 40
2.0
 40
2.0
 40
2.0
 40
2.0
 10
137.9547145922474
 20
-105.8443576124278
 30
0.0
 10
137.9543700826989
 20
-105.8519368224953
 30
0.0
 10
137.9578151781841
 20
-105.8588270134658
 30
0.0
 10
137.9626383118635
 20
-105.8639946566937
 30
0.0
 10
137.9681504646399
 20
-105.8691622999216
 30
0.0
 10
137.9750406556104
 20
-105.8722628858583
 30
0.0
 10
137.9822753561294
 20
-105.8722628858583
 30
0.0
  0
POLYLINE
  5
1CE
330
192
100
AcDbEntity
  8
Layer 1
 62
   250
370
     9
100
AcDb2dPolyline
 66
     1
 10
0.0
 20
0.0
 30
0.0
  0
VERTEX
  5
1CF
330
1CE
100
AcDbEntity
  8
Layer 1
 62
   250
370
     9
100
AcDbVertex
100
AcDb2dVertex
 10
137.9547145922474
 20
-105.8422905551366
 30
0.0
  0
VERTEX
  5
1D0
330
1CE
100
AcDbEntity
  8
Layer 1
 62
   250
370
     9
100
AcDbVertex
100
AcDb2dVertex
 10
138.0094916104629
 20
-101.9336574723464
 30
0.0
  0
SEQEND
  5
1D1
330
1CE
100
AcDbEntity
  8
Layer 1
370
     9
  0
POLYLINE
  5
1D2
330
192
100
AcDbEntity
  8
Layer 1
 62
   250
370
     9
100
AcDb2dPolyline
 66
     1
 10
0.0
 20
0.0
 30
0.0
  0
VERTEX
  5
1D3
330
1D2
100
AcDbEntity
  8
Layer 1
 62
   250
370
     9
100
AcDbVertex
100
AcDb2dVertex
 10
138.4980061502713
 20
-101.9336574723464
 30
0.0
  0
VERTEX
  5
1D4
330
1D2
100
AcDbEntity
  8
Layer 1
 62
   250
370
     9
100
AcDbVertex
100
AcDb2dVertex
 10
138.5531276780353
 20
-105.8422905551366
 30
0.0
  0
SEQEND
  5
1D5
330
1D2
100
AcDbEntity
  8
Layer 1
370
     9
  0
POLYLINE
  5
1D6
330
192
100
AcDbEntity
  8
Layer 1
 62
   250
370
     9
100
AcDb2dPolyline
 66
     1
 10
0.0
 20
0.0
 30
0.0
  0
VERTEX
  5
1D7
330
1D6
100
AcDbEntity
  8
Layer 1
 62
   250
370
     9
100
AcDbVertex
100
AcDb2dVertex
 10
135.6065375095011
 20
-105.8722628858583
 30
0.0
  0
VERTEX
  5
1D8
330
1D6
100
AcDbEntity
  8
Layer 1
 62
   250
370
     9
100
AcDbVertex
100
AcDb2dVertex
 10
135.6065375095011
 20
-105.8722628858583
 30
0.0
  0
VERTEX
  5
1D9
330
1D6
100
AcDbEntity
  8
Layer 1
 62
   250
370
     9
100
AcDbVertex
100
AcDb2dVertex
 10
135.611705152729
 20
-105.8722628858583
 30
0.0
  0
VERTEX
  5
1DA
330
1D6
100
AcDbEntity
  8
Layer 1
 62
   250
370
     9
100
AcDbVertex
100
AcDb2dVertex
 10
135.6213514200877
 20
-105.8722628858583
 30
0.0
  0
VERTEX
  5
1DB
330
1D6
100
AcDbEntity
  8
Layer 1
 62
   250
370
     9
100
AcDbVertex
100
AcDb2dVertex
 10
135.6365098402228
 20
-105.8722628858583
 30
0.0
  0
VERTEX
  5
1DC
330
1D6
100
AcDbEntity
  8
Layer 1
 62
   250
370
     9
100
AcDbVertex
100
AcDb2dVertex
 10
135.6516682603579
 20
-105.8722628858583
 30
0.0
  0
VERTEX
  5
1DD
330
1D6
100
AcDbEntity
  8
Layer 1
 62
   250
370
     9
100
AcDbVertex
100
AcDb2dVertex
 10
135.6716498141724
 20
-105.8722628858583
 30
0.0
  0
VERTEX
  5
1DE
330
1D6
100
AcDbEntity
  8
Layer 1
 62
   250
370
     9
100
AcDbVertex
100
AcDb2dVertex
 10
135.6916313679868
 20
-105.8722628858583
 30
0.0
  0
VERTEX
  5
1DF
330
1D6
100
AcDbEntity
  8
Layer 1
 62
   250
370
     9
100
AcDbVertex
100
AcDb2dVertex
 10
135.7164360554806
 20
-105.8722628858583
 30
0.0
  0
VERTEX
  5
1E0
330
1D6
100
AcDbEntity
  8
Layer 1
 62
   250
370
     9
100
AcDbVertex
100
AcDb2dVertex
 10
135.7412407429744
 20
-105.8722628858583
 30
0.0
  0
VERTEX
  5
1E1
330
1D6
100
AcDbEntity
  8
Layer 1
 62
   250
370
     9
100
AcDbVertex
100
AcDb2dVertex
 10
135.7708685641475
 20
-105.8722628858583
 30
0.0
  0
VERTEX
  5
1E2
330
1D6
100
AcDbEntity
  8
Layer 1
 62
   250
370
     9
100
AcDbVertex
100
AcDb2dVertex
 10
135.7963622707384
 20
-105.8722628858583
 30
0.0
  0
VERTEX
  5
1E3
330
1D6
100
AcDbEntity
  8
Layer 1
 62
   250
370
     9
100
AcDbVertex
100
AcDb2dVertex
 10
135.8259900919115
 20
-105.8722628858583
 30
0.0
  0
VERTEX
  5
1E4
330
1D6
100
AcDbEntity
  8
Layer 1
 62
   250
370
     9
100
AcDbVertex
100
AcDb2dVertex
 10
135.8559624226332
 20
-105.8722628858583
 30
0.0
  0
VERTEX
  5
1E5
330
1D6
100
AcDbEntity
  8
Layer 1
 62
   250
370
     9
100
AcDbVertex
100
AcDb2dVertex
 10
135.8859347533549
 20
-105.8722628858583
 30
0.0
  0
VERTEX
  5
1E6
330
1D6
100
AcDbEntity
  8
Layer 1
 62
   250
370
     9
100
AcDbVertex
100
AcDb2dVertex
 10
135.915562574528
 20
-105.8722628858583
 30
0.0
  0
VERTEX
  5
1E7
330
1D6
100
AcDbEntity
  8
Layer 1
 62
   250
370
     9
100
AcDbVertex
100
AcDb2dVertex
 10
135.9458794147982
 20
-105.8722628858583
 30
0.0
  0
VERTEX
  5
1E8
330
1D6
100
AcDbEntity
  8
Layer 1
 62
   250
370
     9
100
AcDbVertex
100
AcDb2dVertex
 10
135.9755072359714
 20
-105.8722628858583
 30
0.0
  0
VERTEX
  5
1E9
330
1D6
100
AcDbEntity
  8
Layer 1
 62
   250
370
     9
100
AcDbVertex
100
AcDb2dVertex
 10
136.0003119234652
 20
-105.8722628858583
 30
0.0
  0
VERTEX
  5
1EA
330
1D6
100
AcDbEntity
  8
Layer 1
 62
   250
370
     9
100
AcDbVertex
100
AcDb2dVertex
 10
136.0306287637354
 20
-105.8722628858583
 30
0.0
  0
VERTEX
  5
1EB
330
1D6
100
AcDbEntity
  8
Layer 1
 62
   250
370
     9
100
AcDbVertex
100
AcDb2dVertex
 10
136.0554334512292
 20
-105.8722628858583
 30
0.0
  0
VERTEX
  5
1EC
330
1D6
100
AcDbEntity
  8
Layer 1
 62
   250
370
     9
100
AcDbVertex
100
AcDb2dVertex
 10
136.080238138723
 20
-105.8722628858583
 30
0.0
  0
VERTEX
  5
1ED
330
1D6
100
AcDbEntity
  8
Layer 1
 62
   250
370
     9
100
AcDbVertex
100
AcDb2dVertex
 10
136.1053873357653
 20
-105.8722628858583
 30
0.0
  0
VERTEX
  5
1EE
330
1D6
100
AcDbEntity
  8
Layer 1
 62
   250
370
     9
100
AcDbVertex
100
AcDb2dVertex
 10
136.1301920232591
 20
-105.8722628858583
 30
0.0
  0
VERTEX
  5
1EF
330
1D6
100
AcDbEntity
  8
Layer 1
 62
   250
370
     9
100
AcDbVertex
100
AcDb2dVertex
 10
136.149829067525
 20
-105.8722628858583
 30
0.0
  0
VERTEX
  5
1F0
330
1D6
100
AcDbEntity
  8
Layer 1
 62
   250
370
     9
100
AcDbVertex
100
AcDb2dVertex
 10
136.1698106213395
 20
-105.8722628858583
 30
0.0
  0
VERTEX
  5
1F1
330
1D6
100
AcDbEntity
  8
Layer 1
 62
   250
370
     9
100
AcDbVertex
100
AcDb2dVertex
 10
136.1849690414746
 20
-105.8722628858583
 30
0.0
  0
VERTEX
  5
1F2
330
1D6
100
AcDbEntity
  8
Layer 1
 62
   250
370
     9
100
AcDbVertex
100
AcDb2dVertex
 10
136.204950595289
 20
-105.8722628858583
 30
0.0
  0
VERTEX
  5
1F3
330
1D6
100
AcDbEntity
  8
Layer 1
 62
   250
370
     9
100
AcDbVertex
100
AcDb2dVertex
 10
136.2149413721962
 20
-105.8722628858583
 30
0.0
  0
VERTEX
  5
1F4
330
1D6
100
AcDbEntity
  8
Layer 1
 62
   250
370
     9
100
AcDbVertex
100
AcDb2dVertex
 10
136.2249321491035
 20
-105.8722628858583
 30
0.0
  0
VERTEX
  5
1F5
330
1D6
100
AcDbEntity
  8
Layer 1
 62
   250
370
     9
100
AcDbVertex
100
AcDb2dVertex
 10
136.2345784164622
 20
-105.8722628858583
 30
0.0
  0
VERTEX
  5
1F6
330
1D6
100
AcDbEntity
  8
Layer 1
 62
   250
370
     9
100
AcDbVertex
100
AcDb2dVertex
 10
136.23974605969
 20
-105.8722628858583
 30
0.0
  0
SEQEND
  5
1F7
330
1D6
100
AcDbEntity
  8
Layer 1
370
     9
  0
SPLINE
  5
1F8
330
192
100
AcDbEntity
  8
Layer 1
 62
   250
370
     9
100
AcDbSpline
210
0.0
220
0.0
230
1.0
 70
     8
 71
     3
 72
    11
 73
     7
 74
     0
 42
0.000000001
 43
0.0000000001
 40
0.0
 40
0.0
 40
0.0
 40
0.0
 40
1.0
 40
1.0
 40
1.0
 40
2.0
 40
2.0
 40
2.0
 40
2.0
 10
135.5772541978765
 20
-105.8402234978455
 30
0.0
 10
135.5758761596824
 20
-105.847802707913
 30
0.0
 10
135.5779432169736
 20
-105.8560709370776
 30
0.0
 10
135.5831108602014
 20
-105.8622721089511
 30
0.0
 10
135.5882785034293
 20
-105.8684732808245
 30
0.0
 10
135.5962022230454
 20
-105.8722628858583
 30
0.0
 10
135.6041259426615
 20
-105.8722628858583
 30
0.0
  0
SPLINE
  5
1F9
330
192
100
AcDbEntity
  8
Layer 1
 62
   250
370
     9
100
AcDbSpline
210
0.0
220
0.0
230
1.0
 70
     8
 71
     3
 72
     8
 73
     4
 74
     0
 42
0.000000001
 43
0.0000000001
 40
0.0
 40
0.0
 40
0.0
 40
0.0
 40
1.0
 40
1.0
 40
1.0
 40
1.0
 10
136.2421576265297
 20
-105.8722628858583
 30
0.0
 10
136.2559380084707
 20
-105.8722628858583
 30
0.0
 10
136.2676513331206
 20
-105.8622721089511
 30
0.0
 10
136.2697183904117
 20
-105.8484917270101
 30
0.0
  0
POLYLINE
  5
1FA
330
192
100
AcDbEntity
  8
Layer 1
 62
   250
370
     9
100
AcDb2dPolyline
 66
     1
 10
0.0
 20
0.0
 30
0.0
  0
VERTEX
  5
1FB
330
1FA
100
AcDbEntity
  8
Layer 1
 62
   250
370
     9
100
AcDbVertex
100
AcDb2dVertex
 10
135.5817328220073
 20
-105.8422905551366
 30
0.0
  0
VERTEX
  5
1FC
330
1FA
100
AcDbEntity
  8
Layer 1
 62
   250
370
     9
100
AcDbVertex
100
AcDb2dVertex
 10
136.23974605969
 20
-101.9336574723464
 30
0.0
  0
SEQEND
  5
1FD
330
1FA
100
AcDbEntity
  8
Layer 1
370
     9
  0
POLYLINE
  5
1FE
330
192
100
AcDbEntity
  8
Layer 1
 62
   250
370
     9
100
AcDb2dPolyline
 66
     1
 10
0.0
 20
0.0
 30
0.0
  0
VERTEX
  5
1FF
330
1FE
100
AcDbEntity
  8
Layer 1
 62
   250
370
     9
100
AcDbVertex
100
AcDb2dVertex
 10
136.8030191715284
 20
-101.9336574723464
 30
0.0
  0
VERTEX
  5
200
330
1FE
100
AcDbEntity
  8
Layer 1
 62
   250
370
     9
100
AcDbVertex
100
AcDb2dVertex
 10
136.2648952567324
 20
-105.847113688816
 30
0.0
  0
SEQEND
  5
201
330
1FE
100
AcDbEntity
  8
Layer 1
370
     9
  0
POLYLINE
  5
202
330
192
100
AcDbEntity
  8
Layer 1
 62
   250
370
     9
100
AcDb2dPolyline
 66
     1
 10
0.0
 20
0.0
 30
0.0
  0
VERTEX
  5
203
330
202
100
AcDbEntity
  8
Layer 1
 62
   250
370
     9
100
AcDbVertex
100
AcDb2dVertex
 10
140.2680962105927
 20
-105.8722628858583
 30
0.0
  0
VERTEX
  5
204
330
202
100
AcDbEntity
  8
Layer 1
 62
   250
370
     9
100
AcDbVertex
100
AcDb2dVertex
 10
140.2680962105927
 20
-105.8722628858583
 30
0.0
  0
VERTEX
  5
205
330
202
100
AcDbEntity
  8
Layer 1
 62
   250
370
     9
100
AcDbVertex
100
AcDb2dVertex
 10
140.272919344272
 20
-105.8722628858583
 30
0.0
  0
VERTEX
  5
206
330
202
100
AcDbEntity
  8
Layer 1
 62
   250
370
     9
100
AcDbVertex
100
AcDb2dVertex
 10
140.2777424779514
 20
-105.8722628858583
 30
0.0
  0
VERTEX
  5
207
330
202
100
AcDbEntity
  8
Layer 1
 62
   250
370
     9
100
AcDbVertex
100
AcDb2dVertex
 10
140.2880777644071
 20
-105.8722628858583
 30
0.0
  0
VERTEX
  5
208
330
202
100
AcDbEntity
  8
Layer 1
 62
   250
370
     9
100
AcDbVertex
100
AcDb2dVertex
 10
140.2977240317658
 20
-105.8722628858583
 30
0.0
  0
VERTEX
  5
209
330
202
100
AcDbEntity
  8
Layer 1
 62
   250
370
     9
100
AcDbVertex
100
AcDb2dVertex
 10
140.3080593182216
 20
-105.8722628858583
 30
0.0
  0
VERTEX
  5
20A
330
202
100
AcDbEntity
  8
Layer 1
 62
   250
370
     9
100
AcDbVertex
100
AcDb2dVertex
 10
140.3177055855803
 20
-105.8722628858583
 30
0.0
  0
VERTEX
  5
20B
330
202
100
AcDbEntity
  8
Layer 1
 62
   250
370
     9
100
AcDbVertex
100
AcDb2dVertex
 10
140.3428547826226
 20
-105.8722628858583
 30
0.0
  0
VERTEX
  5
20C
330
202
100
AcDbEntity
  8
Layer 1
 62
   250
370
     9
100
AcDbVertex
100
AcDb2dVertex
 10
140.3728271133443
 20
-105.8722628858583
 30
0.0
  0
VERTEX
  5
20D
330
202
100
AcDbEntity
  8
Layer 1
 62
   250
370
     9
100
AcDbVertex
100
AcDb2dVertex
 10
140.4076225777453
 20
-105.8722628858583
 30
0.0
  0
VERTEX
  5
20E
330
202
100
AcDbEntity
  8
Layer 1
 62
   250
370
     9
100
AcDbVertex
100
AcDb2dVertex
 10
140.4424180421463
 20
-105.8722628858583
 30
0.0
  0
VERTEX
  5
20F
330
202
100
AcDbEntity
  8
Layer 1
 62
   250
370
     9
100
AcDbVertex
100
AcDb2dVertex
 10
140.4775580160959
 20
-105.8722628858583
 30
0.0
  0
VERTEX
  5
210
330
202
100
AcDbEntity
  8
Layer 1
 62
   250
370
     9
100
AcDbVertex
100
AcDb2dVertex
 10
140.5120089709484
 20
-105.8722628858583
 30
0.0
  0
VERTEX
  5
211
330
202
100
AcDbEntity
  8
Layer 1
 62
   250
370
     9
100
AcDbVertex
100
AcDb2dVertex
 10
140.5471489448979
 20
-105.8722628858583
 30
0.0
  0
VERTEX
  5
212
330
202
100
AcDbEntity
  8
Layer 1
 62
   250
370
     9
100
AcDbVertex
100
AcDb2dVertex
 10
140.5822889188475
 20
-105.8722628858583
 30
0.0
  0
VERTEX
  5
213
330
202
100
AcDbEntity
  8
Layer 1
 62
   250
370
     9
100
AcDbVertex
100
AcDb2dVertex
 10
140.6219075169278
 20
-105.8722628858583
 30
0.0
  0
VERTEX
  5
214
330
202
100
AcDbEntity
  8
Layer 1
 62
   250
370
     9
100
AcDbVertex
100
AcDb2dVertex
 10
140.6567029813289
 20
-105.8722628858583
 30
0.0
  0
VERTEX
  5
215
330
202
100
AcDbEntity
  8
Layer 1
 62
   250
370
     9
100
AcDbVertex
100
AcDb2dVertex
 10
140.6966660889578
 20
-105.8722628858583
 30
0.0
  0
VERTEX
  5
216
330
202
100
AcDbEntity
  8
Layer 1
 62
   250
370
     9
100
AcDbVertex
100
AcDb2dVertex
 10
140.7318060629073
 20
-105.8722628858583
 30
0.0
  0
VERTEX
  5
217
330
202
100
AcDbEntity
  8
Layer 1
 62
   250
370
     9
100
AcDbVertex
100
AcDb2dVertex
 10
140.7517876167218
 20
-105.8722628858583
 30
0.0
  0
VERTEX
  5
218
330
202
100
AcDbEntity
  8
Layer 1
 62
   250
370
     9
100
AcDbVertex
100
AcDb2dVertex
 10
140.7666015273083
 20
-105.8722628858583
 30
0.0
  0
VERTEX
  5
219
330
202
100
AcDbEntity
  8
Layer 1
 62
   250
370
     9
100
AcDbVertex
100
AcDb2dVertex
 10
140.7865830811228
 20
-105.8722628858583
 30
0.0
  0
VERTEX
  5
21A
330
202
100
AcDbEntity
  8
Layer 1
 62
   250
370
     9
100
AcDbVertex
100
AcDb2dVertex
 10
140.8013969917093
 20
-105.8722628858583
 30
0.0
  0
VERTEX
  5
21B
330
202
100
AcDbEntity
  8
Layer 1
 62
   250
370
     9
100
AcDbVertex
100
AcDb2dVertex
 10
140.8165554118445
 20
-105.8722628858583
 30
0.0
  0
VERTEX
  5
21C
330
202
100
AcDbEntity
  8
Layer 1
 62
   250
370
     9
100
AcDbVertex
100
AcDb2dVertex
 10
140.831369322431
 20
-105.8722628858583
 30
0.0
  0
VERTEX
  5
21D
330
202
100
AcDbEntity
  8
Layer 1
 62
   250
370
     9
100
AcDbVertex
100
AcDb2dVertex
 10
140.8413600993383
 20
-105.8722628858583
 30
0.0
  0
VERTEX
  5
21E
330
202
100
AcDbEntity
  8
Layer 1
 62
   250
370
     9
100
AcDbVertex
100
AcDb2dVertex
 10
140.8565185194734
 20
-105.8722628858583
 30
0.0
  0
VERTEX
  5
21F
330
202
100
AcDbEntity
  8
Layer 1
 62
   250
370
     9
100
AcDbVertex
100
AcDb2dVertex
 10
140.8661647868321
 20
-105.8722628858583
 30
0.0
  0
VERTEX
  5
220
330
202
100
AcDbEntity
  8
Layer 1
 62
   250
370
     9
100
AcDbVertex
100
AcDb2dVertex
 10
140.8761555637393
 20
-105.8722628858583
 30
0.0
  0
VERTEX
  5
221
330
202
100
AcDbEntity
  8
Layer 1
 62
   250
370
     9
100
AcDbVertex
100
AcDb2dVertex
 10
140.8813232069672
 20
-105.8722628858583
 30
0.0
  0
VERTEX
  5
222
330
202
100
AcDbEntity
  8
Layer 1
 62
   250
370
     9
100
AcDbVertex
100
AcDb2dVertex
 10
140.8909694743259
 20
-105.8722628858583
 30
0.0
  0
VERTEX
  5
223
330
202
100
AcDbEntity
  8
Layer 1
 62
   250
370
     9
100
AcDbVertex
100
AcDb2dVertex
 10
140.8964816271023
 20
-105.8722628858583
 30
0.0
  0
VERTEX
  5
224
330
202
100
AcDbEntity
  8
Layer 1
 62
   250
370
     9
100
AcDbVertex
100
AcDb2dVertex
 10
140.9013047607816
 20
-105.8722628858583
 30
0.0
  0
SEQEND
  5
225
330
202
100
AcDbEntity
  8
Layer 1
370
     9
  0
SPLINE
  5
226
330
192
100
AcDbEntity
  8
Layer 1
 62
   250
370
     9
100
AcDbSpline
210
0.0
220
0.0
230
1.0
 70
     8
 71
     3
 72
    11
 73
     7
 74
     0
 42
0.000000001
 43
0.0000000001
 40
0.0
 40
0.0
 40
0.0
 40
0.0
 40
1.0
 40
1.0
 40
1.0
 40
2.0
 40
2.0
 40
2.0
 40
2.0
 10
140.8985486843934
 20
-105.8722628858583
 30
0.0
 10
140.906816913558
 20
-105.8722628858583
 30
0.0
 10
140.9143961236256
 20
-105.8684732808245
 30
0.0
 10
140.9195637668534
 20
-105.8622721089511
 30
0.0
 10
140.9247314100813
 20
-105.8560709370776
 30
0.0
 10
140.9267984673724
 20
-105.847802707913
 30
0.0
 10
140.9254204291783
 20
-105.8402234978455
 30
0.0
  0
SPLINE
  5
227
330
192
100
AcDbEntity
  8
Layer 1
 62
   250
370
     9
100
AcDbSpline
210
0.0
220
0.0
230
1.0
 70
     8
 71
     3
 72
     8
 73
     4
 74
     0
 42
0.000000001
 43
0.0000000001
 40
0.0
 40
0.0
 40
0.0
 40
0.0
 40
1.0
 40
1.0
 40
1.0
 40
1.0
 10
140.2384683894195
 20
-105.8484917270101
 30
0.0
 10
140.2401909371621
 20
-105.8622721089511
 30
0.0
 10
140.251904261812
 20
-105.8722628858583
 30
0.0
 10
140.2653401342045
 20
-105.8722628858583
 30
0.0
  0
POLYLINE
  5
228
330
192
100
AcDbEntity
  8
Layer 1
 62
   250
370
     9
100
AcDb2dPolyline
 66
     1
 10
0.0
 20
0.0
 30
0.0
  0
VERTEX
  5
229
330
228
100
AcDbEntity
  8
Layer 1
 62
   250
370
     9
100
AcDbVertex
100
AcDb2dVertex
 10
140.238123879871
 20
-105.847113688816
 30
0.0
  0
VERTEX
  5
22A
330
228
100
AcDbEntity
  8
Layer 1
 62
   250
370
     9
100
AcDbVertex
100
AcDb2dVertex
 10
139.7044785892058
 20
-101.9336574723464
 30
0.0
  0
SEQEND
  5
22B
330
228
100
AcDbEntity
  8
Layer 1
370
     9
  0
POLYLINE
  5
22C
330
192
100
AcDbEntity
  8
Layer 1
 62
   250
370
     9
100
AcDb2dPolyline
 66
     1
 10
0.0
 20
0.0
 30
0.0
  0
VERTEX
  5
22D
330
22C
100
AcDbEntity
  8
Layer 1
 62
   250
370
     9
100
AcDbVertex
100
AcDb2dVertex
 10
140.2680962105927
 20
-101.9336574723464
 30
0.0
  0
VERTEX
  5
22E
330
22C
100
AcDbEntity
  8
Layer 1
 62
   250
370
     9
100
AcDbVertex
100
AcDb2dVertex
 10
140.9261094482754
 20
-105.8422905551366
 30
0.0
  0
SEQEND
  5
22F
330
22C
100
AcDbEntity
  8
Layer 1
370
     9
  0
ENDBLK
  5
195
330
192
100
AcDbEntity
  8
0
100
AcDbBlockEnd
  0
BLOCK
  5
232
330
230
100
AcDbEntity
  8
0
100
AcDbBlockBegin
  2
block 13
 70
     0
 10
0.0
 20
0.0
 30
0.0
  3
block 13
  1

  0
MTEXT
  5
234
330
230
100
AcDbEntity
  8
Layer 1
 62
   251
100
AcDbMText
 10
161.7172607017582
 20
-96.55327959825752
 30
0.0
 40
1.559277777387958
 41
0.0
 46
0.0
 71
     7
 72
     1
  1
\fApercu|b0|i0|c0|p34;\W1.0004;60
 73
     1
 44
1.0
  0
MTEXT
  5
235
330
230
100
AcDbEntity
  8
Layer 1
 62
   251
100
AcDbMText
 10
160.0977213141422
 20
-109.9956976721538
 30
0.0
 40
1.559277777387958
 41
0.0
 46
0.0
 71
     7
 72
     1
  1
\fApercu|b1|i0|c0|p34;\W1.0004;OB60
 73
     1
 44
1.0
  0
INSERT
  5
237
330
230
100
AcDbEntity
  8
Layer 1
100
AcDbBlockReference
  2
block 14
 10
0.0
 20
0.0
 30
0.0
  0
ENDBLK
  5
233
330
230
100
AcDbEntity
  8
0
100
AcDbBlockEnd
  0
BLOCK
  5
238
330
236
100
AcDbEntity
  8
0
100
AcDbBlockBegin
  2
block 14
 70
     0
 10
0.0
 20
0.0
 30
0.0
  3
block 14
  1

  0
SPLINE
  5
23A
330
236
100
AcDbEntity
  8
Layer 1
 62
   250
370
     9
100
AcDbSpline
210
0.0
220
0.0
230
1.0
 70
    11
 71
     3
 72
    17
 73
    13
 74
     0
 42
0.000000001
 43
0.0000000001
 40
0.0
 40
0.0
 40
0.0
 40
0.0
 40
1.0
 40
1.0
 40
1.0
 40
2.0
 40
2.0
 40
2.0
 40
3.0
 40
3.0
 40
3.0
 40
4.0
 40
4.0
 40
4.0
 40
4.0
 10
159.1837374819054
 20
-101.9608737266799
 30
0.0
 10
159.1837374819054
 20
-104.1211208507058
 30
0.0
 10
160.9348795170579
 20
-105.8722628858583
 30
0.0
 10
163.0952988958581
 20
-105.8722628858583
 30
0.0
 10
165.2550292555612
 20
-105.8722628858583
 30
0.0
 10
167.0061712907137
 20
-104.1211208507058
 30
0.0
 10
167.0061712907137
 20
-101.9608737266799
 30
0.0
 10
167.0061712907137
 20
-99.80062660265403
 30
0.0
 10
165.2550292555612
 20
-98.04948456750153
 30
0.0
 10
163.0952988958581
 20
-98.04948456750153
 30
0.0
 10
160.9348795170579
 20
-98.04948456750153
 30
0.0
 10
159.1837374819054
 20
-99.80062660265403
 30
0.0
 10
159.1837374819054
 20
-101.9608737266799
 30
0.0
  0
POLYLINE
  5
23B
330
236
100
AcDbEntity
  8
Layer 1
 62
   250
370
     9
100
AcDb2dPolyline
 66
     1
 10
0.0
 20
0.0
 30
0.0
  0
VERTEX
  5
23C
330
23B
100
AcDbEntity
  8
Layer 1
 62
   250
370
     9
100
AcDbVertex
100
AcDb2dVertex
 10
163.1025335963771
 20
-99.68900550893192
 30
0.0
  0
VERTEX
  5
23D
330
23B
100
AcDbEntity
  8
Layer 1
 62
   250
370
     9
100
AcDbVertex
100
AcDb2dVertex
 10
163.1025335963771
 20
-100.2452161750255
 30
0.0
  0
SEQEND
  5
23E
330
23B
100
AcDbEntity
  8
Layer 1
370
     9
  0
POLYLINE
  5
23F
330
236
100
AcDbEntity
  8
Layer 1
 62
   250
370
     9
100
AcDb2dPolyline
 66
     1
 10
0.0
 20
0.0
 30
0.0
  0
VERTEX
  5
240
330
23F
100
AcDbEntity
  8
Layer 1
 62
   250
370
     9
100
AcDbVertex
100
AcDb2dVertex
 10
161.6125297990066
 20
-102.8211140693468
 30
0.0
  0
VERTEX
  5
241
330
23F
100
AcDbEntity
  8
Layer 1
 62
   250
370
     9
100
AcDbVertex
100
AcDb2dVertex
 10
161.1212591828099
 20
-103.0917263197132
 30
0.0
  0
SEQEND
  5
242
330
23F
100
AcDbEntity
  8
Layer 1
370
     9
  0
POLYLINE
  5
243
330
236
100
AcDbEntity
  8
Layer 1
 62
   250
370
     9
100
AcDb2dPolyline
 66
     1
 10
0.0
 20
0.0
 30
0.0
  0
VERTEX
  5
244
330
243
100
AcDbEntity
  8
Layer 1
 62
   250
370
     9
100
AcDbVertex
100
AcDb2dVertex
 10
164.5825466168405
 20
-102.8112955472138
 30
0.0
  0
VERTEX
  5
245
330
243
100
AcDbEntity
  8
Layer 1
 62
   250
370
     9
100
AcDbVertex
100
AcDb2dVertex
 10
165.0590033224505
 20
-103.1017170966204
 30
0.0
  0
SEQEND
  5
246
330
243
100
AcDbEntity
  8
Layer 1
370
     9
  0
ENDBLK
  5
239
330
236
100
AcDbEntity
  8
0
100
AcDbBlockEnd
  0
BLOCK
  5
249
330
247
100
AcDbEntity
  8
0
100
AcDbBlockBegin
  2
block 15
 70
     0
 10
0.0
 20
0.0
 30
0.0
  3
block 15
  1

  0
ENDBLK
  5
24A
330
247
100
AcDbEntity
  8
0
100
AcDbBlockEnd
  0
BLOCK
  5
24D
330
24B
100
AcDbEntity
  8
0
100
AcDbBlockBegin
  2
block 16
 70
     0
 10
0.0
 20
0.0
 30
0.0
  3
block 16
  1

  0
INSERT
  5
250
330
24B
100
AcDbEntity
  8
Layer 1
100
AcDbBlockReference
  2
block 17
 10
0.0
 20
0.0
 30
0.0
  0
INSERT
  5
254
330
24B
100
AcDbEntity
  8
Layer 1
100
AcDbBlockReference
  2
block 18
 10
0.0
 20
0.0
 30
0.0
  0
ENDBLK
  5
24E
330
24B
100
AcDbEntity
  8
0
100
AcDbBlockEnd
  0
BLOCK
  5
251
330
24F
100
AcDbEntity
  8
0
100
AcDbBlockBegin
  2
block 17
 70
     0
 10
0.0
 20
0.0
 30
0.0
  3
block 17
  1

  0
ENDBLK
  5
252
330
24F
100
AcDbEntity
  8
0
100
AcDbBlockEnd
  0
BLOCK
  5
255
330
253
100
AcDbEntity
  8
0
100
AcDbBlockBegin
  2
block 18
 70
     0
 10
0.0
 20
0.0
 30
0.0
  3
block 18
  1

  0
ENDBLK
  5
256
330
253
100
AcDbEntity
  8
0
100
AcDbBlockEnd
  0
BLOCK
  5
2F6
330
2F5
100
AcDbEntity
  8
0
100
AcDbBlockBegin
  2
*U18
 70
     1
 10
0.0
 20
0.0
 30
0.0
  3
*U18
  1

  0
ENDBLK
  5
2F7
330
2F5
100
AcDbEntity
  8
0
100
AcDbBlockEnd
  0
BLOCK
  5
331
330
32F
100
AcDbEntity
  8
0
100
AcDbBlockBegin
  2
GENAXEH
 70
     0
 10
0.0
 20
0.0
 30
0.0
  3
GENAXEH
  1

  0
LINE
  5
330
330
32F
100
AcDbEntity
  8
0
100
AcDbLine
 10
-1.0
 20
0.0
 30
0.0
 11
1.0
 21
0.0
 31
0.0
  0
ENDBLK
  5
332
330
32F
100
AcDbEntity
  8
0
100
AcDbBlockEnd
  0
ENDSEC
  0
SECTION
  2
ENTITIES
  0
INSERT
  5
3D
330
1F
100
AcDbEntity
  8
Layer 1
100
AcDbBlockReference
  2
block 2
 10
0.0
 20
0.0
 30
0.0
  0
INSERT
  5
41
330
1F
100
AcDbEntity
  8
Layer 1
100
AcDbBlockReference
  2
block 3
 10
0.0
 20
0.0
 30
0.0
  0
INSERT
  5
45
330
1F
100
AcDbEntity
  8
Layer 1
100
AcDbBlockReference
  2
block 4
 10
0.0
 20
0.0
 30
0.0
  0
INSERT
  5
248
330
1F
100
AcDbEntity
  8
Layer 1
100
AcDbBlockReference
  2
block 15
 10
0.0
 20
0.0
 30
0.0
  0
INSERT
  5
24C
330
1F
100
AcDbEntity
  8
Layer 1
100
AcDbBlockReference
  2
block 16
 10
0.0
 20
0.0
 30
0.0
  0
LINE
  5
3A5
330
1F
100
AcDbEntity
  8
Text
370
     9
100
AcDbLine
 10
-2636.284850724436
 20
580.3417318109323
 30
0.0
 11
11074.21307892823
 21
580.3417318109323
 31
0.0
  0
TEXT
  5
3B0
330
1F
100
AcDbEntity
  8
Text
100
AcDbText
 10
-2645.594278065027
 20
37.37792833140699
 30
0.0
 40
155.3136726359833
  1
Side and Coffee
 41
1.000399999999999
100
AcDbText
  0
SPLINE
  5
3B1
330
1F
100
AcDbEntity
  8
Furniture
370
     9
100
AcDbSpline
210
0.0
220
0.0
230
1.0
 70
     9
 71
     3
 72
    17
 73
    13
 74
     0
 42
0.000000001
 43
0.0000000001
 40
0.0
 40
0.0
 40
0.0
 40
0.0
 40
1.0
 40
1.0
 40
1.0
 40
2.0
 40
2.0
 40
2.0
 40
3.0
 40
3.0
 40
3.0
 40
4.0
 40
4.0
 40
4.0
 40
4.0
 10
1735.413478846431
 20
-1763.738542576559
 30
0.0
 10
1735.413478846431
 20
-1928.83475916861
 30
0.0
 10
1869.243965878946
 20
-2062.665246201127
 30
0.0
 10
2034.353346988704
 20
-2062.665246201127
 30
0.0
 10
2199.410070027628
 20
-2062.665246201127
 30
0.0
 10
2333.240557060146
 20
-1928.83475916861
 30
0.0
 10
2333.240557060146
 20
-1763.738542576559
 30
0.0
 10
2333.240557060146
 20
-1598.642325984509
 30
0.0
 10
2199.410070027628
 20
-1464.811838951993
 30
0.0
 10
2034.353346988704
 20
-1464.811838951993
 30
0.0
 10
1869.243965878946
 20
-1464.811838951993
 30
0.0
 10
1735.413478846431
 20
-1598.642325984509
 30
0.0
 10
1735.413478846431
 20
-1763.738542576559
 30
0.0
  0
TEXT
  5
3BE
330
1F
100
AcDbEntity
  8
Text
100
AcDbText
 10
1797.089667808053
 20
-2376.435558890074
 30
0.0
 40
119.1673206272144
  1
OB60
 41
1.000399999999999
100
AcDbText
  0
TEXT
  5
3BF
330
1F
100
AcDbEntity
  8
Dimensions
100
AcDbText
 10
1915.753249558303
 20
-1349.102925893469
 30
0.0
 40
119.1673206272144
  1
60
 41
1.000399999999999
100
AcDbText
  0
SPLINE
  5
3CA
330
1F
100
AcDbEntity
  8
Furniture
370
     9
100
AcDbSpline
210
0.0
220
0.0
230
1.0
 70
     8
 71
     3
 72
     8
 73
     4
 74
     0
 42
0.000000001
 43
0.0000000001
 40
0.0
 40
0.0
 40
0.0
 40
0.0
 40
1.0
 40
1.0
 40
1.0
 40
1.0
 10
-153.8251197844201
 20
-1738.176780454556
 30
0.0
 10
-156.0293714640775
 20
-1738.176780454556
 30
0.0
 10
-157.8137656809431
 20
-1739.961174671422
 30
0.0
 10
-157.8137656809431
 20
-1742.165426351079
 30
0.0
  0
SPLINE
  5
3CB
330
1F
100
AcDbEntity
  8
Furniture
370
     9
100
AcDbSpline
210
0.0
220
0.0
230
1.0
 70
     8
 71
     3
 72
     8
 73
     4
 74
     0
 42
0.000000001
 43
0.0000000001
 40
0.0
 40
0.0
 40
0.0
 40
0.0
 40
1.0
 40
1.0
 40
1.0
 40
1.0
 10
440.2731900661328
 20
-1742.165426351079
 30
0.0
 10
440.2731900661328
 20
-1739.961174671422
 30
0.0
 10
438.4887958492672
 20
-1738.176780454556
 30
0.0
 10
436.2845441696081
 20
-1738.176780454556
 30
0.0
  0
SPLINE
  5
3F6
330
1F
100
AcDbEntity
  8
Furniture
370
     9
100
AcDbSpline
210
0.0
220
0.0
230
1.0
 70
     8
 71
     3
 72
    11
 73
     7
 74
     0
 42
0.000000001
 43
0.0000000001
 40
0.0
 40
0.0
 40
0.0
 40
0.0
 40
1.0
 40
1.0
 40
1.0
 40
2.0
 40
2.0
 40
2.0
 40
2.0
 10
162.1176209664918
 20
-2056.782991985055
 30
0.0
 10
162.6949249778299
 20
-2056.782991985055
 30
0.0
 10
163.2197468063204
 20
-2056.546822162233
 30
0.0
 10
163.6133631776865
 20
-2056.153205790867
 30
0.0
 10
164.0069795490544
 20
-2055.759589419499
 30
0.0
 10
164.2169082804521
 20
-2055.234767591009
 30
0.0
 10
164.2169082804521
 20
-2054.65746357967
 30
0.0
  0
SPLINE
  5
423
330
1F
100
AcDbEntity
  8
Furniture
370
     9
100
AcDbSpline
210
0.0
220
0.0
230
1.0
 70
     8
 71
     3
 72
     8
 73
     4
 74
     0
 42
0.000000001
 43
0.0000000001
 40
0.0
 40
0.0
 40
0.0
 40
0.0
 40
1.0
 40
1.0
 40
1.0
 40
1.0
 10
-11.80833299505684
 20
-2056.782991985055
 30
0.0
 10
-10.7586893380776
 20
-2056.782991985055
 30
0.0
 10
-9.866492229644791
 20
-2056.022000333744
 30
0.0
 10
-9.70904568109654
 20
-2054.972356676763
 30
0.0
  0
SPLINE
  5
451
330
1F
100
AcDbEntity
  8
Furniture
370
     9
100
AcDbSpline
210
0.0
220
0.0
230
1.0
 70
     8
 71
     3
 72
     8
 73
     4
 74
     0
 42
0.000000001
 43
0.0000000001
 40
0.0
 40
0.0
 40
0.0
 40
0.0
 40
1.0
 40
1.0
 40
1.0
 40
1.0
 10
292.588327529078
 20
-2054.972356676763
 30
0.0
 10
292.7195329861988
 20
-2056.022000333744
 30
0.0
 10
293.6117300946335
 20
-2056.782991985055
 30
0.0
 10
294.6351326601889
 20
-2056.782991985055
 30
0.0
  0
TEXT
  5
45A
330
1F
100
AcDbEntity
  8
Dimensions
100
AcDbText
 10
535.8823406159997
 20
-1949.831476903464
 30
0.0
 40
118.7692790745755
  1
32
 41
1.000399999999999
100
AcDbText
  0
TEXT
  5
468
330
1F
100
AcDbEntity
  8
Text
100
AcDbText
 10
1793.772209345317
 20
-841.3079842935021
 30
0.0
 40
119.1673206272144
  1
OB45
 41
1.000399999999999
100
AcDbText
  0
TEXT
  5
469
330
1F
100
AcDbEntity
  8
Dimensions
100
AcDbText
 10
1914.855426374098
 20
38.09496320395017
 30
0.0
 40
119.1673206272144
  1
45
 41
1.000399999999999
100
AcDbText
  0
SPLINE
  5
474
330
1F
100
AcDbEntity
  8
Furniture
370
     9
100
AcDbSpline
210
0.0
220
0.0
230
1.0
 70
     8
 71
     3
 72
     8
 73
     4
 74
     0
 42
0.000000001
 43
0.0000000001
 40
0.0
 40
0.0
 40
0.0
 40
0.0
 40
1.0
 40
1.0
 40
1.0
 40
1.0
 10
-82.08197582985304
 20
-78.95256968377634
 30
0.0
 10
-84.18126314381334
 20
-78.95256968377634
 30
0.0
 10
-85.91317517782954
 20
-80.67136117208065
 30
0.0
 10
-85.91317517782954
 20
-82.77064848604096
 30
0.0
  0
SPLINE
  5
475
330
1F
100
AcDbEntity
  8
Furniture
370
     9
100
AcDbSpline
210
0.0
220
0.0
230
1.0
 70
     8
 71
     3
 72
     8
 73
     4
 74
     0
 42
0.000000001
 43
0.0000000001
 40
0.0
 40
0.0
 40
0.0
 40
0.0
 40
1.0
 40
1.0
 40
1.0
 40
1.0
 10
361.4187103355271
 20
-82.77064848604096
 30
0.0
 10
361.4187103355271
 20
-80.67136117208065
 30
0.0
 10
359.7130393929347
 20
-78.95256968377634
 30
0.0
 10
357.6137520789743
 20
-78.95256968377634
 30
0.0
  0
SPLINE
  5
51D
330
1F
100
AcDbEntity
  8
Furniture
370
     9
100
AcDbSpline
210
0.0
220
0.0
230
1.0
 70
     8
 71
     3
 72
     8
 73
     4
 74
     0
 42
0.000000001
 43
0.0000000001
 40
0.0
 40
0.0
 40
0.0
 40
0.0
 40
1.0
 40
1.0
 40
1.0
 40
1.0
 10
7.872485573314406
 20
-526.7961564799097
 30
0.0
 10
8.764682681745398
 20
-526.7961564799097
 30
0.0
 10
9.499433241631777
 20
-526.1270086485856
 30
0.0
 10
9.604397607330611
 20
-525.2479320858647
 30
0.0
  0
SPLINE
  5
57D
330
1F
100
AcDbEntity
  8
Furniture
370
     9
100
AcDbSpline
210
0.0
220
0.0
230
1.0
 70
     8
 71
     3
 72
     8
 73
     4
 74
     0
 42
0.000000001
 43
0.0000000001
 40
0.0
 40
0.0
 40
0.0
 40
0.0
 40
1.0
 40
1.0
 40
1.0
 40
1.0
 10
266.3997182874336
 20
-525.2479320858647
 30
0.0
 10
266.5046826531288
 20
-526.1270086485856
 30
0.0
 10
267.2919153958646
 20
-526.7961564799097
 30
0.0
 10
268.1841125042993
 20
-526.7961564799097
 30
0.0
  0
TEXT
  5
586
330
1F
100
AcDbEntity
  8
Dimensions
100
AcDbText
 10
463.1124787861899
 20
-355.2259537655032
 30
0.0
 40
118.7692790745755
  1
45
 41
1.000399999999999
100
AcDbText
  0
LINE
  5
587
330
1F
100
AcDbEntity
  8
Furniture
370
     9
100
AcDbLine
 10
2148.015792890609
 20
-1828.731766507263
 30
0.0
 11
2184.428848874469
 21
-1850.927143365105
 31
0.0
  0
LINE
  5
588
330
1F
100
AcDbEntity
  8
Furniture
370
     9
100
AcDbLine
 10
1921.033178547244
 20
-1829.482144016692
 30
0.0
 11
1883.487974040385
 21
-1850.163601337968
 31
0.0
  0
LINE
  5
589
330
1F
100
AcDbEntity
  8
Furniture
370
     9
100
AcDbLine
 10
2034.906256732496
 20
-1590.111718508897
 30
0.0
 11
2034.906256732496
 21
-1632.619946192154
 31
0.0
  0
LINE
  5
58A
330
1F
100
AcDbEntity
  8
Furniture
370
     9
100
AcDbLine
 10
294.8450613915848
 20
-1756.781714274523
 30
0.0
 11
344.9655460123686
 21
-2054.500017031124
 31
0.0
  0
LINE
  5
58B
330
1F
100
AcDbEntity
  8
Furniture
370
     9
100
AcDbLine
 10
292.5620864376542
 20
-2054.867392311066
 30
0.0
 11
251.914635821111
 21
-1756.781714274523
 31
0.0
  0
SPLINE
  5
58C
330
1F
100
AcDbEntity
  8
Furniture
370
     9
100
AcDbSpline
210
0.0
220
0.0
230
1.0
 70
     8
 71
     3
 72
     8
 73
     4
 74
     0
 42
0.000000001
 43
0.0000000001
 40
0.0
 40
0.0
 40
0.0
 40
0.0
 40
1.0
 40
1.0
 40
1.0
 40
1.0
 10
342.8662586984101
 20
-2056.782991985055
 30
0.0
 10
343.4960448925977
 20
-2056.782991985055
 30
0.0
 10
344.0733489039358
 20
-2056.494339979386
 30
0.0
 10
344.4669652753037
 20
-2056.022000333744
 30
0.0
  0
SPLINE
  5
58D
330
1F
100
AcDbEntity
  8
Furniture
370
     9
100
AcDbSpline
210
0.0
220
0.0
230
1.0
 70
     8
 71
     3
 72
     8
 73
     4
 74
     0
 42
0.000000001
 43
0.0000000001
 40
1.0
 40
1.0
 40
1.0
 40
1.0
 40
2.0
 40
2.0
 40
2.0
 40
2.0
 10
344.4669652753037
 20
-2056.022000333744
 30
0.0
 10
344.8605816466716
 20
-2055.549660688103
 30
0.0
 10
345.0180281952162
 20
-2054.919874493916
 30
0.0
 10
344.9130638295192
 20
-2054.342570482576
 30
0.0
  0
LINE
  5
58E
330
1F
100
AcDbEntity
  8
Furniture
370
     9
100
AcDbLine
 10
294.8450613915848
 20
-2056.782991985055
 30
0.0
 11
294.8450613915848
 21
-2056.782991985055
 31
0.0
  0
LINE
  5
58F
330
1F
100
AcDbEntity
  8
Furniture
370
     9
100
AcDbLine
 10
294.8450613915848
 20
-2056.782991985055
 30
0.0
 11
295.2124366715271
 21
-2056.782991985055
 31
0.0
  0
LINE
  5
590
330
1F
100
AcDbEntity
  8
Furniture
370
     9
100
AcDbLine
 10
295.2124366715271
 20
-2056.782991985055
 30
0.0
 11
295.5798119514693
 21
-2056.782991985055
 31
0.0
  0
LINE
  5
591
330
1F
100
AcDbEntity
  8
Furniture
370
     9
100
AcDbLine
 10
295.5798119514693
 20
-2056.782991985055
 30
0.0
 11
296.3670446942051
 21
-2056.782991985055
 31
0.0
  0
LINE
  5
592
330
1F
100
AcDbEntity
  8
Furniture
370
     9
100
AcDbLine
 10
296.3670446942051
 20
-2056.782991985055
 30
0.0
 11
297.1017952540915
 21
-2056.782991985055
 31
0.0
  0
LINE
  5
593
330
1F
100
AcDbEntity
  8
Furniture
370
     9
100
AcDbLine
 10
297.1017952540915
 20
-2056.782991985055
 30
0.0
 11
297.8890279968254
 21
-2056.782991985055
 31
0.0
  0
LINE
  5
594
330
1F
100
AcDbEntity
  8
Furniture
370
     9
100
AcDbLine
 10
297.8890279968254
 20
-2056.782991985055
 30
0.0
 11
298.6237785567118
 21
-2056.782991985055
 31
0.0
  0
LINE
  5
595
330
1F
100
AcDbEntity
  8
Furniture
370
     9
100
AcDbLine
 10
298.6237785567118
 20
-2056.782991985055
 30
0.0
 11
300.5393782307001
 21
-2056.782991985055
 31
0.0
  0
LINE
  5
596
330
1F
100
AcDbEntity
  8
Furniture
370
     9
100
AcDbLine
 10
300.5393782307001
 20
-2056.782991985055
 30
0.0
 11
302.8223531846306
 21
-2056.782991985055
 31
0.0
  0
LINE
  5
597
330
1F
100
AcDbEntity
  8
Furniture
370
     9
100
AcDbLine
 10
302.8223531846306
 20
-2056.782991985055
 30
0.0
 11
305.4727034185034
 21
-2056.782991985055
 31
0.0
  0
LINE
  5
598
330
1F
100
AcDbEntity
  8
Furniture
370
     9
100
AcDbLine
 10
305.4727034185034
 20
-2056.782991985055
 30
0.0
 11
308.1230536523799
 21
-2056.782991985055
 31
0.0
  0
LINE
  5
599
330
1F
100
AcDbEntity
  8
Furniture
370
     9
100
AcDbLine
 10
308.1230536523799
 20
-2056.782991985055
 30
0.0
 11
310.7996449776765
 21
-2056.782991985055
 31
0.0
  0
LINE
  5
59A
330
1F
100
AcDbEntity
  8
Furniture
370
     9
100
AcDbLine
 10
310.7996449776765
 20
-2056.782991985055
 30
0.0
 11
313.4237541201255
 21
-2056.782991985055
 31
0.0
  0
LINE
  5
59B
330
1F
100
AcDbEntity
  8
Furniture
370
     9
100
AcDbLine
 10
313.4237541201255
 20
-2056.782991985055
 30
0.0
 11
316.100345445424
 21
-2056.782991985055
 31
0.0
  0
LINE
  5
59C
330
1F
100
AcDbEntity
  8
Furniture
370
     9
100
AcDbLine
 10
316.100345445424
 20
-2056.782991985055
 30
0.0
 11
318.7769367707242
 21
-2056.782991985055
 31
0.0
  0
LINE
  5
59D
330
1F
100
AcDbEntity
  8
Furniture
370
     9
100
AcDbLine
 10
318.7769367707242
 20
-2056.782991985055
 30
0.0
 11
321.7946622845411
 21
-2056.782991985055
 31
0.0
  0
LINE
  5
59E
330
1F
100
AcDbEntity
  8
Furniture
370
     9
100
AcDbLine
 10
321.7946622845411
 20
-2056.782991985055
 30
0.0
 11
324.4450125184139
 21
-2056.782991985055
 31
0.0
  0
LINE
  5
59F
330
1F
100
AcDbEntity
  8
Furniture
370
     9
100
AcDbLine
 10
324.4450125184139
 20
-2056.782991985055
 30
0.0
 11
327.4889791236546
 21
-2056.782991985055
 31
0.0
  0
LINE
  5
5A0
330
1F
100
AcDbEntity
  8
Furniture
370
     9
100
AcDbLine
 10
327.4889791236546
 20
-2056.782991985055
 30
0.0
 11
330.1655704489549
 21
-2056.782991985055
 31
0.0
  0
LINE
  5
5A1
330
1F
100
AcDbEntity
  8
Furniture
370
     9
100
AcDbLine
 10
330.1655704489549
 20
-2056.782991985055
 30
0.0
 11
331.6875537515735
 21
-2056.782991985055
 31
0.0
  0
LINE
  5
5A2
330
1F
100
AcDbEntity
  8
Furniture
370
     9
100
AcDbLine
 10
331.6875537515735
 20
-2056.782991985055
 30
0.0
 11
332.8159206828277
 21
-2056.782991985055
 31
0.0
  0
LINE
  5
5A3
330
1F
100
AcDbEntity
  8
Furniture
370
     9
100
AcDbLine
 10
332.8159206828277
 20
-2056.782991985055
 30
0.0
 11
334.3379039854499
 21
-2056.782991985055
 31
0.0
  0
LINE
  5
5A4
330
1F
100
AcDbEntity
  8
Furniture
370
     9
100
AcDbLine
 10
334.3379039854499
 20
-2056.782991985055
 30
0.0
 11
335.4662709167005
 21
-2056.782991985055
 31
0.0
  0
LINE
  5
5A5
330
1F
100
AcDbEntity
  8
Furniture
370
     9
100
AcDbLine
 10
335.4662709167005
 20
-2056.782991985055
 30
0.0
 11
336.6208789393804
 21
-2056.782991985055
 31
0.0
  0
LINE
  5
5A6
330
1F
100
AcDbEntity
  8
Furniture
370
     9
100
AcDbLine
 10
336.6208789393804
 20
-2056.782991985055
 30
0.0
 11
337.7492458706329
 21
-2056.782991985055
 31
0.0
  0
LINE
  5
5A7
330
1F
100
AcDbEntity
  8
Furniture
370
     9
100
AcDbLine
 10
337.7492458706329
 20
-2056.782991985055
 30
0.0
 11
338.510237521943
 21
-2056.782991985055
 31
0.0
  0
LINE
  5
5A8
330
1F
100
AcDbEntity
  8
Furniture
370
     9
100
AcDbLine
 10
338.510237521943
 20
-2056.782991985055
 30
0.0
 11
339.6648455446211
 21
-2056.782991985055
 31
0.0
  0
LINE
  5
5A9
330
1F
100
AcDbEntity
  8
Furniture
370
     9
100
AcDbLine
 10
339.6648455446211
 20
-2056.782991985055
 30
0.0
 11
340.3995961045075
 21
-2056.782991985055
 31
0.0
  0
LINE
  5
5AA
330
1F
100
AcDbEntity
  8
Furniture
370
     9
100
AcDbLine
 10
340.3995961045075
 20
-2056.782991985055
 30
0.0
 11
341.1605877558177
 21
-2056.782991985055
 31
0.0
  0
LINE
  5
5AB
330
1F
100
AcDbEntity
  8
Furniture
370
     9
100
AcDbLine
 10
341.1605877558177
 20
-2056.782991985055
 30
0.0
 11
341.5542041271856
 21
-2056.782991985055
 31
0.0
  0
LINE
  5
5AC
330
1F
100
AcDbEntity
  8
Furniture
370
     9
100
AcDbLine
 10
341.5542041271856
 20
-2056.782991985055
 30
0.0
 11
342.2889546870702
 21
-2056.782991985055
 31
0.0
  0
LINE
  5
5AD
330
1F
100
AcDbEntity
  8
Furniture
370
     9
100
AcDbLine
 10
342.2889546870702
 20
-2056.782991985055
 30
0.0
 11
342.7088121498619
 21
-2056.782991985055
 31
0.0
  0
LINE
  5
5AE
330
1F
100
AcDbEntity
  8
Furniture
370
     9
100
AcDbLine
 10
342.7088121498619
 20
-2056.782991985055
 30
0.0
 11
343.0761874298041
 21
-2056.782991985055
 31
0.0
  0
LINE
  5
5AF
330
1F
100
AcDbEntity
  8
Furniture
370
     9
100
AcDbLine
 10
30.91216384401923
 20
-1756.781714274523
 30
0.0
 11
-10.07642096104064
 21
-2054.867392311066
 31
0.0
  0
LINE
  5
5B0
330
1F
100
AcDbEntity
  8
Furniture
370
     9
100
AcDbLine
 10
-62.11250525581272
 20
-2054.500017031124
 30
0.0
 11
-11.99202063502707
 21
-1756.781714274523
 31
0.0
  0
SPLINE
  5
5B1
330
1F
100
AcDbEntity
  8
Furniture
370
     9
100
AcDbSpline
210
0.0
220
0.0
230
1.0
 70
     8
 71
     3
 72
     8
 73
     4
 74
     0
 42
0.000000001
 43
0.0000000001
 40
0.0
 40
0.0
 40
0.0
 40
0.0
 40
1.0
 40
1.0
 40
1.0
 40
1.0
 10
-62.4536394443312
 20
-2054.342570482576
 30
0.0
 10
-62.55860381002822
 20
-2054.919874493916
 30
0.0
 10
-62.40115726148179
 20
-2055.549660688103
 30
0.0
 10
-62.00754089011389
 20
-2056.022000333744
 30
0.0
  0
SPLINE
  5
5B2
330
1F
100
AcDbEntity
  8
Furniture
370
     9
100
AcDbSpline
210
0.0
220
0.0
230
1.0
 70
     8
 71
     3
 72
     8
 73
     4
 74
     0
 42
0.000000001
 43
0.0000000001
 40
1.0
 40
1.0
 40
1.0
 40
1.0
 40
2.0
 40
2.0
 40
2.0
 40
2.0
 10
-62.00754089011389
 20
-2056.022000333744
 30
0.0
 10
-61.61392451874599
 20
-2056.494339979386
 30
0.0
 10
-61.01037941598406
 20
-2056.782991985055
 30
0.0
 10
-60.40683431322031
 20
-2056.782991985055
 30
0.0
  0
LINE
  5
5B3
330
1F
100
AcDbEntity
  8
Furniture
370
     9
100
AcDbLine
 10
-60.22314667324827
 20
-2056.782991985055
 30
0.0
 11
-60.22314667324827
 21
-2056.782991985055
 31
0.0
  0
LINE
  5
5B4
330
1F
100
AcDbEntity
  8
Furniture
370
     9
100
AcDbLine
 10
-60.22314667324827
 20
-2056.782991985055
 30
0.0
 11
-59.82953030188037
 21
-2056.782991985055
 31
0.0
  0
LINE
  5
5B5
330
1F
100
AcDbEntity
  8
Furniture
370
     9
100
AcDbLine
 10
-59.82953030188037
 20
-2056.782991985055
 30
0.0
 11
-59.09477974199399
 21
-2056.782991985055
 31
0.0
  0
LINE
  5
5B6
330
1F
100
AcDbEntity
  8
Furniture
370
     9
100
AcDbLine
 10
-59.09477974199399
 20
-2056.782991985055
 30
0.0
 11
-57.94017171931773
 21
-2056.782991985055
 31
0.0
  0
LINE
  5
5B7
330
1F
100
AcDbEntity
  8
Furniture
370
     9
100
AcDbLine
 10
-57.94017171931773
 20
-2056.782991985055
 30
0.0
 11
-56.78556369663965
 21
-2056.782991985055
 31
0.0
  0
LINE
  5
5B8
330
1F
100
AcDbEntity
  8
Furniture
370
     9
100
AcDbLine
 10
-56.78556369663965
 20
-2056.782991985055
 30
0.0
 11
-55.2635803940193
 21
-2056.782991985055
 31
0.0
  0
LINE
  5
5B9
330
1F
100
AcDbEntity
  8
Furniture
370
     9
100
AcDbLine
 10
-55.2635803940193
 20
-2056.782991985055
 30
0.0
 11
-53.74159709139894
 21
-2056.782991985055
 31
0.0
  0
LINE
  5
5BA
330
1F
100
AcDbEntity
  8
Furniture
370
     9
100
AcDbLine
 10
-53.74159709139894
 20
-2056.782991985055
 30
0.0
 11
-51.8522385088363
 21
-2056.782991985055
 31
0.0
  0
LINE
  5
5BB
330
1F
100
AcDbEntity
  8
Furniture
370
     9
100
AcDbLine
 10
-51.8522385088363
 20
-2056.782991985055
 30
0.0
 11
-49.96287992627185
 21
-2056.782991985055
 31
0.0
  0
LINE
  5
5BC
330
1F
100
AcDbEntity
  8
Furniture
370
     9
100
AcDbLine
 10
-49.96287992627185
 20
-2056.782991985055
 30
0.0
 11
-47.70614606376511
 21
-2056.782991985055
 31
0.0
  0
LINE
  5
5BD
330
1F
100
AcDbEntity
  8
Furniture
370
     9
100
AcDbLine
 10
-47.70614606376511
 20
-2056.782991985055
 30
0.0
 11
-45.76430529835124
 21
-2056.782991985055
 31
0.0
  0
LINE
  5
5BE
330
1F
100
AcDbEntity
  8
Furniture
370
     9
100
AcDbLine
 10
-45.76430529835124
 20
-2056.782991985055
 30
0.0
 11
-43.50757143584632
 21
-2056.782991985055
 31
0.0
  0
LINE
  5
5BF
330
1F
100
AcDbEntity
  8
Furniture
370
     9
100
AcDbLine
 10
-43.50757143584632
 20
-2056.782991985055
 30
0.0
 11
-41.22459648191397
 21
-2056.782991985055
 31
0.0
  0
LINE
  5
5C0
330
1F
100
AcDbEntity
  8
Furniture
370
     9
100
AcDbLine
 10
-41.22459648191397
 20
-2056.782991985055
 30
0.0
 11
-38.94162152798344
 21
-2056.782991985055
 31
0.0
  0
LINE
  5
5C1
330
1F
100
AcDbEntity
  8
Furniture
370
     9
100
AcDbLine
 10
-38.94162152798344
 20
-2056.782991985055
 30
0.0
 11
-36.68488766547853
 21
-2056.782991985055
 31
0.0
  0
LINE
  5
5C2
330
1F
100
AcDbEntity
  8
Furniture
370
     9
100
AcDbLine
 10
-36.68488766547853
 20
-2056.782991985055
 30
0.0
 11
-34.37567162012056
 21
-2056.782991985055
 31
0.0
  0
LINE
  5
5C3
330
1F
100
AcDbEntity
  8
Furniture
370
     9
100
AcDbLine
 10
-34.37567162012056
 20
-2056.782991985055
 30
0.0
 11
-32.11893775761564
 21
-2056.782991985055
 31
0.0
  0
LINE
  5
5C4
330
1F
100
AcDbEntity
  8
Furniture
370
     9
100
AcDbLine
 10
-32.11893775761564
 20
-2056.782991985055
 30
0.0
 11
-30.22957917505119
 21
-2056.782991985055
 31
0.0
  0
LINE
  5
5C5
330
1F
100
AcDbEntity
  8
Furniture
370
     9
100
AcDbLine
 10
-30.22957917505119
 20
-2056.782991985055
 30
0.0
 11
-27.92036312969685
 21
-2056.782991985055
 31
0.0
  0
LINE
  5
5C6
330
1F
100
AcDbEntity
  8
Furniture
370
     9
100
AcDbLine
 10
-27.92036312969685
 20
-2056.782991985055
 30
0.0
 11
-26.03100454713422
 21
-2056.782991985055
 31
0.0
  0
LINE
  5
5C7
330
1F
100
AcDbEntity
  8
Furniture
370
     9
100
AcDbLine
 10
-26.03100454713422
 20
-2056.782991985055
 30
0.0
 11
-24.14164596456976
 21
-2056.782991985055
 31
0.0
  0
LINE
  5
5C8
330
1F
100
AcDbEntity
  8
Furniture
370
     9
100
AcDbLine
 10
-24.14164596456976
 20
-2056.782991985055
 30
0.0
 11
-22.22604629058151
 21
-2056.782991985055
 31
0.0
  0
LINE
  5
5C9
330
1F
100
AcDbEntity
  8
Furniture
370
     9
100
AcDbLine
 10
-22.22604629058151
 20
-2056.782991985055
 30
0.0
 11
-20.33668770801705
 21
-2056.782991985055
 31
0.0
  0
LINE
  5
5CA
330
1F
100
AcDbEntity
  8
Furniture
370
     9
100
AcDbLine
 10
-20.33668770801705
 20
-2056.782991985055
 30
0.0
 11
-18.84094549682049
 21
-2056.782991985055
 31
0.0
  0
LINE
  5
5CB
330
1F
100
AcDbEntity
  8
Furniture
370
     9
100
AcDbLine
 10
-18.84094549682049
 20
-2056.782991985055
 30
0.0
 11
-17.31896219420014
 21
-2056.782991985055
 31
0.0
  0
LINE
  5
5CC
330
1F
100
AcDbEntity
  8
Furniture
370
     9
100
AcDbLine
 10
-17.31896219420014
 20
-2056.782991985055
 30
0.0
 11
-16.16435417152206
 21
-2056.782991985055
 31
0.0
  0
LINE
  5
5CD
330
1F
100
AcDbEntity
  8
Furniture
370
     9
100
AcDbLine
 10
-16.16435417152206
 20
-2056.782991985055
 30
0.0
 11
-14.64237086890352
 21
-2056.782991985055
 31
0.0
  0
LINE
  5
5CE
330
1F
100
AcDbEntity
  8
Furniture
370
     9
100
AcDbLine
 10
-14.64237086890352
 20
-2056.782991985055
 30
0.0
 11
-13.88137921759153
 21
-2056.782991985055
 31
0.0
  0
LINE
  5
5CF
330
1F
100
AcDbEntity
  8
Furniture
370
     9
100
AcDbLine
 10
-13.88137921759153
 20
-2056.782991985055
 30
0.0
 11
-13.12038756628135
 21
-2056.782991985055
 31
0.0
  0
LINE
  5
5D0
330
1F
100
AcDbEntity
  8
Furniture
370
     9
100
AcDbLine
 10
-13.12038756628135
 20
-2056.782991985055
 30
0.0
 11
-12.38563700639497
 21
-2056.782991985055
 31
0.0
  0
LINE
  5
5D1
330
1F
100
AcDbEntity
  8
Furniture
370
     9
100
AcDbLine
 10
-12.38563700639497
 20
-2056.782991985055
 30
0.0
 11
-11.99202063502707
 21
-2056.782991985055
 31
0.0
  0
LINE
  5
5D2
330
1F
100
AcDbEntity
  8
Furniture
370
     9
100
AcDbLine
 10
160.0183336525333
 20
-1756.781714274523
 30
0.0
 11
164.2169082804521
 21
-2054.500017031124
 31
0.0
  0
LINE
  5
5D3
330
1F
100
AcDbEntity
  8
Furniture
370
     9
100
AcDbLine
 10
118.6361324761037
 20
-2054.500017031124
 30
0.0
 11
122.8084660125987
 21
-1756.781714274523
 31
0.0
  0
SPLINE
  5
5D4
330
1F
100
AcDbEntity
  8
Furniture
370
     9
100
AcDbSpline
210
0.0
220
0.0
230
1.0
 70
     8
 71
     3
 72
     8
 73
     4
 74
     0
 42
0.000000001
 43
0.0000000001
 40
0.0
 40
0.0
 40
0.0
 40
0.0
 40
1.0
 40
1.0
 40
1.0
 40
1.0
 10
118.6361324761037
 20
-2054.65746357967
 30
0.0
 10
118.6098913846799
 20
-2055.234767591009
 30
0.0
 10
118.872302298927
 20
-2055.759589419499
 30
0.0
 10
119.2396775788675
 20
-2056.153205790867
 30
0.0
  0
SPLINE
  5
5D5
330
1F
100
AcDbEntity
  8
Furniture
370
     9
100
AcDbSpline
210
0.0
220
0.0
230
1.0
 70
     8
 71
     3
 72
     8
 73
     4
 74
     0
 42
0.000000001
 43
0.0000000001
 40
1.0
 40
1.0
 40
1.0
 40
1.0
 40
2.0
 40
2.0
 40
2.0
 40
2.0
 10
119.2396775788675
 20
-2056.153205790867
 30
0.0
 10
119.6595350416592
 20
-2056.546822162233
 30
0.0
 10
120.1843568701497
 20
-2056.782991985055
 30
0.0
 10
120.735419790064
 20
-2056.782991985055
 30
0.0
  0
LINE
  5
5D6
330
1F
100
AcDbEntity
  8
Furniture
370
     9
100
AcDbLine
 10
162.301308606462
 20
-2056.782991985055
 30
0.0
 11
162.301308606462
 21
-2056.782991985055
 31
0.0
  0
LINE
  5
5D7
330
1F
100
AcDbEntity
  8
Furniture
370
     9
100
AcDbLine
 10
162.301308606462
 20
-2056.782991985055
 30
0.0
 11
161.9339333265197
 21
-2056.782991985055
 31
0.0
  0
LINE
  5
5D8
330
1F
100
AcDbEntity
  8
Furniture
370
     9
100
AcDbLine
 10
161.9339333265197
 20
-2056.782991985055
 30
0.0
 11
161.5403169551519
 21
-2056.782991985055
 31
0.0
  0
LINE
  5
5D9
330
1F
100
AcDbEntity
  8
Furniture
370
     9
100
AcDbLine
 10
161.5403169551519
 20
-2056.782991985055
 30
0.0
 11
160.8055663952673
 21
-2056.782991985055
 31
0.0
  0
LINE
  5
5DA
330
1F
100
AcDbEntity
  8
Furniture
370
     9
100
AcDbLine
 10
160.8055663952673
 20
-2056.782991985055
 30
0.0
 11
160.0183336525333
 21
-2056.782991985055
 31
0.0
  0
LINE
  5
5DB
330
1F
100
AcDbEntity
  8
Furniture
370
     9
100
AcDbLine
 10
160.0183336525333
 20
-2056.782991985055
 30
0.0
 11
158.9162078127028
 21
-2056.782991985055
 31
0.0
  0
LINE
  5
5DC
330
1F
100
AcDbEntity
  8
Furniture
370
     9
100
AcDbLine
 10
158.9162078127028
 20
-2056.782991985055
 30
0.0
 11
157.7615997900247
 21
-2056.782991985055
 31
0.0
  0
LINE
  5
5DD
330
1F
100
AcDbEntity
  8
Furniture
370
     9
100
AcDbLine
 10
157.7615997900247
 20
-2056.782991985055
 30
0.0
 11
156.6069917673485
 21
-2056.782991985055
 31
0.0
  0
LINE
  5
5DE
330
1F
100
AcDbEntity
  8
Furniture
370
     9
100
AcDbLine
 10
156.6069917673485
 20
-2056.782991985055
 30
0.0
 11
155.0850084647263
 21
-2056.782991985055
 31
0.0
  0
LINE
  5
5DF
330
1F
100
AcDbEntity
  8
Furniture
370
     9
100
AcDbLine
 10
155.0850084647263
 20
-2056.782991985055
 30
0.0
 11
153.5630251621078
 21
-2056.782991985055
 31
0.0
  0
LINE
  5
5E0
330
1F
100
AcDbEntity
  8
Furniture
370
     9
100
AcDbLine
 10
153.5630251621078
 20
-2056.782991985055
 30
0.0
 11
151.6736665795433
 21
-2056.782991985055
 31
0.0
  0
LINE
  5
5E1
330
1F
100
AcDbEntity
  8
Furniture
370
     9
100
AcDbLine
 10
151.6736665795433
 20
-2056.782991985055
 30
0.0
 11
149.7843079969807
 21
-2056.782991985055
 31
0.0
  0
LINE
  5
5E2
330
1F
100
AcDbEntity
  8
Furniture
370
     9
100
AcDbLine
 10
149.7843079969807
 20
-2056.782991985055
 30
0.0
 11
147.8949494144162
 21
-2056.782991985055
 31
0.0
  0
LINE
  5
5E3
330
1F
100
AcDbEntity
  8
Furniture
370
     9
100
AcDbLine
 10
147.8949494144162
 20
-2056.782991985055
 30
0.0
 11
145.6119744604857
 21
-2056.782991985055
 31
0.0
  0
LINE
  5
5E4
330
1F
100
AcDbEntity
  8
Furniture
370
     9
100
AcDbLine
 10
145.6119744604857
 20
-2056.782991985055
 30
0.0
 11
143.3289995065534
 21
-2056.782991985055
 31
0.0
  0
LINE
  5
5E5
330
1F
100
AcDbEntity
  8
Furniture
370
     9
100
AcDbLine
 10
143.3289995065534
 20
-2056.782991985055
 30
0.0
 11
141.0460245526228
 21
-2056.782991985055
 31
0.0
  0
LINE
  5
5E6
330
1F
100
AcDbEntity
  8
Furniture
370
     9
100
AcDbLine
 10
141.0460245526228
 20
-2056.782991985055
 30
0.0
 11
139.1304248786364
 21
-2056.782991985055
 31
0.0
  0
LINE
  5
5E7
330
1F
100
AcDbEntity
  8
Furniture
370
     9
100
AcDbLine
 10
139.1304248786364
 20
-2056.782991985055
 30
0.0
 11
136.8736910161278
 21
-2056.782991985055
 31
0.0
  0
LINE
  5
5E8
330
1F
100
AcDbEntity
  8
Furniture
370
     9
100
AcDbLine
 10
136.8736910161278
 20
-2056.782991985055
 30
0.0
 11
134.5907160621973
 21
-2056.782991985055
 31
0.0
  0
LINE
  5
5E9
330
1F
100
AcDbEntity
  8
Furniture
370
     9
100
AcDbLine
 10
134.5907160621973
 20
-2056.782991985055
 30
0.0
 11
132.7013574796328
 21
-2056.782991985055
 31
0.0
  0
LINE
  5
5EA
330
1F
100
AcDbEntity
  8
Furniture
370
     9
100
AcDbLine
 10
132.7013574796328
 20
-2056.782991985055
 30
0.0
 11
130.7857578056464
 21
-2056.782991985055
 31
0.0
  0
LINE
  5
5EB
330
1F
100
AcDbEntity
  8
Furniture
370
     9
100
AcDbLine
 10
130.7857578056464
 20
-2056.782991985055
 30
0.0
 11
128.896399223082
 21
-2056.782991985055
 31
0.0
  0
LINE
  5
5EC
330
1F
100
AcDbEntity
  8
Furniture
370
     9
100
AcDbLine
 10
128.896399223082
 20
-2056.782991985055
 30
0.0
 11
127.3744159204616
 21
-2056.782991985055
 31
0.0
  0
LINE
  5
5ED
330
1F
100
AcDbEntity
  8
Furniture
370
     9
100
AcDbLine
 10
127.3744159204616
 20
-2056.782991985055
 30
0.0
 11
125.8524326178412
 21
-2056.782991985055
 31
0.0
  0
LINE
  5
5EE
330
1F
100
AcDbEntity
  8
Furniture
370
     9
100
AcDbLine
 10
125.8524326178412
 20
-2056.782991985055
 30
0.0
 11
124.6978245951613
 21
-2056.782991985055
 31
0.0
  0
LINE
  5
5EF
330
1F
100
AcDbEntity
  8
Furniture
370
     9
100
AcDbLine
 10
124.6978245951613
 20
-2056.782991985055
 30
0.0
 11
123.5956987553345
 21
-2056.782991985055
 31
0.0
  0
LINE
  5
5F0
330
1F
100
AcDbEntity
  8
Furniture
370
     9
100
AcDbLine
 10
123.5956987553345
 20
-2056.782991985055
 30
0.0
 11
122.8084660125987
 21
-2056.782991985055
 31
0.0
  0
LINE
  5
5F1
330
1F
100
AcDbEntity
  8
Furniture
370
     9
100
AcDbLine
 10
122.8084660125987
 20
-2056.782991985055
 30
0.0
 11
122.0737154527123
 21
-2056.782991985055
 31
0.0
  0
LINE
  5
5F2
330
1F
100
AcDbEntity
  8
Furniture
370
     9
100
AcDbLine
 10
122.0737154527123
 20
-2056.782991985055
 30
0.0
 11
121.2864827099783
 21
-2056.782991985055
 31
0.0
  0
LINE
  5
5F3
330
1F
100
AcDbEntity
  8
Furniture
370
     9
100
AcDbLine
 10
121.2864827099783
 20
-2056.782991985055
 30
0.0
 11
120.9191074300342
 21
-2056.782991985055
 31
0.0
  0
LINE
  5
5F4
330
1F
100
AcDbEntity
  8
Furniture
370
     9
100
AcDbLine
 10
120.9191074300342
 20
-2056.782991985055
 30
0.0
 11
120.5517321500938
 21
-2056.782991985055
 31
0.0
  0
LINE
  5
5F5
330
1F
100
AcDbEntity
  8
Furniture
370
     9
100
AcDbLine
 10
440.2731900661328
 20
-1744.251593119327
 30
0.0
 11
440.2731900661328
 21
-1741.968618165395
 31
0.0
  0
LINE
  5
5F6
330
1F
100
AcDbEntity
  8
Furniture
370
     9
100
AcDbLine
 10
-157.4463904010008
 20
-1744.251593119327
 30
0.0
 11
-157.4463904010008
 21
-1741.968618165395
 31
0.0
  0
LINE
  5
5F7
330
1F
100
AcDbEntity
  8
Furniture
370
     9
100
AcDbLine
 10
-153.6151910530243
 20
-1738.176780454556
 30
0.0
 11
436.4944729010058
 21
-1738.176780454556
 31
0.0
  0
LINE
  5
5F8
330
1F
100
AcDbEntity
  8
Furniture
370
     9
100
AcDbLine
 10
440.2731900661328
 20
-1744.251593119327
 30
0.0
 11
425.4732145027174
 21
-1756.781714274523
 31
0.0
  0
LINE
  5
5F9
330
1F
100
AcDbEntity
  8
Furniture
370
     9
100
AcDbLine
 10
425.4732145027174
 20
-1756.781714274523
 30
0.0
 11
-142.5939326547359
 21
-1756.781714274523
 31
0.0
  0
LINE
  5
5FA
330
1F
100
AcDbEntity
  8
Furniture
370
     9
100
AcDbLine
 10
-142.5939326547359
 20
-1756.781714274523
 30
0.0
 11
-157.4463904010008
 21
-1744.251593119327
 31
0.0
  0
LINE
  5
5FB
330
1F
100
AcDbEntity
  8
Furniture
370
     9
100
AcDbLine
 10
2103.809342422854
 20
-347.644537107276
 30
0.0
 11
2140.669992008832
 21
-369.2080171150728
 31
0.0
  0
LINE
  5
5FC
330
1F
100
AcDbEntity
  8
Furniture
370
     9
100
AcDbLine
 10
1951.522201561931
 20
-347.1311209166142
 30
0.0
 11
1914.608893905117
 21
-368.1811847337495
 31
0.0
  0
LINE
  5
5FD
330
1F
100
AcDbEntity
  8
Furniture
370
     9
100
AcDbLine
 10
2028.402984984114
 20
-172.5564515738842
 30
0.0
 11
2028.402984984114
 21
-215.1568308811075
 31
0.0
  0
SPLINE
  5
5FE
330
1F
100
AcDbEntity
  8
Furniture
370
     9
100
AcDbSpline
210
0.0
220
0.0
230
1.0
 70
     8
 71
     3
 72
     8
 73
     4
 74
     0
 42
0.000000001
 43
0.0000000001
 40
0.0
 40
0.0
 40
0.0
 40
0.0
 40
1.0
 40
1.0
 40
1.0
 40
1.0
 10
1803.500364438814
 20
-303.1221382145004
 30
0.0
 10
1803.500364438814
 20
-427.0529079296384
 30
0.0
 10
1903.919305525183
 20
-527.5245070868459
 30
0.0
 10
2027.87640427574
 20
-527.5508361222646
 30
0.0
  0
SPLINE
  5
5FF
330
1F
100
AcDbEntity
  8
Furniture
370
     9
100
AcDbSpline
210
0.0
220
0.0
230
1.0
 70
     8
 71
     3
 72
     8
 73
     4
 74
     0
 42
0.000000001
 43
0.0000000001
 40
1.0
 40
1.0
 40
1.0
 40
1.0
 40
2.0
 40
2.0
 40
2.0
 40
2.0
 10
2027.87640427574
 20
-527.5508361222646
 30
0.0
 10
2151.807173990881
 20
-527.5508361222646
 30
0.0
 10
2252.305102183505
 20
-427.1187305181856
 30
0.0
 10
2252.305102183505
 20
-303.1879608030458
 30
0.0
  0
SPLINE
  5
600
330
1F
100
AcDbEntity
  8
Furniture
370
     9
100
AcDbSpline
210
0.0
220
0.0
230
1.0
 70
     8
 71
     3
 72
     8
 73
     4
 74
     0
 42
0.000000001
 43
0.0000000001
 40
2.0
 40
2.0
 40
2.0
 40
2.0
 40
3.0
 40
3.0
 40
3.0
 40
3.0
 10
2252.305102183505
 20
-303.1879608030458
 30
0.0
 10
2252.357760254343
 20
-179.257191087906
 30
0.0
 10
2151.886161097136
 20
-78.77242741299051
 30
0.0
 10
2027.981720417415
 20
-78.71976934215308
 30
0.0
  0
SPLINE
  5
601
330
1F
100
AcDbEntity
  8
Furniture
370
     9
100
AcDbSpline
210
0.0
220
0.0
230
1.0
 70
     8
 71
     3
 72
     8
 73
     4
 74
     0
 42
0.000000001
 43
0.0000000001
 40
3.0
 40
3.0
 40
3.0
 40
3.0
 40
4.0
 40
4.0
 40
4.0
 40
4.0
 10
2027.981720417415
 20
-78.71976934215308
 30
0.0
 10
1904.024621666857
 20
-78.69344030673437
 30
0.0
 10
1803.553022509652
 20
-179.1387104285231
 30
0.0
 10
1803.500364438814
 20
-303.069480143663
 30
0.0
  0
LINE
  5
602
330
1F
100
AcDbEntity
  8
Furniture
370
     9
100
AcDbLine
 10
253.2529314837611
 20
-97.66246786944158
 30
0.0
 11
317.937221845139
 21
-524.7755924402236
 31
0.0
  0
LINE
  5
603
330
1F
100
AcDbEntity
  8
Furniture
370
     9
100
AcDbLine
 10
265.8748964589413
 20
-525.2872937230013
 30
0.0
 11
210.7948455589285
 21
-97.66246786944158
 31
0.0
  0
SPLINE
  5
604
330
1F
100
AcDbEntity
  8
Furniture
370
     9
100
AcDbSpline
210
0.0
220
0.0
230
1.0
 70
     8
 71
     3
 72
     8
 73
     4
 74
     0
 42
0.000000001
 43
0.0000000001
 40
0.0
 40
0.0
 40
0.0
 40
0.0
 40
1.0
 40
1.0
 40
1.0
 40
1.0
 10
316.1790687196972
 20
-526.7961564799097
 30
0.0
 10
316.7038905481895
 20
-526.7961564799097
 30
0.0
 10
317.2024712852526
 20
-526.5599866570901
 30
0.0
 10
317.5173643823473
 20
-526.1663702857222
 30
0.0
  0
SPLINE
  5
605
330
1F
100
AcDbEntity
  8
Furniture
370
     9
100
AcDbSpline
210
0.0
220
0.0
230
1.0
 70
     8
 71
     3
 72
     8
 73
     4
 74
     0
 42
0.000000001
 43
0.0000000001
 40
1.0
 40
1.0
 40
1.0
 40
1.0
 40
2.0
 40
2.0
 40
2.0
 40
2.0
 10
317.5173643823473
 20
-526.1663702857222
 30
0.0
 10
317.8584985708658
 20
-525.7858744600671
 30
0.0
 10
318.0159451194122
 20
-525.2610526315765
 30
0.0
 10
317.937221845139
 20
-524.7493513487988
 30
0.0
  0
LINE
  5
606
330
1F
100
AcDbEntity
  8
Furniture
370
     9
100
AcDbLine
 10
280.543666565236
 20
-524.7755924402236
 30
0.0
 11
280.543666565236
 21
-524.7755924402236
 31
0.0
  0
LINE
  5
607
330
1F
100
AcDbEntity
  8
Furniture
370
     9
100
AcDbLine
 10
317.937221845139
 20
-524.7755924402236
 30
0.0
 11
317.937221845139
 21
-524.2638911574458
 31
0.0
  0
LINE
  5
608
330
1F
100
AcDbEntity
  8
Furniture
370
     9
100
AcDbLine
 10
317.937221845139
 20
-524.2638911574458
 30
0.0
 11
317.4648821994997
 21
-524.2638911574458
 31
0.0
  0
LINE
  5
609
330
1F
100
AcDbEntity
  8
Furniture
370
     9
100
AcDbLine
 10
317.4648821994997
 20
-524.2638911574458
 30
0.0
 11
316.9400603710092
 21
-524.2638911574458
 31
0.0
  0
LINE
  5
60A
330
1F
100
AcDbEntity
  8
Furniture
370
     9
100
AcDbLine
 10
316.9400603710092
 20
-524.2638911574458
 30
0.0
 11
316.4152385425205
 21
-524.2638911574458
 31
0.0
  0
LINE
  5
60B
330
1F
100
AcDbEntity
  8
Furniture
370
     9
100
AcDbLine
 10
316.4152385425205
 20
-524.2638911574458
 30
0.0
 11
315.9428988968775
 21
-524.2638911574458
 31
0.0
  0
LINE
  5
60C
330
1F
100
AcDbEntity
  8
Furniture
370
     9
100
AcDbLine
 10
315.9428988968775
 20
-524.2638911574458
 30
0.0
 11
315.418077068387
 21
-524.2638911574458
 31
0.0
  0
LINE
  5
60D
330
1F
100
AcDbEntity
  8
Furniture
370
     9
100
AcDbLine
 10
315.418077068387
 20
-524.2638911574458
 30
0.0
 11
314.4209155942572
 21
-524.2638911574458
 31
0.0
  0
LINE
  5
60E
330
1F
100
AcDbEntity
  8
Furniture
370
     9
100
AcDbLine
 10
314.4209155942572
 20
-524.2638911574458
 30
0.0
 11
313.4237541201255
 21
-524.2638911574458
 31
0.0
  0
LINE
  5
60F
330
1F
100
AcDbEntity
  8
Furniture
370
     9
100
AcDbLine
 10
313.4237541201255
 20
-524.2638911574458
 30
0.0
 11
312.4003515545701
 21
-524.2638911574458
 31
0.0
  0
LINE
  5
610
330
1F
100
AcDbEntity
  8
Furniture
370
     9
100
AcDbLine
 10
312.4003515545701
 20
-524.2638911574458
 30
0.0
 11
310.8783682519515
 21
-524.2638911574458
 31
0.0
  0
LINE
  5
611
330
1F
100
AcDbEntity
  8
Furniture
370
     9
100
AcDbLine
 10
310.8783682519515
 20
-524.2638911574458
 30
0.0
 11
309.8549656863961
 21
-524.2638911574458
 31
0.0
  0
LINE
  5
612
330
1F
100
AcDbEntity
  8
Furniture
370
     9
100
AcDbLine
 10
309.8549656863961
 20
-524.2638911574458
 30
0.0
 11
308.3329823837739
 21
-524.7755924402236
 31
0.0
  0
LINE
  5
613
330
1F
100
AcDbEntity
  8
Furniture
370
     9
100
AcDbLine
 10
308.3329823837739
 20
-524.7755924402236
 30
0.0
 11
307.3358209096441
 21
-524.7755924402236
 31
0.0
  0
LINE
  5
614
330
1F
100
AcDbEntity
  8
Furniture
370
     9
100
AcDbLine
 10
307.3358209096441
 20
-524.7755924402236
 30
0.0
 11
305.8138376070219
 21
-524.7755924402236
 31
0.0
  0
LINE
  5
615
330
1F
100
AcDbEntity
  8
Furniture
370
     9
100
AcDbLine
 10
305.8138376070219
 20
-524.7755924402236
 30
0.0
 11
304.2918543044034
 21
-524.7755924402236
 31
0.0
  0
LINE
  5
616
330
1F
100
AcDbEntity
  8
Furniture
370
     9
100
AcDbLine
 10
304.2918543044034
 20
-524.7755924402236
 30
0.0
 11
302.7698710017812
 21
-524.7755924402236
 31
0.0
  0
LINE
  5
617
330
1F
100
AcDbEntity
  8
Furniture
370
     9
100
AcDbLine
 10
302.7698710017812
 20
-524.7755924402236
 30
0.0
 11
301.2741287905865
 21
-524.7755924402236
 31
0.0
  0
LINE
  5
618
330
1F
100
AcDbEntity
  8
Furniture
370
     9
100
AcDbLine
 10
301.2741287905865
 20
-524.7755924402236
 30
0.0
 11
298.2564032767677
 21
-524.7755924402236
 31
0.0
  0
LINE
  5
619
330
1F
100
AcDbEntity
  8
Furniture
370
     9
100
AcDbLine
 10
298.2564032767677
 20
-524.7755924402236
 30
0.0
 11
295.2124366715271
 21
-524.7755924402236
 31
0.0
  0
LINE
  5
61A
330
1F
100
AcDbEntity
  8
Furniture
370
     9
100
AcDbLine
 10
295.2124366715271
 20
-524.7755924402236
 30
0.0
 11
292.1684700662863
 21
-524.7755924402236
 31
0.0
  0
LINE
  5
61B
330
1F
100
AcDbEntity
  8
Furniture
370
     9
100
AcDbLine
 10
292.1684700662863
 20
-524.7755924402236
 30
0.0
 11
289.1245034610456
 21
-524.7755924402236
 31
0.0
  0
LINE
  5
61C
330
1F
100
AcDbEntity
  8
Furniture
370
     9
100
AcDbLine
 10
289.1245034610456
 20
-524.7755924402236
 30
0.0
 11
286.1067779472287
 21
-524.7755924402236
 31
0.0
  0
LINE
  5
61D
330
1F
100
AcDbEntity
  8
Furniture
370
     9
100
AcDbLine
 10
286.1067779472287
 20
-524.7755924402236
 30
0.0
 11
283.08905243341
 21
-524.7755924402236
 31
0.0
  0
LINE
  5
61E
330
1F
100
AcDbEntity
  8
Furniture
370
     9
100
AcDbLine
 10
283.08905243341
 20
-524.7755924402236
 30
0.0
 11
280.543666565236
 21
-524.7755924402236
 31
0.0
  0
LINE
  5
61F
330
1F
100
AcDbEntity
  8
Furniture
370
     9
100
AcDbLine
 10
280.543666565236
 20
-524.7755924402236
 30
0.0
 11
277.5259410514191
 21
-524.7755924402236
 31
0.0
  0
LINE
  5
620
330
1F
100
AcDbEntity
  8
Furniture
370
     9
100
AcDbLine
 10
277.5259410514191
 20
-524.7755924402236
 30
0.0
 11
274.4819744461765
 21
-524.7755924402236
 31
0.0
  0
LINE
  5
621
330
1F
100
AcDbEntity
  8
Furniture
370
     9
100
AcDbLine
 10
274.4819744461765
 20
-524.7755924402236
 30
0.0
 11
273.4848129720449
 21
-524.7755924402236
 31
0.0
  0
LINE
  5
622
330
1F
100
AcDbEntity
  8
Furniture
370
     9
100
AcDbLine
 10
273.4848129720449
 20
-524.7755924402236
 30
0.0
 11
272.487651497915
 21
-524.7755924402236
 31
0.0
  0
LINE
  5
623
330
1F
100
AcDbEntity
  8
Furniture
370
     9
100
AcDbLine
 10
272.487651497915
 20
-524.7755924402236
 30
0.0
 11
270.9656681952947
 21
-524.7755924402236
 31
0.0
  0
LINE
  5
624
330
1F
100
AcDbEntity
  8
Furniture
370
     9
100
AcDbLine
 10
270.9656681952947
 20
-524.7755924402236
 30
0.0
 11
269.9160245383155
 21
-524.7755924402236
 31
0.0
  0
LINE
  5
625
330
1F
100
AcDbEntity
  8
Furniture
370
     9
100
AcDbLine
 10
269.9160245383155
 20
-524.7755924402236
 30
0.0
 11
269.4436848926744
 21
-524.7755924402236
 31
0.0
  0
LINE
  5
626
330
1F
100
AcDbEntity
  8
Furniture
370
     9
100
AcDbLine
 10
269.4436848926744
 20
-524.7755924402236
 30
0.0
 11
268.3940412356933
 21
-524.7755924402236
 31
0.0
  0
LINE
  5
627
330
1F
100
AcDbEntity
  8
Furniture
370
     9
100
AcDbLine
 10
268.3940412356933
 20
-524.7755924402236
 30
0.0
 11
267.9217015900522
 21
-524.7755924402236
 31
0.0
  0
LINE
  5
628
330
1F
100
AcDbEntity
  8
Furniture
370
     9
100
AcDbLine
 10
267.9217015900522
 20
-524.7755924402236
 30
0.0
 11
266.9245401159224
 21
-524.7755924402236
 31
0.0
  0
LINE
  5
629
330
1F
100
AcDbEntity
  8
Furniture
370
     9
100
AcDbLine
 10
266.9245401159224
 20
-524.7755924402236
 30
0.0
 11
266.3997182874336
 21
-525.2872937230013
 31
0.0
  0
LINE
  5
62A
330
1F
100
AcDbEntity
  8
Furniture
370
     9
100
AcDbLine
 10
266.3997182874336
 20
-525.2872937230013
 30
0.0
 11
265.8748964589413
 21
-525.2872937230013
 31
0.0
  0
LINE
  5
62B
330
1F
100
AcDbEntity
  8
Furniture
370
     9
100
AcDbLine
 10
267.9217015900522
 20
-526.7961564799097
 30
0.0
 11
267.9217015900522
 21
-526.7961564799097
 31
0.0
  0
LINE
  5
62C
330
1F
100
AcDbEntity
  8
Furniture
370
     9
100
AcDbLine
 10
267.9217015900522
 20
-526.7961564799097
 30
0.0
 11
268.3940412356933
 21
-526.7961564799097
 31
0.0
  0
LINE
  5
62D
330
1F
100
AcDbEntity
  8
Furniture
370
     9
100
AcDbLine
 10
268.3940412356933
 20
-526.7961564799097
 30
0.0
 11
268.9188630641857
 21
-526.7961564799097
 31
0.0
  0
LINE
  5
62E
330
1F
100
AcDbEntity
  8
Furniture
370
     9
100
AcDbLine
 10
268.9188630641857
 20
-526.7961564799097
 30
0.0
 11
269.4436848926744
 21
-526.7961564799097
 31
0.0
  0
LINE
  5
62F
330
1F
100
AcDbEntity
  8
Furniture
370
     9
100
AcDbLine
 10
269.4436848926744
 20
-526.7961564799097
 30
0.0
 11
270.4408463668042
 21
-526.7961564799097
 31
0.0
  0
LINE
  5
630
330
1F
100
AcDbEntity
  8
Furniture
370
     9
100
AcDbLine
 10
270.4408463668042
 20
-526.7961564799097
 30
0.0
 11
270.9656681952947
 21
-526.7961564799097
 31
0.0
  0
LINE
  5
631
330
1F
100
AcDbEntity
  8
Furniture
370
     9
100
AcDbLine
 10
270.9656681952947
 20
-526.7961564799097
 30
0.0
 11
271.9628296694263
 21
-526.7961564799097
 31
0.0
  0
LINE
  5
632
330
1F
100
AcDbEntity
  8
Furniture
370
     9
100
AcDbLine
 10
271.9628296694263
 20
-526.7961564799097
 30
0.0
 11
272.9599911435562
 21
-526.7961564799097
 31
0.0
  0
LINE
  5
633
330
1F
100
AcDbEntity
  8
Furniture
370
     9
100
AcDbLine
 10
272.9599911435562
 20
-526.7961564799097
 30
0.0
 11
273.9833937091116
 21
-526.7961564799097
 31
0.0
  0
LINE
  5
634
330
1F
100
AcDbEntity
  8
Furniture
370
     9
100
AcDbLine
 10
273.9833937091116
 20
-526.7961564799097
 30
0.0
 11
276.0039577487969
 21
-526.7961564799097
 31
0.0
  0
LINE
  5
635
330
1F
100
AcDbEntity
  8
Furniture
370
     9
100
AcDbLine
 10
276.0039577487969
 20
-526.7961564799097
 30
0.0
 11
278.5231025255489
 21
-526.7961564799097
 31
0.0
  0
LINE
  5
636
330
1F
100
AcDbEntity
  8
Furniture
370
     9
100
AcDbLine
 10
278.5231025255489
 20
-526.7961564799097
 30
0.0
 11
281.5670691307914
 21
-526.7961564799097
 31
0.0
  0
LINE
  5
637
330
1F
100
AcDbEntity
  8
Furniture
370
     9
100
AcDbLine
 10
281.5670691307914
 20
-526.7961564799097
 30
0.0
 11
284.0862139075434
 21
-526.7961564799097
 31
0.0
  0
LINE
  5
638
330
1F
100
AcDbEntity
  8
Furniture
370
     9
100
AcDbLine
 10
284.0862139075434
 20
-526.7961564799097
 30
0.0
 11
286.6053586842936
 21
-526.7961564799097
 31
0.0
  0
LINE
  5
639
330
1F
100
AcDbEntity
  8
Furniture
370
     9
100
AcDbLine
 10
286.6053586842936
 20
-526.7961564799097
 30
0.0
 11
289.1245034610456
 21
-526.7961564799097
 31
0.0
  0
LINE
  5
63A
330
1F
100
AcDbEntity
  8
Furniture
370
     9
100
AcDbLine
 10
289.1245034610456
 20
-526.7961564799097
 30
0.0
 11
292.1684700662863
 21
-526.7961564799097
 31
0.0
  0
LINE
  5
63B
330
1F
100
AcDbEntity
  8
Furniture
370
     9
100
AcDbLine
 10
292.1684700662863
 20
-526.7961564799097
 30
0.0
 11
295.2124366715271
 21
-526.7961564799097
 31
0.0
  0
LINE
  5
63C
330
1F
100
AcDbEntity
  8
Furniture
370
     9
100
AcDbLine
 10
295.2124366715271
 20
-526.7961564799097
 30
0.0
 11
297.7315814482791
 21
-526.7961564799097
 31
0.0
  0
LINE
  5
63D
330
1F
100
AcDbEntity
  8
Furniture
370
     9
100
AcDbLine
 10
297.7315814482791
 20
-526.7961564799097
 30
0.0
 11
300.7755480535197
 21
-526.7961564799097
 31
0.0
  0
LINE
  5
63E
330
1F
100
AcDbEntity
  8
Furniture
370
     9
100
AcDbLine
 10
300.7755480535197
 20
-526.7961564799097
 30
0.0
 11
303.2946928302717
 21
-526.7961564799097
 31
0.0
  0
LINE
  5
63F
330
1F
100
AcDbEntity
  8
Furniture
370
     9
100
AcDbLine
 10
303.2946928302717
 20
-526.7961564799097
 30
0.0
 11
304.8166761328921
 21
-526.7961564799097
 31
0.0
  0
LINE
  5
640
330
1F
100
AcDbEntity
  8
Furniture
370
     9
100
AcDbLine
 10
304.8166761328921
 20
-526.7961564799097
 30
0.0
 11
306.3386594355125
 21
-526.7961564799097
 31
0.0
  0
LINE
  5
641
330
1F
100
AcDbEntity
  8
Furniture
370
     9
100
AcDbLine
 10
306.3386594355125
 20
-526.7961564799097
 30
0.0
 11
307.3358209096441
 21
-526.7961564799097
 31
0.0
  0
LINE
  5
642
330
1F
100
AcDbEntity
  8
Furniture
370
     9
100
AcDbLine
 10
307.3358209096441
 20
-526.7961564799097
 30
0.0
 11
308.3329823837739
 21
-526.7961564799097
 31
0.0
  0
LINE
  5
643
330
1F
100
AcDbEntity
  8
Furniture
370
     9
100
AcDbLine
 10
308.3329823837739
 20
-526.7961564799097
 30
0.0
 11
309.8549656863961
 21
-526.7961564799097
 31
0.0
  0
LINE
  5
644
330
1F
100
AcDbEntity
  8
Furniture
370
     9
100
AcDbLine
 10
309.8549656863961
 20
-526.7961564799097
 30
0.0
 11
310.8783682519515
 21
-526.7961564799097
 31
0.0
  0
LINE
  5
645
330
1F
100
AcDbEntity
  8
Furniture
370
     9
100
AcDbLine
 10
310.8783682519515
 20
-526.7961564799097
 30
0.0
 11
311.901770817507
 21
-526.7961564799097
 31
0.0
  0
LINE
  5
646
330
1F
100
AcDbEntity
  8
Furniture
370
     9
100
AcDbLine
 10
311.901770817507
 20
-526.7961564799097
 30
0.0
 11
312.8989322916368
 21
-526.7961564799097
 31
0.0
  0
LINE
  5
647
330
1F
100
AcDbEntity
  8
Furniture
370
     9
100
AcDbLine
 10
312.8989322916368
 20
-526.7961564799097
 30
0.0
 11
313.4237541201255
 21
-526.7961564799097
 31
0.0
  0
LINE
  5
648
330
1F
100
AcDbEntity
  8
Furniture
370
     9
100
AcDbLine
 10
313.4237541201255
 20
-526.7961564799097
 30
0.0
 11
314.4209155942572
 21
-526.7961564799097
 31
0.0
  0
LINE
  5
649
330
1F
100
AcDbEntity
  8
Furniture
370
     9
100
AcDbLine
 10
314.4209155942572
 20
-526.7961564799097
 30
0.0
 11
314.9194963313221
 21
-526.7961564799097
 31
0.0
  0
LINE
  5
64A
330
1F
100
AcDbEntity
  8
Furniture
370
     9
100
AcDbLine
 10
314.9194963313221
 20
-526.7961564799097
 30
0.0
 11
315.418077068387
 21
-526.7961564799097
 31
0.0
  0
LINE
  5
64B
330
1F
100
AcDbEntity
  8
Furniture
370
     9
100
AcDbLine
 10
315.418077068387
 20
-526.7961564799097
 30
0.0
 11
315.9428988968775
 21
-526.7961564799097
 31
0.0
  0
LINE
  5
64C
330
1F
100
AcDbEntity
  8
Furniture
370
     9
100
AcDbLine
 10
280.543666565236
 20
-524.7755924402236
 30
0.0
 11
280.543666565236
 21
-525.7727539143543
 31
0.0
  0
LINE
  5
64D
330
1F
100
AcDbEntity
  8
Furniture
370
     9
100
AcDbLine
 10
280.543666565236
 20
-525.7727539143543
 30
0.0
 11
280.543666565236
 21
-526.284455197132
 31
0.0
  0
LINE
  5
64E
330
1F
100
AcDbEntity
  8
Furniture
370
     9
100
AcDbLine
 10
280.543666565236
 20
-526.284455197132
 30
0.0
 11
281.0422473022991
 21
-526.7961564799097
 31
0.0
  0
LINE
  5
64F
330
1F
100
AcDbEntity
  8
Furniture
370
     9
100
AcDbLine
 10
281.0422473022991
 20
-526.7961564799097
 30
0.0
 11
281.5670691307914
 21
-526.7961564799097
 31
0.0
  0
LINE
  5
650
330
1F
100
AcDbEntity
  8
Furniture
370
     9
100
AcDbLine
 10
64.71068959876902
 20
-97.66246786944158
 30
0.0
 11
9.630638698756229
 21
-525.2872937230013
 31
0.0
  0
LINE
  5
651
330
1F
100
AcDbEntity
  8
Furniture
370
     9
100
AcDbLine
 10
-42.43168668744146
 20
-524.7755924402236
 30
0.0
 11
22.25260367393639
 21
-97.66246786944158
 31
0.0
  0
SPLINE
  5
652
330
1F
100
AcDbEntity
  8
Furniture
370
     9
100
AcDbSpline
210
0.0
220
0.0
230
1.0
 70
     8
 71
     3
 72
     8
 73
     4
 74
     0
 42
0.000000001
 43
0.0000000001
 40
0.0
 40
0.0
 40
0.0
 40
0.0
 40
1.0
 40
1.0
 40
1.0
 40
1.0
 10
-42.40544559601767
 20
-524.7493513487988
 30
0.0
 10
-42.45792777886708
 20
-525.2610526315765
 30
0.0
 10
-42.32672232174263
 20
-525.7858744600671
 30
0.0
 10
-41.98558813322415
 20
-526.1663702857222
 30
0.0
  0
SPLINE
  5
653
330
1F
100
AcDbEntity
  8
Furniture
370
     9
100
AcDbSpline
210
0.0
220
0.0
230
1.0
 70
     8
 71
     3
 72
     8
 73
     4
 74
     0
 42
0.000000001
 43
0.0000000001
 40
1.0
 40
1.0
 40
1.0
 40
1.0
 40
2.0
 40
2.0
 40
2.0
 40
2.0
 10
-41.98558813322415
 20
-526.1663702857222
 30
0.0
 10
-41.67069503613129
 20
-526.5599866570901
 30
0.0
 10
-41.198355390492
 20
-526.7961564799097
 30
0.0
 10
-40.64729247057584
 20
-526.7961564799097
 30
0.0
  0
LINE
  5
654
330
1F
100
AcDbEntity
  8
Furniture
370
     9
100
AcDbLine
 10
9.630638698756229
 20
-525.2872937230013
 30
0.0
 11
9.630638698756229
 21
-525.2872937230013
 31
0.0
  0
LINE
  5
655
330
1F
100
AcDbEntity
  8
Furniture
370
     9
100
AcDbLine
 10
9.630638698756229
 20
-525.2872937230013
 30
0.0
 11
9.132057961689497
 21
-525.2872937230013
 31
0.0
  0
LINE
  5
656
330
1F
100
AcDbEntity
  8
Furniture
370
     9
100
AcDbLine
 10
9.132057961689497
 20
-525.2872937230013
 30
0.0
 11
8.607236133200785
 21
-524.7755924402236
 31
0.0
  0
LINE
  5
657
330
1F
100
AcDbEntity
  8
Furniture
370
     9
100
AcDbLine
 10
8.607236133200785
 20
-524.7755924402236
 30
0.0
 11
7.610074659069141
 21
-524.7755924402236
 31
0.0
  0
LINE
  5
658
330
1F
100
AcDbEntity
  8
Furniture
370
     9
100
AcDbLine
 10
7.610074659069141
 20
-524.7755924402236
 30
0.0
 11
6.586672093513698
 21
-524.7755924402236
 31
0.0
  0
LINE
  5
659
330
1F
100
AcDbEntity
  8
Furniture
370
     9
100
AcDbLine
 10
6.586672093513698
 20
-524.7755924402236
 30
0.0
 11
5.090929882317141
 21
-524.7755924402236
 31
0.0
  0
LINE
  5
65A
330
1F
100
AcDbEntity
  8
Furniture
370
     9
100
AcDbLine
 10
5.090929882317141
 20
-524.7755924402236
 30
0.0
 11
3.568946579696785
 21
-524.7755924402236
 31
0.0
  0
LINE
  5
65B
330
1F
100
AcDbEntity
  8
Furniture
370
     9
100
AcDbLine
 10
3.568946579696785
 20
-524.7755924402236
 30
0.0
 11
2.046963277076429
 21
-524.7755924402236
 31
0.0
  0
LINE
  5
65C
330
1F
100
AcDbEntity
  8
Furniture
370
     9
100
AcDbLine
 10
2.046963277076429
 20
-524.7755924402236
 30
0.0
 11
0.5249799744542543
 21
-524.7755924402236
 31
0.0
  0
LINE
  5
65D
330
1F
100
AcDbEntity
  8
Furniture
370
     9
100
AcDbLine
 10
0.5249799744542543
 20
-524.7755924402236
 30
0.0
 11
-1.469342973805396
 21
-524.7755924402236
 31
0.0
  0
LINE
  5
65E
330
1F
100
AcDbEntity
  8
Furniture
370
     9
100
AcDbLine
 10
-1.469342973805396
 20
-524.7755924402236
 30
0.0
 11
-3.516148104916283
 21
-524.7755924402236
 31
0.0
  0
LINE
  5
65F
330
1F
100
AcDbEntity
  8
Furniture
370
     9
100
AcDbLine
 10
-3.516148104916283
 20
-524.7755924402236
 30
0.0
 11
-5.536712144601551
 21
-524.7755924402236
 31
0.0
  0
LINE
  5
660
330
1F
100
AcDbEntity
  8
Furniture
370
     9
100
AcDbLine
 10
-5.536712144601551
 20
-524.7755924402236
 30
0.0
 11
-7.557276184288639
 21
-524.7755924402236
 31
0.0
  0
LINE
  5
661
330
1F
100
AcDbEntity
  8
Furniture
370
     9
100
AcDbLine
 10
-7.557276184288639
 20
-524.7755924402236
 30
0.0
 11
-9.551599132551928
 21
-524.7755924402236
 31
0.0
  0
LINE
  5
662
330
1F
100
AcDbEntity
  8
Furniture
370
     9
100
AcDbLine
 10
-9.551599132551928
 20
-524.7755924402236
 30
0.0
 11
-12.09698500072591
 21
-524.7755924402236
 31
0.0
  0
LINE
  5
663
330
1F
100
AcDbEntity
  8
Furniture
370
     9
100
AcDbLine
 10
-12.09698500072591
 20
-524.7755924402236
 30
0.0
 11
-14.64237086890352
 21
-524.7755924402236
 31
0.0
  0
LINE
  5
664
330
1F
100
AcDbEntity
  8
Furniture
370
     9
100
AcDbLine
 10
-14.64237086890352
 20
-524.7755924402236
 30
0.0
 11
-16.63669381716317
 21
-524.7755924402236
 31
0.0
  0
LINE
  5
665
330
1F
100
AcDbEntity
  8
Furniture
370
     9
100
AcDbLine
 10
-16.63669381716317
 20
-524.7755924402236
 30
0.0
 11
-19.15583859391336
 21
-524.7755924402236
 31
0.0
  0
LINE
  5
666
330
1F
100
AcDbEntity
  8
Furniture
370
     9
100
AcDbLine
 10
-19.15583859391336
 20
-524.7755924402236
 30
0.0
 11
-21.70122446209098
 21
-524.7755924402236
 31
0.0
  0
LINE
  5
667
330
1F
100
AcDbEntity
  8
Furniture
370
     9
100
AcDbLine
 10
-21.70122446209098
 20
-524.7755924402236
 30
0.0
 11
-24.24661033026678
 21
-524.7755924402236
 31
0.0
  0
LINE
  5
668
330
1F
100
AcDbEntity
  8
Furniture
370
     9
100
AcDbLine
 10
-24.24661033026678
 20
-524.7755924402236
 30
0.0
 11
-26.24093327852825
 21
-524.7755924402236
 31
0.0
  0
LINE
  5
669
330
1F
100
AcDbEntity
  8
Furniture
370
     9
100
AcDbLine
 10
-26.24093327852825
 20
-524.7755924402236
 30
0.0
 11
-28.76007805528025
 21
-524.7755924402236
 31
0.0
  0
LINE
  5
66A
330
1F
100
AcDbEntity
  8
Furniture
370
     9
100
AcDbLine
 10
-28.76007805528025
 20
-524.7755924402236
 30
0.0
 11
-31.30546392345605
 21
-524.7755924402236
 31
0.0
  0
LINE
  5
66B
330
1F
100
AcDbEntity
  8
Furniture
370
     9
100
AcDbLine
 10
-31.30546392345605
 20
-524.7755924402236
 30
0.0
 11
-33.32602796314132
 21
-524.7755924402236
 31
0.0
  0
LINE
  5
66C
330
1F
100
AcDbEntity
  8
Furniture
370
     9
100
AcDbLine
 10
-33.32602796314132
 20
-524.7755924402236
 30
0.0
 11
-35.3728330942522
 21
-524.2638911574458
 31
0.0
  0
LINE
  5
66D
330
1F
100
AcDbEntity
  8
Furniture
370
     9
100
AcDbLine
 10
-35.3728330942522
 20
-524.2638911574458
 30
0.0
 11
-37.36715604251549
 21
-524.2638911574458
 31
0.0
  0
LINE
  5
66E
330
1F
100
AcDbEntity
  8
Furniture
370
     9
100
AcDbLine
 10
-37.36715604251549
 20
-524.2638911574458
 30
0.0
 11
-38.88913934513403
 21
-524.2638911574458
 31
0.0
  0
LINE
  5
66F
330
1F
100
AcDbEntity
  8
Furniture
370
     9
100
AcDbLine
 10
-38.88913934513403
 20
-524.2638911574458
 30
0.0
 11
-39.88630081926567
 21
-524.2638911574458
 31
0.0
  0
LINE
  5
670
330
1F
100
AcDbEntity
  8
Furniture
370
     9
100
AcDbLine
 10
-39.88630081926567
 20
-524.2638911574458
 30
0.0
 11
-41.40828412188603
 21
-524.2638911574458
 31
0.0
  0
LINE
  5
671
330
1F
100
AcDbEntity
  8
Furniture
370
     9
100
AcDbLine
 10
-41.40828412188603
 20
-524.2638911574458
 30
0.0
 11
-41.93310595037473
 21
-524.2638911574458
 31
0.0
  0
LINE
  5
672
330
1F
100
AcDbEntity
  8
Furniture
370
     9
100
AcDbLine
 10
-41.93310595037473
 20
-524.2638911574458
 30
0.0
 11
-42.43168668744146
 21
-524.2638911574458
 31
0.0
  0
LINE
  5
673
330
1F
100
AcDbEntity
  8
Furniture
370
     9
100
AcDbLine
 10
-42.43168668744146
 20
-524.2638911574458
 30
0.0
 11
-42.43168668744146
 21
-524.7755924402236
 31
0.0
  0
LINE
  5
674
330
1F
100
AcDbEntity
  8
Furniture
370
     9
100
AcDbLine
 10
-40.4111226477562
 20
-526.7961564799097
 30
0.0
 11
-40.4111226477562
 21
-526.7961564799097
 31
0.0
  0
LINE
  5
675
330
1F
100
AcDbEntity
  8
Furniture
370
     9
100
AcDbLine
 10
-40.4111226477562
 20
-526.7961564799097
 30
0.0
 11
-39.88630081926567
 21
-526.7961564799097
 31
0.0
  0
LINE
  5
676
330
1F
100
AcDbEntity
  8
Furniture
370
     9
100
AcDbLine
 10
-39.88630081926567
 20
-526.7961564799097
 30
0.0
 11
-39.41396117362456
 21
-526.7961564799097
 31
0.0
  0
LINE
  5
677
330
1F
100
AcDbEntity
  8
Furniture
370
     9
100
AcDbLine
 10
-39.41396117362456
 20
-526.7961564799097
 30
0.0
 11
-38.36431751664532
 21
-526.7961564799097
 31
0.0
  0
LINE
  5
678
330
1F
100
AcDbEntity
  8
Furniture
370
     9
100
AcDbLine
 10
-38.36431751664532
 20
-526.7961564799097
 30
0.0
 11
-37.36715604251549
 21
-526.7961564799097
 31
0.0
  0
LINE
  5
679
330
1F
100
AcDbEntity
  8
Furniture
370
     9
100
AcDbLine
 10
-37.36715604251549
 20
-526.7961564799097
 30
0.0
 11
-35.84517273989332
 21
-526.7961564799097
 31
0.0
  0
LINE
  5
67A
330
1F
100
AcDbEntity
  8
Furniture
370
     9
100
AcDbLine
 10
-35.84517273989332
 20
-526.7961564799097
 30
0.0
 11
-33.82460870020805
 21
-526.7961564799097
 31
0.0
  0
LINE
  5
67B
330
1F
100
AcDbEntity
  8
Furniture
370
     9
100
AcDbLine
 10
-33.82460870020805
 20
-526.7961564799097
 30
0.0
 11
-32.32886648901149
 21
-526.7961564799097
 31
0.0
  0
LINE
  5
67C
330
1F
100
AcDbEntity
  8
Furniture
370
     9
100
AcDbLine
 10
-32.32886648901149
 20
-526.7961564799097
 30
0.0
 11
-30.2820613579006
 21
-526.7961564799097
 31
0.0
  0
LINE
  5
67D
330
1F
100
AcDbEntity
  8
Furniture
370
     9
100
AcDbLine
 10
-30.2820613579006
 20
-526.7961564799097
 30
0.0
 11
-28.28773840963913
 21
-526.7961564799097
 31
0.0
  0
LINE
  5
67E
330
1F
100
AcDbEntity
  8
Furniture
370
     9
100
AcDbLine
 10
-28.28773840963913
 20
-526.7961564799097
 30
0.0
 11
-26.24093327852825
 21
-526.7961564799097
 31
0.0
  0
LINE
  5
67F
330
1F
100
AcDbEntity
  8
Furniture
370
     9
100
AcDbLine
 10
-26.24093327852825
 20
-526.7961564799097
 30
0.0
 11
-23.72178850177625
 21
-526.7961564799097
 31
0.0
  0
LINE
  5
680
330
1F
100
AcDbEntity
  8
Furniture
370
     9
100
AcDbLine
 10
-23.72178850177625
 20
-526.7961564799097
 30
0.0
 11
-21.70122446209098
 21
-526.7961564799097
 31
0.0
  0
LINE
  5
681
330
1F
100
AcDbEntity
  8
Furniture
370
     9
100
AcDbLine
 10
-21.70122446209098
 20
-526.7961564799097
 30
0.0
 11
-19.15583859391336
 21
-526.7961564799097
 31
0.0
  0
LINE
  5
682
330
1F
100
AcDbEntity
  8
Furniture
370
     9
100
AcDbLine
 10
-19.15583859391336
 20
-526.7961564799097
 30
0.0
 11
-17.16151564565371
 21
-526.7961564799097
 31
0.0
  0
LINE
  5
683
330
1F
100
AcDbEntity
  8
Furniture
370
     9
100
AcDbLine
 10
-17.16151564565371
 20
-526.7961564799097
 30
0.0
 11
-14.64237086890352
 21
-526.7961564799097
 31
0.0
  0
LINE
  5
684
330
1F
100
AcDbEntity
  8
Furniture
370
     9
100
AcDbLine
 10
-14.64237086890352
 20
-526.7961564799097
 30
0.0
 11
-12.59556573779264
 21
-526.7961564799097
 31
0.0
  0
LINE
  5
685
330
1F
100
AcDbEntity
  8
Furniture
370
     9
100
AcDbLine
 10
-12.59556573779264
 20
-526.7961564799097
 30
0.0
 11
-10.60124278952935
 21
-526.7961564799097
 31
0.0
  0
LINE
  5
686
330
1F
100
AcDbEntity
  8
Furniture
370
     9
100
AcDbLine
 10
-10.60124278952935
 20
-526.7961564799097
 30
0.0
 11
-8.554437658418464
 21
-526.7961564799097
 31
0.0
  0
LINE
  5
687
330
1F
100
AcDbEntity
  8
Furniture
370
     9
100
AcDbLine
 10
-8.554437658418464
 20
-526.7961564799097
 30
0.0
 11
-6.560114710156994
 21
-526.7961564799097
 31
0.0
  0
LINE
  5
688
330
1F
100
AcDbEntity
  8
Furniture
370
     9
100
AcDbLine
 10
-6.560114710156994
 20
-526.7961564799097
 30
0.0
 11
-4.513309579047927
 21
-526.7961564799097
 31
0.0
  0
LINE
  5
689
330
1F
100
AcDbEntity
  8
Furniture
370
     9
100
AcDbLine
 10
-4.513309579047927
 20
-526.7961564799097
 30
0.0
 11
-2.492745539360839
 21
-526.7961564799097
 31
0.0
  0
LINE
  5
68A
330
1F
100
AcDbEntity
  8
Furniture
370
     9
100
AcDbLine
 10
-2.492745539360839
 20
-526.7961564799097
 30
0.0
 11
-0.9970033281642827
 21
-526.7961564799097
 31
0.0
  0
LINE
  5
68B
330
1F
100
AcDbEntity
  8
Furniture
370
     9
100
AcDbLine
 10
-0.9970033281642827
 20
-526.7961564799097
 30
0.0
 11
0.5249799744542543
 21
-526.7961564799097
 31
0.0
  0
LINE
  5
68C
330
1F
100
AcDbEntity
  8
Furniture
370
     9
100
AcDbLine
 10
0.5249799744542543
 20
-526.7961564799097
 30
0.0
 11
2.046963277076429
 21
-526.7961564799097
 31
0.0
  0
LINE
  5
68D
330
1F
100
AcDbEntity
  8
Furniture
370
     9
100
AcDbLine
 10
2.046963277076429
 20
-526.7961564799097
 30
0.0
 11
3.568946579696785
 21
-526.7961564799097
 31
0.0
  0
LINE
  5
68E
330
1F
100
AcDbEntity
  8
Furniture
370
     9
100
AcDbLine
 10
3.568946579696785
 20
-526.7961564799097
 30
0.0
 11
4.592349145254047
 21
-526.7961564799097
 31
0.0
  0
LINE
  5
68F
330
1F
100
AcDbEntity
  8
Furniture
370
     9
100
AcDbLine
 10
4.592349145254047
 20
-526.7961564799097
 30
0.0
 11
5.589510619383872
 21
-526.7961564799097
 31
0.0
  0
LINE
  5
690
330
1F
100
AcDbEntity
  8
Furniture
370
     9
100
AcDbLine
 10
5.589510619383872
 20
-526.7961564799097
 30
0.0
 11
6.586672093513698
 21
-526.7961564799097
 31
0.0
  0
LINE
  5
691
330
1F
100
AcDbEntity
  8
Furniture
370
     9
100
AcDbLine
 10
6.586672093513698
 20
-526.7961564799097
 30
0.0
 11
7.08525283057861
 21
-526.7961564799097
 31
0.0
  0
LINE
  5
692
330
1F
100
AcDbEntity
  8
Furniture
370
     9
100
AcDbLine
 10
7.08525283057861
 20
-526.7961564799097
 30
0.0
 11
7.610074659069141
 21
-526.7961564799097
 31
0.0
  0
LINE
  5
693
330
1F
100
AcDbEntity
  8
Furniture
370
     9
100
AcDbLine
 10
156.2133753959806
 20
-97.66246786944158
 30
0.0
 11
160.7530842124179
 21
-524.7755924402236
 31
0.0
  0
LINE
  5
694
330
1F
100
AcDbEntity
  8
Furniture
370
     9
100
AcDbLine
 10
114.7786920367034
 20
-524.7755924402236
 30
0.0
 11
119.2921597617169
 21
-97.66246786944158
 31
0.0
  0
LINE
  5
695
330
1F
100
AcDbEntity
  8
Furniture
370
     9
100
AcDbLine
 10
160.7530842124179
 20
-524.7755924402236
 30
0.0
 11
156.2133753959806
 21
-97.66246786944158
 31
0.0
  0
SPLINE
  5
696
330
1F
100
AcDbEntity
  8
Furniture
370
     9
100
AcDbSpline
210
0.0
220
0.0
230
1.0
 70
     8
 71
     3
 72
     8
 73
     4
 74
     0
 42
0.000000001
 43
0.0000000001
 40
0.0
 40
0.0
 40
0.0
 40
0.0
 40
1.0
 40
1.0
 40
1.0
 40
1.0
 10
115.2772727737701
 20
-524.9986417173322
 30
0.0
 10
115.2510316823445
 20
-525.4709813629733
 30
0.0
 10
115.4609604137404
 20
-525.9302004629025
 30
0.0
 10
115.7758535108332
 20
-526.2582141057082
 30
0.0
  0
SPLINE
  5
697
330
1F
100
AcDbEntity
  8
Furniture
370
     9
100
AcDbSpline
210
0.0
220
0.0
230
1.0
 70
     8
 71
     3
 72
     8
 73
     4
 74
     0
 42
0.000000001
 43
0.0000000001
 40
1.0
 40
1.0
 40
1.0
 40
1.0
 40
2.0
 40
2.0
 40
2.0
 40
2.0
 10
115.7758535108332
 20
-526.2582141057082
 30
0.0
 10
116.1169876993517
 20
-526.5993482942267
 30
0.0
 10
116.563086253569
 20
-526.7961564799097
 30
0.0
 10
117.0354258992101
 20
-526.7961564799097
 30
0.0
  0
SPLINE
  5
698
330
1F
100
AcDbEntity
  8
Furniture
370
     9
100
AcDbSpline
210
0.0
220
0.0
230
1.0
 70
     8
 71
     3
 72
     8
 73
     4
 74
     0
 42
0.000000001
 43
0.0000000001
 40
0.0
 40
0.0
 40
0.0
 40
0.0
 40
1.0
 40
1.0
 40
1.0
 40
1.0
 10
158.4963503499111
 20
-526.7961564799097
 30
0.0
 10
158.9686899955522
 20
-526.7961564799097
 30
0.0
 10
159.4147885497696
 20
-526.5993482942267
 30
0.0
 10
159.755922738288
 20
-526.2582141057082
 30
0.0
  0
SPLINE
  5
699
330
1F
100
AcDbEntity
  8
Furniture
370
     9
100
AcDbSpline
210
0.0
220
0.0
230
1.0
 70
     8
 71
     3
 72
     8
 73
     4
 74
     0
 42
0.000000001
 43
0.0000000001
 40
1.0
 40
1.0
 40
1.0
 40
1.0
 40
2.0
 40
2.0
 40
2.0
 40
2.0
 10
159.755922738288
 20
-526.2582141057082
 30
0.0
 10
160.0708158353809
 20
-525.9302004629025
 30
0.0
 10
160.2545034753529
 20
-525.4709813629733
 30
0.0
 10
160.2545034753529
 20
-524.9986417173322
 30
0.0
  0
LINE
  5
69A
330
1F
100
AcDbEntity
  8
Furniture
370
     9
100
AcDbLine
 10
160.7530842124179
 20
-524.7755924402236
 30
0.0
 11
160.7530842124179
 21
-524.7755924402236
 31
0.0
  0
LINE
  5
69B
330
1F
100
AcDbEntity
  8
Furniture
370
     9
100
AcDbLine
 10
160.7530842124179
 20
-524.7755924402236
 30
0.0
 11
160.2545034753529
 21
-524.7755924402236
 31
0.0
  0
LINE
  5
69C
330
1F
100
AcDbEntity
  8
Furniture
370
     9
100
AcDbLine
 10
160.2545034753529
 20
-524.7755924402236
 30
0.0
 11
159.755922738288
 21
-524.7755924402236
 31
0.0
  0
LINE
  5
69D
330
1F
100
AcDbEntity
  8
Furniture
370
     9
100
AcDbLine
 10
159.755922738288
 20
-524.7755924402236
 30
0.0
 11
159.2573420012213
 21
-524.7755924402236
 31
0.0
  0
LINE
  5
69E
330
1F
100
AcDbEntity
  8
Furniture
370
     9
100
AcDbLine
 10
159.2573420012213
 20
-524.7755924402236
 30
0.0
 11
158.2339394356659
 21
-524.7755924402236
 31
0.0
  0
LINE
  5
69F
330
1F
100
AcDbEntity
  8
Furniture
370
     9
100
AcDbLine
 10
158.2339394356659
 20
-524.7755924402236
 30
0.0
 11
157.236777961536
 21
-524.7755924402236
 31
0.0
  0
LINE
  5
6A0
330
1F
100
AcDbEntity
  8
Furniture
370
     9
100
AcDbLine
 10
157.236777961536
 20
-524.7755924402236
 30
0.0
 11
156.2133753959806
 21
-524.7755924402236
 31
0.0
  0
LINE
  5
6A1
330
1F
100
AcDbEntity
  8
Furniture
370
     9
100
AcDbLine
 10
156.2133753959806
 20
-524.7755924402236
 30
0.0
 11
154.6913920933584
 21
-524.7755924402236
 31
0.0
  0
LINE
  5
6A2
330
1F
100
AcDbEntity
  8
Furniture
370
     9
100
AcDbLine
 10
154.6913920933584
 20
-524.7755924402236
 30
0.0
 11
153.1956498821637
 21
-525.2872937230013
 31
0.0
  0
LINE
  5
6A3
330
1F
100
AcDbEntity
  8
Furniture
370
     9
100
AcDbLine
 10
153.1956498821637
 20
-525.2872937230013
 30
0.0
 11
151.1488447510546
 21
-525.2872937230013
 31
0.0
  0
LINE
  5
6A4
330
1F
100
AcDbEntity
  8
Furniture
370
     9
100
AcDbLine
 10
151.1488447510546
 20
-525.2872937230013
 30
0.0
 11
149.1545218027932
 21
-525.2872937230013
 31
0.0
  0
LINE
  5
6A5
330
1F
100
AcDbEntity
  8
Furniture
370
     9
100
AcDbLine
 10
149.1545218027932
 20
-525.2872937230013
 30
0.0
 11
147.1077166716804
 21
-525.2872937230013
 31
0.0
  0
LINE
  5
6A6
330
1F
100
AcDbEntity
  8
Furniture
370
     9
100
AcDbLine
 10
147.1077166716804
 20
-525.2872937230013
 30
0.0
 11
145.113393723419
 21
-525.2872937230013
 31
0.0
  0
LINE
  5
6A7
330
1F
100
AcDbEntity
  8
Furniture
370
     9
100
AcDbLine
 10
145.113393723419
 20
-525.2872937230013
 30
0.0
 11
142.5417667638194
 21
-525.2872937230013
 31
0.0
  0
LINE
  5
6A8
330
1F
100
AcDbEntity
  8
Furniture
370
     9
100
AcDbLine
 10
142.5417667638194
 20
-525.2872937230013
 30
0.0
 11
140.0226219870674
 21
-525.2872937230013
 31
0.0
  0
LINE
  5
6A9
330
1F
100
AcDbEntity
  8
Furniture
370
     9
100
AcDbLine
 10
140.0226219870674
 20
-525.2872937230013
 30
0.0
 11
137.5034772103154
 21
-525.2872937230013
 31
0.0
  0
LINE
  5
6AA
330
1F
100
AcDbEntity
  8
Furniture
370
     9
100
AcDbLine
 10
137.5034772103154
 20
-525.2872937230013
 30
0.0
 11
134.9843324335652
 21
-525.2872937230013
 31
0.0
  0
LINE
  5
6AB
330
1F
100
AcDbEntity
  8
Furniture
370
     9
100
AcDbLine
 10
134.9843324335652
 20
-525.2872937230013
 30
0.0
 11
132.4651876568132
 21
-525.2872937230013
 31
0.0
  0
LINE
  5
6AC
330
1F
100
AcDbEntity
  8
Furniture
370
     9
100
AcDbLine
 10
132.4651876568132
 20
-525.2872937230013
 30
0.0
 11
130.4183825257023
 21
-525.2872937230013
 31
0.0
  0
LINE
  5
6AD
330
1F
100
AcDbEntity
  8
Furniture
370
     9
100
AcDbLine
 10
130.4183825257023
 20
-525.2872937230013
 30
0.0
 11
127.8992377489503
 21
-525.2872937230013
 31
0.0
  0
LINE
  5
6AE
330
1F
100
AcDbEntity
  8
Furniture
370
     9
100
AcDbLine
 10
127.8992377489503
 20
-525.2872937230013
 30
0.0
 11
125.878673709265
 21
-525.2872937230013
 31
0.0
  0
LINE
  5
6AF
330
1F
100
AcDbEntity
  8
Furniture
370
     9
100
AcDbLine
 10
125.878673709265
 20
-525.2872937230013
 30
0.0
 11
123.8581096695798
 21
-525.2872937230013
 31
0.0
  0
LINE
  5
6B0
330
1F
100
AcDbEntity
  8
Furniture
370
     9
100
AcDbLine
 10
123.8581096695798
 20
-525.2872937230013
 30
0.0
 11
122.3361263669576
 21
-524.7755924402236
 31
0.0
  0
LINE
  5
6B1
330
1F
100
AcDbEntity
  8
Furniture
370
     9
100
AcDbLine
 10
122.3361263669576
 20
-524.7755924402236
 30
0.0
 11
120.8141430643372
 21
-524.7755924402236
 31
0.0
  0
LINE
  5
6B2
330
1F
100
AcDbEntity
  8
Furniture
370
     9
100
AcDbLine
 10
120.8141430643372
 20
-524.7755924402236
 30
0.0
 11
119.2921597617169
 21
-524.7755924402236
 31
0.0
  0
LINE
  5
6B3
330
1F
100
AcDbEntity
  8
Furniture
370
     9
100
AcDbLine
 10
119.2921597617169
 20
-524.7755924402236
 30
0.0
 11
118.2949982875852
 21
-524.7755924402236
 31
0.0
  0
LINE
  5
6B4
330
1F
100
AcDbEntity
  8
Furniture
370
     9
100
AcDbLine
 10
118.2949982875852
 20
-524.7755924402236
 30
0.0
 11
117.2978368134554
 21
-524.7755924402236
 31
0.0
  0
LINE
  5
6B5
330
1F
100
AcDbEntity
  8
Furniture
370
     9
100
AcDbLine
 10
117.2978368134554
 20
-524.7755924402236
 30
0.0
 11
116.3006753393256
 21
-524.7755924402236
 31
0.0
  0
LINE
  5
6B6
330
1F
100
AcDbEntity
  8
Furniture
370
     9
100
AcDbLine
 10
116.3006753393256
 20
-524.7755924402236
 30
0.0
 11
115.7758535108332
 21
-524.7755924402236
 31
0.0
  0
LINE
  5
6B7
330
1F
100
AcDbEntity
  8
Furniture
370
     9
100
AcDbLine
 10
115.7758535108332
 20
-524.7755924402236
 30
0.0
 11
115.2772727737701
 21
-524.7755924402236
 31
0.0
  0
LINE
  5
6B8
330
1F
100
AcDbEntity
  8
Furniture
370
     9
100
AcDbLine
 10
115.2772727737701
 20
-524.7755924402236
 30
0.0
 11
114.7786920367034
 21
-524.7755924402236
 31
0.0
  0
LINE
  5
6B9
330
1F
100
AcDbEntity
  8
Furniture
370
     9
100
AcDbLine
 10
158.7325201727326
 20
-526.7961564799097
 30
0.0
 11
158.7325201727326
 21
-526.7961564799097
 31
0.0
  0
LINE
  5
6BA
330
1F
100
AcDbEntity
  8
Furniture
370
     9
100
AcDbLine
 10
158.7325201727326
 20
-526.7961564799097
 30
0.0
 11
158.2339394356659
 21
-526.7961564799097
 31
0.0
  0
LINE
  5
6BB
330
1F
100
AcDbEntity
  8
Furniture
370
     9
100
AcDbLine
 10
158.2339394356659
 20
-526.7961564799097
 30
0.0
 11
157.7091176071772
 21
-526.7961564799097
 31
0.0
  0
LINE
  5
6BC
330
1F
100
AcDbEntity
  8
Furniture
370
     9
100
AcDbLine
 10
157.7091176071772
 20
-526.7961564799097
 30
0.0
 11
157.236777961536
 21
-526.7961564799097
 31
0.0
  0
LINE
  5
6BD
330
1F
100
AcDbEntity
  8
Furniture
370
     9
100
AcDbLine
 10
157.236777961536
 20
-526.7961564799097
 30
0.0
 11
156.2133753959806
 21
-526.7961564799097
 31
0.0
  0
LINE
  5
6BE
330
1F
100
AcDbEntity
  8
Furniture
370
     9
100
AcDbLine
 10
156.2133753959806
 20
-526.7961564799097
 30
0.0
 11
155.1899728304251
 21
-526.7961564799097
 31
0.0
  0
LINE
  5
6BF
330
1F
100
AcDbEntity
  8
Furniture
370
     9
100
AcDbLine
 10
155.1899728304251
 20
-526.7961564799097
 30
0.0
 11
154.1928113562953
 21
-526.7961564799097
 31
0.0
  0
LINE
  5
6C0
330
1F
100
AcDbEntity
  8
Furniture
370
     9
100
AcDbLine
 10
154.1928113562953
 20
-526.7961564799097
 30
0.0
 11
153.1956498821637
 21
-526.7961564799097
 31
0.0
  0
LINE
  5
6C1
330
1F
100
AcDbEntity
  8
Furniture
370
     9
100
AcDbLine
 10
153.1956498821637
 20
-526.7961564799097
 30
0.0
 11
151.6736665795433
 21
-526.7961564799097
 31
0.0
  0
LINE
  5
6C2
330
1F
100
AcDbEntity
  8
Furniture
370
     9
100
AcDbLine
 10
151.6736665795433
 20
-526.7961564799097
 30
0.0
 11
150.151683276923
 21
-526.7961564799097
 31
0.0
  0
LINE
  5
6C3
330
1F
100
AcDbEntity
  8
Furniture
370
     9
100
AcDbLine
 10
150.151683276923
 20
-526.7961564799097
 30
0.0
 11
148.1048781458103
 21
-526.7961564799097
 31
0.0
  0
LINE
  5
6C4
330
1F
100
AcDbEntity
  8
Furniture
370
     9
100
AcDbLine
 10
148.1048781458103
 20
-526.7961564799097
 30
0.0
 11
146.1105551975506
 21
-526.7961564799097
 31
0.0
  0
LINE
  5
6C5
330
1F
100
AcDbEntity
  8
Furniture
370
     9
100
AcDbLine
 10
146.1105551975506
 20
-526.7961564799097
 30
0.0
 11
144.0899911578635
 21
-526.7961564799097
 31
0.0
  0
LINE
  5
6C6
330
1F
100
AcDbEntity
  8
Furniture
370
     9
100
AcDbLine
 10
144.0899911578635
 20
-526.7961564799097
 30
0.0
 11
142.0694271181783
 21
-526.7961564799097
 31
0.0
  0
LINE
  5
6C7
330
1F
100
AcDbEntity
  8
Furniture
370
     9
100
AcDbLine
 10
142.0694271181783
 20
-526.7961564799097
 30
0.0
 11
140.0226219870674
 21
-526.7961564799097
 31
0.0
  0
LINE
  5
6C8
330
1F
100
AcDbEntity
  8
Furniture
370
     9
100
AcDbLine
 10
140.0226219870674
 20
-526.7961564799097
 30
0.0
 11
137.5034772103154
 21
-526.7961564799097
 31
0.0
  0
LINE
  5
6C9
330
1F
100
AcDbEntity
  8
Furniture
370
     9
100
AcDbLine
 10
137.5034772103154
 20
-526.7961564799097
 30
0.0
 11
135.5091542620539
 21
-526.7961564799097
 31
0.0
  0
LINE
  5
6CA
330
1F
100
AcDbEntity
  8
Furniture
370
     9
100
AcDbLine
 10
135.5091542620539
 20
-526.7961564799097
 30
0.0
 11
132.9637683938799
 21
-526.7961564799097
 31
0.0
  0
LINE
  5
6CB
330
1F
100
AcDbEntity
  8
Furniture
370
     9
100
AcDbLine
 10
132.9637683938799
 20
-526.7961564799097
 30
0.0
 11
130.943204354191
 21
-526.7961564799097
 31
0.0
  0
LINE
  5
6CC
330
1F
100
AcDbEntity
  8
Furniture
370
     9
100
AcDbLine
 10
130.943204354191
 20
-526.7961564799097
 30
0.0
 11
128.896399223082
 21
-526.7961564799097
 31
0.0
  0
LINE
  5
6CD
330
1F
100
AcDbEntity
  8
Furniture
370
     9
100
AcDbLine
 10
128.896399223082
 20
-526.7961564799097
 30
0.0
 11
126.9020762748205
 21
-526.7961564799097
 31
0.0
  0
LINE
  5
6CE
330
1F
100
AcDbEntity
  8
Furniture
370
     9
100
AcDbLine
 10
126.9020762748205
 20
-526.7961564799097
 30
0.0
 11
125.3800929721983
 21
-526.7961564799097
 31
0.0
  0
LINE
  5
6CF
330
1F
100
AcDbEntity
  8
Furniture
370
     9
100
AcDbLine
 10
125.3800929721983
 20
-526.7961564799097
 30
0.0
 11
123.8581096695798
 21
-526.7961564799097
 31
0.0
  0
LINE
  5
6D0
330
1F
100
AcDbEntity
  8
Furniture
370
     9
100
AcDbLine
 10
123.8581096695798
 20
-526.7961564799097
 30
0.0
 11
122.3361263669576
 21
-526.7961564799097
 31
0.0
  0
LINE
  5
6D1
330
1F
100
AcDbEntity
  8
Furniture
370
     9
100
AcDbLine
 10
122.3361263669576
 20
-526.7961564799097
 30
0.0
 11
121.3389648928278
 21
-526.7961564799097
 31
0.0
  0
LINE
  5
6D2
330
1F
100
AcDbEntity
  8
Furniture
370
     9
100
AcDbLine
 10
121.3389648928278
 20
-526.7961564799097
 30
0.0
 11
119.8169815902074
 21
-526.7961564799097
 31
0.0
  0
LINE
  5
6D3
330
1F
100
AcDbEntity
  8
Furniture
370
     9
100
AcDbLine
 10
119.8169815902074
 20
-526.7961564799097
 30
0.0
 11
118.8198201160776
 21
-526.7961564799097
 31
0.0
  0
LINE
  5
6D4
330
1F
100
AcDbEntity
  8
Furniture
370
     9
100
AcDbLine
 10
118.8198201160776
 20
-526.7961564799097
 30
0.0
 11
118.2949982875852
 21
-526.7961564799097
 31
0.0
  0
LINE
  5
6D5
330
1F
100
AcDbEntity
  8
Furniture
370
     9
100
AcDbLine
 10
118.2949982875852
 20
-526.7961564799097
 30
0.0
 11
117.8226586419441
 21
-526.7961564799097
 31
0.0
  0
LINE
  5
6D6
330
1F
100
AcDbEntity
  8
Furniture
370
     9
100
AcDbLine
 10
117.8226586419441
 20
-526.7961564799097
 30
0.0
 11
117.2978368134554
 21
-526.7961564799097
 31
0.0
  0
LINE
  5
6D7
330
1F
100
AcDbEntity
  8
Furniture
370
     9
100
AcDbLine
 10
117.2978368134554
 20
-526.7961564799097
 30
0.0
 11
116.7730149849667
 21
-526.7961564799097
 31
0.0
  0
LINE
  5
6D8
330
1F
100
AcDbEntity
  8
Furniture
370
     9
100
AcDbLine
 10
160.7530842124179
 20
-524.7755924402236
 30
0.0
 11
160.2545034753529
 21
-525.7727539143543
 31
0.0
  0
LINE
  5
6D9
330
1F
100
AcDbEntity
  8
Furniture
370
     9
100
AcDbLine
 10
160.2545034753529
 20
-525.7727539143543
 30
0.0
 11
160.2545034753529
 21
-526.284455197132
 31
0.0
  0
LINE
  5
6DA
330
1F
100
AcDbEntity
  8
Furniture
370
     9
100
AcDbLine
 10
160.2545034753529
 20
-526.284455197132
 30
0.0
 11
159.2573420012213
 21
-526.7961564799097
 31
0.0
  0
LINE
  5
6DB
330
1F
100
AcDbEntity
  8
Furniture
370
     9
100
AcDbLine
 10
159.2573420012213
 20
-526.7961564799097
 30
0.0
 11
158.7325201727326
 21
-526.7961564799097
 31
0.0
  0
LINE
  5
6DC
330
1F
100
AcDbEntity
  8
Furniture
370
     9
100
AcDbLine
 10
361.4187103355271
 20
-85.5390836313245
 30
0.0
 11
361.4187103355271
 21
-83.0199388545734
 31
0.0
  0
LINE
  5
6DD
330
1F
100
AcDbEntity
  8
Furniture
370
     9
100
AcDbLine
 10
-85.91317517782954
 20
-85.5390836313245
 30
0.0
 11
-85.91317517782954
 21
-83.0199388545734
 31
0.0
  0
LINE
  5
6DE
330
1F
100
AcDbEntity
  8
Furniture
370
     9
100
AcDbLine
 10
-81.87204709845536
 20
-78.95256968377634
 30
0.0
 11
357.8761629932196
 21
-78.95256968377634
 31
0.0
  0
LINE
  5
6DF
330
1F
100
AcDbEntity
  8
Furniture
370
     9
100
AcDbLine
 10
361.4187103355271
 20
-85.5390836313245
 30
0.0
 11
346.749940229236
 21
-97.66246786944158
 31
0.0
  0
LINE
  5
6E0
330
1F
100
AcDbEntity
  8
Furniture
370
     9
100
AcDbLine
 10
346.749940229236
 20
-97.66246786944158
 30
0.0
 11
-71.24440507153668
 21
-97.66246786944158
 31
0.0
  0
LINE
  5
6E1
330
1F
100
AcDbEntity
  8
Furniture
370
     9
100
AcDbLine
 10
-71.24440507153668
 20
-97.66246786944158
 30
0.0
 11
-85.91317517782954
 21
-85.5390836313245
 31
0.0
  0
TEXT
  5
745
330
1F
100
AcDbEntity
  8
Text
100
AcDbText
 10
-2636.284850724436
 20
2251.181652881497
 30
0.0
 40
192.6907499518273
  1
OLBA
 41
1.000399999999999
100
AcDbText
  0
TEXT
  5
746
330
1F
100
AcDbEntity
  8
Text
100
AcDbText
 10
-2636.284850724436
 20
1648.558684526294
 30
0.0
 40
192.6907499518273
  1
—
 41
1.000399999999999
100
AcDbText
  0
TEXT
  5
747
330
1F
100
AcDbEntity
  8
Text
100
AcDbText
 10
-2636.284850724436
 20
973.5881686478299
 30
0.0
 40
233.9816249415046
  1
DIMENSIONS
 41
1.000399999999999
100
AcDbText
  0
ENDSEC
  0
SECTION
  2
OBJECTS
  0
DICTIONARY
  5
C
330
0
100
AcDbDictionary
281
     1
  3
ACAD_CIP_PREVIOUS_PRODUCT_INFO
350
39A
  3
ACAD_COLOR
350
27A
  3
ACAD_DETAILVIEWSTYLE
350
392
  3
ACAD_GROUP
350
D
  3
ACAD_LAYOUT
350
1A
  3
ACAD_MATERIAL
350
25E
  3
ACAD_MLEADERSTYLE
350
29E
  3
ACAD_MLINESTYLE
350
17
  3
ACAD_PLOTSETTINGS
350
19
  3
ACAD_PLOTSTYLENAME
350
E
  3
ACAD_SCALELIST
350
27C
  3
ACAD_SECTIONVIEWSTYLE
350
390
  3
ACAD_TABLESTYLE
350
25C
  3
ACAD_VISUALSTYLE
350
2A
  3
AcAmCatalogState
350
300
  3
ACDB_RECOMPOSE_DATA
350
7A6
  3
AcDbVariableDictionary
350
35E
  3
ACDMSYSVARMGR
350
2BB
  3
ACGREF_MASTER
350
2B3
  3
ACGREFACAD_MASTER
350
2DE
  3
AcmDictionary
350
2FE
  3
ACME_BOM_MANAGER_NAME
350
2AF
  3
ACME_COMMAND_HISTORY
350
2AC
  3
ACME_SCOPE_NAME
350
2AB
  3
ACMESTATEMGR
350
2B2
  3
AcmeSysVarManager
350
2AD
  3
AcmSystemVariableManager
350
2E3
  3
AD_APPL
350
2EB
  3
ADSYSVARMGR
350
2EA
  3
AEC_PROPERTY_SET_DEFS
350
743
  3
AmdtNamedDwgMgr
350
2D9
  3
AMG
350
2A4
  3
AMGSNAPSETTINGS
350
340
  3
AMI_MASTER
350
2E1
  3
AUTOCAD_ASSEMBLIES_PROJECT
350
2F4
  3
Designer_Assemblies_SysVars
350
2EE
  3
GREFAM_MODULE
350
2E2
  3
StructToggleButtonState
350
352
  0
DICTIONARY
  5
356
330
2
100
AcDbDictionary
280
     1
281
     1
  3
ACAD_LAYERSTATES
360
357
  0
DICTIONARY
  5
34E
330
10
100
AcDbDictionary
280
     1
281
     1
  3
ADSK_XREC_LAYER_RECONCILED
360
34F
  0
DICTIONARY
  5
350
330
3B
100
AcDbDictionary
280
     1
281
     1
  3
ADSK_XREC_LAYER_RECONCILED
360
351
  0
DICTIONARY
  5
3A3
330
1F
100
AcDbDictionary
280
     1
281
     1
  3
ACAD_SORTENTS
360
3A4
  0
XRECORD
  5
39A
102
{ACAD_REACTORS
330
C
102
}
330
C
100
AcDbXrecord
280
     1
300
AMECH_PP
300
2018
300
PDSP_F_S
  0
DICTIONARY
  5
27A
102
{ACAD_REACTORS
330
C
102
}
330
C
100
AcDbDictionary
281
     1
  0
DICTIONARY
  5
392
102
{ACAD_REACTORS
330
C
102
}
330
C
100
AcDbDictionary
281
     1
  3
Imperial24
350
393
  0
DICTIONARY
  5
D
102
{ACAD_REACTORS
330
C
102
}
330
C
100
AcDbDictionary
281
     1
  0
DICTIONARY
  5
1A
102
{ACAD_REACTORS
330
C
102
}
330
C
100
AcDbDictionary
281
     1
  3
Layout1
350
1E
  3
Layout2
350
26
  3
Model
350
22
  0
DICTIONARY
  5
25E
102
{ACAD_REACTORS
330
C
102
}
330
C
100
AcDbDictionary
281
     1
  3
ByBlock
350
267
  3
ByLayer
350
25F
  3
Global
350
26F
  0
DICTIONARY
  5
29E
102
{ACAD_REACTORS
330
C
102
}
330
C
100
AcDbDictionary
281
     1
  3
Standard
350
29F
  0
DICTIONARY
  5
17
102
{ACAD_REACTORS
330
C
102
}
330
C
100
AcDbDictionary
281
     1
  3
Standard
350
18
  0
DICTIONARY
  5
19
102
{ACAD_REACTORS
330
C
102
}
330
C
100
AcDbDictionary
281
     1
  0
ACDBDICTIONARYWDFLT
  5
E
102
{ACAD_REACTORS
330
C
102
}
330
C
100
AcDbDictionary
281
     1
  3
Normal
350
F
100
AcDbDictionaryWithDefault
340
F
  0
DICTIONARY
  5
27C
102
{ACAD_REACTORS
330
C
102
}
330
C
100
AcDbDictionary
281
     1
  3
A0
350
27D
  3
A1
350
27E
  3
A2
350
27F
  3
A3
350
280
  3
A4
350
281
  3
A5
350
282
  3
A6
350
283
  3
A7
350
284
  3
A8
350
285
  3
A9
350
286
  3
B0
350
287
  3
B1
350
288
  3
B2
350
289
  3
B3
350
28A
  3
B4
350
28B
  3
B5
350
28C
  3
B6
350
28D
  3
B7
350
28E
  3
B8
350
28F
  3
B9
350
290
  3
C0
350
291
  3
C1
350
292
  3
C2
350
293
  3
C3
350
294
  3
C4
350
295
  3
C5
350
296
  3
C6
350
297
  3
C7
350
298
  3
C8
350
299
  3
C9
350
29A
  3
D0
350
29B
  3
D1
350
29C
  3
D2
350
29D
  0
DICTIONARY
  5
390
102
{ACAD_REACTORS
330
C
102
}
330
C
100
AcDbDictionary
281
     1
  3
Imperial24
350
391
  0
DICTIONARY
  5
25C
102
{ACAD_REACTORS
330
C
102
}
330
C
100
AcDbDictionary
281
     1
  3
Standard
350
27B
  0
DICTIONARY
  5
2A
102
{ACAD_REACTORS
330
C
102
}
330
C
100
AcDbDictionary
281
     1
  3
2dWireframe
350
2F
  3
3D Hidden
350
31
  3
3dWireframe
350
30
  3
Basic
350
32
  3
Brighten
350
36
  3
ColorChange
350
3A
  3
Conceptual
350
34
  3
Dim
350
35
  3
EdgeColorOff
350
279
  3
Facepattern
350
39
  3
Flat
350
2B
  3
FlatWithEdges
350
2C
  3
Gouraud
350
2D
  3
GouraudWithEdges
350
2E
  3
Hidden
350
38A
  3
JitterOff
350
277
  3
Linepattern
350
38
  3
OverhangOff
350
278
  3
Realistic
350
33
  3
Shaded
350
38F
  3
Shaded with edges
350
38E
  3
Shades of Gray
350
38B
  3
Sketchy
350
38C
  3
Thicken
350
37
  3
Wireframe
350
389
  3
X-Ray
350
38D
  0
ACAD_PROXY_OBJECT
  5
300
102
{ACAD_REACTORS
330
C
102
}
330
C
100
AcDbProxyObject
 90
      499
 91
      547
 71
    29
 97
      226
 70
     0
162
              1226
311
5312800E801700110019401CC01A4019C01B80080018401B8019000800110019401D8019401B001BC01C001B4019401B801D00170010C018401900080011001C8018401DC01A401B8019C01CC01700128018401C80190018401B80080010C010401100080011001C8018401DC01A401B8019C01CC0170015001A401B401880
311
19401C8008001C8018401B8019C01940170013C01B00188018400C
161
                94
310
3FFFFFFFE00A0284403002A8
 94
        0
  0
XRECORD
  5
7A6
102
{ACAD_REACTORS
330
C
102
}
330
C
100
AcDbXrecord
280
     1
 90
        1
330
27B
  0
DICTIONARY
  5
35E
102
{ACAD_REACTORS
330
C
102
}
330
C
100
AcDbDictionary
281
     1
  3
CANNOSCALE
350
362
  3
CMLEADERSTYLE
350
360
  3
CTABLESTYLE
350
35F
  3
CVIEWDETAILSTYLE
350
72A
  3
CVIEWSECTIONSTYLE
350
72B
  3
LAYEREVAL
350
364
  3
LAYERNOTIFY
350
365
  3
LIGHTINGUNITS
350
363
  3
MSLTSCALE
350
361
  0
ACAD_PROXY_OBJECT
  5
2BB
102
{ACAD_REACTORS
330
C
102
}
330
C
100
AcDbProxyObject
 90
      499
 91
      510
 71
    29
 97
      226
 70
     0
162
                 0
161
               240
310
4C51A4820000000000000000000000000000000000000000000000000000D7
330
2BC
330
2BD
330
2BE
330
2BF
330
2C0
330
2C1
330
2C2
330
2C3
330
2C4
330
2C5
330
2C6
330
2C7
330
2C8
330
2C9
330
2CA
330
2CB
330
2CC
330
2CD
330
2CE
330
2CF
330
2D0
330
2D1
330
2D2
330
2D3
330
2D4
330
2D5
 94
        0
  0
ACAD_PROXY_OBJECT
  5
2B3
102
{ACAD_REACTORS
330
C
102
}
330
C
100
AcDbProxyObject
 90
      499
 91
      516
 71
    29
 97
      226
 70
     0
162
                 0
161
                34
310
0C000042CC
 94
        0
  0
ACAD_PROXY_OBJECT
  5
2DE
102
{ACAD_REACTORS
330
C
102
}
330
C
100
AcDbProxyObject
 90
      499
 91
      526
 71
    29
 97
      226
 70
     0
162
                 0
161
               114
310
04000041C00000000000000000000C
 94
        0
  0
DICTIONARY
  5
2FE
102
{ACAD_REACTORS
330
C
102
}
330
C
100
AcDbDictionary
281
     1
  3
AcmBOMDATA
350
2FF
  3
AcmStdDictionary
350
30A
  0
ACAD_PROXY_OBJECT
  5
2AF
102
{ACAD_REACTORS
330
C
102
}
330
C
100
AcDbProxyObject
 90
      499
 91
      512
 71
    29
 97
      226
 70
     0
162
                 0
161
                50
310
0000004040000C
330
0
330
0
330
2B0
 94
        0
  0
ACAD_PROXY_OBJECT
  5
2AC
102
{ACAD_REACTORS
330
C
102
}
330
C
100
AcDbProxyObject
 90
      499
 91
      509
 71
    29
 97
      226
 70
     0
162
              2654
311
4390401340110015001480114014C01140150011001080134013C011001084E0020002D00200055004E0044004F0042138008000B40080015401380110013C010455004E0044004F004115401380110013C010B4D00450041005300550052004500470045004F004D0046134014C011C008000B40080010C01BC01B401B401
311
8401B801900080010C01040138010C0114013001300114011000B8010B4D00450041005300550052004500470045004F004D0046134014C011C008000B40080010C01BC01B401B4018401B801900080010C01040138010C0114013001300114011000B80105510053004100560045004B934014C011C008000B40080014001
311
40010400E80080008000800190019401CC01AC01D001BC01C000B8018401C801E00080011801A401B001940158019401C801CC01A401BC01B800E8008000C400D000B800C800B800C000B800D000
161
               142
310
418050201010180601404040501010140404
 94
        0
  0
ACAD_PROXY_OBJECT
  5
2AB
102
{ACAD_REACTORS
330
C
102
}
330
C
100
AcDbProxyObject
 90
      499
 91
      508
 71
    29
 97
      226
 70
     0
162
                 0
161
               554
310
0E00004C8000000000000000000013150200000000000000000000000000000000000000000000000000000000000000000000000000000000000000000000000000AAAAAA8C
360
2AE
360
2B0
360
2B4
360
2B5
360
2B6
360
2B7
360
2B8
360
2B9
360
2BC
360
2BD
360
2BE
360
2BF
360
2C0
360
2C1
360
2C2
360
2C3
360
2C4
360
2C5
360
2C6
360
2C7
360
2C8
360
2C9
360
2CA
360
2CB
360
2CC
360
2CD
360
2CE
360
2CF
360
2D0
360
2D1
360
2D2
360
2D3
360
2D4
360
2D5
360
2E4
360
2E6
360
2E7
360
2E8
360
2E9
360
2EF
360
2F0
360
2F1
360
2F2
360
2F3
360
2F8
360
2F9
360
2FA
360
2FB
360
2FC
 94
        0
  0
ACAD_PROXY_OBJECT
  5
2B2
102
{ACAD_REACTORS
330
C
102
}
330
C
100
AcDbProxyObject
 90
      499
 91
      515
 71
    29
 97
      226
 70
     0
162
                 0
161
                50
310
0E000043A4128C
 94
        0
  0
ACAD_PROXY_OBJECT
  5
2AD
102
{ACAD_REACTORS
330
C
102
}
330
C
100
AcDbProxyObject
 90
      499
 91
      510
 71
    29
 97
      226
 70
     0
162
                 0
161
                32
310
90142200FF
330
2AE
 94
        0
  0
ACAD_PROXY_OBJECT
  5
2E3
102
{ACAD_REACTORS
330
C
102
}
330
C
100
AcDbProxyObject
 90
      499
 91
      510
 71
    29
 97
      226
 70
     0
162
                 0
161
                32
310
9014220000
330
2E4
 94
        0
  0
ACAD_PROXY_OBJECT
  5
2EB
102
{ACAD_REACTORS
330
C
102
}
330
C
100
AcDbProxyObject
 90
      499
 91
      537
 71
    29
 97
      226
 70
     0
162
                 0
161
                34
310
000B00008C
330
2E6
 94
        0
  0
ACAD_PROXY_OBJECT
  5
2EA
102
{ACAD_REACTORS
330
C
102
}
330
C
100
AcDbProxyObject
 90
      499
 91
      510
 71
    29
 97
      226
 70
     0
162
                 0
161
                 8
310
AA00
 94
        0
  0
DICTIONARY
  5
743
102
{ACAD_REACTORS
330
C
102
}
330
C
100
AcDbDictionary
281
     1
  0
ACAD_PROXY_OBJECT
  5
2D9
102
{ACAD_REACTORS
330
C
102
}
330
C
100
AcDbProxyObject
 90
      499
 91
      523
 71
    29
 97
      226
 70
     0
162
                 0
161
                42
310
000100005E8C
330
2B4
 94
        0
  0
DICTIONARY
  5
2A4
102
{ACAD_REACTORS
330
C
102
}
330
C
100
AcDbDictionary
281
     1
  3
AcMgSettings
350
2A5
  3
AMGLAYCFG
350
31E
  0
DICTIONARY
  5
340
102
{ACAD_REACTORS
330
C
102
}
330
C
100
AcDbDictionary
281
     1
  3
DIMENSION
350
345
  3
FEA
350
344
  3
HATCH (1)
350
341
  3
HATCH (2)
350
342
  3
SIMPLE WELD
350
346
  3
SYMBOLS
350
343
  0
ACAD_PROXY_OBJECT
  5
2E1
102
{ACAD_REACTORS
330
C
102
}
330
C
100
AcDbProxyObject
 90
      499
 91
      529
 71
    29
 97
      226
 70
     0
162
                 0
161
                34
310
050000428C
 94
        0
  0
ACAD_PROXY_OBJECT
  5
2F4
102
{ACAD_REACTORS
330
C
102
}
330
C
100
AcDbProxyObject
 90
      499
 91
      540
 71
    29
 97
      226
 70
     0
162
                 0
161
                98
310
0E000053C0000000000000000C
330
2FA
330
0
330
2FB
330
0
330
0
330
0
330
0
330
0
 94
        0
  0
ACAD_PROXY_OBJECT
  5
2EE
102
{ACAD_REACTORS
330
C
102
}
330
C
100
AcDbProxyObject
 90
      499
 91
      510
 71
    29
 97
      226
 70
     0
162
                 0
161
                64
310
9054220000000000FF
330
2EF
330
2F0
330
2F1
330
2F2
330
2F3
 94
        0
  0
ACAD_PROXY_OBJECT
  5
2E2
102
{ACAD_REACTORS
330
C
102
}
330
C
100
AcDbProxyObject
 90
      499
 91
      530
 71
    29
 97
      226
 70
     0
162
                 0
161
                 8
310
0500
 94
        0
  0
ACAD_PROXY_OBJECT
  5
352
102
{ACAD_REACTORS
330
C
102
}
330
C
100
AcDbProxyObject
 90
      499
 91
      575
 71
    29
 97
      226
 70
     0
162
                 0
161
                 1
310
4C
 94
        0
  0
DICTIONARY
  5
357
102
{ACAD_REACTORS
330
356
102
}
330
356
100
AcDbDictionary
281
     1
  0
XRECORD
  5
34F
102
{ACAD_REACTORS
330
34E
102
}
330
34E
100
AcDbXrecord
280
     1
290
     1
  0
XRECORD
  5
351
102
{ACAD_REACTORS
330
350
102
}
330
350
100
AcDbXrecord
280
     1
290
     1
  0
SORTENTSTABLE
  5
3A4
102
{ACAD_REACTORS
330
3A3
102
}
330
3A3
100
AcDbSortentsTable
330
1F
331
681
  5
5D2
331
6C0
  5
587
331
685
  5
5D6
331
6C4
  5
58B
331
689
  5
5DA
331
68D
  5
5DE
331
592
  5
6B6
331
5D1
  5
6AC
331
649
  5
62B
331
596
  5
6BA
331
5D5
  5
68B
331
60A
  5
631
331
59A
  5
6BE
331
60E
  5
635
331
64D
  5
60A
331
59E
  5
6C2
331
612
  5
639
331
616
  5
63D
331
691
  5
5E2
331
652
  5
604
331
656
  5
5E6
331
695
  5
5C2
331
6CA
  5
591
331
65A
  5
5EA
331
699
  5
5BF
331
6CE
  5
595
331
69D
  5
5A2
331
65E
  5
5EE
331
6D2
  5
599
331
6D6
  5
59D
331
5A2
  5
6C6
331
5A6
  5
6CA
331
5DB
  5
66F
331
61A
  5
641
331
61E
  5
645
331
3BE
  5
6D9
331
5AA
  5
6CE
331
5DF
  5
673
331
622
  5
649
331
5AE
  5
6D2
331
5E3
  5
677
331
626
  5
64D
331
5E7
  5
67B
331
6A1
  5
5A6
331
662
  5
5F2
331
6A5
  5
5AA
331
666
  5
5F6
331
6DA
  5
4CB
331
66A
  5
5FA
331
6A9
  5
5AE
331
6DE
  5
42C
331
66E
  5
5FE
331
6AD
  5
5B2
331
3CA
  5
666
331
5B2
  5
6AE
331
5B6
  5
691
331
5EB
  5
67F
331
62A
  5
651
331
62E
  5
610
331
3F6
  5
689
331
5BA
  5
695
331
5EF
  5
683
331
5BE
  5
699
331
5F3
  5
687
331
632
  5
614
331
636
  5
618
331
5F7
  5
665
331
672
  5
602
331
6B1
  5
5B6
331
6B5
  5
5BA
331
676
  5
5C7
331
67A
  5
5CB
331
6B9
  5
522
331
67E
  5
5CF
331
6BD
  5
57E
331
5C2
  5
69D
331
587
  5
6DD
331
5C6
  5
6A1
331
5FB
  5
660
331
63A
  5
61C
331
58B
  5
6D6
331
5CA
  5
6A5
331
5FF
  5
65B
331
63E
  5
620
331
58F
  5
6B3
331
5CE
  5
6A9
331
603
  5
656
331
642
  5
624
331
646
  5
628
331
607
  5
62E
331
682
  5
5D3
331
6C1
  5
588
331
686
  5
5D7
331
6C5
  5
58C
331
68A
  5
5DB
331
68E
  5
5DF
331
45A
  5
661
331
593
  5
6B7
331
5D2
  5
68D
331
64A
  5
62C
331
597
  5
6BB
331
5D6
  5
66A
331
60B
  5
632
331
59B
  5
6BF
331
60F
  5
636
331
64E
  5
60B
331
59F
  5
6C3
331
613
  5
63A
331
617
  5
63E
331
692
  5
5E3
331
653
  5
605
331
657
  5
5E7
331
696
  5
5C0
331
6CB
  5
592
331
69A
  5
59F
331
65B
  5
5EB
331
6CF
  5
596
331
69E
  5
5A3
331
65F
  5
5EF
331
6D3
  5
59A
331
6D7
  5
59E
331
468
  5
659
331
5A3
  5
6C7
331
5D8
  5
66C
331
5A7
  5
6CB
331
5DC
  5
670
331
61B
  5
642
331
61F
  5
646
331
3BF
  5
6D8
331
474
  5
452
331
5AB
  5
6CF
331
5E0
  5
674
331
623
  5
64A
331
5AF
  5
6B1
331
5E4
  5
678
331
627
  5
64E
331
6A2
  5
5A7
331
663
  5
5F3
331
667
  5
5F7
331
6A6
  5
5AB
331
6DB
  5
51C
331
66B
  5
5FB
331
6AA
  5
5AF
331
6DF
  5
3B0
331
66F
  5
5FF
331
6AE
  5
5B3
331
3CB
  5
667
331
5B3
  5
68E
331
5E8
  5
67C
331
5B7
  5
692
331
5EC
  5
680
331
62B
  5
60D
331
62F
  5
611
331
5BB
  5
696
331
5F0
  5
684
331
5BF
  5
69A
331
5F4
  5
688
331
633
  5
615
331
637
  5
619
331
673
  5
603
331
6B2
  5
5B7
331
6B6
  5
5BB
331
677
  5
5C8
331
67B
  5
5CC
331
6BA
  5
526
331
67F
  5
5D0
331
6BE
  5
582
331
423
  5
6AF
331
5C3
  5
69E
331
5F8
  5
662
331
588
  5
6DC
331
5C7
  5
6A2
331
5FC
  5
65F
331
63B
  5
61D
331
58C
  5
6D3
331
5CB
  5
6A6
331
600
  5
65C
331
63F
  5
621
331
5CF
  5
6AA
331
604
  5
653
331
643
  5
625
331
647
  5
629
331
683
  5
5D4
331
6C2
  5
589
331
6C6
  5
58D
331
687
  5
5D8
331
68B
  5
5DC
331
68F
  5
5E0
331
590
  5
6B4
331
594
  5
6B8
331
5D3
  5
68C
331
608
  5
62F
331
598
  5
6BC
331
5D7
  5
66B
331
60C
  5
633
331
64B
  5
62D
331
59C
  5
6C0
331
610
  5
637
331
64F
  5
60C
331
614
  5
63B
331
650
  5
608
331
693
  5
5C4
331
654
  5
5E4
331
6C8
  5
58F
331
658
  5
5E8
331
697
  5
5C1
331
6CC
  5
593
331
69B
  5
5A0
331
65C
  5
5EC
331
6D0
  5
597
331
69F
  5
5A4
331
6D4
  5
59B
331
3B0
  5
248
331
5A0
  5
6C4
331
469
  5
658
331
5A4
  5
6C8
331
5D9
  5
66D
331
618
  5
63F
331
5A8
  5
6CC
331
5DD
  5
671
331
61C
  5
643
331
620
  5
647
331
475
  5
456
331
5AC
  5
6D0
331
5E1
  5
675
331
624
  5
64B
331
5E5
  5
679
331
660
  5
5F0
331
6A3
  5
5A8
331
664
  5
5F4
331
6D8
  5
470
331
668
  5
5F8
331
6A7
  5
5AC
331
6DC
  5
46A
331
66C
  5
5FC
331
6AB
  5
5B0
331
6E0
  5
3B1
331
6AF
  5
5B4
331
5B0
  5
6B0
331
628
  5
64F
331
51D
  5
606
331
5B4
  5
68F
331
5E9
  5
67D
331
5B8
  5
693
331
5ED
  5
681
331
62C
  5
60E
331
57D
  5
655
331
5BC
  5
697
331
5F1
  5
685
331
630
  5
612
331
634
  5
616
331
5F5
  5
669
331
670
  5
600
331
674
  5
5C5
331
6B3
  5
5B8
331
678
  5
5C9
331
6B7
  5
5BC
331
67C
  5
5CD
331
6BB
  5
52D
331
6BF
  5
586
331
248
  5
6DE
331
24C
  5
6DF
331
5C0
  5
69B
331
638
  5
61A
331
5C4
  5
69F
331
5F9
  5
663
331
5C8
  5
6A3
331
589
  5
6DB
331
5FD
  5
65E
331
63C
  5
61E
331
58D
  5
6D4
331
5CC
  5
6A7
331
601
  5
65D
331
640
  5
622
331
605
  5
654
331
644
  5
626
331
3D
  5
3D
331
680
  5
5D1
331
684
  5
5D5
331
6C3
  5
58A
331
6C7
  5
58E
331
688
  5
5D9
331
68C
  5
5DD
331
591
  5
6B5
331
5D0
  5
6AB
331
648
  5
62A
331
595
  5
6B9
331
5D4
  5
68A
331
609
  5
630
331
3A5
  5
6E0
331
599
  5
6BD
331
60D
  5
634
331
64C
  5
609
331
59D
  5
6C1
331
611
  5
638
331
615
  5
63C
331
41
  5
41
331
45
  5
45
331
690
  5
5E1
331
651
  5
607
331
694
  5
5C3
331
655
  5
5E5
331
6C9
  5
590
331
659
  5
5E9
331
698
  5
5BE
331
6CD
  5
594
331
69C
  5
5A1
331
65D
  5
5ED
331
6D1
  5
598
331
6D5
  5
59C
331
3B1
  5
6DA
331
5A1
  5
6C5
331
5A5
  5
6C9
331
5DA
  5
66E
331
619
  5
640
331
61D
  5
644
331
5A9
  5
6CD
331
5DE
  5
672
331
621
  5
648
331
5AD
  5
6D1
331
5E2
  5
676
331
625
  5
64C
331
5E6
  5
67A
331
6A0
  5
5A5
331
661
  5
5F1
331
6A4
  5
5A9
331
665
  5
5F5
331
6D9
  5
47A
331
669
  5
5F9
331
6A8
  5
5AD
331
6DD
  5
464
331
66D
  5
5FD
331
6AC
  5
5B1
331
6E1
  5
3F7
331
5B1
  5
6AD
331
5B5
  5
690
331
5EA
  5
67E
331
629
  5
650
331
5B9
  5
694
331
5EE
  5
682
331
62D
  5
60F
331
5BD
  5
698
331
5F2
  5
686
331
631
  5
613
331
635
  5
617
331
5F6
  5
668
331
671
  5
601
331
6B0
  5
5B5
331
675
  5
5C6
331
6B4
  5
5B9
331
679
  5
5CA
331
6B8
  5
5BD
331
67D
  5
5CE
331
6BC
  5
57D
331
5C1
  5
69C
331
639
  5
61B
331
451
  5
6D5
331
586
  5
3AD
331
5C5
  5
6A0
331
5FA
  5
664
331
5C9
  5
6A4
331
58A
  5
6D7
331
5FE
  5
65A
331
63D
  5
61F
331
58E
  5
6B2
331
5CD
  5
6A8
331
602
  5
657
331
641
  5
623
331
645
  5
627
331
606
  5
652
  0
ACDBDETAILVIEWSTYLE
  5
393
102
{ACAD_REACTORS
330
392
102
}
330
392
100
AcDbModelDocViewStyle
 70
     0
  3
Imperial24
290
     0
300
Imperial24
 90
        0
100
AcDbDetailViewStyle
 70
     0
 71
     0
 90
        3
 71
     1
340
11
 62
   256
 40
0.24
340
0
 62
   256
 40
0.24
300

 40
0.36
280
     3
 71
     2
340
16
 90
       25
 62
   256
 71
     3
340
11
 62
   256
 40
0.24
 90
        1
 40
0.75
 90
        1
300
%<\AcVar ViewType \f "%tc1">% %<\AcVar ViewDetailId>%\PSCALE %<\AcVar ViewScale \f "%sn">%
 71
     4
340
16
 90
       25
 62
   256
340
16
 90
       25
 62
   256
280
     0
  0
LAYOUT
  5
1E
102
{ACAD_REACTORS
330
1A
102
}
330
1A
100
AcDbPlotSettings
  1

  2
none_device
  4

  6

 40
0.0
 41
0.0
 42
0.0
 43
0.0
 44
0.0
 45
0.0
 46
0.0
 47
0.0
 48
0.0
 49
0.0
140
0.0
141
0.0
142
1.0
143
1.0
 70
   688
 72
     0
 73
     0
 74
     5
  7

 75
    16
147
1.0
 76
     0
 77
     2
 78
   300
148
0.0
149
0.0
100
AcDbLayout
  1
Layout1
 70
     1
 71
     1
 10
0.0
 20
0.0
 11
12.0
 21
9.0
 12
0.0
 22
0.0
 32
0.0
 14
1.000000000000000E+20
 24
1.000000000000000E+20
 34
1.000000000000000E+20
 15
-1.000000000000000E+20
 25
-1.000000000000000E+20
 35
-1.000000000000000E+20
146
0.0
 13
0.0
 23
0.0
 33
0.0
 16
1.0
 26
0.0
 36
0.0
 17
0.0
 27
1.0
 37
0.0
 76
     0
330
1B
  0
LAYOUT
  5
26
102
{ACAD_REACTORS
330
1A
102
}
330
1A
100
AcDbPlotSettings
  1

  2
none_device
  4

  6

 40
0.0
 41
0.0
 42
0.0
 43
0.0
 44
0.0
 45
0.0
 46
0.0
 47
0.0
 48
0.0
 49
0.0
140
0.0
141
0.0
142
1.0
143
1.0
 70
   688
 72
     0
 73
     0
 74
     5
  7

 75
    16
147
1.0
 76
     0
 77
     2
 78
   300
148
0.0
149
0.0
100
AcDbLayout
  1
Layout2
 70
     1
 71
     2
 10
0.0
 20
0.0
 11
0.0
 21
0.0
 12
0.0
 22
0.0
 32
0.0
 14
0.0
 24
0.0
 34
0.0
 15
0.0
 25
0.0
 35
0.0
146
0.0
 13
0.0
 23
0.0
 33
0.0
 16
1.0
 26
0.0
 36
0.0
 17
0.0
 27
1.0
 37
0.0
 76
     0
330
23
  0
LAYOUT
  5
22
102
{ACAD_XDICTIONARY
360
35C
102
}
102
{ACAD_REACTORS
330
1A
102
}
330
1A
100
AcDbPlotSettings
  1

  2
none_device
  4

  6

 40
0.0
 41
0.0
 42
0.0
 43
0.0
 44
0.0
 45
0.0
 46
0.0
 47
0.0
 48
0.0
 49
0.0
140
0.0
141
0.0
142
1.0
143
1.0
 70
  1712
 72
     0
 73
     0
 74
     0
  7

 75
     0
147
1.0
 76
     0
 77
     2
 78
   300
148
0.0
149
0.0
100
AcDbLayout
  1
Model
 70
     1
 71
     0
 10
0.0
 20
0.0
 11
12.0
 21
9.0
 12
0.0
 22
0.0
 32
0.0
 14
1.000000000000000E+20
 24
1.000000000000000E+20
 34
1.000000000000000E+20
 15
-1.000000000000000E+20
 25
-1.000000000000000E+20
 35
-1.000000000000000E+20
146
0.0
 13
0.0
 23
0.0
 33
0.0
 16
1.0
 26
0.0
 36
0.0
 17
0.0
 27
1.0
 37
0.0
 76
     0
330
1F
331
29
  0
MATERIAL
  5
267
102
{ACAD_XDICTIONARY
360
268
102
}
102
{ACAD_REACTORS
330
25E
102
}
330
25E
100
AcDbMaterial
  1
ByBlock
 72
     0
 43
0.0208333333333333
 43
0.0
 43
0.0
 43
0.0
 43
0.0
 43
0.0208333333333333
 43
0.0
 43
0.0
 43
0.0
 43
0.0
 43
1.0
 43
0.0
 43
0.0
 43
0.0
 43
0.0
 43
1.0
 77
     0
 47
0.0208333333333333
 47
0.0
 47
0.0
 47
0.0
 47
0.0
 47
0.0208333333333333
 47
0.0
 47
0.0
 47
0.0
 47
0.0
 47
1.0
 47
0.0
 47
0.0
 47
0.0
 47
0.0
 47
1.0
171
     0
 49
0.0208333333333333
 49
0.0
 49
0.0
 49
0.0
 49
0.0
 49
0.0208333333333333
 49
0.0
 49
0.0
 49
0.0
 49
0.0
 49
1.0
 49
0.0
 49
0.0
 49
0.0
 49
0.0
 49
1.0
175
     0
142
0.0208333333333333
142
0.0
142
0.0
142
0.0
142
0.0
142
0.0208333333333333
142
0.0
142
0.0
142
0.0
142
0.0
142
1.0
142
0.0
142
0.0
142
0.0
142
0.0
142
1.0
179
     0
144
0.0208333333333333
144
0.0
144
0.0
144
0.0
144
0.0
144
0.0208333333333333
144
0.0
144
0.0
144
0.0
144
0.0
144
1.0
144
0.0
144
0.0
144
0.0
144
0.0
144
1.0
147
0.0208333333333333
147
0.0
147
0.0
147
0.0
147
0.0
147
0.0208333333333333
147
0.0
147
0.0
147
0.0
147
0.0
147
1.0
147
0.0
147
0.0
147
0.0
147
0.0
147
1.0
  0
MATERIAL
  5
25F
102
{ACAD_XDICTIONARY
360
260
102
}
102
{ACAD_REACTORS
330
25E
102
}
330
25E
100
AcDbMaterial
  1
ByLayer
 72
     0
 43
0.0208333333333333
 43
0.0
 43
0.0
 43
0.0
 43
0.0
 43
0.0208333333333333
 43
0.0
 43
0.0
 43
0.0
 43
0.0
 43
1.0
 43
0.0
 43
0.0
 43
0.0
 43
0.0
 43
1.0
 77
     0
 47
0.0208333333333333
 47
0.0
 47
0.0
 47
0.0
 47
0.0
 47
0.0208333333333333
 47
0.0
 47
0.0
 47
0.0
 47
0.0
 47
1.0
 47
0.0
 47
0.0
 47
0.0
 47
0.0
 47
1.0
171
     0
 49
0.0208333333333333
 49
0.0
 49
0.0
 49
0.0
 49
0.0
 49
0.0208333333333333
 49
0.0
 49
0.0
 49
0.0
 49
0.0
 49
1.0
 49
0.0
 49
0.0
 49
0.0
 49
0.0
 49
1.0
175
     0
142
0.0208333333333333
142
0.0
142
0.0
142
0.0
142
0.0
142
0.0208333333333333
142
0.0
142
0.0
142
0.0
142
0.0
142
1.0
142
0.0
142
0.0
142
0.0
142
0.0
142
1.0
179
     0
144
0.0208333333333333
144
0.0
144
0.0
144
0.0
144
0.0
144
0.0208333333333333
144
0.0
144
0.0
144
0.0
144
0.0
144
1.0
144
0.0
144
0.0
144
0.0
144
0.0
144
1.0
147
0.0208333333333333
147
0.0
147
0.0
147
0.0
147
0.0
147
0.0208333333333333
147
0.0
147
0.0
147
0.0
147
0.0
147
1.0
147
0.0
147
0.0
147
0.0
147
0.0
147
1.0
  0
MATERIAL
  5
26F
102
{ACAD_XDICTIONARY
360
270
102
}
102
{ACAD_REACTORS
330
25E
102
}
330
25E
100
AcDbMaterial
  1
Global
 72
     0
 43
0.0208333333333333
 43
0.0
 43
0.0
 43
0.0
 43
0.0
 43
0.0208333333333333
 43
0.0
 43
0.0
 43
0.0
 43
0.0
 43
1.0
 43
0.0
 43
0.0
 43
0.0
 43
0.0
 43
1.0
 77
     0
 47
0.0208333333333333
 47
0.0
 47
0.0
 47
0.0
 47
0.0
 47
0.0208333333333333
 47
0.0
 47
0.0
 47
0.0
 47
0.0
 47
1.0
 47
0.0
 47
0.0
 47
0.0
 47
0.0
 47
1.0
171
     0
 49
0.0208333333333333
 49
0.0
 49
0.0
 49
0.0
 49
0.0
 49
0.0208333333333333
 49
0.0
 49
0.0
 49
0.0
 49
0.0
 49
1.0
 49
0.0
 49
0.0
 49
0.0
 49
0.0
 49
1.0
175
     0
142
0.0208333333333333
142
0.0
142
0.0
142
0.0
142
0.0
142
0.0208333333333333
142
0.0
142
0.0
142
0.0
142
0.0
142
1.0
142
0.0
142
0.0
142
0.0
142
0.0
142
1.0
179
     0
144
0.0208333333333333
144
0.0
144
0.0
144
0.0
144
0.0
144
0.0208333333333333
144
0.0
144
0.0
144
0.0
144
0.0
144
1.0
144
0.0
144
0.0
144
0.0
144
0.0
144
1.0
147
0.0208333333333333
147
0.0
147
0.0
147
0.0
147
0.0
147
0.0208333333333333
147
0.0
147
0.0
147
0.0
147
0.0
147
1.0
147
0.0
147
0.0
147
0.0
147
0.0
147
1.0
  0
MLEADERSTYLE
  5
29F
102
{ACAD_REACTORS
330
29E
102
}
330
29E
100
AcDbMLeaderStyle
179
     2
170
     2
171
     1
172
     0
 90
        2
 40
0.0
 41
0.0
173
     1
 91
-1056964608
340
14
 92
       -2
290
     1
 42
0.09
291
     1
 43
0.36
  3
Standard
 44
0.18
300

342
11
174
     1
178
     6
175
     1
176
     0
 93
-1056964608
 45
0.18
292
     0
297
     0
 46
0.18
 94
-1056964608
 47
1.0
 49
1.0
140
1.0
293
     1
141
0.0
294
     1
177
     0
142
1.0
295
     0
296
     0
143
0.125
271
     0
272
     9
273
     9
298
     0
  0
MLINESTYLE
  5
18
102
{ACAD_REACTORS
330
17
102
}
330
17
100
AcDbMlineStyle
  2
STANDARD
 70
     0
  3

 62
   256
 51
90.0
 52
90.0
 71
     2
 49
0.5
 62
   256
  6
BYLAYER
 49
-0.5
 62
   256
  6
BYLAYER
  0
ACDBPLACEHOLDER
  5
F
102
{ACAD_REACTORS
330
E
102
}
330
E
  0
SCALE
  5
27D
102
{ACAD_REACTORS
330
27C
102
}
330
27C
100
AcDbScale
 70
     0
300
1:1
140
1.0
141
1.0
290
     1
  0
SCALE
  5
27E
102
{ACAD_REACTORS
330
27C
102
}
330
27C
100
AcDbScale
 70
     0
300
1:2
140
1.0
141
2.0
290
     0
  0
SCALE
  5
27F
102
{ACAD_REACTORS
330
27C
102
}
330
27C
100
AcDbScale
 70
     0
300
1:4
140
1.0
141
4.0
290
     0
  0
SCALE
  5
280
102
{ACAD_REACTORS
330
27C
102
}
330
27C
100
AcDbScale
 70
     0
300
1:5
140
1.0
141
5.0
290
     0
  0
SCALE
  5
281
102
{ACAD_REACTORS
330
27C
102
}
330
27C
100
AcDbScale
 70
     0
300
1:8
140
1.0
141
8.0
290
     0
  0
SCALE
  5
282
102
{ACAD_REACTORS
330
27C
102
}
330
27C
100
AcDbScale
 70
     0
300
1:10
140
1.0
141
10.0
290
     0
  0
SCALE
  5
283
102
{ACAD_REACTORS
330
27C
102
}
330
27C
100
AcDbScale
 70
     0
300
1:16
140
1.0
141
16.0
290
     0
  0
SCALE
  5
284
102
{ACAD_REACTORS
330
27C
102
}
330
27C
100
AcDbScale
 70
     0
300
1:20
140
1.0
141
20.0
290
     0
  0
SCALE
  5
285
102
{ACAD_REACTORS
330
27C
102
}
330
27C
100
AcDbScale
 70
     0
300
1:30
140
1.0
141
30.0
290
     0
  0
SCALE
  5
286
102
{ACAD_REACTORS
330
27C
102
}
330
27C
100
AcDbScale
 70
     0
300
1:40
140
1.0
141
40.0
290
     0
  0
SCALE
  5
287
102
{ACAD_REACTORS
330
27C
102
}
330
27C
100
AcDbScale
 70
     0
300
1:50
140
1.0
141
50.0
290
     0
  0
SCALE
  5
288
102
{ACAD_REACTORS
330
27C
102
}
330
27C
100
AcDbScale
 70
     0
300
1:100
140
1.0
141
100.0
290
     0
  0
SCALE
  5
289
102
{ACAD_REACTORS
330
27C
102
}
330
27C
100
AcDbScale
 70
     0
300
2:1
140
2.0
141
1.0
290
     0
  0
SCALE
  5
28A
102
{ACAD_REACTORS
330
27C
102
}
330
27C
100
AcDbScale
 70
     0
300
4:1
140
4.0
141
1.0
290
     0
  0
SCALE
  5
28B
102
{ACAD_REACTORS
330
27C
102
}
330
27C
100
AcDbScale
 70
     0
300
8:1
140
8.0
141
1.0
290
     0
  0
SCALE
  5
28C
102
{ACAD_REACTORS
330
27C
102
}
330
27C
100
AcDbScale
 70
     0
300
10:1
140
10.0
141
1.0
290
     0
  0
SCALE
  5
28D
102
{ACAD_REACTORS
330
27C
102
}
330
27C
100
AcDbScale
 70
     0
300
100:1
140
100.0
141
1.0
290
     0
  0
SCALE
  5
28E
102
{ACAD_REACTORS
330
27C
102
}
330
27C
100
AcDbScale
 70
     0
300
1/128" = 1'-0"
140
0.0078125
141
12.0
290
     0
  0
SCALE
  5
28F
102
{ACAD_REACTORS
330
27C
102
}
330
27C
100
AcDbScale
 70
     0
300
1/64" = 1'-0"
140
0.015625
141
12.0
290
     0
  0
SCALE
  5
290
102
{ACAD_REACTORS
330
27C
102
}
330
27C
100
AcDbScale
 70
     0
300
1/32" = 1'-0"
140
0.03125
141
12.0
290
     0
  0
SCALE
  5
291
102
{ACAD_REACTORS
330
27C
102
}
330
27C
100
AcDbScale
 70
     0
300
1/16" = 1'-0"
140
0.0625
141
12.0
290
     0
  0
SCALE
  5
292
102
{ACAD_REACTORS
330
27C
102
}
330
27C
100
AcDbScale
 70
     0
300
3/32" = 1'-0"
140
0.09375
141
12.0
290
     0
  0
SCALE
  5
293
102
{ACAD_REACTORS
330
27C
102
}
330
27C
100
AcDbScale
 70
     0
300
1/8" = 1'-0"
140
0.125
141
12.0
290
     0
  0
SCALE
  5
294
102
{ACAD_REACTORS
330
27C
102
}
330
27C
100
AcDbScale
 70
     0
300
3/16" = 1'-0"
140
0.1875
141
12.0
290
     0
  0
SCALE
  5
295
102
{ACAD_REACTORS
330
27C
102
}
330
27C
100
AcDbScale
 70
     0
300
1/4" = 1'-0"
140
0.25
141
12.0
290
     0
  0
SCALE
  5
296
102
{ACAD_REACTORS
330
27C
102
}
330
27C
100
AcDbScale
 70
     0
300
3/8" = 1'-0"
140
0.375
141
12.0
290
     0
  0
SCALE
  5
297
102
{ACAD_REACTORS
330
27C
102
}
330
27C
100
AcDbScale
 70
     0
300
1/2" = 1'-0"
140
0.5
141
12.0
290
     0
  0
SCALE
  5
298
102
{ACAD_REACTORS
330
27C
102
}
330
27C
100
AcDbScale
 70
     0
300
3/4" = 1'-0"
140
0.75
141
12.0
290
     0
  0
SCALE
  5
299
102
{ACAD_REACTORS
330
27C
102
}
330
27C
100
AcDbScale
 70
     0
300
1" = 1'-0"
140
1.0
141
12.0
290
     0
  0
SCALE
  5
29A
102
{ACAD_REACTORS
330
27C
102
}
330
27C
100
AcDbScale
 70
     0
300
1-1/2" = 1'-0"
140
1.5
141
12.0
290
     0
  0
SCALE
  5
29B
102
{ACAD_REACTORS
330
27C
102
}
330
27C
100
AcDbScale
 70
     0
300
3" = 1'-0"
140
3.0
141
12.0
290
     0
  0
SCALE
  5
29C
102
{ACAD_REACTORS
330
27C
102
}
330
27C
100
AcDbScale
 70
     0
300
6" = 1'-0"
140
6.0
141
12.0
290
     0
  0
SCALE
  5
29D
102
{ACAD_REACTORS
330
27C
102
}
330
27C
100
AcDbScale
 70
     0
300
1'-0" = 1'-0"
140
12.0
141
12.0
290
     0
  0
ACDBSECTIONVIEWSTYLE
  5
391
102
{ACAD_REACTORS
330
390
102
}
330
390
100
AcDbModelDocViewStyle
 70
     0
  3
Imperial24
290
     0
300
Imperial24
 90
        0
100
AcDbSectionViewStyle
 70
     0
 71
     0
 90
       78
 71
     1
340
11
 62
   256
 40
0.24
340
0
340
0
 62
   256
 40
0.24
300
I, O, Q, S, X, Z
 40
0.48
 90
        3
 40
0.18
 90
        1
 71
     2
340
16
 90
       25
 62
   256
340
16
 90
       50
 62
   256
 40
0.24
 40
0.0
 40
0.24
 71
     3
340
11
 62
   256
 40
0.24
 90
        1
 40
0.75
 90
        1
300
%<\AcVar ViewType \f "%tc1">% %<\AcVar ViewSectionStartId>%-%<\AcVar ViewSectionEndId>%\PSCALE %<\AcVar ViewScale \f "%sn">%
 71
     4
 62
   256
 62
   257
300
ANSI31
 40
1.0
 90
        0
290
     0
290
     0
 90
        6
 40
0.0
 40
1.570796326794896
 40
0.2617993877991494
 40
1.308996938995747
 40
-0.2617993877991494
 40
1.832595714594046
  0
TABLESTYLE
  5
27B
102
{ACAD_XDICTIONARY
360
7A4
102
}
102
{ACAD_REACTORS
330
25C
102
}
330
25C
100
AcDbTableStyle
280
     0
  3
Standard
 70
     0
 71
     0
 40
0.06
 41
0.06
280
     0
281
     0
  7
Standard
140
0.18
170
     2
 62
     0
 63
     7
283
     0
 90
      512
 91
        0
  1

274
    -2
284
     1
 64
     0
275
    -2
285
     1
 65
     0
276
    -2
286
     1
 66
     0
277
    -2
287
     1
 67
     0
278
    -2
288
     1
 68
     0
279
    -2
289
     1
 69
     0
  7
Standard
140
0.25
170
     5
 62
     0
 63
     7
283
     0
 90
      512
 91
        0
  1

274
    -2
284
     1
 64
     0
275
    -2
285
     1
 65
     0
276
    -2
286
     1
 66
     0
277
    -2
287
     1
 67
     0
278
    -2
288
     1
 68
     0
279
    -2
289
     1
 69
     0
  7
Standard
140
0.18
170
     5
 62
     0
 63
     7
283
     0
 90
      512
 91
        0
  1

274
    -2
284
     1
 64
     0
275
    -2
285
     1
 65
     0
276
    -2
286
     1
 66
     0
277
    -2
287
     1
 67
     0
278
    -2
288
     1
 68
     0
279
    -2
289
     1
 69
     0
  0
VISUALSTYLE
  5
2F
102
{ACAD_REACTORS
330
2A
102
}
330
2A
100
AcDbVisualStyle
  2
2dWireframe
 70
     4
177
     3
291
     0
 70
    58
 90
        0
176
     1
 90
        2
176
     1
 90
        0
176
     1
 90
        0
176
     1
 40
0.6
176
     1
 40
30.0
176
     1
 62
     7
420
 16777215
176
     1
 90
        1
176
     1
 90
        4
176
     1
 62
     7
176
     1
 62
   257
176
     1
 90
        1
176
     1
 90
        1
176
     1
 40
1.0
176
     1
 90
        0
176
     1
 62
   257
176
     1
 40
1.0
176
     1
 90
        1
176
     1
 90
        6
176
     1
 90
        2
176
     1
 62
     7
176
     1
 90
        5
176
     1
 90
        0
176
     1
 90
        0
176
     1
290
     0
176
     1
 90
        1
176
     1
 40
0.0
176
     1
 90
        0
176
     1
290
     1
176
     1
290
     1
176
     1
290
     0
176
     1
290
     0
176
     1
290
     0
176
     1
290
     0
176
     1
290
     0
176
     1
290
     0
176
     1
290
     0
176
     1
 90
       50
176
     1
 40
0.0
176
     1
 40
1.0
176
     1
 90
        0
176
     1
 62
    18
420
        0
176
     1
 90
       50
176
     1
 90
        3
176
     1
 62
     5
420
      255
176
     1
290
     0
176
     1
 90
       50
176
     1
 90
       50
176
     1
 90
       50
176
     1
290
     0
176
     1
 90
       50
176
     1
 62
   256
176
     0
 40
1.0
176
     0
 90
        2
176
     1
  1
strokes_ogs.tif
176
     1
290
     0
176
     1
 40
1.0
176
     1
 40
1.0
176
     1
  0
VISUALSTYLE
  5
31
102
{ACAD_REACTORS
330
2A
102
}
330
2A
100
AcDbVisualStyle
  2
3D Hidden
 70
     6
177
     3
291
     0
 70
    58
 90
        1
176
     1
 90
        2
176
     1
 90
        2
176
     1
 90
        0
176
     1
 40
0.6
176
     1
 40
30.0
176
     1
 62
     7
420
 16777215
176
     1
 90
        2
176
     1
 90
        2
176
     1
 62
     7
176
     1
 62
   257
176
     1
 90
        2
176
     1
 90
        1
176
     1
 40
40.0
176
     1
 90
        0
176
     1
 62
   257
176
     1
 40
1.0
176
     1
 90
        1
176
     1
 90
        6
176
     1
 90
        2
176
     1
 62
     7
176
     1
 90
        3
176
     1
 90
        0
176
     1
 90
        0
176
     1
290
     0
176
     1
 90
        1
176
     1
 40
0.0
176
     1
 90
        0
176
     1
290
     0
176
     1
290
     1
176
     1
290
     1
176
     1
290
     0
176
     1
290
     0
176
     1
290
     0
176
     1
290
     0
176
     1
290
     0
176
     1
290
     0
176
     1
 90
       50
176
     1
 40
0.0
176
     1
 40
1.0
176
     1
 90
        0
176
     1
 62
    18
420
        0
176
     1
 90
       50
176
     1
 90
        3
176
     1
 62
     5
420
      255
176
     1
290
     0
176
     1
 90
       50
176
     1
 90
       50
176
     1
 90
       50
176
     1
290
     0
176
     1
 90
       50
176
     1
 62
   256
176
     0
 40
1.0
176
     0
 90
        2
176
     1
  1
strokes_ogs.tif
176
     1
290
     0
176
     1
 40
1.0
176
     1
 40
1.0
176
     1
  0
VISUALSTYLE
  5
30
102
{ACAD_REACTORS
330
2A
102
}
330
2A
100
AcDbVisualStyle
  2
3dWireframe
 70
     5
177
     3
291
     0
 70
    58
 90
        0
176
     1
 90
        2
176
     1
 90
        0
176
     1
 90
        0
176
     1
 40
0.6
176
     1
 40
30.0
176
     1
 62
     7
420
 16777215
176
     1
 90
        1
176
     1
 90
        4
176
     1
 62
     7
176
     1
 62
   257
176
     1
 90
        1
176
     1
 90
        1
176
     1
 40
1.0
176
     1
 90
        0
176
     1
 62
   257
176
     1
 40
1.0
176
     1
 90
        1
176
     1
 90
        6
176
     1
 90
        2
176
     1
 62
     7
176
     1
 90
        5
176
     1
 90
        0
176
     1
 90
        0
176
     1
290
     0
176
     1
 90
        1
176
     1
 40
0.0
176
     1
 90
        0
176
     1
290
     0
176
     1
290
     1
176
     1
290
     1
176
     1
290
     0
176
     1
290
     0
176
     1
290
     0
176
     1
290
     0
176
     1
290
     0
176
     1
290
     0
176
     1
 90
       50
176
     1
 40
0.0
176
     1
 40
1.0
176
     1
 90
        0
176
     1
 62
    18
420
        0
176
     1
 90
       50
176
     1
 90
        3
176
     1
 62
     5
420
      255
176
     1
290
     0
176
     1
 90
       50
176
     1
 90
       50
176
     1
 90
       50
176
     1
290
     0
176
     1
 90
       50
176
     1
 62
   256
176
     0
 40
1.0
176
     0
 90
        2
176
     1
  1
strokes_ogs.tif
176
     1
290
     0
176
     1
 40
1.0
176
     1
 40
1.0
176
     1
  0
VISUALSTYLE
  5
32
102
{ACAD_REACTORS
330
2A
102
}
330
2A
100
AcDbVisualStyle
  2
Basic
 70
     7
177
     3
291
     1
 70
    58
 90
        1
176
     1
 90
        0
176
     1
 90
        1
176
     1
 90
        0
176
     1
 40
0.6
176
     1
 40
30.0
176
     1
 62
     7
420
 16777215
176
     1
 90
        0
176
     1
 90
        4
176
     1
 62
     7
176
     1
 62
   257
176
     1
 90
        1
176
     1
 90
        1
176
     1
 40
1.0
176
     1
 90
        8
176
     1
 62
     7
176
     1
 40
1.0
176
     1
 90
        1
176
     1
 90
        6
176
     1
 90
        2
176
     1
 62
     7
176
     1
 90
        5
176
     1
 90
        0
176
     1
 90
        0
176
     1
290
     0
176
     1
 90
        1
176
     1
 40
0.0
176
     1
 90
        0
176
     1
290
     0
176
     1
290
     1
176
     1
290
     1
176
     1
290
     0
176
     1
290
     0
176
     1
290
     0
176
     1
290
     0
176
     1
290
     0
176
     1
290
     0
176
     1
 90
       50
176
     1
 40
0.0
176
     1
 40
1.0
176
     1
 90
        0
176
     1
 62
    18
420
        0
176
     1
 90
       50
176
     1
 90
        3
176
     1
 62
     5
420
      255
176
     1
290
     0
176
     1
 90
       50
176
     1
 90
       50
176
     1
 90
       50
176
     1
290
     0
176
     1
 90
       50
176
     1
 62
   256
176
     0
 40
1.0
176
     0
 90
        2
176
     1
  1
strokes_ogs.tif
176
     1
290
     0
176
     1
 40
1.0
176
     1
 40
1.0
176
     1
  0
VISUALSTYLE
  5
36
102
{ACAD_REACTORS
330
2A
102
}
330
2A
100
AcDbVisualStyle
  2
Brighten
 70
    12
177
     3
291
     1
 70
    58
 90
        2
176
     1
 90
        2
176
     1
 90
        0
176
     1
 90
        0
176
     1
 40
0.6
176
     1
 40
30.0
176
     1
 62
     7
420
 16777215
176
     1
 90
        1
176
     1
 90
        4
176
     1
 62
     7
176
     1
 62
   257
176
     1
 90
        1
176
     1
 90
        1
176
     1
 40
1.0
176
     1
 90
        8
176
     1
 62
     7
176
     1
 40
1.0
176
     1
 90
        1
176
     1
 90
        6
176
     1
 90
        2
176
     1
 62
     7
176
     1
 90
        5
176
     1
 90
        0
176
     1
 90
        0
176
     1
290
     0
176
     1
 90
        1
176
     1
 40
50.0
176
     1
 90
        0
176
     1
290
     0
176
     1
290
     1
176
     1
290
     1
176
     1
290
     0
176
     1
290
     0
176
     1
290
     0
176
     1
290
     0
176
     1
290
     0
176
     1
290
     0
176
     1
 90
       50
176
     1
 40
0.0
176
     1
 40
1.0
176
     1
 90
        0
176
     1
 62
    18
420
        0
176
     1
 90
       50
176
     1
 90
        3
176
     1
 62
     5
420
      255
176
     1
290
     0
176
     1
 90
       50
176
     1
 90
       50
176
     1
 90
       50
176
     1
290
     0
176
     1
 90
       50
176
     1
 62
   256
176
     0
 40
1.0
176
     0
 90
        2
176
     1
  1
strokes_ogs.tif
176
     1
290
     0
176
     1
 40
1.0
176
     1
 40
1.0
176
     1
  0
VISUALSTYLE
  5
3A
102
{ACAD_REACTORS
330
2A
102
}
330
2A
100
AcDbVisualStyle
  2
ColorChange
 70
    16
177
     3
291
     1
 70
    58
 90
        2
176
     1
 90
        2
176
     1
 90
        3
176
     1
 90
        0
176
     1
 40
0.6
176
     1
 40
30.0
176
     1
 62
     8
420
  8421504
176
     1
 90
        1
176
     1
 90
        4
176
     1
 62
     7
176
     1
 62
   257
176
     1
 90
        1
176
     1
 90
        1
176
     1
 40
1.0
176
     1
 90
        8
176
     1
 62
     8
420
  8421504
176
     1
 40
1.0
176
     1
 90
        1
176
     1
 90
        6
176
     1
 90
        2
176
     1
 62
     7
176
     1
 90
        5
176
     1
 90
        0
176
     1
 90
        0
176
     1
290
     0
176
     1
 90
        1
176
     1
 40
0.0
176
     1
 90
        0
176
     1
290
     0
176
     1
290
     1
176
     1
290
     1
176
     1
290
     0
176
     1
290
     0
176
     1
290
     0
176
     1
290
     0
176
     1
290
     0
176
     1
290
     0
176
     1
 90
       50
176
     1
 40
0.0
176
     1
 40
1.0
176
     1
 90
        0
176
     1
 62
    18
420
        0
176
     1
 90
       50
176
     1
 90
        3
176
     1
 62
     5
420
      255
176
     1
290
     0
176
     1
 90
       50
176
     1
 90
       50
176
     1
 90
       50
176
     1
290
     0
176
     1
 90
       50
176
     1
 62
   256
176
     0
 40
1.0
176
     0
 90
        2
176
     1
  1
strokes_ogs.tif
176
     1
290
     0
176
     1
 40
1.0
176
     1
 40
1.0
176
     1
  0
VISUALSTYLE
  5
34
102
{ACAD_REACTORS
330
2A
102
}
330
2A
100
AcDbVisualStyle
  2
Conceptual
 70
     9
177
     3
291
     0
 70
    58
 90
        3
176
     1
 90
        2
176
     1
 90
        0
176
     1
 90
        0
176
     1
 40
0.6
176
     1
 40
30.0
176
     1
 62
     7
420
 16777215
176
     1
 90
        2
176
     1
 90
        2
176
     1
 62
     7
176
     1
 62
   257
176
     1
 90
        1
176
     1
 90
        1
176
     1
 40
40.0
176
     1
 90
        8
176
     1
 62
     7
176
     1
 40
1.0
176
     1
 90
        1
176
     1
 90
        6
176
     1
 90
        2
176
     1
 62
     7
176
     1
 90
        3
176
     1
 90
        0
176
     1
 90
        0
176
     1
290
     0
176
     1
 90
        1
176
     1
 40
0.0
176
     1
 90
        0
176
     1
290
     0
176
     1
290
     1
176
     1
290
     1
176
     1
290
     0
176
     1
290
     0
176
     1
290
     0
176
     1
290
     0
176
     1
290
     0
176
     1
290
     0
176
     1
 90
       50
176
     1
 40
0.0
176
     1
 40
1.0
176
     1
 90
        0
176
     1
 62
    18
420
        0
176
     1
 90
       50
176
     1
 90
        3
176
     1
 62
     5
420
      255
176
     1
290
     0
176
     1
 90
       50
176
     1
 90
       50
176
     1
 90
       50
176
     1
290
     0
176
     1
 90
       50
176
     1
 62
   256
176
     0
 40
1.0
176
     0
 90
        2
176
     1
  1
strokes_ogs.tif
176
     1
290
     0
176
     1
 40
1.0
176
     1
 40
1.0
176
     1
  0
VISUALSTYLE
  5
35
102
{ACAD_REACTORS
330
2A
102
}
330
2A
100
AcDbVisualStyle
  2
Dim
 70
    11
177
     3
291
     1
 70
    58
 90
        2
176
     1
 90
        2
176
     1
 90
        0
176
     1
 90
        0
176
     1
 40
0.6
176
     1
 40
30.0
176
     1
 62
     7
420
 16777215
176
     1
 90
        1
176
     1
 90
        4
176
     1
 62
     7
176
     1
 62
   257
176
     1
 90
        1
176
     1
 90
        1
176
     1
 40
1.0
176
     1
 90
        8
176
     1
 62
     7
176
     1
 40
1.0
176
     1
 90
        1
176
     1
 90
        6
176
     1
 90
        2
176
     1
 62
     7
176
     1
 90
        5
176
     1
 90
        0
176
     1
 90
        0
176
     1
290
     0
176
     1
 90
        1
176
     1
 40
-50.0
176
     1
 90
        0
176
     1
290
     0
176
     1
290
     1
176
     1
290
     1
176
     1
290
     0
176
     1
290
     0
176
     1
290
     0
176
     1
290
     0
176
     1
290
     0
176
     1
290
     0
176
     1
 90
       50
176
     1
 40
0.0
176
     1
 40
1.0
176
     1
 90
        0
176
     1
 62
    18
420
        0
176
     1
 90
       50
176
     1
 90
        3
176
     1
 62
     5
420
      255
176
     1
290
     0
176
     1
 90
       50
176
     1
 90
       50
176
     1
 90
       50
176
     1
290
     0
176
     1
 90
       50
176
     1
 62
   256
176
     0
 40
1.0
176
     0
 90
        2
176
     1
  1
strokes_ogs.tif
176
     1
290
     0
176
     1
 40
1.0
176
     1
 40
1.0
176
     1
  0
VISUALSTYLE
  5
279
102
{ACAD_REACTORS
330
2A
102
}
330
2A
100
AcDbVisualStyle
  2
EdgeColorOff
 70
    22
177
     3
291
     1
 70
    58
 90
        2
176
     0
 90
        2
176
     0
 90
        0
176
     0
 90
        0
176
     0
 40
0.6
176
     0
 40
30.0
176
     0
 62
     7
420
 16777215
176
     0
 90
        1
176
     0
 90
        4
176
     0
 62
     7
176
     0
 62
   257
176
     0
 90
        1
176
     0
 90
        1
176
     0
 40
1.0
176
     0
 90
        8
176
     2
 62
     7
176
     0
 40
1.0
176
     0
 90
        1
176
     0
 90
        6
176
     0
 90
        2
176
     0
 62
     7
176
     0
 90
        5
176
     0
 90
        0
176
     0
 90
        0
176
     0
290
     0
176
     0
 90
        1
176
     0
 40
0.0
176
     0
 90
        0
176
     0
290
     0
176
     1
290
     1
176
     1
290
     1
176
     1
290
     0
176
     1
290
     0
176
     1
290
     0
176
     1
290
     0
176
     1
290
     0
176
     1
290
     0
176
     1
 90
       50
176
     1
 40
0.0
176
     1
 40
1.0
176
     1
 90
        0
176
     1
 62
    18
420
        0
176
     1
 90
       50
176
     1
 90
        3
176
     1
 62
     5
420
      255
176
     1
290
     0
176
     1
 90
       50
176
     1
 90
       50
176
     1
 90
       50
176
     1
290
     0
176
     1
 90
       50
176
     1
 62
   256
176
     0
 40
1.0
176
     0
 90
        2
176
     1
  1
strokes_ogs.tif
176
     1
290
     0
176
     1
 40
1.0
176
     1
 40
1.0
176
     1
  0
VISUALSTYLE
  5
39
102
{ACAD_REACTORS
330
2A
102
}
330
2A
100
AcDbVisualStyle
  2
Facepattern
 70
    15
177
     3
291
     1
 70
    58
 90
        2
176
     1
 90
        2
176
     1
 90
        0
176
     1
 90
        0
176
     1
 40
0.6
176
     1
 40
30.0
176
     1
 62
     7
420
 16777215
176
     1
 90
        1
176
     1
 90
        4
176
     1
 62
     7
176
     1
 62
   257
176
     1
 90
        1
176
     1
 90
        1
176
     1
 40
1.0
176
     1
 90
        8
176
     1
 62
     7
176
     1
 40
1.0
176
     1
 90
        1
176
     1
 90
        6
176
     1
 90
        2
176
     1
 62
     7
176
     1
 90
        5
176
     1
 90
        0
176
     1
 90
        0
176
     1
290
     0
176
     1
 90
        1
176
     1
 40
0.0
176
     1
 90
        0
176
     1
290
     0
176
     1
290
     1
176
     1
290
     1
176
     1
290
     0
176
     1
290
     0
176
     1
290
     0
176
     1
290
     0
176
     1
290
     0
176
     1
290
     0
176
     1
 90
       50
176
     1
 40
0.0
176
     1
 40
1.0
176
     1
 90
        0
176
     1
 62
    18
420
        0
176
     1
 90
       50
176
     1
 90
        3
176
     1
 62
     5
420
      255
176
     1
290
     0
176
     1
 90
       50
176
     1
 90
       50
176
     1
 90
       50
176
     1
290
     0
176
     1
 90
       50
176
     1
 62
   256
176
     0
 40
1.0
176
     0
 90
        2
176
     1
  1
strokes_ogs.tif
176
     1
290
     0
176
     1
 40
1.0
176
     1
 40
1.0
176
     1
  0
VISUALSTYLE
  5
2B
102
{ACAD_REACTORS
330
2A
102
}
330
2A
100
AcDbVisualStyle
  2
Flat
 70
     0
177
     3
291
     1
 70
    58
 90
        2
176
     1
 90
        1
176
     1
 90
        1
176
     1
 90
        2
176
     1
 40
0.6
176
     1
 40
30.0
176
     1
 62
     7
420
 16777215
176
     1
 90
        0
176
     1
 90
        4
176
     1
 62
     7
176
     1
 62
   257
176
     1
 90
        1
176
     1
 90
        1
176
     1
 40
1.0
176
     1
 90
        8
176
     1
 62
     7
176
     1
 40
1.0
176
     1
 90
        1
176
     1
 90
        6
176
     1
 90
        2
176
     1
 62
     7
176
     1
 90
        5
176
     1
 90
        0
176
     1
 90
        0
176
     1
290
     0
176
     1
 90
       13
176
     1
 40
0.0
176
     1
 90
        0
176
     1
290
     0
176
     1
290
     1
176
     1
290
     1
176
     1
290
     0
176
     1
290
     0
176
     1
290
     0
176
     1
290
     0
176
     1
290
     0
176
     1
290
     0
176
     1
 90
       50
176
     1
 40
0.0
176
     1
 40
1.0
176
     1
 90
        0
176
     1
 62
    18
420
        0
176
     1
 90
       50
176
     1
 90
        3
176
     1
 62
     5
420
      255
176
     1
290
     0
176
     1
 90
       50
176
     1
 90
       50
176
     1
 90
       50
176
     1
290
     0
176
     1
 90
       50
176
     1
 62
   256
176
     0
 40
1.0
176
     0
 90
        2
176
     1
  1
strokes_ogs.tif
176
     1
290
     0
176
     1
 40
1.0
176
     1
 40
1.0
176
     1
  0
VISUALSTYLE
  5
2C
102
{ACAD_REACTORS
330
2A
102
}
330
2A
100
AcDbVisualStyle
  2
FlatWithEdges
 70
     1
177
     3
291
     1
 70
    58
 90
        2
176
     1
 90
        1
176
     1
 90
        1
176
     1
 90
        2
176
     1
 40
0.6
176
     1
 40
30.0
176
     1
 62
     7
420
 16777215
176
     1
 90
        1
176
     1
 90
        4
176
     1
 62
     7
176
     1
 62
   257
176
     1
 90
        1
176
     1
 90
        1
176
     1
 40
1.0
176
     1
 90
        0
176
     1
 62
   257
176
     1
 40
1.0
176
     1
 90
        1
176
     1
 90
        6
176
     1
 90
        2
176
     1
 62
     7
176
     1
 90
        5
176
     1
 90
        0
176
     1
 90
        0
176
     1
290
     0
176
     1
 90
       13
176
     1
 40
0.0
176
     1
 90
        0
176
     1
290
     0
176
     1
290
     1
176
     1
290
     1
176
     1
290
     0
176
     1
290
     0
176
     1
290
     0
176
     1
290
     0
176
     1
290
     0
176
     1
290
     0
176
     1
 90
       50
176
     1
 40
0.0
176
     1
 40
1.0
176
     1
 90
        0
176
     1
 62
    18
420
        0
176
     1
 90
       50
176
     1
 90
        3
176
     1
 62
     5
420
      255
176
     1
290
     0
176
     1
 90
       50
176
     1
 90
       50
176
     1
 90
       50
176
     1
290
     0
176
     1
 90
       50
176
     1
 62
   256
176
     0
 40
1.0
176
     0
 90
        2
176
     1
  1
strokes_ogs.tif
176
     1
290
     0
176
     1
 40
1.0
176
     1
 40
1.0
176
     1
  0
VISUALSTYLE
  5
2D
102
{ACAD_REACTORS
330
2A
102
}
330
2A
100
AcDbVisualStyle
  2
Gouraud
 70
     2
177
     3
291
     1
 70
    58
 90
        2
176
     1
 90
        2
176
     1
 90
        1
176
     1
 90
        2
176
     1
 40
0.6
176
     1
 40
30.0
176
     1
 62
     7
420
 16777215
176
     1
 90
        0
176
     1
 90
        4
176
     1
 62
     7
176
     1
 62
   257
176
     1
 90
        1
176
     1
 90
        1
176
     1
 40
1.0
176
     1
 90
        0
176
     1
 62
     7
176
     1
 40
1.0
176
     1
 90
        1
176
     1
 90
        6
176
     1
 90
        2
176
     1
 62
     7
176
     1
 90
        5
176
     1
 90
        0
176
     1
 90
        0
176
     1
290
     0
176
     1
 90
       13
176
     1
 40
0.0
176
     1
 90
        0
176
     1
290
     0
176
     1
290
     1
176
     1
290
     1
176
     1
290
     0
176
     1
290
     0
176
     1
290
     0
176
     1
290
     0
176
     1
290
     0
176
     1
290
     0
176
     1
 90
       50
176
     1
 40
0.0
176
     1
 40
1.0
176
     1
 90
        0
176
     1
 62
    18
420
        0
176
     1
 90
       50
176
     1
 90
        3
176
     1
 62
     5
420
      255
176
     1
290
     0
176
     1
 90
       50
176
     1
 90
       50
176
     1
 90
       50
176
     1
290
     0
176
     1
 90
       50
176
     1
 62
   256
176
     0
 40
1.0
176
     0
 90
        2
176
     1
  1
strokes_ogs.tif
176
     1
290
     0
176
     1
 40
1.0
176
     1
 40
1.0
176
     1
  0
VISUALSTYLE
  5
2E
102
{ACAD_REACTORS
330
2A
102
}
330
2A
100
AcDbVisualStyle
  2
GouraudWithEdges
 70
     3
177
     3
291
     1
 70
    58
 90
        2
176
     1
 90
        2
176
     1
 90
        1
176
     1
 90
        2
176
     1
 40
0.6
176
     1
 40
30.0
176
     1
 62
     7
420
 16777215
176
     1
 90
        1
176
     1
 90
        4
176
     1
 62
     7
176
     1
 62
   257
176
     1
 90
        1
176
     1
 90
        1
176
     1
 40
1.0
176
     1
 90
        0
176
     1
 62
   257
176
     1
 40
1.0
176
     1
 90
        1
176
     1
 90
        6
176
     1
 90
        2
176
     1
 62
     7
176
     1
 90
        5
176
     1
 90
        0
176
     1
 90
        0
176
     1
290
     0
176
     1
 90
       13
176
     1
 40
0.0
176
     1
 90
        0
176
     1
290
     0
176
     1
290
     1
176
     1
290
     1
176
     1
290
     0
176
     1
290
     0
176
     1
290
     0
176
     1
290
     0
176
     1
290
     0
176
     1
290
     0
176
     1
 90
       50
176
     1
 40
0.0
176
     1
 40
1.0
176
     1
 90
        0
176
     1
 62
    18
420
        0
176
     1
 90
       50
176
     1
 90
        3
176
     1
 62
     5
420
      255
176
     1
290
     0
176
     1
 90
       50
176
     1
 90
       50
176
     1
 90
       50
176
     1
290
     0
176
     1
 90
       50
176
     1
 62
   256
176
     0
 40
1.0
176
     0
 90
        2
176
     1
  1
strokes_ogs.tif
176
     1
290
     0
176
     1
 40
1.0
176
     1
 40
1.0
176
     1
  0
VISUALSTYLE
  5
38A
102
{ACAD_REACTORS
330
2A
102
}
330
2A
100
AcDbVisualStyle
  2
Hidden
 70
     6
177
     3
291
     0
 70
    58
 90
        1
176
     1
 90
        2
176
     1
 90
        2
176
     1
 90
        0
176
     1
 40
0.6
176
     1
 40
30.0
176
     1
 62
     7
420
 16777215
176
     1
 90
        2
176
     1
 90
        2
176
     1
 62
     7
176
     1
 62
   257
176
     1
 90
        2
176
     1
 90
        1
176
     1
 40
40.0
176
     1
 90
        0
176
     1
 62
   257
176
     1
 40
1.0
176
     1
 90
        1
176
     1
 90
        6
176
     1
 90
        2
176
     1
 62
     7
176
     1
 90
        3
176
     1
 90
        0
176
     1
 90
        0
176
     1
290
     0
176
     1
 90
        1
176
     1
 40
0.0
176
     1
 90
        0
176
     1
290
     0
176
     1
290
     1
176
     1
290
     1
176
     1
290
     0
176
     1
290
     0
176
     1
290
     0
176
     1
290
     0
176
     1
290
     0
176
     1
290
     0
176
     1
 90
       50
176
     1
 40
0.0
176
     1
 40
1.0
176
     1
 90
        0
176
     1
 62
    18
420
        0
176
     1
 90
       50
176
     1
 90
        3
176
     1
 62
     5
420
      255
176
     1
290
     0
176
     1
 90
       50
176
     1
 90
       50
176
     1
 90
       50
176
     1
290
     0
176
     1
 90
       50
176
     1
 62
   256
176
     0
 40
1.0
176
     0
 90
        2
176
     1
  1
strokes_ogs.tif
176
     1
290
     0
176
     1
 40
1.0
176
     1
 40
1.0
176
     1
  0
VISUALSTYLE
  5
277
102
{ACAD_REACTORS
330
2A
102
}
330
2A
100
AcDbVisualStyle
  2
JitterOff
 70
    20
177
     3
291
     1
 70
    58
 90
        2
176
     0
 90
        2
176
     0
 90
        0
176
     0
 90
        0
176
     0
 40
0.6
176
     0
 40
30.0
176
     0
 62
     7
420
 16777215
176
     0
 90
        1
176
     0
 90
        4
176
     0
 62
     7
176
     0
 62
   257
176
     0
 90
        1
176
     0
 90
        1
176
     0
 40
1.0
176
     0
 90
       10
176
     2
 62
     7
176
     0
 40
1.0
176
     0
 90
        1
176
     0
 90
        6
176
     0
 90
        2
176
     0
 62
     7
176
     0
 90
        5
176
     0
 90
        0
176
     0
 90
        0
176
     0
290
     0
176
     0
 90
        1
176
     0
 40
0.0
176
     0
 90
        0
176
     0
290
     0
176
     1
290
     1
176
     1
290
     1
176
     1
290
     0
176
     1
290
     0
176
     1
290
     0
176
     1
290
     0
176
     1
290
     0
176
     1
290
     0
176
     1
 90
       50
176
     1
 40
0.0
176
     1
 40
1.0
176
     1
 90
        0
176
     1
 62
    18
420
        0
176
     1
 90
       50
176
     1
 90
        3
176
     1
 62
     5
420
      255
176
     1
290
     0
176
     1
 90
       50
176
     1
 90
       50
176
     1
 90
       50
176
     1
290
     0
176
     1
 90
       50
176
     1
 62
   256
176
     0
 40
1.0
176
     0
 90
        2
176
     1
  1
strokes_ogs.tif
176
     1
290
     0
176
     1
 40
1.0
176
     1
 40
1.0
176
     1
  0
VISUALSTYLE
  5
38
102
{ACAD_REACTORS
330
2A
102
}
330
2A
100
AcDbVisualStyle
  2
Linepattern
 70
    14
177
     3
291
     1
 70
    58
 90
        2
176
     1
 90
        2
176
     1
 90
        0
176
     1
 90
        0
176
     1
 40
0.6
176
     1
 40
30.0
176
     1
 62
     7
420
 16777215
176
     1
 90
        1
176
     1
 90
        4
176
     1
 62
     7
176
     1
 62
   257
176
     1
 90
        7
176
     1
 90
        7
176
     1
 40
1.0
176
     1
 90
        8
176
     1
 62
     7
176
     1
 40
1.0
176
     1
 90
        1
176
     1
 90
        6
176
     1
 90
        2
176
     1
 62
     7
176
     1
 90
        5
176
     1
 90
        0
176
     1
 90
        0
176
     1
290
     0
176
     1
 90
        1
176
     1
 40
0.0
176
     1
 90
        0
176
     1
290
     0
176
     1
290
     1
176
     1
290
     1
176
     1
290
     0
176
     1
290
     0
176
     1
290
     0
176
     1
290
     0
176
     1
290
     0
176
     1
290
     0
176
     1
 90
       50
176
     1
 40
0.0
176
     1
 40
1.0
176
     1
 90
        0
176
     1
 62
    18
420
        0
176
     1
 90
       50
176
     1
 90
        3
176
     1
 62
     5
420
      255
176
     1
290
     0
176
     1
 90
       50
176
     1
 90
       50
176
     1
 90
       50
176
     1
290
     0
176
     1
 90
       50
176
     1
 62
   256
176
     0
 40
1.0
176
     0
 90
        2
176
     1
  1
strokes_ogs.tif
176
     1
290
     0
176
     1
 40
1.0
176
     1
 40
1.0
176
     1
  0
VISUALSTYLE
  5
278
102
{ACAD_REACTORS
330
2A
102
}
330
2A
100
AcDbVisualStyle
  2
OverhangOff
 70
    21
177
     3
291
     1
 70
    58
 90
        2
176
     0
 90
        2
176
     0
 90
        0
176
     0
 90
        0
176
     0
 40
0.6
176
     0
 40
30.0
176
     0
 62
     7
420
 16777215
176
     0
 90
        1
176
     0
 90
        4
176
     0
 62
     7
176
     0
 62
   257
176
     0
 90
        1
176
     0
 90
        1
176
     0
 40
1.0
176
     0
 90
        9
176
     2
 62
     7
176
     0
 40
1.0
176
     0
 90
        1
176
     0
 90
        6
176
     0
 90
        2
176
     0
 62
     7
176
     0
 90
        5
176
     0
 90
        0
176
     0
 90
        0
176
     0
290
     0
176
     0
 90
        1
176
     0
 40
0.0
176
     0
 90
        0
176
     0
290
     0
176
     1
290
     1
176
     1
290
     1
176
     1
290
     0
176
     1
290
     0
176
     1
290
     0
176
     1
290
     0
176
     1
290
     0
176
     1
290
     0
176
     1
 90
       50
176
     1
 40
0.0
176
     1
 40
1.0
176
     1
 90
        0
176
     1
 62
    18
420
        0
176
     1
 90
       50
176
     1
 90
        3
176
     1
 62
     5
420
      255
176
     1
290
     0
176
     1
 90
       50
176
     1
 90
       50
176
     1
 90
       50
176
     1
290
     0
176
     1
 90
       50
176
     1
 62
   256
176
     0
 40
1.0
176
     0
 90
        2
176
     1
  1
strokes_ogs.tif
176
     1
290
     0
176
     1
 40
1.0
176
     1
 40
1.0
176
     1
  0
VISUALSTYLE
  5
33
102
{ACAD_REACTORS
330
2A
102
}
330
2A
100
AcDbVisualStyle
  2
Realistic
 70
     8
177
     3
291
     0
 70
    58
 90
        2
176
     1
 90
        2
176
     1
 90
        0
176
     1
 90
        0
176
     1
 40
0.6
176
     1
 40
30.0
176
     1
 62
     7
420
 16777215
176
     1
 90
        1
176
     1
 90
        0
176
     1
 62
     7
176
     1
 62
   257
176
     1
 90
        1
176
     1
 90
        1
176
     1
 40
1.0
176
     1
 90
        8
176
     1
 62
     8
420
  7895160
176
     1
 40
1.0
176
     1
 90
        1
176
     1
 90
        6
176
     1
 90
        2
176
     1
 62
     7
176
     1
 90
        5
176
     1
 90
        0
176
     1
 90
        0
176
     1
290
     0
176
     1
 90
       13
176
     1
 40
0.0
176
     1
 90
        0
176
     1
290
     0
176
     1
290
     1
176
     1
290
     1
176
     1
290
     0
176
     1
290
     0
176
     1
290
     0
176
     1
290
     0
176
     1
290
     0
176
     1
290
     0
176
     1
 90
       50
176
     1
 40
0.0
176
     1
 40
1.0
176
     1
 90
        0
176
     1
 62
    18
420
        0
176
     1
 90
       50
176
     1
 90
        3
176
     1
 62
     5
420
      255
176
     1
290
     0
176
     1
 90
       50
176
     1
 90
       50
176
     1
 90
       50
176
     1
290
     0
176
     1
 90
       50
176
     1
 62
   256
176
     0
 40
1.0
176
     0
 90
        2
176
     1
  1
strokes_ogs.tif
176
     1
290
     0
176
     1
 40
1.0
176
     1
 40
1.0
176
     1
  0
VISUALSTYLE
  5
38F
102
{ACAD_REACTORS
330
2A
102
}
330
2A
100
AcDbVisualStyle
  2
Shaded
 70
    27
177
     3
291
     0
 70
    58
 90
        2
176
     1
 90
        2
176
     1
 90
        1
176
     1
 90
        2
176
     1
 40
0.6
176
     1
 40
30.0
176
     1
 62
     7
420
 16777215
176
     1
 90
        0
176
     1
 90
        4
176
     1
 62
     7
176
     1
 62
   257
176
     1
 90
        1
176
     1
 90
        1
176
     1
 40
1.0
176
     1
 90
        8
176
     1
 62
   257
176
     1
 40
1.0
176
     1
 90
        1
176
     1
 90
        6
176
     1
 90
        2
176
     1
 62
     8
420
  7895160
176
     1
 90
        3
176
     1
 90
        0
176
     1
 90
        0
176
     1
290
     0
176
     1
 90
        5
176
     1
 40
0.0
176
     1
 90
        0
176
     1
290
     0
176
     1
290
     1
176
     1
290
     1
176
     1
290
     0
176
     1
290
     0
176
     1
290
     0
176
     1
290
     0
176
     1
290
     0
176
     1
290
     0
176
     1
 90
       50
176
     1
 40
0.0
176
     1
 40
1.0
176
     1
 90
        0
176
     1
 62
    18
420
        0
176
     1
 90
       50
176
     1
 90
        3
176
     1
 62
     5
420
      255
176
     1
290
     0
176
     1
 90
       50
176
     1
 90
       50
176
     1
 90
       50
176
     1
290
     0
176
     1
 90
       50
176
     1
 62
   256
176
     0
 40
1.0
176
     0
 90
        2
176
     1
  1
strokes_ogs.tif
176
     1
290
     0
176
     1
 40
1.0
176
     1
 40
1.0
176
     1
  0
VISUALSTYLE
  5
38E
102
{ACAD_REACTORS
330
2A
102
}
330
2A
100
AcDbVisualStyle
  2
Shaded with edges
 70
    26
177
     3
291
     0
 70
    58
 90
        2
176
     1
 90
        2
176
     1
 90
        1
176
     1
 90
        2
176
     1
 40
0.6
176
     1
 40
30.0
176
     1
 62
     7
420
 16777215
176
     1
 90
        1
176
     1
 90
        2
176
     1
 62
     7
176
     1
 62
   257
176
     1
 90
        2
176
     1
 90
        1
176
     1
 40
1.0
176
     1
 90
        8
176
     1
 62
   257
176
     1
 40
1.0
176
     1
 90
        1
176
     1
 90
        6
176
     1
 90
        2
176
     1
 62
     7
176
     1
 90
        3
176
     1
 90
        0
176
     1
 90
        0
176
     1
290
     0
176
     1
 90
        5
176
     1
 40
0.0
176
     1
 90
        0
176
     1
290
     0
176
     1
290
     1
176
     1
290
     1
176
     1
290
     0
176
     1
290
     0
176
     1
290
     0
176
     1
290
     0
176
     1
290
     0
176
     1
290
     0
176
     1
 90
       50
176
     1
 40
0.0
176
     1
 40
1.0
176
     1
 90
        0
176
     1
 62
    18
420
        0
176
     1
 90
       50
176
     1
 90
        3
176
     1
 62
     5
420
      255
176
     1
290
     0
176
     1
 90
       50
176
     1
 90
       50
176
     1
 90
       50
176
     1
290
     0
176
     1
 90
       50
176
     1
 62
   256
176
     0
 40
1.0
176
     0
 90
        2
176
     1
  1
strokes_ogs.tif
176
     1
290
     0
176
     1
 40
1.0
176
     1
 40
1.0
176
     1
  0
VISUALSTYLE
  5
38B
102
{ACAD_REACTORS
330
2A
102
}
330
2A
100
AcDbVisualStyle
  2
Shades of Gray
 70
    23
177
     3
291
     0
 70
    58
 90
        2
176
     1
 90
        2
176
     1
 90
        3
176
     1
 90
        0
176
     1
 40
0.6
176
     1
 40
30.0
176
     1
 62
     7
420
 16777215
176
     1
 90
        2
176
     1
 90
        2
176
     1
 62
     7
176
     1
 62
     7
176
     1
 90
        1
176
     1
 90
        1
176
     1
 40
40.0
176
     1
 90
        8
176
     1
 62
     7
176
     1
 40
1.0
176
     1
 90
        1
176
     1
 90
        6
176
     1
 90
        2
176
     1
 62
     7
176
     1
 90
        3
176
     1
 90
        0
176
     1
 90
        0
176
     1
290
     0
176
     1
 90
        1
176
     1
 40
0.0
176
     1
 90
        0
176
     1
290
     0
176
     1
290
     1
176
     1
290
     1
176
     1
290
     0
176
     1
290
     0
176
     1
290
     0
176
     1
290
     0
176
     1
290
     0
176
     1
290
     0
176
     1
 90
       50
176
     1
 40
0.0
176
     1
 40
1.0
176
     1
 90
        0
176
     1
 62
    18
420
        0
176
     1
 90
       50
176
     1
 90
        3
176
     1
 62
     5
420
      255
176
     1
290
     0
176
     1
 90
       50
176
     1
 90
       50
176
     1
 90
       50
176
     1
290
     0
176
     1
 90
       50
176
     1
 62
   256
176
     0
 40
1.0
176
     0
 90
        2
176
     1
  1
strokes_ogs.tif
176
     1
290
     0
176
     1
 40
1.0
176
     1
 40
1.0
176
     1
  0
VISUALSTYLE
  5
38C
102
{ACAD_REACTORS
330
2A
102
}
330
2A
100
AcDbVisualStyle
  2
Sketchy
 70
    24
177
     3
291
     0
 70
    58
 90
        1
176
     1
 90
        2
176
     1
 90
        2
176
     1
 90
        0
176
     1
 40
0.6
176
     1
 40
30.0
176
     1
 62
     7
420
 16777215
176
     1
 90
        2
176
     1
 90
        2
176
     1
 62
     7
176
     1
 62
     7
176
     1
 90
        1
176
     1
 90
        1
176
     1
 40
40.0
176
     1
 90
       11
176
     1
 62
     7
176
     1
 40
1.0
176
     1
 90
        1
176
     1
 90
        6
176
     1
 90
        2
176
     1
 62
     7
176
     1
 90
        6
176
     1
 90
        0
176
     1
 90
        0
176
     1
290
     0
176
     1
 90
        1
176
     1
 40
0.0
176
     1
 90
        0
176
     1
290
     0
176
     1
290
     1
176
     1
290
     1
176
     1
290
     0
176
     1
290
     0
176
     1
290
     0
176
     1
290
     0
176
     1
290
     0
176
     1
290
     0
176
     1
 90
       50
176
     1
 40
0.0
176
     1
 40
1.0
176
     1
 90
        0
176
     1
 62
    18
420
        0
176
     1
 90
       50
176
     1
 90
        3
176
     1
 62
     5
420
      255
176
     1
290
     0
176
     1
 90
       50
176
     1
 90
       50
176
     1
 90
       50
176
     1
290
     0
176
     1
 90
       50
176
     1
 62
   256
176
     0
 40
1.0
176
     0
 90
        2
176
     1
  1
strokes_ogs.tif
176
     1
290
     0
176
     1
 40
1.0
176
     1
 40
1.0
176
     1
  0
VISUALSTYLE
  5
37
102
{ACAD_REACTORS
330
2A
102
}
330
2A
100
AcDbVisualStyle
  2
Thicken
 70
    13
177
     3
291
     1
 70
    58
 90
        2
176
     1
 90
        2
176
     1
 90
        0
176
     1
 90
        0
176
     1
 40
0.6
176
     1
 40
30.0
176
     1
 62
     7
420
 16777215
176
     1
 90
        1
176
     1
 90
        4
176
     1
 62
     7
176
     1
 62
   257
176
     1
 90
        1
176
     1
 90
        1
176
     1
 40
1.0
176
     1
 90
       12
176
     1
 62
     7
176
     1
 40
1.0
176
     1
 90
        1
176
     1
 90
        6
176
     1
 90
        2
176
     1
 62
     7
176
     1
 90
        5
176
     1
 90
        0
176
     1
 90
        0
176
     1
290
     0
176
     1
 90
        1
176
     1
 40
0.0
176
     1
 90
        0
176
     1
290
     0
176
     1
290
     1
176
     1
290
     1
176
     1
290
     0
176
     1
290
     0
176
     1
290
     0
176
     1
290
     0
176
     1
290
     0
176
     1
290
     0
176
     1
 90
       50
176
     1
 40
0.0
176
     1
 40
1.0
176
     1
 90
        0
176
     1
 62
    18
420
        0
176
     1
 90
       50
176
     1
 90
        3
176
     1
 62
     5
420
      255
176
     1
290
     0
176
     1
 90
       50
176
     1
 90
       50
176
     1
 90
       50
176
     1
290
     0
176
     1
 90
       50
176
     1
 62
   256
176
     0
 40
1.0
176
     0
 90
        2
176
     1
  1
strokes_ogs.tif
176
     1
290
     0
176
     1
 40
1.0
176
     1
 40
1.0
176
     1
  0
VISUALSTYLE
  5
389
102
{ACAD_REACTORS
330
2A
102
}
330
2A
100
AcDbVisualStyle
  2
Wireframe
 70
     5
177
     3
291
     0
 70
    58
 90
        0
176
     1
 90
        2
176
     1
 90
        0
176
     1
 90
        0
176
     1
 40
0.6
176
     1
 40
30.0
176
     1
 62
     7
420
 16777215
176
     1
 90
        1
176
     1
 90
        4
176
     1
 62
     7
176
     1
 62
   257
176
     1
 90
        1
176
     1
 90
        1
176
     1
 40
1.0
176
     1
 90
        0
176
     1
 62
   257
176
     1
 40
1.0
176
     1
 90
        1
176
     1
 90
        6
176
     1
 90
        2
176
     1
 62
     7
176
     1
 90
        3
176
     1
 90
        0
176
     1
 90
        0
176
     1
290
     0
176
     1
 90
        1
176
     1
 40
0.0
176
     1
 90
        0
176
     1
290
     0
176
     1
290
     1
176
     1
290
     1
176
     1
290
     0
176
     1
290
     0
176
     1
290
     0
176
     1
290
     0
176
     1
290
     0
176
     1
290
     0
176
     1
 90
       50
176
     1
 40
0.0
176
     1
 40
1.0
176
     1
 90
        0
176
     1
 62
    18
420
        0
176
     1
 90
       50
176
     1
 90
        3
176
     1
 62
     5
420
      255
176
     1
290
     0
176
     1
 90
       50
176
     1
 90
       50
176
     1
 90
       50
176
     1
290
     0
176
     1
 90
       50
176
     1
 62
   256
176
     0
 40
1.0
176
     0
 90
        2
176
     1
  1
strokes_ogs.tif
176
     1
290
     0
176
     1
 40
1.0
176
     1
 40
1.0
176
     1
  0
VISUALSTYLE
  5
38D
102
{ACAD_REACTORS
330
2A
102
}
330
2A
100
AcDbVisualStyle
  2
X-Ray
 70
    25
177
     3
291
     0
 70
    58
 90
        2
176
     1
 90
        2
176
     1
 90
        1
176
     1
 90
        1
176
     1
 40
0.5
176
     1
 40
30.0
176
     1
 62
     7
420
 16777215
176
     1
 90
        1
176
     1
 90
        0
176
     1
 62
     7
176
     1
 62
   257
176
     1
 90
        1
176
     1
 90
        1
176
     1
 40
1.0
176
     1
 90
        8
176
     1
 62
     7
176
     1
 40
1.0
176
     1
 90
        1
176
     1
 90
        6
176
     1
 90
        2
176
     1
 62
     7
176
     1
 90
        3
176
     1
 90
        0
176
     1
 90
        0
176
     1
290
     0
176
     1
 90
       13
176
     1
 40
0.0
176
     1
 90
        0
176
     1
290
     0
176
     1
290
     1
176
     1
290
     1
176
     1
290
     0
176
     1
290
     0
176
     1
290
     0
176
     1
290
     0
176
     1
290
     0
176
     1
290
     0
176
     1
 90
       50
176
     1
 40
0.0
176
     1
 40
1.0
176
     1
 90
        0
176
     1
 62
    18
420
        0
176
     1
 90
       50
176
     1
 90
        3
176
     1
 62
     5
420
      255
176
     1
290
     0
176
     1
 90
       50
176
     1
 90
       50
176
     1
 90
       50
176
     1
290
     0
176
     1
 90
       50
176
     1
 62
   256
176
     0
 40
1.0
176
     0
 90
        2
176
     1
  1
strokes_ogs.tif
176
     1
290
     0
176
     1
 40
1.0
176
     1
 40
1.0
176
     1
  0
DICTIONARYVAR
  5
362
102
{ACAD_REACTORS
330
35E
102
}
330
35E
100
DictionaryVariables
280
     0
  1
1:1
  0
DICTIONARYVAR
  5
360
102
{ACAD_REACTORS
330
35E
102
}
330
35E
100
DictionaryVariables
280
     0
  1
STANDARD
  0
DICTIONARYVAR
  5
35F
102
{ACAD_REACTORS
330
35E
102
}
330
35E
100
DictionaryVariables
280
     0
  1
STANDARD
  0
DICTIONARYVAR
  5
72A
102
{ACAD_REACTORS
330
35E
102
}
330
35E
100
DictionaryVariables
280
     0
  1
Imperial24
  0
DICTIONARYVAR
  5
72B
102
{ACAD_REACTORS
330
35E
102
}
330
35E
100
DictionaryVariables
280
     0
  1
Imperial24
  0
DICTIONARYVAR
  5
364
102
{ACAD_REACTORS
330
35E
102
}
330
35E
100
DictionaryVariables
280
     0
  1
1
  0
DICTIONARYVAR
  5
365
102
{ACAD_REACTORS
330
35E
102
}
330
35E
100
DictionaryVariables
280
     0
  1
15
  0
DICTIONARYVAR
  5
363
102
{ACAD_REACTORS
330
35E
102
}
330
35E
100
DictionaryVariables
280
     0
  1
0
  0
DICTIONARYVAR
  5
361
102
{ACAD_REACTORS
330
35E
102
}
330
35E
100
DictionaryVariables
280
     0
  1
0
  0
ACAD_PROXY_OBJECT
  5
2FF
102
{ACAD_REACTORS
330
2FE
102
}
330
2FE
100
AcDbProxyObject
 90
      499
 91
      546
 71
    29
 97
      226
 70
     0
162
                 0
161
                84
310
90100057356C1DB7406AAC
 94
        0
  0
DICTIONARY
  5
30A
102
{ACAD_REACTORS
330
2FE
102
}
330
2FE
100
AcDbDictionary
281
     1
  3
ANSI
350
30B
  0
ACAD_PROXY_OBJECT
  5
2AE
330
0
100
AcDbProxyObject
 90
      499
 91
      511
 71
    29
 97
      226
 70
     0
162
               234
311
43904010C01340114014C016401340108013C0130014C01240168011400C
161
                34
310
000101420C
330
2AB
 94
        0
  0
ACAD_PROXY_OBJECT
  5
2B0
330
0
100
AcDbProxyObject
 90
      499
 91
      513
 71
    29
 97
      226
 70
     0
162
                74
311
41108013C013400C400C
161
                46
310
00010100AC00
330
2AB
330
0
330
0
 94
        0
  0
ACAD_PROXY_OBJECT
  5
2B4
330
0
100
AcDbProxyObject
 90
      499
 91
      517
 71
    29
 97
      226
 70
     0
162
               562
311
41190018401D001940109310034002E0030002E00340038002E00300041190018401D001940109310034002E0030002E00340038002E003000419040138014C012400CC00C400C
161
                92
310
00010101010140501000096C
330
2AB
330
2B5
330
2BB
 94
        0
  0
ACAD_PROXY_OBJECT
  5
2B5
330
0
100
AcDbProxyObject
 90
      499
 91
      518
 71
    29
 97
      226
 70
     0
162
                 0
161
                56
310
00019024220000FF
330
2AB
330
2B6
330
2B8
 94
        0
  0
ACAD_PROXY_OBJECT
  5
2B6
330
0
100
AcDbProxyObject
 90
      499
 91
      519
 71
    29
 97
      226
 70
     0
162
                 0
161
                48
310
0001AA00000035
330
2AB
330
1E
330
2B7
330
0
 94
        0
  0
ACAD_PROXY_OBJECT
  5
2B7
330
0
100
AcDbProxyObject
 90
      499
 91
      520
 71
    29
 97
      226
 70
     0
162
                 0
161
                28
310
0001AAAC
330
2AB
 94
        0
  0
ACAD_PROXY_OBJECT
  5
2B8
330
0
100
AcDbProxyObject
 90
      499
 91
      519
 71
    29
 97
      226
 70
     0
162
                 0
161
                48
310
0001AA00000031
330
2AB
330
26
330
2B9
330
0
 94
        0
  0
ACAD_PROXY_OBJECT
  5
2B9
330
0
100
AcDbProxyObject
 90
      499
 91
      520
 71
    29
 97
      226
 70
     0
162
                 0
161
                28
310
0001AAAC
330
2AB
 94
        0
  0
ACAD_PROXY_OBJECT
  5
2BC
330
0
100
AcDbProxyObject
 90
      499
 91
      511
 71
    29
 97
      226
 70
     0
162
               138
311
42104013401200130010C01040130010C00C
161
                34
310
000101404C
330
2AB
 94
        0
  0
ACAD_PROXY_OBJECT
  5
2BD
330
0
100
AcDbProxyObject
 90
      499
 91
      511
 71
    29
 97
      226
 70
     0
162
               170
311
429040134014801140154014C011401100124013400C
161
                34
310
000101404C
330
2AB
 94
        0
  0
ACAD_PROXY_OBJECT
  5
2BE
330
0
100
AcDbProxyObject
 90
      499
 91
      511
 71
    29
 97
      226
 70
     0
162
               202
311
431040134014C0114010C01500124013C013801100124013400C
161
                26
310
0001018C
330
2AB
 94
        0
  0
ACAD_PROXY_OBJECT
  5
2BF
330
0
100
AcDbProxyObject
 90
      499
 91
      511
 71
    29
 97
      226
 70
     0
162
               170
311
429040134015801400108013C014801100114014800C
161
                34
310
000101404C
330
2AB
 94
        0
  0
ACAD_PROXY_OBJECT
  5
2C0
330
0
100
AcDbProxyObject
 90
      499
 91
      511
 71
    29
 97
      226
 70
     0
162
               170
311
4290401340110015C011C010C013C0130013C014800C
161
                26
310
0001018C
330
2AB
 94
        0
  0
ACAD_PROXY_OBJECT
  5
2C1
330
0
100
AcDbProxyObject
 90
      499
 91
      511
 71
    29
 97
      226
 70
     0
162
               218
311
435040134015801240114015C01480114011801480114014C012000C
161
                34
310
000101404C
330
2AB
 94
        0
  0
ACAD_PROXY_OBJECT
  5
2C2
330
0
100
AcDbProxyObject
 90
      499
 91
      511
 71
    29
 97
      226
 70
     0
162
               266
311
441040134010401380138013C01500114014001480114014C011401480158011400C
161
                34
310
000101404C
330
2AB
 94
        0
  0
ACAD_PROXY_OBJECT
  5
2C3
330
0
100
AcDbProxyObject
 90
      499
 91
      511
 71
    29
 97
      226
 70
     0
162
               266
311
441040134010401540150013C01100124013401040148014801040138011C011400C
161
                34
310
000101404C
330
2AB
 94
        0
  0
ACAD_PROXY_OBJECT
  5
2C4
330
0
100
AcDbProxyObject
 90
      499
 91
      511
 71
    29
 97
      226
 70
     0
162
               186
311
42D04013401140160015001480114011801100124013400C
161
                26
310
0001018C
330
2AB
 94
        0
  0
ACAD_PROXY_OBJECT
  5
2C5
330
0
100
AcDbProxyObject
 90
      499
 91
      511
 71
    29
 97
      226
 70
     0
162
               186
311
42D040134015001040140010401380138013C0150011400C
161
                34
310
000101404C
330
2AB
 94
        0
  0
ACAD_PROXY_OBJECT
  5
2C6
330
0
100
AcDbProxyObject
 90
      499
 91
      511
 71
    29
 97
      226
 70
     0
162
               138
311
421040134010401540150013C010C013000C
161
                34
310
000101404C
330
2AB
 94
        0
  0
ACAD_PROXY_OBJECT
  5
2C7
330
0
100
AcDbProxyObject
 90
      499
 91
      511
 71
    29
 97
      226
 70
     0
162
               138
311
421040134010C0130011801140104015000C
161
                34
310
000101414C
330
2AB
 94
        0
  0
ACAD_PROXY_OBJECT
  5
2C8
330
0
100
AcDbProxyObject
 90
      499
 91
      511
 71
    29
 97
      226
 70
     0
162
               138
311
421040134010C0130015801240114015C00C
161
                34
310
0001014FCC
330
2AB
 94
        0
  0
ACAD_PROXY_OBJECT
  5
2C9
330
0
100
AcDbProxyObject
 90
      499
 91
      511
 71
    29
 97
      226
 70
     0
162
               218
311
4350401340120012401100114016801140148013C01100124013400C
161
                34
310
000101404C
330
2AB
 94
        0
  0
ACAD_PROXY_OBJECT
  5
2CA
330
0
100
AcDbProxyObject
 90
      499
 91
      511
 71
    29
 97
      226
 70
     0
162
               170
311
429040134012001040150010C01200124014C013C00C
161
                34
310
000101404C
330
2AB
 94
        0
  0
ACAD_PROXY_OBJECT
  5
2CB
330
0
100
AcDbProxyObject
 90
      499
 91
      511
 71
    29
 97
      226
 70
     0
162
               234
311
439040134014C01240138011C0130011401200104015001300104016400C
161
                26
310
0001018C
330
2AB
 94
        0
  0
ACAD_PROXY_OBJECT
  5
2CC
330
0
100
AcDbProxyObject
 90
      499
 91
      511
 71
    29
 97
      226
 70
     0
162
               186
311
42D0401340110015C011C0118013001100124014C014000C
161
                26
310
0001018C
330
2AB
 94
        0
  0
ACAD_PROXY_OBJECT
  5
2CD
330
0
100
AcDbProxyObject
 90
      499
 91
      511
 71
    29
 97
      226
 70
     0
162
               138
311
421040134010401540150013C0120013800C
161
                26
310
0001018C
330
2AB
 94
        0
  0
ACAD_PROXY_OBJECT
  5
2CE
330
0
100
AcDbProxyObject
 90
      499
 91
      511
 71
    29
 97
      226
 70
     0
162
               154
311
42504013401200138010C013C01540138015000C
161
                34
310
000101404C
330
2AB
 94
        0
  0
ACAD_PROXY_OBJECT
  5
2CF
330
0
100
AcDbProxyObject
 90
      499
 91
      511
 71
    29
 97
      226
 70
     0
162
               138
311
4210401340120013801400148013C012800C
161
                34
310
000101404C
330
2AB
 94
        0
  0
ACAD_PROXY_OBJECT
  5
2D0
330
0
100
AcDbProxyObject
 90
      499
 91
      511
 71
    29
 97
      226
 70
     0
162
               138
311
42104013401200138015001640140011400C
161
                34
310
00010141CC
330
2AB
 94
        0
  0
ACAD_PROXY_OBJECT
  5
2D1
330
0
100
AcDbProxyObject
 90
      499
 91
      511
 71
    29
 97
      226
 70
     0
162
               138
311
42104013401200138015801240114015C00C
161
                34
310
00010143CC
330
2AB
 94
        0
  0
ACAD_PROXY_OBJECT
  5
2D2
330
0
100
AcDbProxyObject
 90
      499
 91
      511
 71
    29
 97
      226
 70
     0
162
               218
311
435040134014C0114010C01500124013C0138010C013C0140016400C
161
                26
310
0001018C
330
2AB
 94
        0
  0
ACAD_PROXY_OBJECT
  5
2D3
330
0
100
AcDbProxyObject
 90
      499
 91
      511
 71
    29
 97
      226
 70
     0
162
               138
311
421040134010C013001400148013C012800C
161
                34
310
00010140CC
330
2AB
 94
        0
  0
ACAD_PROXY_OBJECT
  5
2D4
330
0
100
AcDbProxyObject
 90
      499
 91
      522
 71
    29
 97
      226
 70
     0
162
               234
311
439040134010401540150013C012001040150010C01200148013C015000C
161
                90
310
0001010000000000000B900C
330
2AB
 94
        0
  0
ACAD_PROXY_OBJECT
  5
2D5
330
0
100
AcDbProxyObject
 90
      499
 91
      511
 71
    29
 97
      226
 70
     0
162
               234
311
439040134010401540150013C012001040150010C012001100114015000C
161
                34
310
000101404C
330
2AB
 94
        0
  0
ACAD_PROXY_OBJECT
  5
2E4
330
0
100
AcDbProxyObject
 90
      499
 91
      531
 71
    29
 97
      226
 70
     0
162
               212
311
421040134010C01540148014C01500110010441004E0053004900C
161
                32
310
0001010100
330
2AB
 94
        0
  0
ACAD_PROXY_OBJECT
  5
2E6
330
0
100
AcDbProxyObject
 90
      499
 91
      533
 71
    29
 97
      226
 70
     0
162
              1192
311
4795C019401900080012801D401B8008000C400E4008000C000D400E800D000D400E800D400D0008000C800C000C400CC008000A001540150010C00A40109310034002E0030002E00340038002E0030004615C019401900080012801D401B8008000C400E4008000C400D400E800D000D800E800C400CC008000C800C000C4
311
00CC0109310034002E0030002E00340038002E00300000
161
               114
310
0001000000009AA6A9AA404040404C
330
2AB
330
2E7
330
2E8
330
2EA
330
0
 94
        0
  0
ACAD_PROXY_OBJECT
  5
2E7
330
0
100
AcDbProxyObject
 90
      499
 91
      534
 71
    29
 97
      226
 70
     0
162
                 0
161
                70
310
0001AAA80820000000
330
2AB
330
2E7
330
2E7
 94
        0
  0
ACAD_PROXY_OBJECT
  5
2E8
330
0
100
AcDbProxyObject
 90
      499
 91
      535
 71
    29
 97
      226
 70
     0
162
                 0
161
                48
310
0001000000004A
330
2AB
330
0
330
2E9
330
0
330
0
 94
        0
  0
ACAD_PROXY_OBJECT
  5
2E9
330
0
100
AcDbProxyObject
 90
      499
 91
      536
 71
    29
 97
      226
 70
     0
162
                 0
161
                40
310
000100AAAA80
330
2AB
330
0
 94
        0
  0
ACAD_PROXY_OBJECT
  5
2EF
330
0
100
AcDbProxyObject
 90
      499
 91
      531
 71
    29
 97
      226
 70
     0
162
               276
311
431040104010C013C01340140011001180138010401340114010443004F004D005000C
161
                32
310
0001010100
330
2AB
 94
        0
  0
ACAD_PROXY_OBJECT
  5
2F0
330
0
100
AcDbProxyObject
 90
      499
 91
      531
 71
    29
 97
      226
 70
     0
162
               340
311
4390401040118013C0130011001140148011001180138010401340114010646006F006C00640065007200C
161
                32
310
0001010100
330
2AB
 94
        0
  0
ACAD_PROXY_OBJECT
  5
2F1
330
0
100
AcDbProxyObject
 90
      499
 91
      531
 71
    29
 97
      226
 70
     0
162
               260
311
431040104010401380138013C01100118013801040134011401035F0041005600C
161
                32
310
0001010100
330
2AB
 94
        0
  0
ACAD_PROXY_OBJECT
  5
2F2
330
0
100
AcDbProxyObject
 90
      499
 91
      531
 71
    29
 97
      226
 70
     0
162
               756
311
439040104010C013C01340140015801240114015C01300124014C0150012054006F0070000A00460072006F006E0074000A00520069006700680074000A004C006500660074000A0042006F00740074006F006D000A004100750078003100C
161
                32
310
0001010100
330
2AB
 94
        0
  0
ACAD_PROXY_OBJECT
  5
2F3
330
0
100
AcDbProxyObject
 90
      499
 91
      511
 71
    29
 97
      226
 70
     0
162
               234
311
439040134014C014C0150014801040130015C01040164014C013C013800C
161
                26
310
0001018C
330
2AB
 94
        0
  0
ACAD_PROXY_OBJECT
  5
2F8
330
0
100
AcDbProxyObject
 90
      499
 91
      541
 71
    29
 97
      226
 70
     0
162
                 0
161
                32
310
0001000000
330
2AB
340
2F5
330
2F9
330
2F5
 94
        0
  0
ACAD_PROXY_OBJECT
  5
2F9
330
0
100
AcDbProxyObject
 90
      499
 91
      542
 71
    29
 97
      226
 70
     0
162
               170
311
4293C0130010801040080014801040138011C011400C
161
                80
310
00010141401550055400FF
330
2AB
330
2F8
330
0
 94
        0
  0
ACAD_PROXY_OBJECT
  5
2FA
330
0
100
AcDbProxyObject
 90
      499
 91
      543
 71
    29
 97
      226
 70
     0
162
                 0
161
               178
310
000100AAAAAAB3E7399631AD0313A0481D86EE236F76CC
330
2AB
330
2F9
 94
        0
  0
ACAD_PROXY_OBJECT
  5
2FB
330
0
100
AcDbProxyObject
 90
      499
 91
      544
 71
    29
 97
      226
 70
     0
162
                 0
161
               108
310
0001901422000000000000AAAAAC
330
2AB
330
2FC
330
2FC
330
2FC
330
2FC
330
2FC
330
0
 94
        0
  0
ACAD_PROXY_OBJECT
  5
2FC
330
0
100
AcDbProxyObject
 90
      499
 91
      545
 71
    29
 97
      226
 70
     0
162
                 0
161
                51
310
00010000AAAA8C
330
2AB
330
2FB
330
2F9
 94
        0
  0
DICTIONARY
  5
2A5
102
{ACAD_REACTORS
330
2A4
102
}
330
2A4
100
AcDbDictionary
281
     1
  3
DWGSETTINGS
350
2A6
  3
TRANSSETTINGS
350
2A7
  0
ACAD_PROXY_OBJECT
  5
31E
102
{ACAD_REACTORS
330
2A4
102
}
330
2A4
100
AcDbProxyObject
 90
      499
 91
      570
 71
    29
 97
      226
 70
     0
162
             15824
311
404C0010441004D005F0030009013100411040134017C00C402404C8010441004D005F0032009013300411040134017C00CC02404D0010441004D005F0034009013500411040134017C00D402404D8010441004D005F0036009013700411040134017C00DC02404E0010441004D005F0038009013900411040134017C00E40
311
2408C80104010541004D005F003100300090234004100415040134017C00C400C402409240140010541004D005F003100320090230004E00415040134017C00C0013802408C40138010541004D005F0031004E0090232004E00415040134017C00C8013802408CC0138010541004D005F0033004E0090234004E0041504013
311
4017C00D0013802408D40138010541004D005F0035004E0090236004E00415040134017C00D8013802408DC0138010541004D005F0037004E0090238004E00415040134017C00E0013802408E40138010541004D005F0039004E00903320041004E00419040134017C00C400C001380240CD001040138010641004D005F003
311
10031004E00903490050004E00419040134017C00C400C80138024112C013001240138010541004D005F0043004C0090449004E0046004F00421040134017C01400104014801140118024154801040120013400D4010641004D005F0042004F0052009045600490045005700421040134017C015801240114015C014C02419
311
0801140120012401380110010641004D005F0049004E00560090554005200410049004C00415040134017C015001480240D2001240110010641004D005F00480049004400903560049005300419040134017C01580124014C024194001040148011001240134010941004D005F00500041005200440049004D009065200450
311
04600440049004D00425040134017C01480114011801100124013402411080120013801580101390041508012001380158014C010642004500480049004E00440041108013C014800C801055200410048004D00350041108013C014800CC01055200410048004D00350041108013C014800D401055200410048004D0035004
311
110C0104013000C8010134004110C0104013000CC010134004110C0104013000D4010134004110C0104013000DC010134004110C011401380138010137004110C01140138015C010137004110C01300124013801044B004C0049004E004110C013C013800C4010130004110C013C013800C8010131004110C013C013800CC0
311
10132004110C013C013800D00101320041110011401500104010134004111001240104011C010135004111001240130012401013500411100124013401400106500041005200440049004D00411100124013401480106520045004600440049004D00411180114013401380101380041518011401340140013801013800415
311
1801140134014C01400102340041004151801140134014C015001023400410041518011401340158013801013200415180114013401580150010132004112001040150010C0101380041120012401100138010133004112001240110015C01013300411200130012401380101340041120013C010C01380101370041120013
311
C010C015C010137004112401380118013C010449004E0046004F00411300114010401100101350041938017C0108012001380158010239004E0041938017C010C013C013800C4010230004E0041938017C010C013C013800C8010231004E0041938017C010C013C013800CC010232004E0041938017C010C013C013800D001
311
0232004E0041938017C010C011401380138010237004E0041938017C010C01140138015C010237004E0041938017C0110012401300124010235004E0041938017C012001040150010C010238004E0041938017C0120012401100138010233004E0041938017C012001240110015C010233004E0041938017C0130011401040
311
110010235004E0041938017C0138011C012401400103490050004E0041938017C01400120010401380103340041004E0041938017C0150010C013C0138010230004E0041938017C0150012001300124010234004E0041938017C0150013001140138010230004E0041938017C01580140013001240103320041004E0041138
311
011C01240140010249005000411400104013000C801055200410048004D003500411400104013000CC01055200410048004D003500411400104013000D401055200410048004D0035004114001200104013801023400410041140013C014C01380101350041148010C011C01380101370041148010C011C015C01013700411
311
4C01080148012C010134004114C0114010C0150010134004114C0164010800CC0101350041134014C016401340101350041150010C013C0138010130004115001200130012401013400411500124015000C801055200410048004D003500411500124015000CC01055200410048004D003500411500124015000D401055200
311
410048004D0035004115001300114013801013000415500148010401240130010554005200410049004C004115001480130012401013400411500160015000C401013600411500160015000C801013600411500160015000CC01013600411500160015000D401013600411500160015000DC010136004115801240114015C0
311
1045600490045005700411580114011001200103480049004400411580114011001580103560049005300411580140013001240102320041004116801240168010401013400404FC020D
161
              8940
310
4210349201C00030C011E44203800030C011E44201400030C011E44201800030C010FA17000030C010FA17000030C010FA23000030C011EA23800030C010FA00400030C010FA3F400030C0241201C00030C011EA17000030C010FA01C00030C011E40A01C00030C011EA03800030C011EA01400030C011EA01800030C010FA
310
17000030C010FA17000030C010FA23000030C011EA23800030C010FA00400030C010FA3F400030C0241201C00030C011EA17000030C010FA01C00030C011E40A00400030C010F42623800030C010F42E01C00030C011E42600400030C010F42E3F400030C0243617000030C010F42601C00030C010F42601C00030C011E426
310
17000030C010F42623800030C010F425538000000C0003FFFFFFFE8000000C0003FFFFFFFE8010000C30043E88C0000C30047A8000000C0003FFFFFFFE8000000C0003FFFFFFFE88C0000C30047A8070000C30047A81E0000C3004F28000000C0003FFFFFFFE8000000C0003FFFFFFFE8000000C0003FFFFFFFE8000000C00
310
03FFFFFFFD038000000C0003FFFFFFFD038000000C0003FFFFFFFD038000000C0003FFFFFFFD038000000C0003FFFFFFFE8000000C0003FFFFFFFE8000000C0003FFFFFFFE8000000C0003FFFFFFFE8000000C0003FFFFFFFE8000000C0003FFFFFFFE85C0000C3003FFFFFFFE8000000C0003FFFFFFFE85C0000C30043E80
310
00000C0003FFFFFFFE85C0000C30043E8000000C0003FFFFFFFD018000000C0003FFFFFFFD038000000C0003FFFFFFFD038000000C0003FFFFFFFD018000000C0003FFFFFFFE8000000C0003FFFFFFFE8000000C0003FFFFFFFE8000000C0003FFFFFFFE8000000C0003FFFFFFFE8000000C0003FFFFFFFD038000000C0003
310
FFFFFFFD038000000C0003FFFFFFFD038000000C0003FFFFFFFD038000000C0003FFFFFFFE8000000C0003FFFFFFFE8000000C0003FFFFFFFE8000000C0003FFFFFFFD018000000C0003FFFFFFFD038000000C0003FFFFFFFD038000000C0003FFFFFFFE8000000C0003FFFFFFFE8000000C0003FFFFFFFE8000000C0003FF
310
FFFFFD038000000C0003FFFFFFFD018000000C0003FFFFFFFD038000000C0003FFFFFFFE8000000C0003FFFFFFFE8010000C3003FFFFFFFE88C0000C3003FFFFFFFE8070000C3003FFFFFFFE8000000C0003FFFFFFFE8000000C0003FFFFFFFE8000000C0003FFFFFFFE8000000C0003FFFFFFFE8070000C30047901800000
310
0C0003FFFFFFFD0188C0000C30047A88C0000C3003FFFFFFFE8000000C0003FFFFFFFD038000000C0003FFFFFFFD018010000C30043E88C0000C30047A8000000C0003FFFFFFFE8000000C0003FFFFFFFD038000000C0003FFFFFFFE8000000C0003FFFFFFFD0185C0000C30043E85C0000C30043E8000000C0003FFFFFFFE
310
8070000C30047A81E0000C3004F28000000C0003FFFFFFFE8000000C0003FFFFFFFD028000000C0003FFFFFFFD028000000C0003FFFFFFFE8000000C0003FFFFFFFD01AAA3F400030C010A4391E41D1E4190F4151E4110F40D0F4091E4050F4793C7F680200C
340
16
340
16
340
16
340
2D6
340
16
340
16
340
16
340
2D8
340
16
340
16
340
2D7
340
2D7
340
16
340
16
340
16
340
16
340
2D6
340
16
340
16
340
16
340
2D8
340
16
340
16
340
2D7
340
2D7
340
16
340
322
340
16
340
16
340
16
340
16
340
16
340
2D6
340
16
340
16
340
16
340
15
340
15
340
15
340
15
340
15
340
15
340
15
340
15
340
15
340
328
340
15
340
15
340
15
340
15
340
15
340
15
340
16
340
15
340
15
340
15
340
15
340
15
340
15
340
16
340
15
340
15
340
15
340
15
340
329
340
15
340
15
340
328
340
15
340
15
340
15
340
15
340
15
340
15
340
15
340
15
340
328
340
15
340
15
340
15
340
329
340
15
340
15
340
15
340
15
340
15
340
329
340
15
340
15
340
15
340
16
340
16
340
16
340
15
340
15
340
328
340
15
340
15
340
15
340
15
340
15
340
15
340
329
340
15
340
15
340
15
340
15
340
15
340
15
340
15
340
15
340
15
340
15
340
15
340
15
340
15
340
15
340
15
340
32A
 94
        0
  0
ACAD_PROXY_OBJECT
  5
345
102
{ACAD_REACTORS
330
340
102
}
330
340
100
AcDbProxyObject
 90
      499
 91
      574
 71
    29
 97
      226
 70
     0
162
               434
311
451100124013401140138014C0124013C013800B00104013401100150017C00A8017C01100124013401012A00404A801012A00404A800C
161
                11
310
43EC
 94
        0
  0
ACAD_PROXY_OBJECT
  5
344
102
{ACAD_REACTORS
330
340
102
}
330
340
100
AcDbProxyObject
 90
      499
 91
      574
 71
    29
 97
      226
 70
     0
162
               290
311
404A8010B41004D005F004600450041002D0041004D005F002A00404A801012A00404A800C
161
                11
310
43EC
 94
        0
  0
ACAD_PROXY_OBJECT
  5
341
102
{ACAD_REACTORS
330
340
102
}
330
340
100
AcDbProxyObject
 90
      499
 91
      574
 71
    29
 97
      226
 70
     0
162
               194
311
4152001040150010C012001012A00404A801012A00404A800C
161
                11
310
43EC
 94
        0
  0
ACAD_PROXY_OBJECT
  5
342
102
{ACAD_REACTORS
330
340
102
}
330
340
100
AcDbProxyObject
 90
      499
 91
      574
 71
    29
 97
      226
 70
     0
162
              1026
311
41130012401380114012738002C0038004E002C002A002D0038002C002A002D0038004E002C0041004D005F0038002C0041004D005F0038004E002C002A002D0041004D005F0038002C002A002D0041004D005F0038004E00404A801012A00441240138014C01140148015000B0014C01500110014001040148015000C8011
311
000C
161
                11
310
43EC
 94
        0
  0
ACAD_PROXY_OBJECT
  5
346
102
{ACAD_REACTORS
330
340
102
}
330
340
100
AcDbProxyObject
 90
      499
 91
      574
 71
    29
 97
      226
 70
     0
162
               290
311
40D040148010C010441004D005F003500404A801013200419240138014C01140148015000C
161
                11
310
43CC
 94
        0
  0
ACAD_PROXY_OBJECT
  5
343
102
{ACAD_REACTORS
330
340
102
}
330
340
100
AcDbProxyObject
 90
      499
 91
      574
 71
    29
 97
      226
 70
     0
162
              2242
311
61504010C01340118010C0118014801040134011400B00104010C013401100104015001540134015001040148011C0114015000B00104010C0134011001040150015401340124011000B00104010C0134015C011401300110014C0164013400B00104010C0134014C015401480118014C0164013400B00104010C013401180
311
114010401500124011000B00104010C0134014001040148015001480114011800B00104010C01340108010401300130013C013C013800B0010401340110015001140110011C0114014C0164013400B001040134011C014C010C01480114015C010C01040130010C0150010401080130011400B00104010C013401340104014
311
8012C014C015001040134014001012A00404A801012A00404A800C
161
                11
310
43EC
 94
        0
  0
DICTIONARY
  5
35C
330
22
100
AcDbDictionary
280
     1
281
     1
  0
DICTIONARY
  5
268
330
267
100
AcDbDictionary
280
     1
281
     1
  3
BUMPTILE
360
26A
  3
DIFFUSETILE
360
269
  3
OPACITYTILE
360
26D
  3
REFLECTIONTILE
360
26C
  3
REFRACTIONTILE
360
26E
  3
SPECULARTILE
360
26B
  0
DICTIONARY
  5
260
330
25F
100
AcDbDictionary
280
     1
281
     1
  3
BUMPTILE
360
262
  3
DIFFUSETILE
360
261
  3
OPACITYTILE
360
265
  3
REFLECTIONTILE
360
264
  3
REFRACTIONTILE
360
266
  3
SPECULARTILE
360
263
  0
DICTIONARY
  5
270
330
26F
100
AcDbDictionary
280
     1
281
     1
  3
BUMPTILE
360
272
  3
DIFFUSETILE
360
271
  3
OPACITYTILE
360
275
  3
REFLECTIONTILE
360
274
  3
REFRACTIONTILE
360
276
  3
SPECULARTILE
360
273
  0
DICTIONARY
  5
7A4
330
27B
100
AcDbDictionary
280
     1
281
     1
  3
ACAD_ROUNDTRIP_2008_TABLESTYLE_CELLSTYLEMAP
360
7A5
  0
ACAD_PROXY_OBJECT
  5
30B
102
{ACAD_REACTORS
330
30A
102
}
330
30A
100
AcDbProxyObject
 90
      499
 91
      554
 71
    29
 97
      226
 70
     0
162
              3734
311
411040138014C01240243904018C01B4014C01D401C801980150019401E001D0014C01D001900109410063006D0046004300460053007400640043504018C01B4015C019401B0019001A401B8019C014C01D001900108410063006D004900640053007400640042D04018C01B40110018401D001D401B4014C01D001900109
311
410063006D0042004F004D005300740064004410401B4019001D00110019401D0018401A401B0014C01E401B4014C01D00190011141006D0064007400530065006300740069006F006E00530079006D005300740064004450401B4019001D0010C019401B801D0019401C8013001A401B80194014C01D00190011141006D00
311
640074005400680072006500610064004C0069006E00650053007400640042D0401B4019001D0013801BC01D00194014C01D00190010B410063006D00540061007000650072005300740064004350401B4019001D0010401B8015801A4019401DC014C01D00190010B4100630041006D0067004C0061007900530074006400
311
42D04018C010401B4019C011001A401B4014C01D0019001114100630041006D00670048006F006C0065004300680061007200740053007400640043504018C010401B4019C015001A401D001B00194014C01D0019000
161
               725
310
6DCB81E85EB51B8BE3F8000000C00040540623000030C0200000030000B81E85EB51B8BE3F495222812028120281202812028120281202812028120281202812028120281202812028120281202812028120280A04809FFFE7FFFC
340
11
360
30C
360
30D
360
30E
360
30F
360
310
360
311
360
312
360
313
360
314
360
315
360
316
360
317
360
318
360
319
360
31A
360
334
360
335
340
31B
340
0
340
15
340
15
 94
        0
  0
ACAD_PROXY_OBJECT
  5
2A6
102
{ACAD_REACTORS
330
2A5
102
}
330
2A5
100
AcDbProxyObject
 90
      499
 91
      507
 71
    29
 97
      226
 70
     0
162
              4140
311
42D10015C011C014C01140150015001240138011C014C0109430041004E00470041005200520041005900420CC00C001F000D000D401F000D800C00106430045004E0041004E004700424D000D401F000E400C001F000C400CC00D40106430045004E0044004900410041D0C01140138011001240104014C010B30002E0035
311
007C0031002E0030007C0031002E00350041D0C0114013801100124014C01500106430045004E004C0045004E004190C01140138013C01180118010E4300480041004D00460045005200440049004D004D004F00440045004550C0120010401340118011401480110012401340134013C01100114011001140118010401540
311
1300150010943004C0049004E0041005200520041005900438C000B800C400C800D401F000C000B800C800D401F000C000B800D4010843004C0049004E004500540059005000415600130012401380114010944005700470055005300430041004C00450041D300104014C0150013C0108012801013000421340104012C011
311
4015801240114015C010650005300430041004C00450041948011401580124014C0124010130004154C010C010401300114010331003A00310042550012401340114014C01500104013401400107560045005200530049004F004E00414C400D400B800C000C001107B00440057004700530045005400540049004E0047005
311
30045004E0044007D00C
161
               572
310
40682A0A940000000000001C07E82A50000000000000601FA50000000000000701FA50000000000000701FA7F27F20A82A50A0A9FA040C0080001054152827C39E6CACCC9CD0505C
 94
        0
  0
ACAD_PROXY_OBJECT
  5
2A7
102
{ACAD_REACTORS
330
2A5
102
}
330
2A5
100
AcDbProxyObject
 90
      499
 91
      507
 71
    29
 97
      226
 70
     0
162
              1382
311
43550014801040138014C014C01140150015001240138011C014C0112440052004100570049004E0047005400520041004E0053004C004100540049004F004E004353C01480124011C012401380104013001300164017C013C0138010A53004F0055005200430045004C0041004E00470040D1401380154010955005000520
311
0450053004500520056004500441EC0110015C011C014C01140150015001240138011C014C01140138011001F400
161
               126
310
4060C00800041801000020A0C0080000
 94
        0
  0
XRECORD
  5
26A
102
{ACAD_REACTORS
330
268
102
}
330
268
100
AcDbXrecord
280
     1
270
     1
271
     1
  0
XRECORD
  5
269
102
{ACAD_REACTORS
330
268
102
}
330
268
100
AcDbXrecord
280
     1
270
     1
271
     1
  0
XRECORD
  5
26D
102
{ACAD_REACTORS
330
268
102
}
330
268
100
AcDbXrecord
280
     1
270
     1
271
     1
  0
XRECORD
  5
26C
102
{ACAD_REACTORS
330
268
102
}
330
268
100
AcDbXrecord
280
     1
270
     1
271
     1
  0
XRECORD
  5
26E
102
{ACAD_REACTORS
330
268
102
}
330
268
100
AcDbXrecord
280
     1
270
     1
271
     1
  0
XRECORD
  5
26B
102
{ACAD_REACTORS
330
268
102
}
330
268
100
AcDbXrecord
280
     1
270
     1
271
     1
  0
XRECORD
  5
262
102
{ACAD_REACTORS
330
260
102
}
330
260
100
AcDbXrecord
280
     1
270
     1
271
     1
  0
XRECORD
  5
261
102
{ACAD_REACTORS
330
260
102
}
330
260
100
AcDbXrecord
280
     1
270
     1
271
     1
  0
XRECORD
  5
265
102
{ACAD_REACTORS
330
260
102
}
330
260
100
AcDbXrecord
280
     1
270
     1
271
     1
  0
XRECORD
  5
264
102
{ACAD_REACTORS
330
260
102
}
330
260
100
AcDbXrecord
280
     1
270
     1
271
     1
  0
XRECORD
  5
266
102
{ACAD_REACTORS
330
260
102
}
330
260
100
AcDbXrecord
280
     1
270
     1
271
     1
  0
XRECORD
  5
263
102
{ACAD_REACTORS
330
260
102
}
330
260
100
AcDbXrecord
280
     1
270
     1
271
     1
  0
XRECORD
  5
272
102
{ACAD_REACTORS
330
270
102
}
330
270
100
AcDbXrecord
280
     1
270
     1
271
     1
  0
XRECORD
  5
271
102
{ACAD_REACTORS
330
270
102
}
330
270
100
AcDbXrecord
280
     1
270
     1
271
     1
  0
XRECORD
  5
275
102
{ACAD_REACTORS
330
270
102
}
330
270
100
AcDbXrecord
280
     1
270
     1
271
     1
  0
XRECORD
  5
274
102
{ACAD_REACTORS
330
270
102
}
330
270
100
AcDbXrecord
280
     1
270
     1
271
     1
  0
XRECORD
  5
276
102
{ACAD_REACTORS
330
270
102
}
330
270
100
AcDbXrecord
280
     1
270
     1
271
     1
  0
XRECORD
  5
273
102
{ACAD_REACTORS
330
270
102
}
330
270
100
AcDbXrecord
280
     1
270
     1
271
     1
  0
CELLSTYLEMAP
  5
7A5
102
{ACAD_REACTORS
330
7A4
102
}
330
7A4
100
AcDbCellStyleMap
 90
        3
300
CELLSTYLE
  1
TABLEFORMAT_BEGIN
 90
        5
170
     1
 91
        0
 92
    32768
 62
   257
 93
        1
300
CONTENTFORMAT
  1
CONTENTFORMAT_BEGIN
 90
        0
 91
        0
 92
      512
 93
        0
300

 40
0.0
140
1.0
 94
        5
 62
     0
340
11
144
0.25
309
CONTENTFORMAT_END
171
     0
 94
        0
309
TABLEFORMAT_END
  1
CELLSTYLE_BEGIN
 90
        1
 91
        1
300
_TITLE
309
CELLSTYLE_END
300
CELLSTYLE
  1
TABLEFORMAT_BEGIN
 90
        5
170
     1
 91
        0
 92
        0
 62
   257
 93
        1
300
CONTENTFORMAT
  1
CONTENTFORMAT_BEGIN
 90
        0
 91
        0
 92
      512
 93
        0
300

 40
0.0
140
1.0
 94
        5
 62
     0
340
11
144
0.18
309
CONTENTFORMAT_END
171
     0
 94
        0
309
TABLEFORMAT_END
  1
CELLSTYLE_BEGIN
 90
        2
 91
        1
300
_HEADER
309
CELLSTYLE_END
300
CELLSTYLE
  1
TABLEFORMAT_BEGIN
 90
        5
170
     1
 91
        0
 92
        0
 62
   257
 93
        1
300
CONTENTFORMAT
  1
CONTENTFORMAT_BEGIN
 90
        0
 91
        0
 92
      512
 93
        0
300

 40
0.0
140
1.0
 94
        2
 62
     0
340
11
144
0.18
309
CONTENTFORMAT_END
171
     0
 94
        0
309
TABLEFORMAT_END
  1
CELLSTYLE_BEGIN
 90
        3
 91
        2
300
_DATA
309
CELLSTYLE_END
  0
ACAD_PROXY_OBJECT
  5
30C
330
30B
100
AcDbProxyObject
 90
      499
 91
      555
 71
    29
 97
      226
 70
     0
162
                 0
161
               423
310
6DCB81E85EB51B8BE3F2E07A17AD46E2F8FE23000030C02000000300012AF841D01405014050140501083C80A0481A0882A0D55554
 94
        0
  0
ACAD_PROXY_OBJECT
  5
30D
330
30B
100
AcDbProxyObject
 90
      499
 91
      556
 71
    29
 97
      226
 70
     0
162
                 0
161
               567
310
6DCB81E85EB51B8BE3F2E07A17AD46E2F8FE23000030C02000000300012AFA1C80A0280A0280A0280A0280A0280A0280A0284A0280A0280A0280A0280A02400000000000000080
340
337
 94
        0
  0
ACAD_PROXY_OBJECT
  5
30E
330
30B
100
AcDbProxyObject
 90
      499
 91
      557
 71
    29
 97
      226
 70
     0
162
                 0
161
               648
310
6DCB81E85EB51B8BE3F2E07A17AD46E2F8FE23000030C02000000300012AF98333333333333D33F24080A0280A0280A0280A0280A0280A0280A0280A0280A0280A0280A0280A0280A0280A0280A0280A0200
340
0
 94
        0
  0
ACAD_PROXY_OBJECT
  5
30F
330
30B
100
AcDbProxyObject
 90
      499
 91
      558
 71
    29
 97
      226
 70
     0
162
                 0
161
               245
310
6DCB81E85EB51B8BE3F2E07A17AD46E2F8FE23000030C02000000300012AFC
 94
        0
  0
ACAD_PROXY_OBJECT
  5
310
330
30B
100
AcDbProxyObject
 90
      499
 91
      559
 71
    29
 97
      226
 70
     0
162
                 0
161
               492
310
6DCB81E85EB51B8BE3F2E07A17AD46E2F8FE23000030C02000000300012AFC521D4454FB21E93F26A6666666666E4FE89A9999999999B93F88C0000C300C
340
338
340
339
 94
        0
  0
ACAD_PROXY_OBJECT
  5
311
330
30B
100
AcDbProxyObject
 90
      499
 91
      560
 71
    29
 97
      226
 70
     0
162
             23548
311
4112401500114013401044900540045004D004CD1C01140138015001480104010C013C00B001140138015400B000C000B0012401500114013400B0011C011401380150014801040150016000B0009401CC00B000A0011C011401380134014C011C0080019C019401B8019001DC019C008000C800C800C800A4029035100540
311
0590040D44015001640132470045004E0054005200410043004F002C0045004E0055002C0030002C005100540059002C00470045004E00540052004100540058002C00250073002C002800470045004E004D00530047002000670065006E0064007700670020003200320033002900A4113801040134011401044E0041004D
311
0045004CD1C01140138015001480104010C013C00B001140138015400B000C000B0013801040134011400B0011C011401380150014801040150016000B0009401CC00B000A0011C011401380134014C011C0080019C019401B8019001DC019C008000C800C800D800A4012C3D004900460028004900530042004C0041004E0
311
04B00280050004100520054003A004E0041004D00450029002C0042004C004F0043004B003A004E0041004D0045002C0050004100520054003A004E0041004D00450029009054400450053004300520042D100114014C010C01480124014001500124013C0138013A470045004E0054005200410043004F002C0045004E005
311
5002C0030002C004400450053004300520049005000540049004F004E002C00470045004E00540052004100540058002C00250073002C002800470045004E004D00530047002000670065006E0064007700670020003200310037002900A4214C015001040138011001040148011001085300540041004E004400410052004
311
4004DD1C01140138015001480104010C013C00B001140138015400B000C000B0014C015001040138011001040148011000B0011C011401380150014801040150016000B0009401CC00B000A0011C011401380134014C011C0080019C019401B8019001DC019C008000C800C400E000A4029084D00410054004500520049004
311
1004C004213401040150011401480124010401300137470045004E0054005200410043004F002C0045004E0055002C0030002C004D004100540045005200490041004C002C00470045004E00540052004100540058002C00250073002C002800470045004E004D00530047002000670065006E006400770067002000320032
311
0031002900A41138013C0150011401044E004F00540045004CD1C01140138015001480104010C013C00B001140138015400B000C000B00138013C0150011400B0011C011401380150014801040150016000B0009401CC00B000A0011C011401380134014C011C0080019C019401B8019001DC019C008000C800C800D400A40
311
2906560045004E0044004F00520041958011401380110013C01480135470045004E0054005200410043004F002C0045004E0055002C0030002C00560045004E0044004F0052002C00470045004E00540052004100540058002C00250073002C002800470045004E004D00530047002000670065006E0064007700670020003
311
200320034002900A419100114014C010C014800C8010D4400450053004300520049005000540049004F004E00200032004ED1C01140138015001480104010C013C00B001140138015400B000C000B001100114014C010C01480124014001500124013C0138008000C800B0011C011401380150014801040150016000B00094
311
01CC00B000A0011C011401380134014C011C0080019C019401B8019001DC019C008000CC00D800A4029095300540041004E00440041005200440032004294C0150010401380110010401480110008000C80139470045004E0054005200410043004F002C0045004E0055002C0030002C005300540041004E00440041005200
311
4400200032002C00470045004E00540052004100540058002C00250073002C002800470045004E004D00530047002000670065006E0064007700670020003200320030002900A42534010401500114014801240104013000C8010A4D004100540045005200490041004C00200032004E11C01140138015001480104010C013
311
C00B001140138015400B000C000B001340104015001140148012401040130008000C800B0011C011401380150014801040150016000B0009401CC00B000A0011C011401380134014C011C0080019C019401B8019001DC019C008000D000C000A4029044D00410053005300411340104014C014C0132470045004E005400520
311
0410043004F002C0045004E0055002C0030002C004D004100530053002C00470045004E00540052004100540058002C00250073002C002800470045004E004D00530047002000670065006E006400770067002000340032002900A4154001480124010C01140105500052004900430045004CD1C0114013801500148010401
311
0C013C00B001140138015400B000C000B0014001480124010C011400B0011C011401380150014801040150016000B0009401CC00B000A0011C011401380134014C011C0080019C019401B8019001DC019C008000D000CC00A402903440049004D0042D3401140104014C01540148011401340114013801500139470045004E
311
0054005200410043004F002C0045004E0055002C0030002C004D004500410053005500520045004D0045004E0054002C00470045004E00540052004100540058002C00250073002C002800470045004E004D00530047002000670065006E006400770067002000340034002900A42508013C0134017C015401380124015001
311
4C010555004E004900540053004D11C01140138015001480104010C013C00B001140138015400B000C000B00154013801240150014C00B0011C011401380150014801040150016000B0009401CC00B000A0011C011401380134014C011C0080019C019401B8019001DC019C008000C800D000CC00A4029073D003C00490054
311
0045004D003E0041CF400F0012401500114013400F801073D003C004900540045004D003E0041CF400F0012401500114013400F801073D003C004900540045004D003E00418F400F001440150016400F801073D003C004900540045004D003E0041CF400F0012401500114013400F802AAA404C40242D94018400240194018
311
4002401140184018C01A000280115730071006D000900730071006D00090053007100750061007200650020004D0065007400650072000A00471CC01C4018C01B4002401CC01C4018C01B40024014C01C401D4018401C801940080010C019401B801D001A401B4019401D0019401C800280116730071006600740009007300
311
7100660074000900530071007500610072006500200046006F006F0074000A00451CC01C401A401B8002401CC01C401A401B80024014C01C401D4018401C801940080012401B80028010F670061006C000900670061006C000900470061006C006C006F006E000A00431C401D0002401C401D00024014401D4018401C801D0
311
0028011B6C00710064005F006F007A0009006C00710064005F006F007A0009004C006900710075006900640020004F0075006E00630065000A00429B0002401B00024013001A401D0019401C8002801116D006C0009006D006C0009004D0069006C006C0069006C0069007400650072000A0042DE40190002401E401900024
311
0164018401C801900028010B66007400090066007400090046006F006F0074000A0042DA401B8002401A401B80024012401B8018C01A00028010A6D0009006D0009004D0065007400650072000A004458C01B40024018C01B40024010C019401B801D001A401B4019401D0019401C8002801116D006D0009006D006D000900
311
4D0069006C006C0069006D0065007400650072000A00431B00188002401B001880024014001BC01D401B801900028010C6F007A0009006F007A0009004F0075006E00630065000A004259C0024019C0024011C01C8018401B4002801106D00670009006D00670009004D0069006C006C0069006700720061006D000A004298
311
801E00024018801E00024010801BC01E0002801012D00C
161
              6487
310
6DCB81E85EB51B8BE3F2E07A17AD46E2F8FE23000030C02000000300012AFA1E80A0280A0280A0280D202269349E4B2196C9FA0320240501405014090140501405019011349A4F2590CB64FD0190120280A0280A3880C80C815174B85D2F97CA048080C80901405014051D40640640E883C16030180C064040440480A0280A
310
028EA0320320947077FBFDFEBF7F9FA02202405014050147501901905A0A0B6C1C7480BECFD0190120280A0280A3A80C80C835174B85D2F97CBE47E80C80901405014051D40640641E8BA5C2E97CBE5F23F40640480A0280A028EA03203211441E0B0180C060320202202405014050147501901909A383BFDFEFF5FBFCFD01
310
10120280A0280A3A80C80C8550505B60E3A405F67E80880901405014051D405024050242D03408BA5C2E97CBE5F23F40440480A0280A028EA028120281218812045D2E174BE5F2F91FA02202405014050147501409014090D40D022E970BA5F2F97C8FD0190120280A0280A3C80C80C875174B85D2F97CBE47E80C80901405
310
0F4A9022E07A17AD46E338FE07800030C0001018ACD56AB55AADF63F2B355AAD56AB7D8FD014062B355AAD56AB7D8FCACD56AB55AADF63F40501890C7E3F1783CEE3F2431F8FC5E0F3B8FD014062431F8FC5E0F3B8FC90C7E3F1783CEE3F405029012B355AAD56AB7D8FCACD56AB55AADF63F405014062B355AAD56AB7D8FC
310
ACD56AB55AADF63F4050184D2693C96432E93F1349A4F2590CBA4FD0140400ACD56AB55AADF63F2B355AAD56AB7D8FE90800000000000020810000001800169FFFE8220681A048120280A20852108820321480C8452028521485214814000000000000F0BF0000000000003C2FD0188C0000C3008070000C3003673BDD4F8E
310
96ACFCD9CEF753E3A5AB3F3673BDD4F8E96ACFCAAF1D24D6210A83F0EF7D3E365DBA48FCAAF1D24D6210A83F3673BDD4F8E96ACFCAAF1D24D6210A83F0EF7D3E365DBA48FCAAF1D24D6210A83F2E07A17AD46E2F8FE80A028120D2028120A83A0C80D2E07A17AD46E2F8FE23000030C0223000030C0200400030C00A45102F
310
E7FFF9FFFE7FFF901405014550140501405014050140501405014050140501405014050140501901A0C8120A8320E86A1C
340
15
340
0
340
11
340
11
340
16
340
16
340
16
 94
        0
  0
ACAD_PROXY_OBJECT
  5
312
330
30B
100
AcDbProxyObject
 90
      499
 91
      561
 71
    29
 97
      226
 70
     0
162
               762
311
4BCF4011001140150010401240130008000F0011001140150010401240130017C0130010401080114013000F801700140014C010C010401300114008000F0011001140150010401240130017C01040108014C014C010C01040130011400F800C
161
               658
310
6DCB81E85EB51B8CE3F2E07A17AD46E338FE07800030C020000003000123C820E4D4CCCCCCCCCDC9F9353333333333927E000000000000701FA00000000000000200000000000000288000000000000012204C
340
16
340
11
 94
        0
  0
ACAD_PROXY_OBJECT
  5
313
330
30B
100
AcDbProxyObject
 90
      499
 91
      562
 71
    29
 97
      226
 70
     0
162
               826
311
4CCF4014C0114010C01500124013C0138008000F0014C0114010C01500124013C0138017C01300104010801140130017C011801240148014C015000F800B400F0014C0114010C01500124013C0138017C01300104010801140130017C01300104014C015000F800C
161
               473
310
6DCB81E85EB51B8CE3F2E07A17AD46E338FE07800030C02000000300012AE00726A666666666764FC7FFFC000000600009A9999999999D93FA7FFFCC
340
15
340
11
 94
        0
  0
ACAD_PROXY_OBJECT
  5
314
330
30B
100
AcDbProxyObject
 90
      499
 91
      563
 71
    29
 97
      226
 70
     0
162
                 0
161
               507
310
6DC000000000000F0BF0000000000003C2FE000000320020000003200200570E2DB39DEF867E14AE47E17A945E1F852B91F85EA51787F4333333333333F33FAC
 94
        0
  0
ACAD_PROXY_OBJECT
  5
315
330
30B
100
AcDbProxyObject
 90
      499
 91
      564
 71
    29
 97
      226
 70
     0
162
                 0
161
               241
310
6DC000000000000F0BF0000000000003C2FE000000320020000003200204CC
340
0
 94
        0
  0
ACAD_PROXY_OBJECT
  5
316
330
30B
100
AcDbProxyObject
 90
      499
 91
      565
 71
    29
 97
      226
 70
     0
162
             13376
311
42950019401B401C001B0018401D00194008000C40005013D003C0069006600280065007100750061006C00280048006F006C0065003A007400610070007000650064002C0022003000220029002C00220025002500630022002C0048006F006C0065003A006E006F006D0069006E0061006C0020002200200022002000690
311
06600280065007100750061006C00280048006F006C0065003A0075006E006900740073002C0022003100220029002C002200780022002C0022002D0022002900200022002000220029003E003C0069006600280065007100750061006C00280048006F006C0065003A007400610070007000650064002C002200300022002
311
9002C0048006F006C0065003A006400690061002C0048006F006C0065003A0070006900740063006800640065007300630029003E0020007B005C00460041004D004700440054003B0078007D0020003C0069006600280065007100750061006C00280048006F006C0065003A007400650072006D0069006E0061007400690
311
06F006E002C0022003000220029002C0048006F006C0065003A00640065007000740068002C0022005400480052005500220029003E005C0050007B005C00460041004D004700440054003B0076007D002500250063003C0048006F006C0065003A00630074006400690061003E0020007B005C00460041004D00470044005
311
4003B0078007D0020003C0048006F006C0065003A0063007400640065007000740068003E0042950019401B401C001B0018401D00194008000C401FE3D003C0069006600280065007100750061006C00280048006F006C0065003A007400610070007000650064002C0022003000220029002C00220025002500630022002C
311
0048006F006C0065003A006E006F006D0069006E0061006C002000220020002200200069006600280065007100750061006C00280048006F006C0065003A0075006E006900740073002C0022003100220029002C002200780022002C0022002D0022002900200022002000220029003E003C00690066002800650071007500
311
61006C00280048006F006C0065003A007400610070007000650064002C0022003000220029002C0048006F006C0065003A006400690061002C0048006F006C0065003A0070006900740063006800640065007300630029003E0020007B005C00460041004D004700440054003B0078007D0020003C00690066002800650071
311
00750061006C00280048006F006C0065003A007400650072006D0069006E006100740069006F006E002C0022003000220029002C0048006F006C0065003A00640065007000740068002C0022005400480052005500220029003E005C0050007B005C00460041004D004700440054003B0077007D002500250063003C004800
311
6F006C0065003A00630074006400690061003E002000580020003C0048006F006C0065003A006300740061006E0067006C0065003E0025002500640042950019401B401C001B0018401D00194008000C401CF3D003C0069006600280065007100750061006C00280048006F006C0065003A007400610070007000650064002
311
C0022003000220029002C00220025002500630022002C0048006F006C0065003A006E006F006D0069006E0061006C002000220020002200200069006600280065007100750061006C00280048006F006C0065003A0075006E006900740073002C0022003100220029002C002200780022002C0022002D00220029002000220
311
02000220029003E003C0069006600280065007100750061006C00280048006F006C0065003A007400610070007000650064002C0022003000220029002C0048006F006C0065003A006400690061002C0048006F006C0065003A0070006900740063006800640065007300630029003E005C0050007B005C00460041004D004
311
700440054003B0078007D0020003C0069006600280065007100750061006C00280048006F006C0065003A007400650072006D0069006E006100740069006F006E002C0022003000220029002C0048006F006C0065003A00640065007000740068002C0022005400480052005500220029003E0042950019401B401C001B001
311
8401D00194008000C801173D003C0053005400440050003A0044004500530043003E0020003C0053005400440050003A005300540044003E0042950019401B401C001B0018401D00194008000C4010C3D003C0053005400440050003A0044004500530043003E0042950019401B401C001B0018401D00194008000CC010B3D
311
003C0053005400440050003A005300540044003E0045
161
               667
310
6DCB81E85EB51B8BE3F2E07A17AD46E2F8FE23000030C02000000300012AFA1080A17480A15480A0480A0280E9014050340501407480A0280A0280A03A405014790340501D20280A901405481A028AD556DEA06C
360
33E
330
33E
360
33F
330
33F
360
33D
330
33D
360
33B
360
33A
360
33C
330
33B
330
33A
330
33C
 94
        0
  0
ACAD_PROXY_OBJECT
  5
317
330
30B
100
AcDbProxyObject
 90
      499
 91
      566
 71
    29
 97
      226
 70
     0
162
                26
311
404E800C
161
               305
310
6DCB81E85EB51B8BE3F2E07A17AD46E2F8FE23000030C02000000300012AFA1680A0280D55554C
 94
        0
  0
ACAD_PROXY_OBJECT
  5
318
330
30B
100
AcDbProxyObject
 90
      499
 91
      567
 71
    29
 97
      226
 70
     0
162
              1098
311
510F400F0014C015001480154010C015000E8010C013C01340140017C013801040134011400F8008000F0014C015001480154010C015000E8015801240114015C017C013801040134011400F80080015801240114015C01700140014C010C010401300114008000F0014C015001480154010C015000E8014C0158017C014C0
311
10C01040130011400F800C
161
               332
310
6DCB81E85EB51B8CE3F2E07A17AD46E2F8FE07800030C02000000300012AFA02808000000000001D07FC
340
11
 94
        0
  0
ACAD_PROXY_OBJECT
  5
319
330
30B
100
AcDbProxyObject
 90
      499
 91
      568
 71
    29
 97
      226
 70
     0
162
                 0
161
               253
310
6DC000000000000F0BF0000000000003C2FE0000003200200000032002020754
340
31E
 94
        0
  0
ACAD_PROXY_OBJECT
  5
31A
330
30B
100
AcDbProxyObject
 90
      499
 91
      569
 71
    29
 97
      226
 70
     0
162
               142
311
408F000F801023C003E0040DB0018C00CC00
161
               400
310
6DC000000000000F0BF0000000000003C2FE00000032002000000320020208000000000000701F8000000000001C07E7FFFC00
340
31B
340
0
340
0
340
32B
340
32C
340
0
340
32D
340
32E
340
333
340
0
340
32C
340
0
 94
        0
  0
ACAD_PROXY_OBJECT
  5
334
330
30B
100
AcDbProxyObject
 90
      499
 91
      571
 71
    29
 97
      226
 70
     0
162
             20912
311
44D300124014C01500080013C01180080010C013C013C0148011001240138010401500114014C0142470045004E0054005200410043004F002C0045004E0055002C0030002C004C0049005300540020004F004600200043004F004F005200440049004E0041005400450053002C00470045004E00540052004100540058002
311
C00250073002C002800470045004E004D00530047002000670065006E00640069006D007A00200033003000290043CF400F0011001940198018401D401B001D0015001A401D001B0019400F8010A48004F004C00450020005400410042004C0045004E51C01140138015001480104010C013C00B001140138015400B000C00
311
0B00120013C0130011400800150010401080130011400B0011C011401380150014801040150016000B0009401CC00B000A0011C011401380134014C011C0080019C019401B8019001A401B401E8008000CC00C400A4010F3D003C00440065006600610075006C0074005400690074006C0065003E004193C01480124011C01
311
2401380134470045004E0054005200410043004F002C0045004E0055002C0030002C004F0052004900470049004E002C00470045004E00540052004100540058002C00250073002C002800470045004E004D00530047002000670065006E00640069006D007A002000310029004193C01480124011C0124013801344700450
311
04E0054005200410043004F002C0045004E0055002C0030002C004F0052004900470049004E002C00470045004E00540052004100540058002C00250073002C002800470045004E004D00530047002000670065006E00640069006D007A0020003100290041120013C013001140132470045004E0054005200410043004F00
311
2C0045004E0055002C0030002C0048004F004C0045002C00470045004E00540052004100540058002C00250073002C002800470045004E004D00530047002000670065006E00640069006D007A00200032002900538F400F00124011800A00124014C0108013001040138012C00A0012001BC01B00194012401D0019401B40
311
0A400B0013C01C801A4019C01A401B800B00080012001BC01B00194012401D0019401B400A400F800F00124011800A00124014C0108013001040138012C00A0012001BC01B00194012401D0019401B400A400B00088008800B00080012001BC01B00194012401B80190019401E000A400F8010158004BD1C01140138015001
311
480104010C013C00B001140138015400B000C000B0016000B0011C011401380150014801040150016000B0009401CC00B000A0011C011401380134014C011C0080019C019401B8019001A401B401E8008000CC00A4010159004BD1C01140138015001480104010C013C00B001140138015400B000C000B0016400B0011C011
311
401380150014801040150016000B0009401CC00B000A0011C011401380134014C011C0080019C019401B8019001A401B401E8008000D000A4010152004BD1C01140138015001480104010C013C00B001140138015400B000C000B0014800B0011C011401380150014801040150016000B0009401CC00B000A0011C01140138
311
0134014C011C0080019C019401B8019001A401B401E8008000D800A401187B005C004600530059004D0042004F004C007C00420030007C00490030007C00430032007C00500030003B004A007D005191C01140138015001480104010C013C00B001140138015400B000C000B001EC01700118014C016401340108013C01300
311
1F0010800C001F0012400C001F0010C00C801F0014000C000EC012801F400B0011C011401380150014801040150016000B0009401CC00B000A0011C011401380134014C011C0080019C019401B8019001A401B401E8008000DC00A401032500250043004C51C01140138015001480104010C013C00B001140138015400B000
311
C000B000940094010C00B0011C011401380150014801040150016000B0009401CC00B000A0011C011401380134014C011C0080019C019401B8019001A401B401E8008000E000A4010B4400450053004300520049005000540049004F004E004E91C01140138015001480104010C013C00B001140138015400B000C000B0011
311
00114014C010C01480124014001500124013C013800B0011C011401380150014801040150016000B0009401CC00B000A0011C011401380134014C011C0080019C019401B8019001A401B401E8008000C800C000A401044900540045004D004CD1C01140138015001480104010C013C00B001140138015400B000C000B00124
311
01500114013400B0011C011401380150014801040150016000B0009401CC00B000A0011C011401380134014C011C0080019C019401B8019001A401B401E8008000C400D000A4010549004E004400450058004D11C01140138015001480104010C013C00B001140138015400B000C000B00124013801100114016000B0011C0
311
11401380150014801040150016000B0009401CC00B000A0011C011401380134014C011C0080019C019401B8019001A401B401E8008000C400D400A4010448004F004C0045004CD1C01140138015001480104010C013C00B001140138015400B000C000B00120013C0130011400B0011C011401380150014801040150016000
311
B0009401CC00B000A0011C011401380134014C011C0080019C019401B8019001A401B401E8008000C400D800A4010A48004F004C004500200049004E004400450058004E51C01140138015001480104010C013C00B001140138015400B000C000B00120013C0130011400800124013801100114016000B0011C01140138015
311
0014801040150016000B0009401CC00B000A0011C011401380134014C011C0080019C019401B8019001A401B401E8008000C400DC00A40109550053004500520020004900540045004D004E11C01140138015001480104010C013C00B001140138015400B000C000B00154014C011401480080012401500114013400B0011C
311
011401380150014801040150016000B0009401CC00B000A0011C011401380134014C011C0080019C019401B8019001A401B401E8008000C800C800A401035100540059004C91C01140138015001480104010C013C00B001140138015400B000C000B001440150016400B0011C011401380150014801040150016000B000940
311
1CC00B000A0011C011401380134014C011C0080019C019401B8019001A401B401E8008000C400E400A401085300540041004E0044004100520044004DD1C01140138015001480104010C013C00B001140138015400B000C000B0014C015001040138011001040148011000B0011C011401380150014801040150016000B000
311
9401CC00B000A0011C011401380134014C011C0080019C019401B8019001A401B401E8008000C800C400A4014E3D003C004900460028004900530042004C0041004E004B00280048006F006C0065004900740065006D0029002C004F0072006900670069006E002C00200048006F006C0065004900740065006D0029003E00
311
3C004900460028004900530042004C0041004E004B00280048006F006C0065004900740065006D0029002C00220022002C00200048006F006C00650049006E0064006500780029003E00CC
161
              7065
310
6DC000000000000F0BF0000000000003C2FE00000032002000000320020246352020600005C0F42F5A8DC5F1FC46000061806808180001703D0BD6A3717C7F118000186018080F0201800000000000000000000000000000000F6295C8FC2F5487E5C0F42F5A8DC5F1FC46000061800F6295C8FC2F5487E5C0F42F5A8DC5F1
310
FC4600006180403F8080F0201800000000000000000000000000000000F6295C8FC2F5487E5C0F42F5A8DC5F1FC46000061800F6295C8FC2F5487E5C0F42F5A8DC5F1FC4600006180403FA1C8821E88A0481A0882A0E862028722489A2A82A2483A288621A880000808000808200110A000101000101040021F40002020202
310
020800446800040400040400008150000808000808000103A0001010001010000209400020200020206004168000404000404040083D000080800080020010CA0001010001010500A0340002020002020A0143A800040400040410008950000808000808280113A000101000101050022B40002020002020C0045280004040
310
00400100086D22000CFFFFFFFF0026A6666666667A4FE7FFFFFFF819353333333333D27F3FFFFFFFC049A9999999999E93F9FFFFFFFE024D4CCCCCCCCCF49FCFFFFFFFF0226A6666666667A4FE7FFFFFFF811353333333333D27F3FFFFFFFC0D9FFFFFFFE0600000000000000204FFFFFFFF0026A666666666764FE7FFFFFF
310
F801353333333333D27F3FFFFFFFC009A9999999999E93F9FFFFFFFE004D4CCCCCCCCCF49FCFFFFFFFF0026A6666666667A4FE7FFFFFFF819703D0BD6A371BC7F3FFFFFFFC0C67666666666606409FFFFFFFE880033FFFFFFFC009A9999999999E93F9FFFFFFFE064D4CCCCCCCCCF49FCFFFFFFFF0326A6666666667A4FE7F
310
FFFFFF819353333333333D27F3FFFFFFFC0C9A9999999999E93F9FFFFFFFE064D4CCCCCCCCCF49FCFFFFFFFF0367FFFFFFF81800000000000000813FFFFFFFC009A9999999999D93F9FFFFFFFE004D4CCCCCCCCCF49FCFFFFFFFF0326A6666666667A4FE7FFFFFFF801353333333333D27F3FFFFFFFC009A9999999999E93F
310
9FFFFFFFE065C0F42F5A8DC6F1FCFFFFFFFF0319D999999999819027FFFFFFFA088800000021E000000890000002260000008220E00020089000000206000200810000801FFFFFFFE812020002822200000008780000022400000089800000206000082220000000878000002240000008A8000001FFFFFFFF4C
340
0
340
0
340
0
340
0
340
11
340
11
 94
        0
  0
ACAD_PROXY_OBJECT
  5
335
330
30B
100
AcDbProxyObject
 90
      499
 91
      572
 71
    29
 97
      226
 70
     0
162
             10568
311
411040138014C0124010641004E00530049005F004300429040138014C0124017C0150012401500154014C011541004E00530049005F00420052005F005200650076006900730069006F006E006C0069007300740061004450C008000A000C400DC00B800C001E000C800C800B800C001A401B8018C01A000A4010641004E0
311
0530049005F00430044518008000A000C800E000B800C001E000D000C000B800C001A401B8018C01A000A4010641004E00530049005F00460044508008000A000C400C400B800C001E000C400DC00B800C001A401B8018C01A000A4010641004E00530049005F00420044510008000A000C800C800B800C001E000CC00D000
311
B800C001A401B8018C01A000A4010641004E00530049005F00440044514008000A000CC00D000B800C001E000D000D000B800C001A401B8018C01A000A4010641004E00530049005F00450044104008000A000E000B800D401E000C400C400B800C001A401B8018C01A000A4010641004E00530049005F00410043954014C0
311
080015001A401D001B001940080010801B001BC018C01AC010A41004E00530049005F005400490054005500530044D0401B801CC01A40080015001A401D001B001940080010801B001BC018C01AC00800110010C010C41004E00530049005F005400490054004C0045004400430044D0401B801CC01A40080015001A401D00
311
1B001940080010801B001BC018C01AC00800104010C010C41004E00530049005F005400490054004C004500410043004490401B801CC01A40080015001A401D001B001940080010801B001BC018C01AC00800104010B41004E00530049005F005400490054004C00450041004490401B801CC01A40080015001A401D001B00
311
1940080010801B001BC018C01AC00800110010B41004E00530049005F005400490054004C004500440044948019401D801A401CC01A401BC01B801B001A401CC01D000800104017C01080148017C011541004E00530049005F00420052005F005200650076006900730069006F006E006C0069007300740061004494801940
311
1D801A401CC01A401BC01B801B001A401CC01D000800104017C01500148017C011541004E00530049005F00540052005F005200650076006900730069006F006E006C00690073007400610044948019401D801A401CC01A401BC01B801B001A401CC01D000800110017C01080148017C011541004E00530049005F00420052
311
005F005200650076006900730069006F006E006C00690073007400640044948019401D801A401CC01A401BC01B801B001A401CC01D000800110017C01500148017C011541004E00530049005F00540052005F005200650076006900730069006F006E006C00690073007400640044948019401D801A401CC01A401BC01B801
311
B001A401CC01D000800104017C01080130017C011541004E00530049005F0042004C005F005200650076006900730069006F006E006C00690073007400610044948019401D801A401CC01A401BC01B801B001A401CC01D000800104017C01500130017C011541004E00530049005F0054004C005F005200650076006900730
311
069006F006E006C00690073007400610044948019401D801A401CC01A401BC01B801B001A401CC01D000800110017C01080130017C011541004E00530049005F0042004C005F005200650076006900730069006F006E006C00690073007400640044948019401D801A401CC01A401BC01B801B001A401CC01D000800110017
311
C01500130017C011541004E00530049005F0054004C005F005200650076006900730069006F006E006C006900730074006400A4F
161
               291
310
6DC000000000000F0BF0000000000003C2FE0000003200200000032002032E8320A842054C
 94
        0
  0
ACAD_PROXY_OBJECT
  5
33E
330
0
100
AcDbProxyObject
 90
      499
 91
      573
 71
    29
 97
      226
 70
     0
162
              4364
311
42950019401B401C001B0018401D00194008000C40005013D003C0069006600280065007100750061006C00280048006F006C0065003A007400610070007000650064002C0022003000220029002C00220025002500630022002C0048006F006C0065003A006E006F006D0069006E0061006C0020002200200022002000690
311
06600280065007100750061006C00280048006F006C0065003A0075006E006900740073002C0022003100220029002C002200780022002C0022002D0022002900200022002000220029003E003C0069006600280065007100750061006C00280048006F006C0065003A007400610070007000650064002C002200300022002
311
9002C0048006F006C0065003A006400690061002C0048006F006C0065003A0070006900740063006800640065007300630029003E0020007B005C00460041004D004700440054003B0078007D0020003C0069006600280065007100750061006C00280048006F006C0065003A007400650072006D0069006E0061007400690
311
06F006E002C0022003000220029002C0048006F006C0065003A00640065007000740068002C0022005400480052005500220029003E005C0050007B005C00460041004D004700440054003B0076007D002500250063003C0048006F006C0065003A00630074006400690061003E0020007B005C00460041004D00470044005
311
4003B0078007D0020003C0048006F006C0065003A0063007400640065007000740068003E00C
161
                29
310
6DE0101C
 94
        0
  0
ACAD_PROXY_OBJECT
  5
33F
330
0
100
AcDbProxyObject
 90
      499
 91
      573
 71
    29
 97
      226
 70
     0
162
              4244
311
42950019401B401C001B0018401D00194008000C401FE3D003C0069006600280065007100750061006C00280048006F006C0065003A007400610070007000650064002C0022003000220029002C00220025002500630022002C0048006F006C0065003A006E006F006D0069006E0061006C002000220020002200200069006
311
600280065007100750061006C00280048006F006C0065003A0075006E006900740073002C0022003100220029002C002200780022002C0022002D0022002900200022002000220029003E003C0069006600280065007100750061006C00280048006F006C0065003A007400610070007000650064002C00220030002200290
311
02C0048006F006C0065003A006400690061002C0048006F006C0065003A0070006900740063006800640065007300630029003E0020007B005C00460041004D004700440054003B0078007D0020003C0069006600280065007100750061006C00280048006F006C0065003A007400650072006D0069006E006100740069006
311
F006E002C0022003000220029002C0048006F006C0065003A00640065007000740068002C0022005400480052005500220029003E005C0050007B005C00460041004D004700440054003B0077007D002500250063003C0048006F006C0065003A00630074006400690061003E002000580020003C0048006F006C0065003A0
311
06300740061006E0067006C0065003E00250025006400C
161
                29
310
6DE0101C
 94
        0
  0
ACAD_PROXY_OBJECT
  5
33D
330
0
100
AcDbProxyObject
 90
      499
 91
      573
 71
    29
 97
      226
 70
     0
162
              3492
311
42950019401B401C001B0018401D00194008000C401CF3D003C0069006600280065007100750061006C00280048006F006C0065003A007400610070007000650064002C0022003000220029002C00220025002500630022002C0048006F006C0065003A006E006F006D0069006E0061006C002000220020002200200069006
311
600280065007100750061006C00280048006F006C0065003A0075006E006900740073002C0022003100220029002C002200780022002C0022002D0022002900200022002000220029003E003C0069006600280065007100750061006C00280048006F006C0065003A007400610070007000650064002C00220030002200290
311
02C0048006F006C0065003A006400690061002C0048006F006C0065003A0070006900740063006800640065007300630029003E005C0050007B005C00460041004D004700440054003B0078007D0020003C0069006600280065007100750061006C00280048006F006C0065003A007400650072006D0069006E00610074006
311
9006F006E002C0022003000220029002C0048006F006C0065003A00640065007000740068002C0022005400480052005500220029003E00C
161
                29
310
6DE0101C
 94
        0
  0
ACAD_PROXY_OBJECT
  5
33B
330
0
100
AcDbProxyObject
 90
      499
 91
      573
 71
    29
 97
      226
 70
     0
162
               548
311
42950019401B401C001B0018401D00194008000C801173D003C0053005400440050003A0044004500530043003E0020003C0053005400440050003A005300540044003E00C
161
                29
310
6DE01014
 94
        0
  0
ACAD_PROXY_OBJECT
  5
33A
330
0
100
AcDbProxyObject
 90
      499
 91
      573
 71
    29
 97
      226
 70
     0
162
               372
311
42950019401B401C001B0018401D00194008000C4010C3D003C0053005400440050003A0044004500530043003E00C
161
                29
310
6DE0101C
 94
        0
  0
ACAD_PROXY_OBJECT
  5
33C
330
0
100
AcDbProxyObject
 90
      499
 91
      573
 71
    29
 97
      226
 70
     0
162
               356
311
42950019401B401C001B0018401D00194008000CC010B3D003C0053005400440050003A005300540044003E00C
161
                29
310
6DE01014
 94
        0
  0
ENDSEC
  0
SECTION
  2
ACDSDATA
 70
     2
 71
     8
  0
ACDSSCHEMA
 90
        0
  1
AcDb_Thumbnail_Schema
  2
AcDbDs::ID
280
    10
 91
        8
  2
Thumbnail_Data
280
    15
 91
        0
101
ACDSRECORD
 95
        0
 90
        1
  2
AcDbDs::TreatedAsObjectData
280
     1
291
     1
101
ACDSRECORD
 95
        0
 90
        2
  2
AcDbDs::Legacy
280
     1
291
     1
101
ACDSRECORD
  1
AcDbDs::ID
 90
        3
  2
AcDs:Indexable
280
     1
291
     1
101
ACDSRECORD
  1
AcDbDs::ID
 90
        4
  2
AcDbDs::HandleAttribute
280
     7
282
     1
  0
ACDSSCHEMA
 90
        1
  1
AcDbDs::TreatedAsObjectDataSchema
  2
AcDbDs::TreatedAsObjectData
280
     1
 91
        0
  0
ACDSSCHEMA
 90
        2
  1
AcDbDs::LegacySchema
  2
AcDbDs::Legacy
280
     1
 91
        0
  0
ACDSSCHEMA
 90
        3
  1
AcDbDs::IndexedPropertySchema
  2
AcDs:Indexable
280
     1
 91
        0
  0
ACDSSCHEMA
 90
        4
  1
AcDbDs::HandleAttributeSchema
  2
AcDbDs::HandleAttribute
280
     7
 91
        1
284
     1
  0
ACDSRECORD
 90
        0
  2
AcDbDs::ID
280
    10
320
22
  2
Thumbnail_Data
280
    15
 94
      993
310
89504E470D0A1A0A0000000D49484452000001000000006F08030000003479EE6F00000300504C5445212830FFFFFF2128300000000000000000000000000000000000000000000000000000330000660000990000CC0000FF0033000033330033660033990033CC0033FF0066000066330066660066990066CC0066FF0099
310
000099330099660099990099CC0099FF00CC0000CC3300CC6600CC9900CCCC00CCFF00FF0000FF3300FF6600FF9900FFCC00FFFF3300003300333300663300993300CC3300FF3333003333333333663333993333CC3333FF3366003366333366663366993366CC3366FF3399003399333399663399993399CC3399FF33CC00
310
33CC3333CC6633CC9933CCCC33CCFF33FF0033FF3333FF6633FF9933FFCC33FFFF6600006600336600666600996600CC6600FF6633006633336633666633996633CC6633FF6666006666336666666666996666CC6666FF6699006699336699666699996699CC6699FF66CC0066CC3366CC6666CC9966CCCC66CCFF66FF0066
310
FF3366FF6666FF9966FFCC66FFFF9900009900339900669900999900CC9900FF9933009933339933669933999933CC9933FF9966009966339966669966999966CC9966FF9999009999339999669999999999CC9999FF99CC0099CC3399CC6699CC9999CCCC99CCFF99FF0099FF3399FF6699FF9999FFCC99FFFFCC0000CC00
310
33CC0066CC0099CC00CCCC00FFCC3300CC3333CC3366CC3399CC33CCCC33FFCC6600CC6633CC6666CC6699CC66CCCC66FFCC9900CC9933CC9966CC9999CC99CCCC99FFCCCC00CCCC33CCCC66CCCC99CCCCCCCCCCFFCCFF00CCFF33CCFF66CCFF99CCFFCCCCFFFFFF0000FF0033FF0066FF0099FF00CCFF00FFFF3300FF3333
310
FF3366FF3399FF33CCFF33FFFF6600FF6633FF6666FF6699FF66CCFF66FFFF9900FF9933FF9966FF9999FF99CCFF99FFFFCC00FFCC33FFCC66FFCC99FFCCCCFFCCFFFFFF00FFFF33FFFF66FFFF99FFFFCCFFFFFF0000000D0D0D1A1A1A2828283535354343435050505D5D5D6B6B6B787878868686939393A1A1A1AEAEAEBB
310
BBBBC9C9C9D6D6D6E4E4E4F1F1F1FFFFFF0000000000000000000000000000000000000000000000000000000000002E4550F10000009C4944415478DAEDD7310E84300C4541EE7FDFF42BA8D804212A84F4662A4034F918C7D936000000000000000078661C04200020DB03042000A80F426702108000A0FC0BBC49FEF0B1
310
1E70F7A6007A85313FA9253015C04815C15202B57D7B0D20D605D6EF6D7033300800483701DB407BFDB1B3C0C5613815C0C55160F41238F7BDFD32771AFC5BF1741B6D03B4C78021000000000000000080D7FC00E1FF54C4334C1CC20000000049454E44AE426082
  0
ENDSEC
  0
EOF
