  0
SECTION
  2
HEADER
  9
$ACADVER
  1
AC1027
  9
$ACADMAINTVER
 70
   125
  9
$DWGCODEPAGE
  3
ANSI_1252
  9
$LASTSAVEDBY
  1
carolina.coriani
  9
$REQUIREDVERSIONS
160
                 0
  9
$INSBASE
 10
0.0
 20
0.0
 30
0.0
  9
$EXTMIN
 10
25.82705008937129
 20
-7237.856858676399
 30
0.0
  9
$EXTMAX
 10
24762.62379898487
 20
22001.46988038763
 30
0.0
  9
$LIMMIN
 10
0.0
 20
0.0
  9
$LIMMAX
 10
12.0
 20
9.0
  9
$ORTHOMODE
 70
     0
  9
$REGENMODE
 70
     1
  9
$FILLMODE
 70
     1
  9
$QTEXTMODE
 70
     0
  9
$MIRRTEXT
 70
     0
  9
$LTSCALE
 40
1.0
  9
$ATTMODE
 70
     1
  9
$TEXTSIZE
 40
0.2
  9
$TRACEWID
 40
0.05
  9
$TEXTSTYLE
  7
Standard
  9
$CLAYER
  8
0
  9
$CELTYPE
  6
ByLayer
  9
$CECOLOR
 62
   256
  9
$CELTSCALE
 40
1.0
  9
$DISPSILH
 70
     0
  9
$DIMSCALE
 40
1.0
  9
$DIMASZ
 40
0.18
  9
$DIMEXO
 40
0.0625
  9
$DIMDLI
 40
0.38
  9
$DIMRND
 40
0.0
  9
$DIMDLE
 40
0.0
  9
$DIMEXE
 40
0.18
  9
$DIMTP
 40
0.0
  9
$DIMTM
 40
0.0
  9
$DIMTXT
 40
0.18
  9
$DIMCEN
 40
0.09
  9
$DIMTSZ
 40
0.0
  9
$DIMTOL
 70
     0
  9
$DIMLIM
 70
     0
  9
$DIMTIH
 70
     1
  9
$DIMTOH
 70
     1
  9
$DIMSE1
 70
     0
  9
$DIMSE2
 70
     0
  9
$DIMTAD
 70
     0
  9
$DIMZIN
 70
     0
  9
$DIMBLK
  1

  9
$DIMASO
 70
     1
  9
$DIMSHO
 70
     1
  9
$DIMPOST
  1

  9
$DIMAPOST
  1

  9
$DIMALT
 70
     0
  9
$DIMALTD
 70
     2
  9
$DIMALTF
 40
25.4
  9
$DIMLFAC
 40
1.0
  9
$DIMTOFL
 70
     0
  9
$DIMTVP
 40
0.0
  9
$DIMTIX
 70
     0
  9
$DIMSOXD
 70
     0
  9
$DIMSAH
 70
     0
  9
$DIMBLK1
  1

  9
$DIMBLK2
  1

  9
$DIMSTYLE
  2
Standard
  9
$DIMCLRD
 70
     0
  9
$DIMCLRE
 70
     0
  9
$DIMCLRT
 70
     0
  9
$DIMTFAC
 40
1.0
  9
$DIMGAP
 40
0.09
  9
$DIMJUST
 70
     0
  9
$DIMSD1
 70
     0
  9
$DIMSD2
 70
     0
  9
$DIMTOLJ
 70
     1
  9
$DIMTZIN
 70
     0
  9
$DIMALTZ
 70
     0
  9
$DIMALTTZ
 70
     0
  9
$DIMUPT
 70
     0
  9
$DIMDEC
 70
     4
  9
$DIMTDEC
 70
     4
  9
$DIMALTU
 70
     2
  9
$DIMALTTD
 70
     2
  9
$DIMTXSTY
  7
Standard
  9
$DIMAUNIT
 70
     0
  9
$DIMADEC
 70
     0
  9
$DIMALTRND
 40
0.0
  9
$DIMAZIN
 70
     0
  9
$DIMDSEP
 70
    46
  9
$DIMATFIT
 70
     3
  9
$DIMFRAC
 70
     0
  9
$DIMLDRBLK
  1

  9
$DIMLUNIT
 70
     2
  9
$DIMLWD
 70
    -2
  9
$DIMLWE
 70
    -2
  9
$DIMTMOVE
 70
     0
  9
$DIMFXL
 40
1.0
  9
$DIMFXLON
 70
     0
  9
$DIMJOGANG
 40
0.7853981633974483
  9
$DIMTFILL
 70
     0
  9
$DIMTFILLCLR
 70
     0
  9
$DIMARCSYM
 70
     0
  9
$DIMLTYPE
  6

  9
$DIMLTEX1
  6

  9
$DIMLTEX2
  6

  9
$DIMTXTDIRECTION
 70
     0
  9
$LUNITS
 70
     2
  9
$LUPREC
 70
     4
  9
$SKETCHINC
 40
0.1
  9
$FILLETRAD
 40
17.5
  9
$AUNITS
 70
     0
  9
$AUPREC
 70
     0
  9
$MENU
  1
.
  9
$ELEVATION
 40
0.0
  9
$PELEVATION
 40
0.0
  9
$THICKNESS
 40
0.0
  9
$LIMCHECK
 70
     0
  9
$CHAMFERA
 40
0.0
  9
$CHAMFERB
 40
0.0
  9
$CHAMFERC
 40
0.0
  9
$CHAMFERD
 40
0.0
  9
$SKPOLY
 70
     0
  9
$TDCREATE
 40
2458337.550706019
  9
$TDUCREATE
 40
2458337.134039352
  9
$TDUPDATE
 40
2458639.516192130
  9
$TDUUPDATE
 40
2458639.099525463
  9
$TDINDWG
 40
1.2270138889
  9
$TDUSRTIMER
 40
1.2270138889
  9
$USRTIMER
 70
     1
  9
$ANGBASE
 50
0.0
  9
$ANGDIR
 70
     0
  9
$PDMODE
 70
     0
  9
$PDSIZE
 40
0.0
  9
$PLINEWID
 40
0.0
  9
$SPLFRAME
 70
     0
  9
$SPLINETYPE
 70
     6
  9
$SPLINESEGS
 70
     8
  9
$HANDSEED
  5
B64
  9
$SURFTAB1
 70
     6
  9
$SURFTAB2
 70
     6
  9
$SURFTYPE
 70
     6
  9
$SURFU
 70
     6
  9
$SURFV
 70
     6
  9
$UCSBASE
  2

  9
$UCSNAME
  2

  9
$UCSORG
 10
-154.147617262206
 20
-11023.5540621646
 30
0.0
  9
$UCSXDIR
 10
1.0
 20
0.0
 30
0.0
  9
$UCSYDIR
 10
0.0
 20
1.0
 30
0.0
  9
$UCSORTHOREF
  2

  9
$UCSORTHOVIEW
 70
     0
  9
$UCSORGTOP
 10
0.0
 20
0.0
 30
0.0
  9
$UCSORGBOTTOM
 10
0.0
 20
0.0
 30
0.0
  9
$UCSORGLEFT
 10
0.0
 20
0.0
 30
0.0
  9
$UCSORGRIGHT
 10
0.0
 20
0.0
 30
0.0
  9
$UCSORGFRONT
 10
0.0
 20
0.0
 30
0.0
  9
$UCSORGBACK
 10
0.0
 20
0.0
 30
0.0
  9
$PUCSBASE
  2

  9
$PUCSNAME
  2

  9
$PUCSORG
 10
0.0
 20
0.0
 30
0.0
  9
$PUCSXDIR
 10
1.0
 20
0.0
 30
0.0
  9
$PUCSYDIR
 10
0.0
 20
1.0
 30
0.0
  9
$PUCSORTHOREF
  2

  9
$PUCSORTHOVIEW
 70
     0
  9
$PUCSORGTOP
 10
0.0
 20
0.0
 30
0.0
  9
$PUCSORGBOTTOM
 10
0.0
 20
0.0
 30
0.0
  9
$PUCSORGLEFT
 10
0.0
 20
0.0
 30
0.0
  9
$PUCSORGRIGHT
 10
0.0
 20
0.0
 30
0.0
  9
$PUCSORGFRONT
 10
0.0
 20
0.0
 30
0.0
  9
$PUCSORGBACK
 10
0.0
 20
0.0
 30
0.0
  9
$USERI1
 70
     0
  9
$USERI2
 70
     0
  9
$USERI3
 70
     0
  9
$USERI4
 70
     0
  9
$USERI5
 70
     0
  9
$USERR1
 40
0.0
  9
$USERR2
 40
0.0
  9
$USERR3
 40
0.0
  9
$USERR4
 40
0.0
  9
$USERR5
 40
0.0
  9
$WORLDVIEW
 70
     1
  9
$SHADEDGE
 70
     3
  9
$SHADEDIF
 70
    70
  9
$TILEMODE
 70
     1
  9
$MAXACTVP
 70
    64
  9
$PINSBASE
 10
0.0
 20
0.0
 30
0.0
  9
$PLIMCHECK
 70
     0
  9
$PEXTMIN
 10
0.0
 20
0.0
 30
0.0
  9
$PEXTMAX
 10
0.0
 20
0.0
 30
0.0
  9
$PLIMMIN
 10
0.0
 20
0.0
  9
$PLIMMAX
 10
12.0
 20
9.0
  9
$UNITMODE
 70
     0
  9
$VISRETAIN
 70
     1
  9
$PLINEGEN
 70
     0
  9
$PSLTSCALE
 70
     1
  9
$TREEDEPTH
 70
  3020
  9
$CMLSTYLE
  2
Standard
  9
$CMLJUST
 70
     0
  9
$CMLSCALE
 40
1.0
  9
$PROXYGRAPHICS
 70
     1
  9
$MEASUREMENT
 70
     0
  9
$CELWEIGHT
370
    -1
  9
$ENDCAPS
280
     0
  9
$JOINSTYLE
280
     0
  9
$LWDISPLAY
290
     0
  9
$INSUNITS
 70
     1
  9
$HYPERLINKBASE
  1

  9
$STYLESHEET
  1

  9
$XEDIT
290
     1
  9
$CEPSNTYPE
380
     0
  9
$PSTYLEMODE
290
     1
  9
$FINGERPRINTGUID
  2
{17D2DEB9-D0F4-654E-9C83-2ACD69BEA4B3}
  9
$VERSIONGUID
  2
{07B75342-6112-8145-B196-A0BFB9A3E4B8}
  9
$EXTNAMES
290
     1
  9
$PSVPSCALE
 40
0.0
  9
$OLESTARTUP
290
     0
  9
$SORTENTS
280
   127
  9
$INDEXCTL
280
     0
  9
$HIDETEXT
280
     1
  9
$XCLIPFRAME
280
     2
  9
$HALOGAP
280
     0
  9
$OBSCOLOR
 70
   257
  9
$OBSLTYPE
280
     0
  9
$INTERSECTIONDISPLAY
280
     0
  9
$INTERSECTIONCOLOR
 70
   257
  9
$DIMASSOC
280
     2
  9
$PROJECTNAME
  1

  9
$CAMERADISPLAY
290
     0
  9
$LENSLENGTH
 40
50.0
  9
$CAMERAHEIGHT
 40
0.0
  9
$STEPSPERSEC
 40
2.0
  9
$STEPSIZE
 40
6.0
  9
$3DDWFPREC
 40
2.0
  9
$PSOLWIDTH
 40
0.25
  9
$PSOLHEIGHT
 40
4.0
  9
$LOFTANG1
 40
1.570796326794896
  9
$LOFTANG2
 40
1.570796326794896
  9
$LOFTMAG1
 40
0.0
  9
$LOFTMAG2
 40
0.0
  9
$LOFTPARAM
 70
     7
  9
$LOFTNORMALS
280
     1
  9
$LATITUDE
 40
37.795
  9
$LONGITUDE
 40
-122.394
  9
$NORTHDIRECTION
 40
0.0
  9
$TIMEZONE
 70
 -8000
  9
$LIGHTGLYPHDISPLAY
280
     1
  9
$TILEMODELIGHTSYNCH
280
     1
  9
$CMATERIAL
347
96
  9
$SOLIDHIST
280
     0
  9
$SHOWHIST
280
     1
  9
$DWFFRAME
280
     2
  9
$DGNFRAME
280
     0
  9
$REALWORLDSCALE
290
     1
  9
$INTERFERECOLOR
 62
     1
  9
$INTERFEREOBJVS
345
A3
  9
$INTERFEREVPVS
346
A0
  9
$CSHADOW
280
     0
  9
$SHADOWPLANELOCATION
 40
0.0
  0
ENDSEC
  0
SECTION
  2
CLASSES
  0
CLASS
  1
ACDBDICTIONARYWDFLT
  2
AcDbDictionaryWithDefault
  3
ObjectDBX Classes
 90
        0
 91
        1
280
     0
281
     0
  0
CLASS
  1
DICTIONARYVAR
  2
AcDbDictionaryVar
  3
ObjectDBX Classes
 90
        0
 91
        9
280
     0
281
     0
  0
CLASS
  1
TABLESTYLE
  2
AcDbTableStyle
  3
ObjectDBX Classes
 90
     4095
 91
        1
280
     0
281
     0
  0
CLASS
  1
MATERIAL
  2
AcDbMaterial
  3
ObjectDBX Classes
 90
     1153
 91
        3
280
     0
281
     0
  0
CLASS
  1
VISUALSTYLE
  2
AcDbVisualStyle
  3
ObjectDBX Classes
 90
     4095
 91
       24
280
     0
281
     0
  0
CLASS
  1
SCALE
  2
AcDbScale
  3
ObjectDBX Classes
 90
     1153
 91
       33
280
     0
281
     0
  0
CLASS
  1
MLEADERSTYLE
  2
AcDbMLeaderStyle
  3
ACDB_MLEADERSTYLE_CLASS
 90
     4095
 91
        2
280
     0
281
     0
  0
CLASS
  1
CELLSTYLEMAP
  2
AcDbCellStyleMap
  3
ObjectDBX Classes
 90
     1152
 91
        1
280
     0
281
     0
  0
CLASS
  1
EXACXREFPANELOBJECT
  2
ExAcXREFPanelObject
  3
EXAC_ESW
 90
     1025
 91
        0
280
     0
281
     0
  0
CLASS
  1
NPOCOLLECTION
  2
AcDbImpNonPersistentObjectsCollection
  3
ObjectDBX Classes
 90
     1153
 91
        0
280
     0
281
     0
  0
CLASS
  1
LAYER_INDEX
  2
AcDbLayerIndex
  3
ObjectDBX Classes
 90
        0
 91
        0
280
     0
281
     0
  0
CLASS
  1
SPATIAL_INDEX
  2
AcDbSpatialIndex
  3
ObjectDBX Classes
 90
        0
 91
        0
280
     0
281
     0
  0
CLASS
  1
IDBUFFER
  2
AcDbIdBuffer
  3
ObjectDBX Classes
 90
        0
 91
        0
280
     0
281
     0
  0
CLASS
  1
ACDBSECTIONVIEWSTYLE
  2
AcDbSectionViewStyle
  3
ObjectDBX Classes
 90
     1025
 91
        4
280
     0
281
     0
  0
CLASS
  1
ACDBDETAILVIEWSTYLE
  2
AcDbDetailViewStyle
  3
ObjectDBX Classes
 90
     1025
 91
        4
280
     0
281
     0
  0
CLASS
  1
SORTENTSTABLE
  2
AcDbSortentsTable
  3
ObjectDBX Classes
 90
        0
 91
        3
280
     0
281
     0
  0
CLASS
  1
ACME_DOCUMENT
  2
AcMeDbDoc
  3
AcMeServices
 90
     1024
 91
        2
280
     0
281
     0
  0
CLASS
  1
AMGSETTINGSOBJ
  2
AmgSettingsObj
  3
"AcadM|Product Description: AutoCAD Mechanical|Company: Autodesk, Inc."
 90
     1024
 91
        2
280
     0
281
     0
  0
CLASS
  1
ACMESCOPE
  2
AcMeScope
  3
AcMeServices
 90
     1024
 91
        1
280
     0
281
     0
  0
CLASS
  1
ACMECOMMANDHISTORY
  2
AcMeCommandHistory
  3
AcMeServices
 90
     1024
 91
        1
280
     0
281
     0
  0
CLASS
  1
ACIMSYSVARMAN
  2
AcImSysVarManager
  3
AcMeServices
 90
     1024
 91
        3
280
     0
281
     0
  0
CLASS
  1
ACIMINTSYSVAR
  2
AcImIntSysVar
  3
AcMeServices
 90
     1024
 91
        2
280
     0
281
     0
  0
CLASS
  1
ACMESTATEMGR
  2
AcMeStateMgr
  3
AcMeServices
 90
     1024
 91
        1
280
     0
281
     0
  0
CLASS
  1
ACDBENTITYCACHE
  2
AcMeEntityCache
  3
AcMeServices
 90
     1024
 91
        1
280
     0
281
     0
  0
CLASS
  1
ACGREFMASTER
  2
AcGrefMaster
  3
AcAttribServices
 90
     1024
 91
        1
280
     0
281
     0
  0
CLASS
  1
ACME_DATABASE
  2
AcMeDbDatabase
  3
AcMeServices
 90
     1024
 91
        1
280
     0
281
     0
  0
CLASS
  1
ACRFINSADJUSTERMGR
  2
AcRfInsAdjusterMgr
  3
AcMeServices
 90
     1024
 91
        1
280
     0
281
     0
  0
CLASS
  1
ACGREFACADMASTER
  2
AcGrefacadMaster
  3
AcGrefServices
 90
     1024
 91
        1
280
     0
281
     0
  0
CLASS
  1
AMIMASTER
  2
AmiMaster
  3
AmiServices
 90
     1024
 91
        1
280
     0
281
     0
  0
CLASS
  1
AMDTMENUSTATEMGR
  2
AmdtMenuStateMgr
  3
McadcomServices
 90
     1024
 91
        1
280
     0
281
     0
  0
CLASS
  1
AMDTMCOMMENUSTATE
  2
AmdtMcomMenuState
  3
McadcomServices
 90
     1024
 91
        1
280
     0
281
     0
  0
CLASS
  1
MAPIAMMOUDLE
  2
MApiAmModule
  3
MApiAmServices
 90
     1024
 91
        1
280
     0
281
     0
  0
CLASS
  1
ACIMSTRSYSVAR
  2
AcImStrSysVar
  3
AcMeServices
 90
     1024
 91
        5
280
     0
281
     0
  0
CLASS
  1
AMDTAMMENUSTATE
  2
AmdtAmMenuState
  3
DesignerAssemblies_arx
 90
     1024
 91
        1
280
     0
281
     0
  0
CLASS
  1
ACAMPROJECT
  2
AcAmProject
  3
DesignerAssemblies
 90
     1024
 91
        1
280
     0
281
     0
  0
CLASS
  1
ACAMGRCOMPDEF
  2
AcAmGrCompDef
  3
DesignerAssemblies
 90
     1024
 91
        1
280
     0
281
     0
  0
CLASS
  1
ACAMCOMPDEF
  2
AcAmCompDef
  3
DesignerAssemblies
 90
     1024
 91
        1
280
     0
281
     0
  0
CLASS
  1
ACAMCOMPDEFMGR
  2
AcAmCompDefMgr
  3
DesignerAssemblies
 90
     1024
 91
        1
280
     0
281
     0
  0
CLASS
  1
AMCONTEXTMGR
  2
AcAmContextMgr
  3
DesignerAssemblies
 90
     1024
 91
        1
280
     0
281
     0
  0
CLASS
  1
ACAMCONTEXTMODELER
  2
AcAmContextModeler
  3
DesignerAssemblies
 90
     1024
 91
        1
280
     0
281
     0
  0
CLASS
  1
ACMDATADICTIONARY
  2
AcmDataDictionary
  3
"AcmSymBB|Product Description: AutoCAD Mechanical|Company: Autodesk, Inc."
 90
     1024
 91
        1
280
     0
281
     0
  0
CLASS
  1
ACAMGRCOMPDEFSET
  2
AcAmGrCompDefSet
  3
DesignerAssemblies
 90
     1024
 91
        1
280
     0
281
     0
  0
CLASS
  1
AMDTBROWSERDBTAB
  2
AmdtBrowserDbTab
  3
McadcomServices
 90
     1024
 91
        1
280
     0
281
     0
  0
CLASS
  1
CBROWSERAPPOBJECT
  2
CBrowserAppObject
  3
McadcomServices
 90
     1024
 91
        2
280
     0
281
     0
  0
CLASS
  1
DM_PLACEHOLDER
  2
AcDmSelsetPlaceholder
  3
McadcomServices
 90
     1024
 91
        1
280
     0
281
     0
  0
CLASS
  1
ACMSTANDARDANSI
  2
AcmStandardANSI
  3
"Amdt_StdImp|Product Description: AutoCAD Mechanical|Company: Autodesk, Inc."
 90
     1024
 91
        1
280
     0
281
     0
  0
CLASS
  1
ACMSURFSTANDARDANSI
  2
AcmSurfTextStdANSI
  3
"Amdt_StdImp|Product Description: AutoCAD Mechanical|Company: Autodesk, Inc."
 90
     1024
 91
        1
280
     0
281
     0
  0
CLASS
  1
ACMFCFSTANDARDANSI
  2
AcmFCFStdANSI
  3
"Amdt_StdImp|Product Description: AutoCAD Mechanical|Company: Autodesk, Inc."
 90
     1024
 91
        1
280
     0
281
     0
  0
CLASS
  1
ACMWELDSTANDARDANSI
  2
AcmWeldingStdANSI
  3
"Amdt_StdImp|Product Description: AutoCAD Mechanical|Company: Autodesk, Inc."
 90
     1024
 91
        1
280
     0
281
     0
  0
CLASS
  1
ACMIDSTANDARDANSI
  2
AcmIdStdANSI
  3
"Amdt_StdImp|Product Description: AutoCAD Mechanical|Company: Autodesk, Inc."
 90
     1024
 91
        1
280
     0
281
     0
  0
CLASS
  1
ACMDATUMSTANDARDANSI
  2
AcmDatumStdANSI
  3
"Amdt_StdImp|Product Description: AutoCAD Mechanical|Company: Autodesk, Inc."
 90
     1024
 91
        1
280
     0
281
     0
  0
CLASS
  1
ACMBOMSTANDARDANSI
  2
AcmBOMStdANSI
  3
"Amdt_StdImp|Product Description: AutoCAD Mechanical|Company: Autodesk, Inc."
 90
     1024
 91
        1
280
     0
281
     0
  0
CLASS
  1
ACMDETAILSTANDARDANSI
  2
AmdtDetailSymStdANSI
  3
"Amdt_StdImp|Product Description: AutoCAD Mechanical|Company: Autodesk, Inc."
 90
     1024
 91
        1
280
     0
281
     0
  0
CLASS
  1
ACMSECTIONSTANDARDANSI
  2
AmdtSectionSymStdANSI
  3
"Amdt_StdImp|Product Description: AutoCAD Mechanical|Company: Autodesk, Inc."
 90
     1024
 91
        1
280
     0
281
     0
  0
CLASS
  1
ACMCENTERLINESTANDARDANSI
  2
AmdtCenterLineStdANSI
  3
"Amdt_StdImp|Product Description: AutoCAD Mechanical|Company: Autodesk, Inc."
 90
     1024
 91
        1
280
     0
281
     0
  0
CLASS
  1
ACMTHREADLINESTANDARDANSI
  2
AmdtThreadLineStdANSI
  3
"Amdt_StdImp|Product Description: AutoCAD Mechanical|Company: Autodesk, Inc."
 90
     1024
 91
        1
280
     0
281
     0
  0
CLASS
  1
ACMNOTESTANDARDANSI
  2
AmdtNoteStdANSI
  3
"Amdt_StdImp|Product Description: AutoCAD Mechanical|Company: Autodesk, Inc."
 90
     1024
 91
        1
280
     0
281
     0
  0
CLASS
  1
ACMTAPERSTANDARDANSI
  2
AcmTaperStdANSI
  3
"Amdt_StdImp|Product Description: AutoCAD Mechanical|Company: Autodesk, Inc."
 90
     1024
 91
        1
280
     0
281
     0
  0
CLASS
  1
ACMANOOTATIONVIEWSTANDARDANSI
  2
AmdtAnViewStdANSI
  3
"Amdt_StdImp|Product Description: AutoCAD Mechanical|Company: Autodesk, Inc."
 90
     1024
 91
        1
280
     0
281
     0
  0
CLASS
  1
ACAMGLAYSTD
  2
AcAmgLayStd
  3
"AmgLay|Product Description: AutoCAD Mechanical|Company: Autodesk, Inc."
 90
     1024
 91
        2
280
     0
281
     0
  0
CLASS
  1
ACAMGDIMSTD
  2
AcAmgDimStd
  3
"AmgDim|Product Description: AutoCAD Mechanical|Company: Autodesk, Inc."
 90
     1024
 91
        2
280
     0
281
     0
  0
CLASS
  1
AMGOBJPROPCFG
  2
AmgObjPropCfg
  3
"AmgLay|Product Description: AutoCAD Mechanical|Company: Autodesk, Inc."
 90
     1024
 91
        1
280
     0
281
     0
  0
CLASS
  1
ACAMGHOLECHARTSTDANSI
  2
AcAmgHoleChartStdANSI
  3
"AmgDim" "Product Description: AutoCAD Mechanical|Company: Autodesk, Inc."
 90
     1024
 91
        1
280
     0
281
     0
  0
CLASS
  1
ACAMGTITLESTD
  2
AcAmgTitleStd
  3
"AmgTitle|Product Description: AutoCAD Mechanical|Company: Autodesk, Inc."
 90
     1024
 91
        2
280
     0
281
     0
  0
CLASS
  1
ACMSECTIONSTANDARDCUSTOM
  2
AmdtSectionSymStdCustom
  3
"Amdt_StdImp|Product Description: AutoCAD Mechanical|Company: Autodesk, Inc."
 90
     1024
 91
        4
280
     0
281
     0
  0
CLASS
  1
ACMDETAILTANDARDCUSTOM
  2
AmdtDetailSymStdCustom
  3
"Amdt_StdImp|Product Description: AutoCAD Mechanical|Company: Autodesk, Inc."
 90
     1024
 91
        4
280
     0
281
     0
  0
CLASS
  1
FIELD
  2
AcDbField
  3
ObjectDBX Classes
 90
     1152
 91
        7
280
     0
281
     0
  0
CLASS
  1
FIELDLIST
  2
AcDbFieldList
  3
ObjectDBX Classes
 90
     1152
 91
        1
280
     0
281
     0
  0
CLASS
  1
AMDTNOTETEMPLATEDB
  2
AmdtNoteTemplateDB
  3
"AcmSymBB" "Product Description: AutoCAD Mechanical|Company: Autodesk, Inc."
 90
     1024
 91
       14
280
     0
281
     0
  0
CLASS
  1
ACAMGFILTERDAT
  2
AcAmgFilterDat
  3
"AcadM|Product Description: AutoCAD Mechanical|Company: Autodesk, Inc."
 90
     1024
 91
        6
280
     0
281
     0
  0
CLASS
  1
CAMSSTRUCTBTNSTATE
  2
StructBtnState
  3
DesignerAssemblies_arx
 90
     1024
 91
        1
280
     0
281
     0
  0
CLASS
  1
ACMSTANDARDISO
  2
AcmStandardISO
  3
"Amdt_StdImp|Product Description: AutoCAD Mechanical|Company: Autodesk, Inc."
 90
     1024
 91
        1
280
     0
281
     0
  0
CLASS
  1
AMDTEDGESTANDARDISO13715
  2
AmdtEdgeStdISO13715
  3
"Amdt_StdImp|Product Description: AutoCAD Mechanical|Company: Autodesk, Inc."
 90
     1024
 91
        1
280
     0
281
     0
  0
CLASS
  1
ACMSURFSTANDARDISO2002
  2
AcmSurfTextStdISO2002
  3
"Amdt_StdImp|Product Description: AutoCAD Mechanical|Company: Autodesk, Inc."
 90
     1024
 91
        1
280
     0
281
     0
  0
CLASS
  1
ACMFCFSTANDARDISO2012
  2
AcmFCFStdISO2012
  3
"Amdt_StdImp|Product Description: AutoCAD Mechanical|Company: Autodesk, Inc."
 90
     1024
 91
        1
280
     0
281
     0
  0
CLASS
  1
ACMWELDSTANDARDISO
  2
AcmWeldingStdISO
  3
"Amdt_StdImp|Product Description: AutoCAD Mechanical|Company: Autodesk, Inc."
 90
     1024
 91
        1
280
     0
281
     0
  0
CLASS
  1
ACMIDSTANDARDISO2012
  2
AcmIdStdISO2012
  3
"Amdt_StdImp|Product Description: AutoCAD Mechanical|Company: Autodesk, Inc."
 90
     1024
 91
        1
280
     0
281
     0
  0
CLASS
  1
ACMDATUMSTANDARDISO2012
  2
AcmDatumStdISO2012
  3
"Amdt_StdImp|Product Description: AutoCAD Mechanical|Company: Autodesk, Inc."
 90
     1024
 91
        1
280
     0
281
     0
  0
CLASS
  1
ACMBOMSTANDARDISO
  2
AcmBOMStdISO
  3
"Amdt_StdImp|Product Description: AutoCAD Mechanical|Company: Autodesk, Inc."
 90
     1024
 91
        1
280
     0
281
     0
  0
CLASS
  1
ACMDETAILSTANDARDISO
  2
AmdtDetailSymStdISO
  3
"Amdt_StdImp|Product Description: AutoCAD Mechanical|Company: Autodesk, Inc."
 90
     1024
 91
        1
280
     0
281
     0
  0
CLASS
  1
ACMSECTIONSTANDARDISO2001
  2
AmdtSectionSymStdISO2001
  3
"Amdt_StdImp|Product Description: AutoCAD Mechanical|Company: Autodesk, Inc."
 90
     1024
 91
        1
280
     0
281
     0
  0
CLASS
  1
ACMCENTERLINESTANDARDISO
  2
AmdtCenterLineStdISO
  3
"Amdt_StdImp|Product Description: AutoCAD Mechanical|Company: Autodesk, Inc."
 90
     1024
 91
        1
280
     0
281
     0
  0
CLASS
  1
ACMTHREADLINESTANDARDISO
  2
AmdtThreadLineStdISO
  3
"Amdt_StdImp|Product Description: AutoCAD Mechanical|Company: Autodesk, Inc."
 90
     1024
 91
        1
280
     0
281
     0
  0
CLASS
  1
ACMNOTESTANDARDISO
  2
AmdtNoteStdISO
  3
"Amdt_StdImp|Product Description: AutoCAD Mechanical|Company: Autodesk, Inc."
 90
     1024
 91
        1
280
     0
281
     0
  0
CLASS
  1
ACMTAPERSTANDARDISO
  2
AcmTaperStdISO
  3
"Amdt_StdImp|Product Description: AutoCAD Mechanical|Company: Autodesk, Inc."
 90
     1024
 91
        1
280
     0
281
     0
  0
CLASS
  1
ACMANOOTATIONVIEWSTANDARDISO
  2
AmdtAnViewStdISO
  3
"Amdt_StdImp|Product Description: AutoCAD Mechanical|Company: Autodesk, Inc."
 90
     1024
 91
        1
280
     0
281
     0
  0
CLASS
  1
ACAMGHOLECHARTSTDISO
  2
AcAmgHoleChartStdISO
  3
"AmgDim" "Product Description: AutoCAD Mechanical|Company: Autodesk, Inc."
 90
     1024
 91
        1
280
     0
281
     0
  0
CLASS
  1
RAPIDRTRENDERSETTINGS
  2
AcDbRapidRTRenderSettings
  3
ObjectDBX Classes
 90
     1024
 91
        7
280
     0
281
     0
  0
CLASS
  1
MENTALRAYRENDERSETTINGS
  2
AcDbMentalRayRenderSettings
  3
SCENEOE
 90
     1024
 91
        1
280
     0
281
     0
  0
ENDSEC
  0
SECTION
  2
TABLES
  0
TABLE
  2
VPORT
  5
8
330
0
100
AcDbSymbolTable
 70
     1
1001
ACAD
1000
DbSaveVer
1071
      123
  0
VPORT
  5
94
330
8
100
AcDbSymbolTableRecord
100
AcDbViewportTableRecord
  2
*Active
 70
     0
 10
0.0
 20
0.0
 11
1.0
 21
1.0
 12
12663.11449367932
 22
4023.658104900852
 13
0.0
 23
0.0
 14
0.5
 24
0.5
 15
0.5
 25
0.5
 16
0.0
 26
0.0
 36
1.0
 17
0.0
 27
0.0
 37
0.0
 40
50972.07610873133
 41
2.153519932145886
 42
50.0
 43
0.0
 44
0.0
 50
0.0
 51
0.0
 71
     0
 72
  1000
 73
     1
 74
     3
 75
     0
 76
     1
 77
     0
 78
     0
281
     0
 65
     1
110
-154.147617262206
120
-11023.5540621646
130
0.0
111
1.0
121
0.0
131
0.0
112
0.0
122
1.0
132
0.0
 79
     0
146
0.0
348
9F
 60
     3
 61
     5
292
     1
282
     1
141
0.0
142
0.0
 63
   250
421
  3355443
1001
ACAD_NAV_VCDISPLAY
1070
     3
  0
ENDTAB
  0
TABLE
  2
LTYPE
  5
5
330
0
100
AcDbSymbolTable
 70
    19
  0
LTYPE
  5
14
330
5
100
AcDbSymbolTableRecord
100
AcDbLinetypeTableRecord
  2
ByBlock
 70
     0
  3

 72
    65
 73
     0
 40
0.0
  0
LTYPE
  5
15
330
5
100
AcDbSymbolTableRecord
100
AcDbLinetypeTableRecord
  2
ByLayer
 70
     0
  3

 72
    65
 73
     0
 40
0.0
  0
LTYPE
  5
16
330
5
100
AcDbSymbolTableRecord
100
AcDbLinetypeTableRecord
  2
Continuous
 70
     0
  3
Solid line
 72
    65
 73
     0
 40
0.0
  0
LTYPE
  5
3BE
330
5
100
AcDbSymbolTableRecord
100
AcDbLinetypeTableRecord
  2
HIDDEN
 70
     0
  3
Hidden __ __ __ __ __ __ __ __ __ __ __ __ __ _
 72
    65
 73
     2
 40
0.375
 49
0.25
 74
     0
 49
-0.125
 74
     0
  0
LTYPE
  5
3BF
330
5
100
AcDbSymbolTableRecord
100
AcDbLinetypeTableRecord
  2
PHANTOM2
 70
     0
  3
Phantom (.5x) ___ _ _ ___ _ _ ___ _ _ ___ _ _
 72
    65
 73
     6
 40
1.25
 49
0.625
 74
     0
 49
-0.125
 74
     0
 49
0.125
 74
     0
 49
-0.125
 74
     0
 49
0.125
 74
     0
 49
-0.125
 74
     0
  0
LTYPE
  5
3C0
330
5
100
AcDbSymbolTableRecord
100
AcDbLinetypeTableRecord
  2
CENTER
 70
     0
  3
Center ____ _ ____ _ ____ _ ____ _ ____ _ ____
 72
    65
 73
     4
 40
2.0
 49
1.25
 74
     0
 49
-0.25
 74
     0
 49
0.25
 74
     0
 49
-0.25
 74
     0
  0
LTYPE
  5
3F9
330
5
100
AcDbSymbolTableRecord
100
AcDbLinetypeTableRecord
  2
AM_ISO02W050
 70
     0
  3
__ __ __ __ __ __ __ __ __ __ __ __ __ __ __
 72
    65
 73
     2
 40
7.5
 49
6.0
 74
     0
 49
-1.5
 74
     0
  0
LTYPE
  5
3FA
330
5
100
AcDbSymbolTableRecord
100
AcDbLinetypeTableRecord
  2
AM_ISO08W050
 70
     0
  3
____ . ____ . ____ . ____ . ____ . ____ . ____
 72
    65
 73
     4
 40
18.0
 49
12.0
 74
     0
 49
-1.5
 74
     0
 49
3.0
 74
     0
 49
-1.5
 74
     0
  0
LTYPE
  5
3FB
330
5
100
AcDbSymbolTableRecord
100
AcDbLinetypeTableRecord
  2
AM_ISO09W050
 70
     0
  3
_____ . . _____ . . _____ . . ____ .. ____
 72
    65
 73
     6
 40
22.5
 49
12.0
 74
     0
 49
-1.5
 74
     0
 49
3.0
 74
     0
 49
-1.5
 74
     0
 49
3.0
 74
     0
 49
-1.5
 74
     0
  0
LTYPE
  5
3FC
330
5
100
AcDbSymbolTableRecord
100
AcDbLinetypeTableRecord
  2
Amconstr
 70
     0
  3
_______________________
 72
    65
 73
     2
 40
9999.0
 49
9999.0
 74
     0
 49
0.0
 74
     0
  0
LTYPE
  5
3FD
330
5
100
AcDbSymbolTableRecord
100
AcDbLinetypeTableRecord
  2
AM_ISO08W050x2
 70
     0
  3
__ . __ . __ . __ . __ . __
 72
    65
 73
     4
 40
9.0
 49
6.0
 74
     0
 49
-0.75
 74
     0
 49
1.5
 74
     0
 49
-0.75
 74
     0
  0
LTYPE
  5
3FE
330
5
100
AcDbSymbolTableRecord
100
AcDbLinetypeTableRecord
  2
AM_ISO02W050x2
 70
     0
  3
 _ _ _ _ _ _ _ _ _ _ _ _
 72
    65
 73
     2
 40
3.75
 49
3.0
 74
     0
 49
-0.75
 74
     0
  0
LTYPE
  5
401
330
5
100
AcDbSymbolTableRecord
100
AcDbLinetypeTableRecord
  2
Amzigzag
 70
     0
  3
/\/-/\/-/\/-/\/-/\/-/\/
 72
    65
 73
     2
 40
11.0001
 49
0.0001
 74
     4
 75
   136
340
400
 46
0.04
 50
0.0
 44
0.0
 45
0.0
 49
-11.0
 74
     0
  0
LTYPE
  5
402
330
5
100
AcDbSymbolTableRecord
100
AcDbLinetypeTableRecord
  2
CENTER2
 70
     0
  3
Center (.5x) ___ _ ___ _ ___ _ ___ _ ___ _ ___
 72
    65
 73
     4
 40
1.125
 49
0.75
 74
     0
 49
-0.125
 74
     0
 49
0.125
 74
     0
 49
-0.125
 74
     0
  0
LTYPE
  5
403
330
5
100
AcDbSymbolTableRecord
100
AcDbLinetypeTableRecord
  2
HIDDEN2
 70
     0
  3
Hidden (.5x) _ _ _ _ _ _ _ _ _ _ _ _ _ _ _ _ _
 72
    65
 73
     2
 40
0.1875
 49
0.125
 74
     0
 49
-0.0625
 74
     0
  0
LTYPE
  5
404
330
5
100
AcDbSymbolTableRecord
100
AcDbLinetypeTableRecord
  2
Amzigzag2
 70
     0
  3
/\/-/\/-/\/-/\/-/\/-/\/
 72
    65
 73
     2
 40
0.4401
 49
0.0001
 74
     4
 75
   136
340
400
 46
0.0016
 50
0.0
 44
0.0
 45
0.0
 49
-0.4400000000000001
 74
     0
  0
LTYPE
  5
416
330
5
100
AcDbSymbolTableRecord
100
AcDbLinetypeTableRecord
  2
ACANSTGB
 70
     0
  3
__ . . __ . .
 72
    65
 73
     6
 40
0.35433070866
 49
0.15748031496
 74
     0
 49
-0.03937007874
 74
     0
 49
0.03937007874
 74
     0
 49
-0.03937007874
 74
     0
 49
0.03937007874
 74
     0
 49
-0.03937007874
 74
     0
  0
LTYPE
  5
417
330
5
100
AcDbSymbolTableRecord
100
AcDbLinetypeTableRecord
  2
ACANSTGL
 70
     0
  3
_ _ _ _ _
 72
    65
 73
     2
 40
0.11811023622
 49
0.07874015748
 74
     0
 49
-0.03937007874
 74
     0
  0
LTYPE
  5
436
330
5
100
AcDbSymbolTableRecord
100
AcDbLinetypeTableRecord
  2
ACISOWELD
 70
     0
  3
_ _ _ _ _
 72
    65
 73
     2
 40
2.0
 49
2.0
 74
     0
 49
-1.0
 74
     0
  0
LTYPE
  5
437
330
5
100
AcDbSymbolTableRecord
100
AcDbLinetypeTableRecord
  2
ACISOTGL
 70
     0
  3
_ _ _ _ _
 72
    65
 73
     2
 40
3.0
 49
2.0
 74
     0
 49
-1.0
 74
     0
  0
LTYPE
  5
438
330
5
100
AcDbSymbolTableRecord
100
AcDbLinetypeTableRecord
  2
ACISOTGB
 70
     0
  3
__ . . __ . .
 72
    65
 73
     6
 40
9.0
 49
4.0
 74
     0
 49
-1.0
 74
     0
 49
1.0
 74
     0
 49
-1.0
 74
     0
 49
1.0
 74
     0
 49
-1.0
 74
     0
  0
ENDTAB
  0
TABLE
  2
LAYER
  5
2
102
{ACAD_XDICTIONARY
360
18E
102
}
330
0
100
AcDbSymbolTable
 70
     4
  0
LAYER
  5
10
102
{ACAD_XDICTIONARY
360
E6
102
}
330
2
100
AcDbSymbolTableRecord
100
AcDbLayerTableRecord
  2
0
 70
     0
 62
     7
  6
Continuous
370
    -3
390
F
347
98
348
0
  0
LAYER
  5
259
330
2
100
AcDbSymbolTableRecord
100
AcDbLayerTableRecord
  2
LINE
 70
     0
 62
     7
  6
Continuous
370
     5
390
F
347
98
348
0
1001
AcAecLayerStandard
1000

1000

1001
AcCmTransparency
1071
        0
  0
LAYER
  5
439
330
2
100
AcDbSymbolTableRecord
100
AcDbLayerTableRecord
  2
STANDARDCUT
 70
     0
 62
   140
420
    49151
  6
Continuous
370
    -3
390
F
347
98
348
0
1001
AcAecLayerStandard
1000

1000

1001
AcCmTransparency
1071
        0
  0
LAYER
  5
43A
330
2
100
AcDbSymbolTableRecord
100
AcDbLayerTableRecord
  2
Visible (ANSI)
 70
     0
 62
     7
  6
Continuous
370
    50
390
F
347
98
348
0
  0
ENDTAB
  0
TABLE
  2
STYLE
  5
3
330
0
100
AcDbSymbolTable
 70
     6
  0
STYLE
  5
11
330
3
100
AcDbSymbolTableRecord
100
AcDbTextStyleTableRecord
  2
Standard
 70
     0
 40
0.0
 41
1.0
 50
0.0
 71
     0
 42
0.2
  3
arial_0.ttf
  4

1001
ACAD
1000
Arial
1071
       34
  0
STYLE
  5
DC
330
3
100
AcDbSymbolTableRecord
100
AcDbTextStyleTableRecord
  2
Annotative
 70
     0
 40
0.0
 41
1.0
 50
0.0
 71
     0
 42
0.2
  3
arial_0.ttf
  4

1001
AcadAnnotative
1000
AnnotativeData
1002
{
1070
     1
1070
     1
1002
}
1001
ACAD
1000
Arial
1071
       34
  0
STYLE
  5
400
330
3
100
AcDbSymbolTableRecord
100
AcDbTextStyleTableRecord
  2

 70
     1
 40
0.0
 41
1.0
 50
0.0
 71
     0
 42
0.2
  3
genltshp.shx
  4

  0
STYLE
  5
414
330
3
100
AcDbSymbolTableRecord
100
AcDbTextStyleTableRecord
  2
ACANSTS
 70
     0
 40
0.0
 41
1.0
 50
0.0
 71
     0
 42
0.2
  3
romans.shx
  4

  0
STYLE
  5
415
330
3
100
AcDbSymbolTableRecord
100
AcDbTextStyleTableRecord
  2
ACANSGDT
 70
     0
 40
0.0
 41
1.0
 50
0.0
 71
     0
 42
0.2
  3
amgdt.shx
  4

  0
STYLE
  5
43B
330
3
100
AcDbSymbolTableRecord
100
AcDbTextStyleTableRecord
  2
ACISOGDT
 70
     0
 40
0.0
 41
1.0
 50
0.0
 71
     0
 42
2.5
  3
amgdt.shx
  4

  0
ENDTAB
  0
TABLE
  2
VIEW
  5
6
330
0
100
AcDbSymbolTable
 70
     0
  0
ENDTAB
  0
TABLE
  2
UCS
  5
7
330
0
100
AcDbSymbolTable
 70
     0
  0
ENDTAB
  0
TABLE
  2
APPID
  5
9
330
0
100
AcDbSymbolTable
 70
    16
  0
APPID
  5
12
330
9
100
AcDbSymbolTableRecord
100
AcDbRegAppTableRecord
  2
ACAD
 70
     0
  0
APPID
  5
DD
330
9
100
AcDbSymbolTableRecord
100
AcDbRegAppTableRecord
  2
AcadAnnoPO
 70
     0
  0
APPID
  5
DE
330
9
100
AcDbSymbolTableRecord
100
AcDbRegAppTableRecord
  2
AcadAnnotative
 70
     0
  0
APPID
  5
DF
330
9
100
AcDbSymbolTableRecord
100
AcDbRegAppTableRecord
  2
ACAD_DSTYLE_DIMJAG
 70
     0
  0
APPID
  5
E0
330
9
100
AcDbSymbolTableRecord
100
AcDbRegAppTableRecord
  2
ACAD_DSTYLE_DIMTALN
 70
     0
  0
APPID
  5
107
330
9
100
AcDbSymbolTableRecord
100
AcDbRegAppTableRecord
  2
ACAD_MLEADERVER
 70
     0
  0
APPID
  5
1A6
330
9
100
AcDbSymbolTableRecord
100
AcDbRegAppTableRecord
  2
ACAD_NAV_VCDISPLAY
 70
     0
  0
APPID
  5
204
330
9
100
AcDbSymbolTableRecord
100
AcDbRegAppTableRecord
  2
ACAD_EXEMPT_FROM_CAD_STANDARDS
 70
     0
  0
APPID
  5
25B
330
9
100
AcDbSymbolTableRecord
100
AcDbRegAppTableRecord
  2
ACAD_PSEXT
 70
     0
  0
APPID
  5
25C
330
9
100
AcDbSymbolTableRecord
100
AcDbRegAppTableRecord
  2
AcAecLayerStandard
 70
     0
  0
APPID
  5
25D
330
9
100
AcDbSymbolTableRecord
100
AcDbRegAppTableRecord
  2
AcCmTransparency
 70
     0
  0
APPID
  5
3B7
330
9
100
AcDbSymbolTableRecord
100
AcDbRegAppTableRecord
  2
MCAD_NO_VIS
 70
     0
  0
APPID
  5
3B8
330
9
100
AcDbSymbolTableRecord
100
AcDbRegAppTableRecord
  2
ACAD_TEMP_GRAPHIC
 70
     0
  0
APPID
  5
3C5
330
9
100
AcDbSymbolTableRecord
100
AcDbRegAppTableRecord
  2
ACATTRIBSERVICES
 70
     0
  0
APPID
  5
3DD
330
9
100
AcDbSymbolTableRecord
100
AcDbRegAppTableRecord
  2
DESIGNERASSEMBLIES
 70
     0
  0
APPID
  5
3F7
330
9
100
AcDbSymbolTableRecord
100
AcDbRegAppTableRecord
  2
ACAD_DSTYLE_DIMBREAK
 70
     0
  0
ENDTAB
  0
TABLE
  2
DIMSTYLE
  5
A
330
0
100
AcDbSymbolTable
 70
    16
100
AcDbDimStyleTable
 71
     2
340
27
340
E1
  0
DIMSTYLE
105
27
330
A
100
AcDbSymbolTableRecord
100
AcDbDimStyleTableRecord
  2
Standard
 70
     0
340
11
  0
DIMSTYLE
105
E1
330
A
100
AcDbSymbolTableRecord
100
AcDbDimStyleTableRecord
  2
Annotative
 70
     0
 40
0.0
340
11
1001
AcadAnnotative
1000
AnnotativeData
1002
{
1070
     1
1070
     1
1002
}
1001
ACAD_DSTYLE_DIMJAG
1070
   388
1040
1.5
1001
ACAD_DSTYLE_DIMTALN
1070
   392
1070
     0
  0
DIMSTYLE
105
25A
330
A
100
AcDbSymbolTableRecord
100
AcDbDimStyleTableRecord
  2
ISO-25
 70
     0
 41
2.5
 42
0.625
 43
3.75
 44
1.25
 73
     0
 74
     0
 77
     1
 78
     8
140
2.5
141
2.5
143
0.03937007874016
147
0.625
171
     3
172
     1
271
     2
272
     2
274
     3
278
    44
283
     0
284
     8
340
11
  0
DIMSTYLE
105
3F6
102
{ACAD_REACTORS
330
3E6
102
}
330
A
100
AcDbSymbolTableRecord
100
AcDbDimStyleTableRecord
  2
AM_ANSI
 70
     0
  4
mm
 41
0.12
 42
0.05
 43
0.5
 44
0.1
 47
0.1
 48
0.1
 78
     7
 79
     2
 90
     1
140
0.12
141
0.0
146
0.71
147
0.06
176
   256
177
   256
178
     2
274
     4
284
     7
340
11
345
14
346
14
347
14
371
    -1
372
    -1
1001
ACAD_DSTYLE_DIMJAG
1070
   388
1040
1.5
1001
ACAD_DSTYLE_DIMBREAK
1070
   391
1040
0.125
  0
DIMSTYLE
105
405
330
A
100
AcDbSymbolTableRecord
100
AcDbDimStyleTableRecord
  2
AM_ANSI$3
 70
     0
  4
mm
 41
0.12
 42
0.05
 43
0.5
 44
0.1
 47
0.1
 48
0.1
 78
     7
 79
     2
 90
     1
140
0.12
141
0.0
146
0.71
147
0.06
176
   256
177
   256
178
     2
274
     4
284
     7
288
     1
289
     0
340
11
345
14
346
14
347
14
371
    -1
372
    -1
1001
ACAD_DSTYLE_DIMBREAK
1070
   391
1040
0.125
1001
ACAD_DSTYLE_DIMJAG
1070
   388
1040
1.5
  0
DIMSTYLE
105
406
330
A
100
AcDbSymbolTableRecord
100
AcDbDimStyleTableRecord
  2
AM_ANSI$4
 70
     0
  4
mm
 41
0.12
 42
0.05
 43
0.5
 44
0.1
 47
0.1
 48
0.1
 78
     7
 79
     2
 90
     1
140
0.12
141
0.0
146
0.71
147
0.06
176
   256
177
   256
178
     2
274
     4
284
     7
288
     1
289
     0
340
11
345
14
346
14
347
14
371
    -1
372
    -1
1001
ACAD_DSTYLE_DIMBREAK
1070
   391
1040
0.125
1001
ACAD_DSTYLE_DIMJAG
1070
   388
1040
1.5
  0
DIMSTYLE
105
407
330
A
100
AcDbSymbolTableRecord
100
AcDbDimStyleTableRecord
  2
AM_ANSI$7
 70
     0
  4
mm
 41
0.12
 42
0.05
 43
0.5
 44
0.1
 47
0.1
 48
0.1
 78
     7
 79
     2
 90
     1
140
0.12
141
0.0
146
0.71
147
0.06
176
   256
177
   256
178
     2
274
     4
284
     7
340
11
345
14
346
14
347
14
371
    -1
372
    -1
1001
ACAD_DSTYLE_DIMBREAK
1070
   391
1040
0.125
1001
ACAD_DSTYLE_DIMJAG
1070
   388
1040
1.5
  0
DIMSTYLE
105
408
330
A
100
AcDbSymbolTableRecord
100
AcDbDimStyleTableRecord
  2
AM_ANSI$SF
 70
     0
  4
mm
 41
0.12
 42
0.05
 43
0.5
 44
0.1
 47
0.1
 48
0.1
 75
     1
 76
     1
 78
     7
 79
     2
 90
     1
140
0.12
141
0.0
146
0.71
147
0.06
176
   256
177
   256
178
     2
274
     4
284
     7
340
11
345
14
346
14
347
14
371
    -1
372
    -1
1001
ACAD_DSTYLE_DIMBREAK
1070
   391
1040
0.125
1001
ACAD_DSTYLE_DIMJAG
1070
   388
1040
1.5
  0
DIMSTYLE
105
40D
330
A
100
AcDbSymbolTableRecord
100
AcDbDimStyleTableRecord
  2
AM_ANSI$SH
 70
     0
  4
mm
 41
0.12
 42
0.05
 43
0.5
 44
0.1
 47
0.1
 48
0.1
 75
     1
 76
     1
 78
     7
 79
     2
 90
     1
140
0.12
141
0.0
146
0.71
147
0.06
173
     1
176
   256
177
   256
178
     2
274
     4
284
     7
340
11
343
409
345
14
346
14
347
14
371
    -1
372
    -1
1001
ACAD_DSTYLE_DIMBREAK
1070
   391
1040
0.125
1001
ACAD_DSTYLE_DIMJAG
1070
   388
1040
1.5
  0
DIMSTYLE
105
43C
102
{ACAD_REACTORS
330
47C
102
}
330
A
100
AcDbSymbolTableRecord
100
AcDbDimStyleTableRecord
  2
AM_ISO
 70
     0
  4
"
 41
3.5
 42
1.0
 43
10.0
 44
1.0
 47
0.1
 48
0.1
 73
     0
 74
     0
 77
     1
 78
     8
 79
     2
 90
     1
140
3.5
141
0.0
143
0.0393701
146
0.71
147
1.5
172
     1
176
   256
177
   256
178
     2
271
     2
272
     3
274
     4
283
     0
284
     8
340
11
345
14
346
14
347
14
371
    -1
372
    -1
1001
ACAD_DSTYLE_DIMJAG
1070
   388
1040
1.5
1001
ACAD_DSTYLE_DIMBREAK
1070
   391
1040
3.75
  0
DIMSTYLE
105
43D
330
A
100
AcDbSymbolTableRecord
100
AcDbDimStyleTableRecord
  2
AM_ISO$3
 70
     0
  4
"
 41
3.5
 42
1.0
 43
10.0
 44
1.0
 47
0.1
 48
0.1
 73
     0
 77
     1
 78
     8
 79
     2
 90
     1
140
3.5
141
0.0
143
0.0393701
146
0.71
147
1.5
176
   256
177
   256
178
     2
271
     2
272
     3
274
     4
283
     0
284
     8
288
     1
289
     0
340
11
345
14
346
14
347
14
371
    -1
372
    -1
1001
ACAD_DSTYLE_DIMBREAK
1070
   391
1040
3.75
1001
ACAD_DSTYLE_DIMJAG
1070
   388
1040
1.5
  0
DIMSTYLE
105
43E
330
A
100
AcDbSymbolTableRecord
100
AcDbDimStyleTableRecord
  2
AM_ISO$4
 70
     0
  4
"
 41
3.5
 42
1.0
 43
10.0
 44
1.0
 47
0.1
 48
0.1
 73
     0
 77
     1
 78
     8
 79
     2
 90
     1
140
3.5
141
0.0
143
0.0393701
146
0.71
147
1.5
176
   256
177
   256
178
     2
271
     2
272
     3
274
     4
283
     0
284
     8
288
     1
289
     0
340
11
345
14
346
14
347
14
371
    -1
372
    -1
1001
ACAD_DSTYLE_DIMBREAK
1070
   391
1040
3.75
1001
ACAD_DSTYLE_DIMJAG
1070
   388
1040
1.5
  0
DIMSTYLE
105
43F
330
A
100
AcDbSymbolTableRecord
100
AcDbDimStyleTableRecord
  2
AM_ISO$6
 70
     0
  4
"
 41
3.5
 42
1.0
 43
10.0
 44
1.0
 47
0.1
 48
0.1
 73
     0
 74
     0
 78
     8
 79
     2
 90
     1
140
3.5
141
0.0
143
0.0393701
146
0.71
147
1.5
172
     1
176
   256
177
   256
178
     2
271
     2
272
     3
274
     4
283
     0
284
     8
340
11
345
14
346
14
347
14
371
    -1
372
    -1
1001
ACAD_DSTYLE_DIMBREAK
1070
   391
1040
3.75
1001
ACAD_DSTYLE_DIMJAG
1070
   388
1040
1.5
  0
DIMSTYLE
105
440
330
A
100
AcDbSymbolTableRecord
100
AcDbDimStyleTableRecord
  2
AM_ISO$7
 70
     0
  4
"
 41
3.5
 42
1.0
 43
10.0
 44
1.0
 47
0.1
 48
0.1
 73
     0
 74
     0
 77
     1
 78
     8
 79
     2
 90
     1
140
3.5
141
0.0
143
0.0393701
146
0.71
147
1.5
172
     1
176
   256
177
   256
178
     2
271
     2
272
     3
274
     4
283
     0
284
     8
340
11
345
14
346
14
347
14
371
    -1
372
    -1
1001
ACAD_DSTYLE_DIMBREAK
1070
   391
1040
3.75
1001
ACAD_DSTYLE_DIMJAG
1070
   388
1040
1.5
  0
DIMSTYLE
105
441
330
A
100
AcDbSymbolTableRecord
100
AcDbDimStyleTableRecord
  2
AM_ISO$SF
 70
     0
  4
"
 41
3.5
 42
1.0
 43
10.0
 44
1.0
 47
0.1
 48
0.1
 73
     0
 74
     0
 75
     1
 76
     1
 77
     1
 78
     8
 79
     2
 90
     1
140
3.5
141
0.0
143
0.0393701
146
0.71
147
1.5
172
     1
176
   256
177
   256
178
     2
271
     2
272
     3
274
     4
283
     0
284
     8
340
11
345
14
346
14
347
14
371
    -1
372
    -1
1001
ACAD_DSTYLE_DIMBREAK
1070
   391
1040
3.75
1001
ACAD_DSTYLE_DIMJAG
1070
   388
1040
1.5
  0
DIMSTYLE
105
442
330
A
100
AcDbSymbolTableRecord
100
AcDbDimStyleTableRecord
  2
AM_ISO$SH
 70
     0
  4
"
 41
3.5
 42
1.0
 43
10.0
 44
1.0
 47
0.1
 48
0.1
 73
     0
 74
     0
 75
     1
 76
     1
 77
     1
 78
     8
 79
     2
 90
     1
140
3.5
141
0.0
143
0.0393701
144
2.0
146
0.71
147
1.5
172
     1
173
     1
176
   256
177
   256
178
     2
271
     2
272
     3
274
     4
283
     0
284
     8
340
11
343
409
345
14
346
14
347
14
371
    -1
372
    -1
1001
ACAD_DSTYLE_DIMBREAK
1070
   391
1040
3.75
1001
ACAD_DSTYLE_DIMJAG
1070
   388
1040
1.5
  0
ENDTAB
  0
TABLE
  2
BLOCK_RECORD
  5
1
330
0
100
AcDbSymbolTable
 70
     6
  0
BLOCK_RECORD
  5
1F
102
{ACAD_XDICTIONARY
360
15D
102
}
330
1
100
AcDbSymbolTableRecord
100
AcDbBlockTableRecord
  2
*Model_Space
340
22
 70
     0
280
     1
281
     0
  0
BLOCK_RECORD
  5
58
330
1
100
AcDbSymbolTableRecord
100
AcDbBlockTableRecord
  2
*Paper_Space
340
59
 70
     0
280
     1
281
     0
  0
BLOCK_RECORD
  5
5D
330
1
100
AcDbSymbolTableRecord
100
AcDbBlockTableRecord
  2
*Paper_Space0
340
5E
 70
     0
280
     1
281
     0
  0
BLOCK_RECORD
  5
409
330
1
100
AcDbSymbolTableRecord
100
AcDbBlockTableRecord
  2
GENAXEH
340
0
 70
     0
280
     1
281
     0
  0
BLOCK_RECORD
  5
419
330
1
100
AcDbSymbolTableRecord
100
AcDbBlockTableRecord
  2
_ACMFILLEDHALF
340
0
 70
     0
280
     1
281
     0
  0
BLOCK_RECORD
  5
44A
102
{ACAD_XDICTIONARY
360
478
102
}
330
1
100
AcDbSymbolTableRecord
100
AcDbBlockTableRecord
  2
A$Cee2deb34
340
0
 70
     4
280
     1
281
     0
  0
BLOCK_RECORD
  5
A0A
102
{ACAD_XDICTIONARY
360
A0C
102
}
330
1
100
AcDbSymbolTableRecord
100
AcDbBlockTableRecord
  2
A$C88593841
340
0
 70
     1
280
     1
281
     0
  0
ENDTAB
  0
ENDSEC
  0
SECTION
  2
BLOCKS
  0
BLOCK
  5
20
330
1F
100
AcDbEntity
  8
0
100
AcDbBlockBegin
  2
*Model_Space
 70
     0
 10
0.0
 20
0.0
 30
0.0
  3
*Model_Space
  1

  0
ENDBLK
  5
21
330
1F
100
AcDbEntity
  8
0
100
AcDbBlockEnd
  0
BLOCK
  5
5A
330
58
100
AcDbEntity
 67
     1
  8
0
100
AcDbBlockBegin
  2
*Paper_Space
 70
     0
 10
0.0
 20
0.0
 30
0.0
  3
*Paper_Space
  1

  0
ENDBLK
  5
5B
330
58
100
AcDbEntity
 67
     1
  8
0
100
AcDbBlockEnd
  0
BLOCK
  5
5F
330
5D
100
AcDbEntity
 67
     1
  8
0
100
AcDbBlockBegin
  2
*Paper_Space0
 70
     0
 10
0.0
 20
0.0
 30
0.0
  3
*Paper_Space0
  1

  0
ENDBLK
  5
60
330
5D
100
AcDbEntity
 67
     1
  8
0
100
AcDbBlockEnd
  0
BLOCK
  5
40B
330
409
100
AcDbEntity
  8
0
100
AcDbBlockBegin
  2
GENAXEH
 70
     0
 10
0.0
 20
0.0
 30
0.0
  3
GENAXEH
  1

  0
LINE
  5
40A
330
409
100
AcDbEntity
  8
0
100
AcDbLine
 10
-1.0
 20
0.0
 30
0.0
 11
1.0
 21
0.0
 31
0.0
  0
ENDBLK
  5
40C
330
409
100
AcDbEntity
  8
0
100
AcDbBlockEnd
  0
BLOCK
  5
41A
330
419
100
AcDbEntity
  8
0
100
AcDbBlockBegin
  2
_ACMFILLEDHALF
 70
     0
 10
0.0
 20
0.0
 30
0.0
  3
_ACMFILLEDHALF
  1

  0
TRACE
  5
41C
330
419
100
AcDbEntity
  8
0
 62
     0
100
AcDbTrace
 10
-0.8
 20
0.0
 30
0.0
 11
-1.0
 21
0.166666666
 31
0.0
 12
0.0
 22
0.0
 32
0.0
 13
0.0
 23
0.0
 33
0.0
  0
LINE
  5
41D
330
419
100
AcDbEntity
  8
0
 62
     0
100
AcDbLine
 10
-1.0
 20
0.0
 30
0.0
 11
-0.8
 21
0.0
 31
0.0
  0
ENDBLK
  5
41B
330
419
100
AcDbEntity
  8
0
100
AcDbBlockEnd
  0
BLOCK
  5
47A
330
44A
100
AcDbEntity
  8
0
100
AcDbBlockBegin
  2
A$Cee2deb34
 70
     0
 10
0.0
 20
0.0
 30
0.0
  3
A$Cee2deb34
  1

  0
LINE
  5
44B
330
44A
100
AcDbEntity
  8
Visible (ANSI)
100
AcDbLine
 10
383.9999997037102
 20
286.0000022023887
 30
0.0
 11
366.3483814343398
 21
328.0000022023878
 31
0.0
  0
LINE
  5
44C
330
44A
100
AcDbEntity
  8
Visible (ANSI)
100
AcDbLine
 10
354.9999997037107
 20
286.0000022023887
 30
0.0
 11
383.9999997037102
 21
286.0000022023887
 31
0.0
  0
LINE
  5
44D
330
44A
100
AcDbEntity
  8
Visible (ANSI)
100
AcDbLine
 10
215.9999997037131
 20
286.0000022023887
 30
0.0
 11
233.6516179730836
 21
328.0000022023878
 31
0.0
  0
LINE
  5
44E
330
44A
100
AcDbEntity
  8
Visible (ANSI)
100
AcDbLine
 10
215.9999997037131
 20
286.0000022023887
 30
0.0
 11
244.9999997037127
 21
286.0000022023887
 31
0.0
  0
LINE
  5
44F
330
44A
100
AcDbEntity
  8
Visible (ANSI)
100
AcDbLine
 10
599.9999997037065
 20
349.0000022023878
 30
0.0
 11
-0.000000296282991
 21
349.0000022023869
 31
0.0
  0
LINE
  5
450
330
44A
100
AcDbEntity
  8
Visible (ANSI)
100
AcDbLine
 10
578.9999997037068
 20
328.0000022023878
 30
0.0
 11
20.99999970371664
 21
328.0000022023869
 31
0.0
  0
ARC
  5
451
330
44A
100
AcDbEntity
  8
Visible (ANSI)
100
AcDbCircle
 10
20.99999970371664
 20
349.0000022023869
 30
0.0
 40
20.99999999999964
100
AcDbArc
 50
180.0
 51
270.0
  0
ARC
  5
452
330
44A
100
AcDbEntity
  8
Visible (ANSI)
100
AcDbCircle
 10
578.9999997037068
 20
349.0000022023878
 30
0.0
 40
20.99999999999964
100
AcDbArc
 50
270.0
 51
0.0
  0
LINE
  5
453
330
44A
100
AcDbEntity
  8
Visible (ANSI)
100
AcDbLine
 10
255.9999997037115
 20
0.0000022023855308
 30
0.0
 11
244.9999997037115
 21
0.0000022023855308
 31
0.0
  0
LINE
  5
454
330
44A
100
AcDbEntity
  8
Visible (ANSI)
100
AcDbLine
 10
354.999999703712
 20
0.0000022023855308
 30
0.0
 11
343.999999703712
 21
0.0000022023855308
 31
0.0
  0
LINE
  5
455
330
44A
100
AcDbEntity
  8
Visible (ANSI)
100
AcDbLine
 10
255.9999997037115
 20
0.0000022023855308
 30
0.0
 11
343.9999997037121
 21
0.0000022023855308
 31
0.0
  0
LINE
  5
456
330
44A
100
AcDbEntity
  8
Visible (ANSI)
100
AcDbLine
 10
354.999999703712
 20
328.0000022023869
 30
0.0
 11
354.999999703712
 21
0.0000022023846213
 31
0.0
  0
LINE
  5
457
330
44A
100
AcDbEntity
  8
Visible (ANSI)
100
AcDbLine
 10
244.9999997037115
 20
328.0000022023869
 30
0.0
 11
244.9999997037115
 21
0.0000022023846213
 31
0.0
  0
LINE
  5
458
330
44A
100
AcDbEntity
  8
Visible (ANSI)
100
AcDbLine
 10
171.2465270581732
 20
0.0000022023855308
 30
0.0
 11
169.8506635422833
 21
0.0000022023855308
 31
0.0
  0
LINE
  5
459
330
44A
100
AcDbEntity
  8
Visible (ANSI)
100
AcDbLine
 10
125.8506635422829
 20
0.0000022023855308
 30
0.0
 11
169.8506635422833
 21
0.0000022023855308
 31
0.0
  0
LINE
  5
45A
330
44A
100
AcDbEntity
  8
Visible (ANSI)
100
AcDbLine
 10
125.8506635422829
 20
0.0000022023855308
 30
0.0
 11
104.1794903540415
 21
0.0000022023855308
 31
0.0
  0
LINE
  5
45B
330
44A
100
AcDbEntity
  8
Visible (ANSI)
100
AcDbLine
 10
207.567540217499
 20
328.0000022023869
 30
0.0
 11
104.1794903540414
 21
0.0000022023855308
 31
0.0
  0
LINE
  5
45C
330
44A
100
AcDbEntity
  8
Visible (ANSI)
100
AcDbLine
 10
244.9999997037118
 20
233.9839013056726
 30
0.0
 11
171.2465270581732
 21
0.0000022023855308
 31
0.0
  0
LINE
  5
45D
330
44A
100
AcDbEntity
  8
Visible (ANSI)
100
AcDbLine
 10
495.8205090533819
 20
0.0000022023855308
 30
0.0
 11
474.1493358651405
 21
0.0000022023855308
 31
0.0
  0
LINE
  5
45E
330
44A
100
AcDbEntity
  8
Visible (ANSI)
100
AcDbLine
 10
430.1493358651401
 20
0.0000022023855308
 30
0.0
 11
474.1493358651405
 21
0.0000022023855308
 31
0.0
  0
LINE
  5
45F
330
44A
100
AcDbEntity
  8
Visible (ANSI)
100
AcDbLine
 10
430.1493358651403
 20
0.0000022023855308
 30
0.0
 11
428.7534723492504
 21
0.0000022023855308
 31
0.0
  0
LINE
  5
460
330
44A
100
AcDbEntity
  8
Visible (ANSI)
100
AcDbLine
 10
354.9999997037117
 20
233.9839013056726
 30
0.0
 11
428.7534723492501
 21
0.0000022023855308
 31
0.0
  0
LINE
  5
461
330
44A
100
AcDbEntity
  8
Visible (ANSI)
100
AcDbLine
 10
392.4324591899246
 20
328.0000022023869
 30
0.0
 11
495.8205090533819
 21
0.0000022023846213
 31
0.0
  0
LINE
  5
462
330
44A
100
AcDbEntity
  8
Visible (ANSI)
100
AcDbLine
 10
857.109722711136
 20
286.0000022023887
 30
0.0
 11
921.0640642437837
 21
286.0000022023887
 31
0.0
  0
LINE
  5
463
330
44A
100
AcDbEntity
  8
Visible (ANSI)
100
AcDbLine
 10
1229.85585662901
 20
349.0000022023878
 30
0.0
 11
629.8558566290199
 21
349.0000022023878
 31
0.0
  0
LINE
  5
464
330
44A
100
AcDbEntity
  8
Visible (ANSI)
100
AcDbLine
 10
1208.85585662901
 20
328.0000022023878
 30
0.0
 11
650.8558566290196
 21
328.0000022023878
 31
0.0
  0
ARC
  5
465
330
44A
100
AcDbEntity
  8
Visible (ANSI)
100
AcDbCircle
 10
650.8558566290196
 20
349.0000022023878
 30
0.0
 40
20.99999999999964
100
AcDbArc
 50
180.0
 51
270.0
  0
ARC
  5
466
330
44A
100
AcDbEntity
  8
Visible (ANSI)
100
AcDbCircle
 10
1208.85585662901
 20
349.0000022023878
 30
0.0
 40
20.99999999999964
100
AcDbArc
 50
270.0
 51
0.0
  0
LINE
  5
467
330
44A
100
AcDbEntity
  8
Visible (ANSI)
100
AcDbLine
 10
753.0142357110011
 20
0.0000022023855308
 30
0.0
 11
729.6023247165308
 21
0.0000022023855308
 31
0.0
  0
LINE
  5
468
330
44A
100
AcDbEntity
  8
Visible (ANSI)
100
AcDbLine
 10
872.3964725503156
 20
328.0000022023869
 30
0.0
 11
753.0142357110011
 21
0.0000022023855308
 31
0.0
  0
LINE
  5
469
330
44A
100
AcDbEntity
  8
Visible (ANSI)
100
AcDbLine
 10
848.9845615558461
 20
328.0000022023869
 30
0.0
 11
729.6023247165309
 21
0.0000022023855308
 31
0.0
  0
LINE
  5
46A
330
44A
100
AcDbEntity
  8
Visible (ANSI)
100
AcDbLine
 10
990.1454540112355
 20
0.0000022023855308
 30
0.0
 11
973.1118077438816
 21
0.0000022023855308
 31
0.0
  0
LINE
  5
46B
330
44A
100
AcDbEntity
  8
Visible (ANSI)
100
AcDbLine
 10
1071.683380314367
 20
0.0000022023855308
 30
0.0
 11
1066.355689544254
 21
0.0000022023855308
 31
0.0
  0
LINE
  5
46C
330
44A
100
AcDbEntity
  8
Visible (ANSI)
100
AcDbLine
 10
990.1454540112355
 20
0.0000022023855308
 30
0.0
 11
1066.355689544254
 21
0.0000022023855308
 31
0.0
  0
LINE
  5
46D
330
44A
100
AcDbEntity
  8
Visible (ANSI)
100
AcDbLine
 10
1011.99226189468
 20
328.0000022023869
 30
0.0
 11
1071.683380314367
 21
0.0000022023855308
 31
0.0
  0
LINE
  5
46E
330
44A
100
AcDbEntity
  8
Visible (ANSI)
100
AcDbLine
 10
913.4206893241925
 20
328.0000022023869
 30
0.0
 11
973.1118077438816
 21
0.0000022023855308
 31
0.0
  0
LINE
  5
46F
330
44A
100
AcDbEntity
  8
Visible (ANSI)
100
AcDbLine
 10
1194.855856629026
 20
327.0000022023878
 30
0.0
 11
1190.855856629028
 21
327.0000022023878
 31
0.0
  0
LINE
  5
470
330
44A
100
AcDbEntity
  8
Visible (ANSI)
100
AcDbLine
 10
1173.855856629028
 20
327.0000022023878
 30
0.0
 11
1169.855856629026
 21
327.0000022023878
 31
0.0
  0
LINE
  5
471
330
44A
100
AcDbEntity
  8
Visible (ANSI)
100
AcDbLine
 10
1169.855856629026
 20
328.0000022023869
 30
0.0
 11
1169.855856629026
 21
327.0000022023878
 31
0.0
  0
LINE
  5
472
330
44A
100
AcDbEntity
  8
Visible (ANSI)
100
AcDbLine
 10
1194.855856629026
 20
327.0000022023878
 30
0.0
 11
1194.855856629026
 21
328.0000022023869
 31
0.0
  0
LINE
  5
473
330
44A
100
AcDbEntity
  8
Visible (ANSI)
100
AcDbLine
 10
1190.855856629028
 20
327.0000022023878
 30
0.0
 11
1173.855856629028
 21
327.0000022023878
 31
0.0
  0
LINE
  5
474
330
44A
100
AcDbEntity
  8
Visible (ANSI)
100
AcDbLine
 10
1184.460856629024
 20
326.5000022023878
 30
0.0
 11
1180.250856629024
 21
326.5000022023878
 31
0.0
  0
ARC
  5
475
330
44A
100
AcDbEntity
  8
Visible (ANSI)
100
AcDbCircle
 10
1182.355856629024
 20
330.6810272023877
 30
0.0
 40
4.681024999999991
100
AcDbArc
 50
243.2763424370864
 51
296.7236575629137
  0
LINE
  5
476
330
44A
100
AcDbEntity
  8
Visible (ANSI)
100
AcDbLine
 10
1180.250856629024
 20
326.5000022023878
 30
0.0
 11
1180.250856629024
 21
327.0000022023878
 31
0.0
  0
LINE
  5
477
330
44A
100
AcDbEntity
  8
Visible (ANSI)
100
AcDbLine
 10
1184.460856629024
 20
326.5000022023878
 30
0.0
 11
1184.460856629024
 21
327.0000022023878
 31
0.0
  0
ENDBLK
  5
47B
330
44A
100
AcDbEntity
  8
0
100
AcDbBlockEnd
  0
BLOCK
  5
A0E
330
A0A
100
AcDbEntity
  8
0
100
AcDbBlockBegin
  2
A$C88593841
 70
     0
 10
0.0
 20
0.0
 30
0.0
  3
A$C88593841
  1

  0
MTEXT
  5
A0B
330
A0A
100
AcDbEntity
  8
0
100
AcDbMText
 10
50.13520224753301
 20
310.5513290319013
 30
0.0
 40
233.9816249415046
 41
351.4273130132687
 46
0.0
 71
     1
 72
     1
  1
1050
 73
     1
 44
1.0
  0
ENDBLK
  5
A0F
330
A0A
100
AcDbEntity
  8
0
100
AcDbBlockEnd
  0
ENDSEC
  0
SECTION
  2
ENTITIES
  0
CIRCLE
  5
216
330
1F
100
AcDbEntity
  8
0
100
AcDbCircle
 10
10486.6800630122
 20
18778.02640289372
 30
0.0
 40
300.0
  0
CIRCLE
  5
217
330
1F
100
AcDbEntity
  8
0
100
AcDbCircle
 10
12694.36751648188
 20
18778.02640289372
 30
0.0
 40
400.0
  0
CIRCLE
  5
218
330
1F
100
AcDbEntity
  8
0
100
AcDbCircle
 10
15219.50054767698
 20
18778.02640289372
 30
0.0
 40
500.0
  0
CIRCLE
  5
219
330
1F
100
AcDbEntity
  8
0
100
AcDbCircle
 10
15065.71500083827
 20
9150.122562454614
 30
0.0
 40
600.0
  0
CIRCLE
  5
21B
330
1F
100
AcDbEntity
  8
0
100
AcDbCircle
 10
17703.13250448118
 20
9150.122562454614
 30
0.0
 40
750.0
  0
CIRCLE
  5
21C
330
1F
100
AcDbEntity
  8
0
100
AcDbCircle
 10
20762.79949045082
 20
9150.122562454614
 30
0.0
 40
900.0
  0
LINE
  5
21D
330
1F
100
AcDbEntity
  8
0
100
AcDbLine
 10
9967.228864699075
 20
6639.186152902929
 30
0.0
 11
12032.22886469907
 21
6639.186152902929
 31
0.0
  0
LINE
  5
21E
330
1F
100
AcDbEntity
  8
0
100
AcDbLine
 10
12049.72886469907
 20
6621.68615290293
 30
0.0
 11
12049.72886469907
 21
5556.68615290293
 31
0.0
  0
LINE
  5
21F
330
1F
100
AcDbEntity
  8
0
100
AcDbLine
 10
12032.22886469907
 20
5539.186152902931
 30
0.0
 11
9967.228864699075
 21
5539.186152902931
 31
0.0
  0
LINE
  5
220
330
1F
100
AcDbEntity
  8
0
100
AcDbLine
 10
9949.728864699075
 20
5556.68615290293
 30
0.0
 11
9949.728864699075
 21
6621.68615290293
 31
0.0
  0
LINE
  5
223
330
1F
100
AcDbEntity
  8
0
100
AcDbLine
 10
13348.63809245186
 20
5539.186152902931
 30
0.0
 11
15713.63809245186
 21
5539.186152902931
 31
0.0
  0
LINE
  5
224
330
1F
100
AcDbEntity
  8
0
100
AcDbLine
 10
15731.13809245186
 20
5556.68615290293
 30
0.0
 11
15731.13809245186
 21
6621.68615290293
 31
0.0
  0
LINE
  5
226
330
1F
100
AcDbEntity
  8
0
100
AcDbLine
 10
15713.63809245186
 20
6639.186152902929
 30
0.0
 11
13348.63809245186
 21
6639.186152902929
 31
0.0
  0
LINE
  5
227
330
1F
100
AcDbEntity
  8
0
100
AcDbLine
 10
13331.13809245186
 20
6621.68615290293
 30
0.0
 11
13331.13809245186
 21
5556.68615290293
 31
0.0
  0
LINE
  5
231
330
1F
100
AcDbEntity
  8
0
100
AcDbLine
 10
9942.759550664964
 20
3739.463792828665
 30
0.0
 11
13707.75955066496
 21
3739.463792828665
 31
0.0
  0
LINE
  5
232
330
1F
100
AcDbEntity
  8
0
100
AcDbLine
 10
13725.25955066496
 20
3721.963792828665
 30
0.0
 11
13725.25955066496
 21
2656.963792828665
 31
0.0
  0
LINE
  5
233
330
1F
100
AcDbEntity
  8
0
100
AcDbLine
 10
13707.75955066496
 20
2639.463792828665
 30
0.0
 11
9942.759550664964
 21
2639.463792828666
 31
0.0
  0
LINE
  5
234
330
1F
100
AcDbEntity
  8
0
100
AcDbLine
 10
9925.259550664964
 20
2656.963792828666
 30
0.0
 11
9925.259550664964
 21
3721.963792828665
 31
0.0
  0
LINE
  5
235
330
1F
100
AcDbEntity
  8
0
100
AcDbLine
 10
15886.87511555575
 20
3739.463792828665
 30
0.0
 11
20251.87511555575
 21
3739.463792828665
 31
0.0
  0
LINE
  5
236
330
1F
100
AcDbEntity
  8
0
100
AcDbLine
 10
20269.37511555575
 20
3721.963792828665
 30
0.0
 11
20269.37511555575
 21
2656.963792828665
 31
0.0
  0
LINE
  5
237
330
1F
100
AcDbEntity
  8
0
100
AcDbLine
 10
20251.87511555575
 20
2639.463792828665
 30
0.0
 11
15886.87511555575
 21
2639.463792828666
 31
0.0
  0
LINE
  5
238
330
1F
100
AcDbEntity
  8
0
100
AcDbLine
 10
15869.37511555575
 20
2656.963792828666
 30
0.0
 11
15869.37511555575
 21
3721.963792828665
 31
0.0
  0
LINE
  5
239
330
1F
100
AcDbEntity
  8
0
100
AcDbLine
 10
11825.25955066496
 20
2639.463792828665
 30
0.0
 11
11825.25955066496
 21
3739.463792828665
 31
0.0
  0
LINE
  5
23A
330
1F
100
AcDbEntity
  8
0
100
AcDbLine
 10
18069.37511555575
 20
2639.463792828665
 30
0.0
 11
18069.37511555575
 21
3739.463792828665
 31
0.0
  0
LINE
  5
23E
330
1F
100
AcDbEntity
  8
0
100
AcDbLine
 10
9934.115392677234
 20
674.7055930054321
 30
0.0
 11
13699.11539267723
 21
674.7055930054321
 31
0.0
  0
LINE
  5
23F
330
1F
100
AcDbEntity
  8
0
100
AcDbLine
 10
13716.61539267723
 20
657.2055930054321
 30
0.0
 11
13716.61539267723
 21
-707.7944069945679
 31
0.0
  0
LINE
  5
240
330
1F
100
AcDbEntity
  8
0
100
AcDbLine
 10
13699.11539267723
 20
-725.2944069945678
 30
0.0
 11
9934.115392677234
 21
-725.2944069945674
 31
0.0
  0
LINE
  5
241
330
1F
100
AcDbEntity
  8
0
100
AcDbLine
 10
9916.615392677236
 20
-707.7944069945674
 30
0.0
 11
9916.615392677236
 21
657.2055930054321
 31
0.0
  0
LINE
  5
242
330
1F
100
AcDbEntity
  8
0
100
AcDbLine
 10
15900.85701123334
 20
683.3255422350685
 30
0.0
 11
20265.85701123334
 21
683.3255422350685
 31
0.0
  0
LINE
  5
243
330
1F
100
AcDbEntity
  8
0
100
AcDbLine
 10
20283.35701123334
 20
665.8255422350684
 30
0.0
 11
20283.35701123334
 21
-699.1744577649314
 31
0.0
  0
LINE
  5
244
330
1F
100
AcDbEntity
  8
0
100
AcDbLine
 10
20265.85701123334
 20
-716.6744577649315
 30
0.0
 11
15900.85701123334
 21
-716.6744577649311
 31
0.0
  0
LINE
  5
245
330
1F
100
AcDbEntity
  8
0
100
AcDbLine
 10
15883.35701123334
 20
-699.174457764931
 30
0.0
 11
15883.35701123334
 21
665.8255422350684
 31
0.0
  0
LINE
  5
246
330
1F
100
AcDbEntity
  8
0
100
AcDbLine
 10
11816.61539267723
 20
-725.2944069945678
 30
0.0
 11
11816.61539267723
 21
674.7055930054321
 31
0.0
  0
LINE
  5
247
330
1F
100
AcDbEntity
  8
0
100
AcDbLine
 10
18083.35701123334
 20
-716.6744577649315
 30
0.0
 11
18083.35701123334
 21
683.3255422350685
 31
0.0
  0
LINE
  5
24A
330
1F
100
AcDbEntity
  8
0
100
AcDbLine
 10
9943.285213885179
 20
-5651.019151368675
 30
0.0
 11
12008.28521388518
 21
-5651.019151368675
 31
0.0
  0
LINE
  5
24B
330
1F
100
AcDbEntity
  8
0
100
AcDbLine
 10
12025.78521388518
 20
-5668.519151368675
 30
0.0
 11
12025.78521388518
 21
-6733.519151368675
 31
0.0
  0
LINE
  5
24C
330
1F
100
AcDbEntity
  8
0
100
AcDbLine
 10
12008.28521388518
 20
-6751.019151368675
 30
0.0
 11
9943.285213885179
 21
-6751.019151368675
 31
0.0
  0
LINE
  5
24D
330
1F
100
AcDbEntity
  8
0
100
AcDbLine
 10
9925.785213885177
 20
-6733.519151368675
 30
0.0
 11
9925.785213885177
 21
-5668.519151368675
 31
0.0
  0
LINE
  5
24E
330
1F
100
AcDbEntity
  8
0
100
AcDbLine
 10
13554.0193390518
 20
-6751.019151368675
 30
0.0
 11
15919.0193390518
 21
-6751.019151368675
 31
0.0
  0
LINE
  5
24F
330
1F
100
AcDbEntity
  8
0
100
AcDbLine
 10
15936.5193390518
 20
-6733.519151368675
 30
0.0
 11
15936.5193390518
 21
-5668.519151368675
 31
0.0
  0
LINE
  5
250
330
1F
100
AcDbEntity
  8
0
100
AcDbLine
 10
15919.0193390518
 20
-5651.019151368675
 30
0.0
 11
13554.01933905181
 21
-5651.019151368675
 31
0.0
  0
LINE
  5
251
330
1F
100
AcDbEntity
  8
0
100
AcDbLine
 10
13536.5193390518
 20
-5668.519151368675
 30
0.0
 11
13536.5193390518
 21
-6733.519151368675
 31
0.0
  0
LINE
  5
252
330
1F
100
AcDbEntity
  8
0
100
AcDbLine
 10
17205.98658699809
 20
-6751.019151368675
 30
0.0
 11
19970.9865869981
 21
-6751.019151368675
 31
0.0
  0
LINE
  5
253
330
1F
100
AcDbEntity
  8
0
100
AcDbLine
 10
19988.48658699809
 20
-6733.519151368675
 30
0.0
 11
19988.48658699809
 21
-5668.519151368675
 31
0.0
  0
LINE
  5
254
330
1F
100
AcDbEntity
  8
0
100
AcDbLine
 10
19970.9865869981
 20
-5651.019151368675
 30
0.0
 11
17205.98658699809
 21
-5651.019151368675
 31
0.0
  0
LINE
  5
255
330
1F
100
AcDbEntity
  8
0
100
AcDbLine
 10
17188.48658699809
 20
-5668.519151368675
 30
0.0
 11
17188.48658699809
 21
-6733.519151368675
 31
0.0
  0
TEXT
  5
26A
330
1F
100
AcDbEntity
  8
LINE
100
AcDbText
 10
25.85742833564234
 20
19273.84308132847
 30
0.0
 40
233.9816249415046
  1
Low Tables
 41
1.000399999999999
100
AcDbText
  0
LINE
  5
26B
330
1F
100
AcDbEntity
  8
LINE
370
     9
100
AcDbLine
 10
25.85742833564234
 20
20014.28994711015
 30
0.0
 11
20680.8420148467
 21
20014.28994711015
 31
0.0
  0
TEXT
  5
26C
330
1F
100
AcDbEntity
  8
LINE
100
AcDbText
 10
25.85742833564234
 20
21757.78048720163
 30
0.0
 40
192.6907499518273
  1
FLO
 41
1.000399999999999
100
AcDbText
  0
TEXT
  5
26D
330
1F
100
AcDbEntity
  8
LINE
100
AcDbText
 10
25.85742833564234
 20
21155.15751884643
 30
0.0
 40
192.6907499518273
  1
—
 41
1.000399999999999
100
AcDbText
  0
TEXT
  5
26E
330
1F
100
AcDbEntity
  8
LINE
100
AcDbText
 10
25.85742833564245
 20
20480.18700296796
 30
0.0
 40
233.9816249415046
  1
DIMENSIONS
 41
1.000399999999999
100
AcDbText
  0
ARC
  5
26F
330
1F
100
AcDbEntity
  8
0
100
AcDbCircle
 10
9967.228864699075
 20
6621.68615290293
 30
0.0
 40
17.5
100
AcDbArc
 50
90.0
 51
180.0
  0
ARC
  5
271
330
1F
100
AcDbEntity
  8
0
100
AcDbCircle
 10
9967.228864699075
 20
5556.68615290293
 30
0.0
 40
17.5
100
AcDbArc
 50
180.0
 51
270.0
  0
ARC
  5
272
330
1F
100
AcDbEntity
  8
0
100
AcDbCircle
 10
12032.22886469907
 20
6621.68615290293
 30
0.0
 40
17.5
100
AcDbArc
 50
0.0
 51
90.0
  0
ARC
  5
273
330
1F
100
AcDbEntity
  8
0
100
AcDbCircle
 10
12032.22886469907
 20
5556.68615290293
 30
0.0
 40
17.5
100
AcDbArc
 50
270.0
 51
0.0
  0
ARC
  5
274
330
1F
100
AcDbEntity
  8
0
100
AcDbCircle
 10
13348.63809245186
 20
6621.68615290293
 30
0.0
 40
17.5
100
AcDbArc
 50
90.0
 51
180.0
  0
ARC
  5
275
330
1F
100
AcDbEntity
  8
0
100
AcDbCircle
 10
13348.63809245186
 20
5556.68615290293
 30
0.0
 40
17.5
100
AcDbArc
 50
180.0
 51
270.0
  0
ARC
  5
276
330
1F
100
AcDbEntity
  8
0
100
AcDbCircle
 10
15713.63809245186
 20
6621.68615290293
 30
0.0
 40
17.5
100
AcDbArc
 50
0.0
 51
90.0
  0
ARC
  5
277
330
1F
100
AcDbEntity
  8
0
100
AcDbCircle
 10
15713.63809245186
 20
5556.68615290293
 30
0.0
 40
17.5
100
AcDbArc
 50
270.0
 51
0.0
  0
LINE
  5
278
330
1F
100
AcDbEntity
  8
0
100
AcDbLine
 10
17014.30491528202
 20
5512.049344000868
 30
0.0
 11
19679.30491528202
 21
5512.049344000868
 31
0.0
  0
ARC
  5
279
330
1F
100
AcDbEntity
  8
0
100
AcDbCircle
 10
17014.30491528202
 20
5529.549344000868
 30
0.0
 40
17.5
100
AcDbArc
 50
180.0
 51
270.0
  0
LINE
  5
27A
330
1F
100
AcDbEntity
  8
0
100
AcDbLine
 10
19696.80491528202
 20
5529.549344000868
 30
0.0
 11
19696.80491528202
 21
6594.549344000869
 31
0.0
  0
ARC
  5
27B
330
1F
100
AcDbEntity
  8
0
100
AcDbCircle
 10
19679.30491528202
 20
5529.549344000868
 30
0.0
 40
17.5
100
AcDbArc
 50
270.0
 51
0.0
  0
LINE
  5
27C
330
1F
100
AcDbEntity
  8
0
100
AcDbLine
 10
19679.30491528202
 20
6612.049344000869
 30
0.0
 11
17014.30491528202
 21
6612.049344000869
 31
0.0
  0
ARC
  5
27D
330
1F
100
AcDbEntity
  8
0
100
AcDbCircle
 10
19679.30491528202
 20
6594.549344000869
 30
0.0
 40
17.5
100
AcDbArc
 50
0.0
 51
90.0
  0
ARC
  5
27E
330
1F
100
AcDbEntity
  8
0
100
AcDbCircle
 10
17014.30491528202
 20
6594.549344000869
 30
0.0
 40
17.5
100
AcDbArc
 50
90.0
 51
180.0
  0
LINE
  5
27F
330
1F
100
AcDbEntity
  8
0
100
AcDbLine
 10
16996.80491528202
 20
6594.549344000869
 30
0.0
 11
16996.80491528202
 21
5529.549344000868
 31
0.0
  0
LINE
  5
280
330
1F
100
AcDbEntity
  8
0
100
AcDbLine
 10
21126.01897251243
 20
5512.049344000868
 30
0.0
 11
24091.01897251243
 21
5512.049344000868
 31
0.0
  0
ARC
  5
281
330
1F
100
AcDbEntity
  8
0
100
AcDbCircle
 10
21126.01897251243
 20
5529.549344000868
 30
0.0
 40
17.5
100
AcDbArc
 50
180.0
 51
270.0
  0
LINE
  5
282
330
1F
100
AcDbEntity
  8
0
100
AcDbLine
 10
24108.51897251243
 20
5529.549344000868
 30
0.0
 11
24108.51897251243
 21
6594.549344000869
 31
0.0
  0
ARC
  5
283
330
1F
100
AcDbEntity
  8
0
100
AcDbCircle
 10
24091.01897251243
 20
5529.549344000868
 30
0.0
 40
17.5
100
AcDbArc
 50
270.0
 51
0.0
  0
LINE
  5
284
330
1F
100
AcDbEntity
  8
0
100
AcDbLine
 10
24091.01897251243
 20
6612.049344000869
 30
0.0
 11
21126.01897251243
 21
6612.049344000869
 31
0.0
  0
ARC
  5
285
330
1F
100
AcDbEntity
  8
0
100
AcDbCircle
 10
24091.01897251243
 20
6594.549344000869
 30
0.0
 40
17.5
100
AcDbArc
 50
0.0
 51
90.0
  0
ARC
  5
286
330
1F
100
AcDbEntity
  8
0
100
AcDbCircle
 10
21126.01897251243
 20
6594.549344000869
 30
0.0
 40
17.5
100
AcDbArc
 50
90.0
 51
180.0
  0
LINE
  5
287
330
1F
100
AcDbEntity
  8
0
100
AcDbLine
 10
21108.51897251243
 20
6594.549344000869
 30
0.0
 11
21108.51897251243
 21
5529.549344000868
 31
0.0
  0
ARC
  5
288
330
1F
100
AcDbEntity
  8
0
100
AcDbCircle
 10
9942.759550664964
 20
3721.963792828665
 30
0.0
 40
17.5
100
AcDbArc
 50
90.0
 51
180.0
  0
ARC
  5
289
330
1F
100
AcDbEntity
  8
0
100
AcDbCircle
 10
9942.759550664964
 20
2656.963792828666
 30
0.0
 40
17.5
100
AcDbArc
 50
180.0
 51
270.0
  0
ARC
  5
28A
330
1F
100
AcDbEntity
  8
0
100
AcDbCircle
 10
13707.75955066496
 20
3721.963792828665
 30
0.0
 40
17.5
100
AcDbArc
 50
0.0
 51
90.0
  0
ARC
  5
28B
330
1F
100
AcDbEntity
  8
0
100
AcDbCircle
 10
13707.75955066496
 20
2656.963792828665
 30
0.0
 40
17.5
100
AcDbArc
 50
270.0
 51
0.0
  0
ARC
  5
28C
330
1F
100
AcDbEntity
  8
0
100
AcDbCircle
 10
15886.87511555575
 20
3721.963792828665
 30
0.0
 40
17.5
100
AcDbArc
 50
90.0
 51
180.0
  0
ARC
  5
28D
330
1F
100
AcDbEntity
  8
0
100
AcDbCircle
 10
15886.87511555575
 20
2656.963792828666
 30
0.0
 40
17.5
100
AcDbArc
 50
180.0
 51
270.0
  0
ARC
  5
28E
330
1F
100
AcDbEntity
  8
0
100
AcDbCircle
 10
20251.87511555575
 20
3721.963792828665
 30
0.0
 40
17.5
100
AcDbArc
 50
0.0
 51
90.0
  0
ARC
  5
28F
330
1F
100
AcDbEntity
  8
0
100
AcDbCircle
 10
20251.87511555575
 20
2656.963792828665
 30
0.0
 40
17.5
100
AcDbArc
 50
270.0
 51
0.0
  0
ARC
  5
290
330
1F
100
AcDbEntity
  8
0
100
AcDbCircle
 10
9934.115392677234
 20
657.2055930054321
 30
0.0
 40
17.5
100
AcDbArc
 50
90.0
 51
180.0
  0
ARC
  5
291
330
1F
100
AcDbEntity
  8
0
100
AcDbCircle
 10
9934.115392677234
 20
-707.7944069945674
 30
0.0
 40
17.5
100
AcDbArc
 50
180.0
 51
270.0
  0
ARC
  5
292
330
1F
100
AcDbEntity
  8
0
100
AcDbCircle
 10
13699.11539267723
 20
657.2055930054321
 30
0.0
 40
17.5
100
AcDbArc
 50
0.0
 51
90.0
  0
ARC
  5
293
330
1F
100
AcDbEntity
  8
0
100
AcDbCircle
 10
13699.11539267723
 20
-707.7944069945679
 30
0.0
 40
17.5
100
AcDbArc
 50
270.0
 51
0.0
  0
ARC
  5
294
330
1F
100
AcDbEntity
  8
0
100
AcDbCircle
 10
15900.85701123334
 20
665.8255422350684
 30
0.0
 40
17.5
100
AcDbArc
 50
90.0
 51
180.0
  0
ARC
  5
295
330
1F
100
AcDbEntity
  8
0
100
AcDbCircle
 10
15900.85701123334
 20
-699.174457764931
 30
0.0
 40
17.5
100
AcDbArc
 50
180.0
 51
270.0
  0
ARC
  5
296
330
1F
100
AcDbEntity
  8
0
100
AcDbCircle
 10
20265.85701123334
 20
665.8255422350684
 30
0.0
 40
17.5
100
AcDbArc
 50
0.0
 51
90.0
  0
ARC
  5
297
330
1F
100
AcDbEntity
  8
0
100
AcDbCircle
 10
20265.85701123334
 20
-699.1744577649314
 30
0.0
 40
17.5
100
AcDbArc
 50
270.0
 51
0.0
  0
ARC
  5
298
330
1F
100
AcDbEntity
  8
0
100
AcDbCircle
 10
9943.285213885179
 20
-5668.519151368675
 30
0.0
 40
17.5
100
AcDbArc
 50
90.0
 51
180.0
  0
ARC
  5
299
330
1F
100
AcDbEntity
  8
0
100
AcDbCircle
 10
9943.285213885179
 20
-6733.519151368675
 30
0.0
 40
17.5
100
AcDbArc
 50
180.0
 51
270.0
  0
ARC
  5
29A
330
1F
100
AcDbEntity
  8
0
100
AcDbCircle
 10
12008.28521388518
 20
-5668.519151368675
 30
0.0
 40
17.5
100
AcDbArc
 50
0.0
 51
90.0
  0
ARC
  5
29B
330
1F
100
AcDbEntity
  8
0
100
AcDbCircle
 10
12008.28521388518
 20
-6733.519151368675
 30
0.0
 40
17.5
100
AcDbArc
 50
270.0
 51
0.0
  0
ARC
  5
29C
330
1F
100
AcDbEntity
  8
0
100
AcDbCircle
 10
13554.01933905181
 20
-5668.519151368675
 30
0.0
 40
17.5
100
AcDbArc
 50
90.0
 51
180.0
  0
ARC
  5
29D
330
1F
100
AcDbEntity
  8
0
100
AcDbCircle
 10
13554.0193390518
 20
-6733.519151368675
 30
0.0
 40
17.5
100
AcDbArc
 50
180.0
 51
270.0
  0
ARC
  5
29E
330
1F
100
AcDbEntity
  8
0
100
AcDbCircle
 10
15919.0193390518
 20
-5668.519151368675
 30
0.0
 40
17.5
100
AcDbArc
 50
0.0
 51
90.0
  0
ARC
  5
29F
330
1F
100
AcDbEntity
  8
0
100
AcDbCircle
 10
15919.0193390518
 20
-6733.519151368675
 30
0.0
 40
17.5
100
AcDbArc
 50
270.0
 51
0.0
  0
ARC
  5
2A0
330
1F
100
AcDbEntity
  8
0
100
AcDbCircle
 10
17205.98658699809
 20
-5668.519151368675
 30
0.0
 40
17.5
100
AcDbArc
 50
90.0
 51
180.0
  0
ARC
  5
2A1
330
1F
100
AcDbEntity
  8
0
100
AcDbCircle
 10
17205.98658699809
 20
-6733.519151368675
 30
0.0
 40
17.5
100
AcDbArc
 50
180.0
 51
270.0
  0
ARC
  5
2A2
330
1F
100
AcDbEntity
  8
0
100
AcDbCircle
 10
19970.9865869981
 20
-5668.519151368675
 30
0.0
 40
17.5
100
AcDbArc
 50
0.0
 51
90.0
  0
ARC
  5
2A3
330
1F
100
AcDbEntity
  8
0
100
AcDbCircle
 10
19970.9865869981
 20
-6733.519151368675
 30
0.0
 40
17.5
100
AcDbArc
 50
270.0
 51
0.0
  0
TEXT
  5
2A4
330
1F
100
AcDbEntity
  8
LINE
100
AcDbText
 10
25.85742833564146
 20
10612.26824072352
 30
0.0
 40
233.9816249415046
  1
Dining Tables
 41
1.000399999999999
100
AcDbText
  0
LINE
  5
2A5
330
1F
100
AcDbEntity
  8
LINE
370
     9
100
AcDbLine
 10
25.85742833564146
 20
11352.7151065052
 30
0.0
 11
20680.8420148467
 21
11352.7151065052
 31
0.0
  0
TEXT
  5
2A6
330
1F
100
AcDbEntity
  8
LINE
100
AcDbText
 10
25.82705008937129
 20
4233.344729550212
 30
0.0
 40
233.9816249415046
  1
Meeting Tables
 41
1.000399999999999
100
AcDbText
  0
LINE
  5
2A7
330
1F
100
AcDbEntity
  8
LINE
370
     9
100
AcDbLine
 10
25.82705008937129
 20
4858.229167874942
 30
0.0
 11
20680.81163660043
 21
4858.229167874942
 31
0.0
  0
TEXT
  5
2A8
330
1F
100
AcDbEntity
  8
LINE
100
AcDbText
 10
25.82705008937129
 20
-2219.822062405523
 30
0.0
 40
233.9816249415046
  1
Bar Tables
 41
1.000399999999999
100
AcDbText
  0
LINE
  5
2A9
330
1F
100
AcDbEntity
  8
LINE
370
     9
100
AcDbLine
 10
25.82705008937129
 20
-1594.937624080792
 30
0.0
 11
20680.81163660043
 21
-1594.937624080792
 31
0.0
  0
TEXT
  5
2AE
330
1F
100
AcDbEntity
  8
LINE
100
AcDbText
 10
10106.8934474724
 20
17965.62704708544
 30
0.0
 40
233.9816249415046
  1
FO60L
 41
1.000399999999999
100
AcDbText
  0
TEXT
  5
2AF
330
1F
100
AcDbEntity
  8
LINE
100
AcDbText
 10
12301.05854082653
 20
17965.62704708544
 30
0.0
 40
233.9816249415046
  1
FO80L
 41
1.000399999999999
100
AcDbText
  0
TEXT
  5
2B0
330
1F
100
AcDbEntity
  8
LINE
100
AcDbText
 10
14801.46095314923
 20
17965.62704708544
 30
0.0
 40
233.9816249415046
  1
FO100L
 41
1.000399999999999
100
AcDbText
  0
TEXT
  5
2B1
330
1F
100
AcDbEntity
  8
LINE
100
AcDbText
 10
14555.52953849232
 20
7835.819294852598
 30
0.0
 40
233.9816249415046
  1
FO120
 41
1.000399999999999
100
AcDbText
  0
TEXT
  5
2B3
330
1F
100
AcDbEntity
  8
LINE
100
AcDbText
 10
17183.80778366752
 20
7835.819294852598
 30
0.0
 40
233.9816249415046
  1
FO150
 41
1.000399999999999
100
AcDbText
  0
TEXT
  5
2B4
330
1F
100
AcDbEntity
  8
LINE
100
AcDbText
 10
20272.70704831533
 20
7835.819294852598
 30
0.0
 40
233.9816249415046
  1
FO180
 41
1.000399999999999
100
AcDbText
  0
TEXT
  5
2B5
330
1F
100
AcDbEntity
  8
LINE
100
AcDbText
 10
10469.85065119973
 20
5154.362327856444
 30
0.0
 40
233.9816249415046
  1
FO210
 41
1.000399999999999
100
AcDbText
  0
TEXT
  5
2B7
330
1F
100
AcDbEntity
  8
LINE
100
AcDbText
 10
14054.98666047472
 20
5154.362327856444
 30
0.0
 40
233.9816249415046
  1
FO240
 41
1.000399999999999
100
AcDbText
  0
TEXT
  5
2B8
330
1F
100
AcDbEntity
  8
LINE
100
AcDbText
 10
17848.63439669996
 20
5154.362327856444
 30
0.0
 40
233.9816249415046
  1
FO270
 41
1.000399999999999
100
AcDbText
  0
TEXT
  5
2B9
330
1F
100
AcDbEntity
  8
LINE
100
AcDbText
 10
22166.28387821339
 20
5154.362327856444
 30
0.0
 40
233.9816249415046
  1
FO300
 41
1.000399999999999
100
AcDbText
  0
TEXT
  5
2BA
330
1F
100
AcDbEntity
  8
LINE
100
AcDbText
 10
11318.6782636818
 20
2152.464337954556
 30
0.0
 40
233.9816249415046
  1
FO380
 41
1.000399999999999
100
AcDbText
  0
TEXT
  5
2BB
330
1F
100
AcDbEntity
  8
LINE
100
AcDbText
 10
17615.08030525635
 20
2152.464337954556
 30
0.0
 40
233.9816249415046
  1
FO440
 41
1.000399999999999
100
AcDbText
  0
TEXT
  5
2BC
330
1F
100
AcDbEntity
  8
LINE
100
AcDbText
 10
11318.6782636818
 20
-1178.844518448795
 30
0.0
 40
233.9816249415046
  1
FO380W
 41
1.000399999999999
100
AcDbText
  0
TEXT
  5
2BD
330
1F
100
AcDbEntity
  8
LINE
100
AcDbText
 10
17605.64536058262
 20
-1178.844518448795
 30
0.0
 40
233.9816249415046
  1
FO440W
 41
1.000399999999999
100
AcDbText
  0
TEXT
  5
2BE
330
1F
100
AcDbEntity
  8
LINE
100
AcDbText
 10
10463.40700038584
 20
-7168.588082943376
 30
0.0
 40
233.9816249415046
  1
FOB210
 41
1.000399999999999
100
AcDbText
  0
TEXT
  5
2BF
330
1F
100
AcDbEntity
  8
LINE
100
AcDbText
 10
14277.86790707466
 20
-7168.588082943376
 30
0.0
 40
233.9816249415046
  1
FOB240
 41
1.000399999999999
100
AcDbText
  0
TEXT
  5
2C0
330
1F
100
AcDbEntity
  8
LINE
100
AcDbText
 10
18113.21743525199
 20
-7168.588082943376
 30
0.0
 40
233.9816249415046
  1
FOB270
 41
1.000399999999999
100
AcDbText
  0
CIRCLE
  5
2C3
330
1F
100
AcDbEntity
  8
0
100
AcDbCircle
 10
10486.6800630122
 20
16551.53472058072
 30
0.0
 40
300.0
  0
CIRCLE
  5
2C4
330
1F
100
AcDbEntity
  8
0
100
AcDbCircle
 10
12694.36751648188
 20
16551.53472058072
 30
0.0
 40
400.0
  0
CIRCLE
  5
2C5
330
1F
100
AcDbEntity
  8
0
100
AcDbCircle
 10
15219.50054767698
 20
16551.53472058072
 30
0.0
 40
500.0
  0
TEXT
  5
2C6
330
1F
100
AcDbEntity
  8
LINE
100
AcDbText
 10
10106.8934474724
 20
15739.13536477244
 30
0.0
 40
233.9816249415046
  1
FO60H
 41
1.000399999999999
100
AcDbText
  0
TEXT
  5
2C7
330
1F
100
AcDbEntity
  8
LINE
100
AcDbText
 10
12301.05854082653
 20
15739.13536477244
 30
0.0
 40
233.9816249415046
  1
FO80H
 41
1.000399999999999
100
AcDbText
  0
TEXT
  5
2C8
330
1F
100
AcDbEntity
  8
LINE
100
AcDbText
 10
14801.46095314923
 20
15739.13536477244
 30
0.0
 40
233.9816249415046
  1
FO100H
 41
1.000399999999999
100
AcDbText
  0
CIRCLE
  5
2CA
330
1F
100
AcDbEntity
  8
0
100
AcDbCircle
 10
10425.3281615683
 20
12840.8483887749
 30
0.0
 40
400.0
  0
CIRCLE
  5
2CB
330
1F
100
AcDbEntity
  8
0
100
AcDbCircle
 10
12797.10368563904
 20
9150.122562454614
 30
0.0
 40
500.0
  0
TEXT
  5
2CD
330
1F
100
AcDbEntity
  8
LINE
100
AcDbText
 10
10032.01918591295
 20
12028.44903296662
 30
0.0
 40
233.9816249415046
  1
FO80
 41
1.000399999999999
100
AcDbText
  0
TEXT
  5
2CE
330
1F
100
AcDbEntity
  8
LINE
100
AcDbText
 10
12379.06409111128
 20
7821.915041339176
 30
0.0
 40
233.9816249415046
  1
FO100
 41
1.000399999999999
100
AcDbText
  0
LINE
  5
4FB
330
1F
100
AcDbEntity
  8
Visible (ANSI)
100
AcDbLine
 10
5124.463663762487
 20
18789.96891752597
 30
0.0
 11
5106.812045493116
 21
18831.96891752597
 31
0.0
  0
LINE
  5
4FC
330
1F
100
AcDbEntity
  8
Visible (ANSI)
100
AcDbLine
 10
5095.463663762487
 20
18789.96891752597
 30
0.0
 11
5124.463663762487
 21
18789.96891752597
 31
0.0
  0
LINE
  5
4FD
330
1F
100
AcDbEntity
  8
Visible (ANSI)
100
AcDbLine
 10
4956.46366376249
 20
18789.96891752597
 30
0.0
 11
4974.11528203186
 21
18831.96891752597
 31
0.0
  0
LINE
  5
4FE
330
1F
100
AcDbEntity
  8
Visible (ANSI)
100
AcDbLine
 10
4956.46366376249
 20
18789.96891752597
 30
0.0
 11
4985.463663762489
 21
18789.96891752597
 31
0.0
  0
LINE
  5
4FF
330
1F
100
AcDbEntity
  8
Visible (ANSI)
100
AcDbLine
 10
5340.463663762482
 20
18852.96891752597
 30
0.0
 11
4740.463663762493
 21
18852.96891752597
 31
0.0
  0
LINE
  5
500
330
1F
100
AcDbEntity
  8
Visible (ANSI)
100
AcDbLine
 10
5319.463663762483
 20
18831.96891752597
 30
0.0
 11
4761.463663762493
 21
18831.96891752597
 31
0.0
  0
ARC
  5
501
330
1F
100
AcDbEntity
  8
Visible (ANSI)
100
AcDbCircle
 10
4761.463663762493
 20
18852.96891752597
 30
0.0
 40
20.99999999999964
100
AcDbArc
 50
180.0
 51
270.0
  0
ARC
  5
502
330
1F
100
AcDbEntity
  8
Visible (ANSI)
100
AcDbCircle
 10
5319.463663762483
 20
18852.96891752597
 30
0.0
 40
20.99999999999964
100
AcDbArc
 50
270.0
 51
0.0
  0
LINE
  5
503
330
1F
100
AcDbEntity
  8
Visible (ANSI)
100
AcDbLine
 10
4996.463663762488
 20
18503.96891752597
 30
0.0
 11
4985.463663762487
 21
18503.96891752597
 31
0.0
  0
LINE
  5
504
330
1F
100
AcDbEntity
  8
Visible (ANSI)
100
AcDbLine
 10
5095.463663762488
 20
18503.96891752597
 30
0.0
 11
5084.463663762488
 21
18503.96891752597
 31
0.0
  0
LINE
  5
505
330
1F
100
AcDbEntity
  8
Visible (ANSI)
100
AcDbLine
 10
4996.463663762488
 20
18503.96891752597
 30
0.0
 11
5084.463663762488
 21
18503.96891752597
 31
0.0
  0
LINE
  5
506
330
1F
100
AcDbEntity
  8
Visible (ANSI)
100
AcDbLine
 10
5095.463663762488
 20
18831.96891752597
 30
0.0
 11
5095.463663762488
 21
18503.96891752597
 31
0.0
  0
LINE
  5
507
330
1F
100
AcDbEntity
  8
Visible (ANSI)
100
AcDbLine
 10
4985.463663762487
 20
18831.96891752597
 30
0.0
 11
4985.463663762487
 21
18503.96891752597
 31
0.0
  0
LINE
  5
508
330
1F
100
AcDbEntity
  8
Visible (ANSI)
100
AcDbLine
 10
4911.71019111695
 20
18503.96891752597
 30
0.0
 11
4910.31432760106
 21
18503.96891752597
 31
0.0
  0
LINE
  5
509
330
1F
100
AcDbEntity
  8
Visible (ANSI)
100
AcDbLine
 10
4866.31432760106
 20
18503.96891752597
 30
0.0
 11
4910.31432760106
 21
18503.96891752597
 31
0.0
  0
LINE
  5
50A
330
1F
100
AcDbEntity
  8
Visible (ANSI)
100
AcDbLine
 10
4866.31432760106
 20
18503.96891752597
 30
0.0
 11
4844.643154412818
 21
18503.96891752597
 31
0.0
  0
LINE
  5
50B
330
1F
100
AcDbEntity
  8
Visible (ANSI)
100
AcDbLine
 10
4948.031204276276
 20
18831.96891752597
 30
0.0
 11
4844.643154412818
 21
18503.96891752597
 31
0.0
  0
LINE
  5
50C
330
1F
100
AcDbEntity
  8
Visible (ANSI)
100
AcDbLine
 10
4985.463663762487
 20
18737.95281662925
 30
0.0
 11
4911.71019111695
 21
18503.96891752597
 31
0.0
  0
LINE
  5
50D
330
1F
100
AcDbEntity
  8
Visible (ANSI)
100
AcDbLine
 10
5236.284173112159
 20
18503.96891752597
 30
0.0
 11
5214.612999923916
 21
18503.96891752597
 31
0.0
  0
LINE
  5
50E
330
1F
100
AcDbEntity
  8
Visible (ANSI)
100
AcDbLine
 10
5170.612999923917
 20
18503.96891752597
 30
0.0
 11
5214.612999923916
 21
18503.96891752597
 31
0.0
  0
LINE
  5
50F
330
1F
100
AcDbEntity
  8
Visible (ANSI)
100
AcDbLine
 10
5170.612999923917
 20
18503.96891752597
 30
0.0
 11
5169.217136408026
 21
18503.96891752597
 31
0.0
  0
LINE
  5
510
330
1F
100
AcDbEntity
  8
Visible (ANSI)
100
AcDbLine
 10
5095.463663762488
 20
18737.95281662925
 30
0.0
 11
5169.217136408025
 21
18503.96891752597
 31
0.0
  0
LINE
  5
511
330
1F
100
AcDbEntity
  8
Visible (ANSI)
100
AcDbLine
 10
5132.896123248701
 20
18831.96891752597
 30
0.0
 11
5236.284173112159
 21
18503.96891752597
 31
0.0
  0
LINE
  5
512
330
1F
100
AcDbEntity
  8
Visible (ANSI)
100
AcDbLine
 10
7517.243688835065
 20
18789.96891752597
 30
0.0
 11
7581.198030367712
 21
18789.96891752597
 31
0.0
  0
LINE
  5
513
330
1F
100
AcDbEntity
  8
Visible (ANSI)
100
AcDbLine
 10
7889.989822752939
 20
18852.96891752597
 30
0.0
 11
7289.989822752949
 21
18852.96891752597
 31
0.0
  0
LINE
  5
514
330
1F
100
AcDbEntity
  8
Visible (ANSI)
100
AcDbLine
 10
7868.989822752938
 20
18831.96891752597
 30
0.0
 11
7310.989822752948
 21
18831.96891752597
 31
0.0
  0
ARC
  5
515
330
1F
100
AcDbEntity
  8
Visible (ANSI)
100
AcDbCircle
 10
7310.989822752948
 20
18852.96891752597
 30
0.0
 40
20.99999999999964
100
AcDbArc
 50
180.0
 51
270.0
  0
ARC
  5
516
330
1F
100
AcDbEntity
  8
Visible (ANSI)
100
AcDbCircle
 10
7868.989822752938
 20
18852.96891752597
 30
0.0
 40
20.99999999999964
100
AcDbArc
 50
270.0
 51
0.0
  0
LINE
  5
517
330
1F
100
AcDbEntity
  8
Visible (ANSI)
100
AcDbLine
 10
7413.14820183493
 20
18503.96891752597
 30
0.0
 11
7389.736290840459
 21
18503.96891752597
 31
0.0
  0
LINE
  5
518
330
1F
100
AcDbEntity
  8
Visible (ANSI)
100
AcDbLine
 10
7532.530438674244
 20
18831.96891752597
 30
0.0
 11
7413.14820183493
 21
18503.96891752597
 31
0.0
  0
LINE
  5
519
330
1F
100
AcDbEntity
  8
Visible (ANSI)
100
AcDbLine
 10
7509.118527679776
 20
18831.96891752597
 30
0.0
 11
7389.736290840459
 21
18503.96891752597
 31
0.0
  0
LINE
  5
51A
330
1F
100
AcDbEntity
  8
Visible (ANSI)
100
AcDbLine
 10
7650.279420135165
 20
18503.96891752597
 30
0.0
 11
7633.24577386781
 21
18503.96891752597
 31
0.0
  0
LINE
  5
51B
330
1F
100
AcDbEntity
  8
Visible (ANSI)
100
AcDbLine
 10
7731.817346438297
 20
18503.96891752597
 30
0.0
 11
7726.489655668181
 21
18503.96891752597
 31
0.0
  0
LINE
  5
51C
330
1F
100
AcDbEntity
  8
Visible (ANSI)
100
AcDbLine
 10
7650.279420135165
 20
18503.96891752597
 30
0.0
 11
7726.489655668181
 21
18503.96891752597
 31
0.0
  0
LINE
  5
51D
330
1F
100
AcDbEntity
  8
Visible (ANSI)
100
AcDbLine
 10
7672.126228018608
 20
18831.96891752597
 30
0.0
 11
7731.817346438297
 21
18503.96891752597
 31
0.0
  0
LINE
  5
51E
330
1F
100
AcDbEntity
  8
Visible (ANSI)
100
AcDbLine
 10
7573.55465544812
 20
18831.96891752597
 30
0.0
 11
7633.24577386781
 21
18503.96891752597
 31
0.0
  0
LINE
  5
51F
330
1F
100
AcDbEntity
  8
Visible (ANSI)
100
AcDbLine
 10
7854.989822752955
 20
18830.96891752597
 30
0.0
 11
7850.989822752956
 21
18830.96891752597
 31
0.0
  0
LINE
  5
520
330
1F
100
AcDbEntity
  8
Visible (ANSI)
100
AcDbLine
 10
7833.989822752958
 20
18830.96891752597
 30
0.0
 11
7829.989822752955
 21
18830.96891752597
 31
0.0
  0
LINE
  5
521
330
1F
100
AcDbEntity
  8
Visible (ANSI)
100
AcDbLine
 10
7829.989822752955
 20
18831.96891752597
 30
0.0
 11
7829.989822752955
 21
18830.96891752597
 31
0.0
  0
LINE
  5
522
330
1F
100
AcDbEntity
  8
Visible (ANSI)
100
AcDbLine
 10
7854.989822752955
 20
18830.96891752597
 30
0.0
 11
7854.989822752955
 21
18831.96891752597
 31
0.0
  0
LINE
  5
523
330
1F
100
AcDbEntity
  8
Visible (ANSI)
100
AcDbLine
 10
7850.989822752956
 20
18830.96891752597
 30
0.0
 11
7833.989822752958
 21
18830.96891752597
 31
0.0
  0
LINE
  5
524
330
1F
100
AcDbEntity
  8
Visible (ANSI)
100
AcDbLine
 10
7844.594822752952
 20
18830.46891752597
 30
0.0
 11
7840.384822752954
 21
18830.46891752597
 31
0.0
  0
ARC
  5
525
330
1F
100
AcDbEntity
  8
Visible (ANSI)
100
AcDbCircle
 10
7842.489822752952
 20
18834.64994252597
 30
0.0
 40
4.681024999999991
100
AcDbArc
 50
243.276342437053
 51
296.723657562947
  0
LINE
  5
526
330
1F
100
AcDbEntity
  8
Visible (ANSI)
100
AcDbLine
 10
7840.384822752954
 20
18830.46891752597
 30
0.0
 11
7840.384822752954
 21
18830.96891752597
 31
0.0
  0
LINE
  5
527
330
1F
100
AcDbEntity
  8
Visible (ANSI)
100
AcDbLine
 10
7844.594822752952
 20
18830.46891752597
 30
0.0
 11
7844.594822752952
 21
18830.96891752597
 31
0.0
  0
LINE
  5
55C
330
1F
100
AcDbEntity
  8
Visible (ANSI)
100
AcDbLine
 10
5103.463663762486
 20
16665.9327749319
 30
0.0
 11
5085.812045493116
 21
16707.9327749319
 31
0.0
  0
LINE
  5
55D
330
1F
100
AcDbEntity
  8
Visible (ANSI)
100
AcDbLine
 10
5074.463663762486
 20
16665.9327749319
 30
0.0
 11
5103.463663762486
 21
16665.9327749319
 31
0.0
  0
LINE
  5
55E
330
1F
100
AcDbEntity
  8
Visible (ANSI)
100
AcDbLine
 10
4935.463663762489
 20
16665.9327749319
 30
0.0
 11
4953.115282031859
 21
16707.9327749319
 31
0.0
  0
LINE
  5
55F
330
1F
100
AcDbEntity
  8
Visible (ANSI)
100
AcDbLine
 10
4935.463663762489
 20
16665.9327749319
 30
0.0
 11
4964.463663762489
 21
16665.9327749319
 31
0.0
  0
LINE
  5
560
330
1F
100
AcDbEntity
  8
Visible (ANSI)
100
AcDbLine
 10
5319.463663762483
 20
16728.9327749319
 30
0.0
 11
4719.463663762494
 21
16728.9327749319
 31
0.0
  0
LINE
  5
561
330
1F
100
AcDbEntity
  8
Visible (ANSI)
100
AcDbLine
 10
5298.463663762483
 20
16707.9327749319
 30
0.0
 11
4740.463663762493
 21
16707.9327749319
 31
0.0
  0
ARC
  5
562
330
1F
100
AcDbEntity
  8
Visible (ANSI)
100
AcDbCircle
 10
4740.463663762493
 20
16728.9327749319
 30
0.0
 40
20.99999999999964
100
AcDbArc
 50
180.0
 51
270.0
  0
ARC
  5
563
330
1F
100
AcDbEntity
  8
Visible (ANSI)
100
AcDbCircle
 10
5298.463663762483
 20
16728.9327749319
 30
0.0
 40
20.99999999999964
100
AcDbArc
 50
270.0
 51
0.0
  0
LINE
  5
564
330
1F
100
AcDbEntity
  8
Visible (ANSI)
100
AcDbLine
 10
4975.463663762488
 20
16279.93277493189
 30
0.0
 11
4964.463663762488
 21
16279.93277493189
 31
0.0
  0
LINE
  5
565
330
1F
100
AcDbEntity
  8
Visible (ANSI)
100
AcDbLine
 10
5074.463663762488
 20
16279.93277493189
 30
0.0
 11
5063.463663762488
 21
16279.93277493189
 31
0.0
  0
LINE
  5
566
330
1F
100
AcDbEntity
  8
Visible (ANSI)
100
AcDbLine
 10
4975.463663762488
 20
16279.93277493189
 30
0.0
 11
5063.463663762488
 21
16279.93277493189
 31
0.0
  0
LINE
  5
567
330
1F
100
AcDbEntity
  8
Visible (ANSI)
100
AcDbLine
 10
5074.463663762488
 20
16707.9327749319
 30
0.0
 11
5074.463663762488
 21
16279.93277493189
 31
0.0
  0
LINE
  5
568
330
1F
100
AcDbEntity
  8
Visible (ANSI)
100
AcDbLine
 10
4964.463663762488
 20
16707.9327749319
 30
0.0
 11
4964.463663762488
 21
16279.93277493189
 31
0.0
  0
LINE
  5
569
330
1F
100
AcDbEntity
  8
Visible (ANSI)
100
AcDbLine
 10
4859.189444207359
 20
16279.93277493189
 30
0.0
 11
4857.793580691469
 21
16279.93277493189
 31
0.0
  0
LINE
  5
56A
330
1F
100
AcDbEntity
  8
Visible (ANSI)
100
AcDbLine
 10
4813.793580691468
 20
16279.93277493189
 30
0.0
 11
4857.793580691469
 21
16279.93277493189
 31
0.0
  0
LINE
  5
56B
330
1F
100
AcDbEntity
  8
Visible (ANSI)
100
AcDbLine
 10
4813.793580691468
 20
16279.93277493189
 30
0.0
 11
4792.122407503227
 21
16279.93277493189
 31
0.0
  0
LINE
  5
56C
330
1F
100
AcDbEntity
  8
Visible (ANSI)
100
AcDbLine
 10
4927.031204276275
 20
16707.9327749319
 30
0.0
 11
4792.122407503227
 21
16279.93277493189
 31
0.0
  0
LINE
  5
56D
330
1F
100
AcDbEntity
  8
Visible (ANSI)
100
AcDbLine
 10
4964.463663762488
 20
16613.91667403518
 30
0.0
 11
4859.189444207359
 21
16279.93277493189
 31
0.0
  0
LINE
  5
56E
330
1F
100
AcDbEntity
  8
Visible (ANSI)
100
AcDbLine
 10
5246.804920021748
 20
16279.93277493189
 30
0.0
 11
5225.133746833508
 21
16279.93277493189
 31
0.0
  0
LINE
  5
56F
330
1F
100
AcDbEntity
  8
Visible (ANSI)
100
AcDbLine
 10
5181.133746833507
 20
16279.93277493189
 30
0.0
 11
5225.133746833508
 21
16279.93277493189
 31
0.0
  0
LINE
  5
570
330
1F
100
AcDbEntity
  8
Visible (ANSI)
100
AcDbLine
 10
5181.133746833507
 20
16279.93277493189
 30
0.0
 11
5179.737883317617
 21
16279.93277493189
 31
0.0
  0
LINE
  5
571
330
1F
100
AcDbEntity
  8
Visible (ANSI)
100
AcDbLine
 10
5074.463663762488
 20
16613.91667403518
 30
0.0
 11
5179.737883317617
 21
16279.93277493189
 31
0.0
  0
LINE
  5
572
330
1F
100
AcDbEntity
  8
Visible (ANSI)
100
AcDbLine
 10
5111.8961232487
 20
16707.9327749319
 30
0.0
 11
5246.804920021748
 21
16279.93277493189
 31
0.0
  0
LINE
  5
573
330
1F
100
AcDbEntity
  8
Visible (ANSI)
100
AcDbLine
 10
7562.51333005752
 20
16665.9327749319
 30
0.0
 11
7626.467671590169
 21
16665.9327749319
 31
0.0
  0
LINE
  5
574
330
1F
100
AcDbEntity
  8
Visible (ANSI)
100
AcDbLine
 10
7935.259463975393
 20
16728.9327749319
 30
0.0
 11
7335.259463975403
 21
16728.9327749319
 31
0.0
  0
LINE
  5
575
330
1F
100
AcDbEntity
  8
Visible (ANSI)
100
AcDbLine
 10
7914.259463975392
 20
16707.9327749319
 30
0.0
 11
7356.259463975404
 21
16707.9327749319
 31
0.0
  0
ARC
  5
576
330
1F
100
AcDbEntity
  8
Visible (ANSI)
100
AcDbCircle
 10
7356.259463975404
 20
16728.9327749319
 30
0.0
 40
20.99999999999964
100
AcDbArc
 50
180.0
 51
270.0
  0
ARC
  5
577
330
1F
100
AcDbEntity
  8
Visible (ANSI)
100
AcDbCircle
 10
7914.259463975392
 20
16728.9327749319
 30
0.0
 40
20.99999999999964
100
AcDbArc
 50
270.0
 51
0.0
  0
LINE
  5
578
330
1F
100
AcDbEntity
  8
Visible (ANSI)
100
AcDbLine
 10
7422.020819630765
 20
16279.93277493189
 30
0.0
 11
7398.608908636295
 21
16279.93277493189
 31
0.0
  0
LINE
  5
579
330
1F
100
AcDbEntity
  8
Visible (ANSI)
100
AcDbLine
 10
7577.8000798967
 20
16707.9327749319
 30
0.0
 11
7422.020819630765
 21
16279.93277493189
 31
0.0
  0
LINE
  5
57A
330
1F
100
AcDbEntity
  8
Visible (ANSI)
100
AcDbLine
 10
7554.388168902232
 20
16707.9327749319
 30
0.0
 11
7398.608908636295
 21
16279.93277493189
 31
0.0
  0
LINE
  5
57B
330
1F
100
AcDbEntity
  8
Visible (ANSI)
100
AcDbLine
 10
7713.747573070938
 20
16279.93277493189
 30
0.0
 11
7696.713926803585
 21
16279.93277493189
 31
0.0
  0
LINE
  5
57C
330
1F
100
AcDbEntity
  8
Visible (ANSI)
100
AcDbLine
 10
7795.285499374073
 20
16279.93277493189
 30
0.0
 11
7789.957808603958
 21
16279.93277493189
 31
0.0
  0
LINE
  5
57D
330
1F
100
AcDbEntity
  8
Visible (ANSI)
100
AcDbLine
 10
7713.747573070938
 20
16279.93277493189
 30
0.0
 11
7789.957808603958
 21
16279.93277493189
 31
0.0
  0
LINE
  5
57E
330
1F
100
AcDbEntity
  8
Visible (ANSI)
100
AcDbLine
 10
7717.395869241063
 20
16707.9327749319
 30
0.0
 11
7795.285499374073
 21
16279.93277493189
 31
0.0
  0
LINE
  5
57F
330
1F
100
AcDbEntity
  8
Visible (ANSI)
100
AcDbLine
 10
7618.824296670577
 20
16707.9327749319
 30
0.0
 11
7696.713926803585
 21
16279.93277493189
 31
0.0
  0
LINE
  5
580
330
1F
100
AcDbEntity
  8
Visible (ANSI)
100
AcDbLine
 10
7900.259463975411
 20
16706.9327749319
 30
0.0
 11
7896.25946397541
 21
16706.9327749319
 31
0.0
  0
LINE
  5
581
330
1F
100
AcDbEntity
  8
Visible (ANSI)
100
AcDbLine
 10
7879.259463975412
 20
16706.9327749319
 30
0.0
 11
7875.25946397541
 21
16706.9327749319
 31
0.0
  0
LINE
  5
582
330
1F
100
AcDbEntity
  8
Visible (ANSI)
100
AcDbLine
 10
7875.25946397541
 20
16707.9327749319
 30
0.0
 11
7875.25946397541
 21
16706.9327749319
 31
0.0
  0
LINE
  5
583
330
1F
100
AcDbEntity
  8
Visible (ANSI)
100
AcDbLine
 10
7900.259463975411
 20
16706.9327749319
 30
0.0
 11
7900.259463975411
 21
16707.9327749319
 31
0.0
  0
LINE
  5
584
330
1F
100
AcDbEntity
  8
Visible (ANSI)
100
AcDbLine
 10
7896.25946397541
 20
16706.9327749319
 30
0.0
 11
7879.259463975412
 21
16706.9327749319
 31
0.0
  0
LINE
  5
585
330
1F
100
AcDbEntity
  8
Visible (ANSI)
100
AcDbLine
 10
7889.86446397541
 20
16706.4327749319
 30
0.0
 11
7885.654463975409
 21
16706.4327749319
 31
0.0
  0
ARC
  5
586
330
1F
100
AcDbEntity
  8
Visible (ANSI)
100
AcDbCircle
 10
7887.75946397541
 20
16710.61379993189
 30
0.0
 40
4.681024999999991
100
AcDbArc
 50
243.2763424371107
 51
296.7236575628893
  0
LINE
  5
587
330
1F
100
AcDbEntity
  8
Visible (ANSI)
100
AcDbLine
 10
7885.654463975409
 20
16706.4327749319
 30
0.0
 11
7885.654463975409
 21
16706.9327749319
 31
0.0
  0
LINE
  5
588
330
1F
100
AcDbEntity
  8
Visible (ANSI)
100
AcDbLine
 10
7889.86446397541
 20
16706.4327749319
 30
0.0
 11
7889.86446397541
 21
16706.9327749319
 31
0.0
  0
LINE
  5
5BD
330
1F
100
AcDbEntity
  8
Visible (ANSI)
100
AcDbLine
 10
7593.877124380734
 20
13025.96548438878
 30
0.0
 11
7628.839065157859
 21
13025.96548438878
 31
0.0
  0
LINE
  5
5BE
330
1F
100
AcDbEntity
  8
Visible (ANSI)
100
AcDbLine
 10
7738.839065157859
 20
13025.96548438878
 30
0.0
 11
7773.801005934983
 21
13025.96548438878
 31
0.0
  0
LINE
  5
5BF
330
1F
100
AcDbEntity
  8
Visible (ANSI)
100
AcDbLine
 10
8083.839065157851
 20
13088.96548438878
 30
0.0
 11
7283.839065157865
 21
13088.96548438878
 31
0.0
  0
LINE
  5
5C0
330
1F
100
AcDbEntity
  8
Visible (ANSI)
100
AcDbLine
 10
8062.839065157852
 20
13067.96548438878
 30
0.0
 11
7304.839065157864
 21
13067.96548438878
 31
0.0
  0
ARC
  5
5C1
330
1F
100
AcDbEntity
  8
Visible (ANSI)
100
AcDbCircle
 10
7304.839065157864
 20
13088.96548438878
 30
0.0
 40
20.99999999999964
100
AcDbArc
 50
180.0
 51
270.0
  0
ARC
  5
5C2
330
1F
100
AcDbEntity
  8
Visible (ANSI)
100
AcDbCircle
 10
8062.839065157852
 20
13088.96548438878
 30
0.0
 40
20.99999999999964
100
AcDbArc
 50
270.0
 51
0.0
  0
LINE
  5
5C3
330
1F
100
AcDbEntity
  8
Visible (ANSI)
100
AcDbLine
 10
7639.839065157858
 20
12438.96548438878
 30
0.0
 11
7628.839065157858
 21
12438.96548438878
 31
0.0
  0
LINE
  5
5C4
330
1F
100
AcDbEntity
  8
Visible (ANSI)
100
AcDbLine
 10
7738.839065157859
 20
12438.96548438878
 30
0.0
 11
7727.839065157859
 21
12438.96548438878
 31
0.0
  0
LINE
  5
5C5
330
1F
100
AcDbEntity
  8
Visible (ANSI)
100
AcDbLine
 10
7639.839065157858
 20
12438.96548438878
 30
0.0
 11
7727.839065157859
 21
12438.96548438878
 31
0.0
  0
LINE
  5
5C6
330
1F
100
AcDbEntity
  8
Visible (ANSI)
100
AcDbLine
 10
7738.839065157859
 20
13067.96548438878
 30
0.0
 11
7738.839065157859
 21
12438.96548438878
 31
0.0
  0
LINE
  5
5C7
330
1F
100
AcDbEntity
  8
Visible (ANSI)
100
AcDbLine
 10
7628.839065157858
 20
13067.96548438878
 30
0.0
 11
7628.839065157858
 21
12438.96548438878
 31
0.0
  0
LINE
  5
5C8
330
1F
100
AcDbEntity
  8
Visible (ANSI)
100
AcDbLine
 10
8010.863444443714
 20
12438.96548438878
 30
0.0
 11
7987.451533449245
 21
12438.96548438878
 31
0.0
  0
LINE
  5
5C9
330
1F
100
AcDbEntity
  8
Visible (ANSI)
100
AcDbLine
 10
7758.514256095802
 20
13067.96548438878
 30
0.0
 11
7987.451533449245
 21
12438.96548438878
 31
0.0
  0
LINE
  5
5CA
330
1F
100
AcDbEntity
  8
Visible (ANSI)
100
AcDbLine
 10
7781.926167090273
 20
13067.96548438878
 30
0.0
 11
8010.863444443714
 21
12438.96548438878
 31
0.0
  0
LINE
  5
5CB
330
1F
100
AcDbEntity
  8
Visible (ANSI)
100
AcDbLine
 10
7380.226596866473
 20
12438.96548438878
 30
0.0
 11
7356.814685872001
 21
12438.96548438878
 31
0.0
  0
LINE
  5
5CC
330
1F
100
AcDbEntity
  8
Visible (ANSI)
100
AcDbLine
 10
7609.163874219913
 20
13067.96548438878
 30
0.0
 11
7380.226596866473
 21
12438.96548438878
 31
0.0
  0
LINE
  5
5CD
330
1F
100
AcDbEntity
  8
Visible (ANSI)
100
AcDbLine
 10
7585.751963225445
 20
13067.96548438878
 30
0.0
 11
7356.814685872001
 21
12438.96548438878
 31
0.0
  0
LINE
  5
5CE
330
1F
100
AcDbEntity
  8
Visible (ANSI)
100
AcDbLine
 10
4974.463663762464
 20
13025.96548438878
 30
0.0
 11
5009.425604539599
 21
13025.96548438878
 31
0.0
  0
LINE
  5
5CF
330
1F
100
AcDbEntity
  8
Visible (ANSI)
100
AcDbLine
 10
4829.501722985352
 20
13025.96548438878
 30
0.0
 11
4864.463663762466
 21
13025.96548438878
 31
0.0
  0
LINE
  5
5D0
330
1F
100
AcDbEntity
  8
Visible (ANSI)
100
AcDbLine
 10
5319.463663762482
 20
13088.96548438878
 30
0.0
 11
4519.463663762495
 21
13088.96548438878
 31
0.0
  0
LINE
  5
5D1
330
1F
100
AcDbEntity
  8
Visible (ANSI)
100
AcDbLine
 10
5298.463663762483
 20
13067.96548438878
 30
0.0
 11
4540.463663762495
 21
13067.96548438878
 31
0.0
  0
ARC
  5
5D2
330
1F
100
AcDbEntity
  8
Visible (ANSI)
100
AcDbCircle
 10
4540.463663762495
 20
13088.96548438878
 30
0.0
 40
20.99999999999964
100
AcDbArc
 50
180.0
 51
270.0
  0
ARC
  5
5D3
330
1F
100
AcDbEntity
  8
Visible (ANSI)
100
AcDbCircle
 10
5298.463663762483
 20
13088.96548438878
 30
0.0
 40
20.99999999999964
100
AcDbArc
 50
270.0
 51
0.0
  0
LINE
  5
5D4
330
1F
100
AcDbEntity
  8
Visible (ANSI)
100
AcDbLine
 10
4558.463663762475
 20
13066.96548438878
 30
0.0
 11
4554.463663762477
 21
13066.96548438878
 31
0.0
  0
LINE
  5
5D5
330
1F
100
AcDbEntity
  8
Visible (ANSI)
100
AcDbLine
 10
4579.463663762477
 20
13066.96548438878
 30
0.0
 11
4575.463663762476
 21
13066.96548438878
 31
0.0
  0
LINE
  5
5D6
330
1F
100
AcDbEntity
  8
Visible (ANSI)
100
AcDbLine
 10
4554.463663762477
 20
13067.96548438878
 30
0.0
 11
4554.463663762477
 21
13066.96548438878
 31
0.0
  0
LINE
  5
5D7
330
1F
100
AcDbEntity
  8
Visible (ANSI)
100
AcDbLine
 10
4579.463663762477
 20
13066.96548438878
 30
0.0
 11
4579.463663762477
 21
13067.96548438878
 31
0.0
  0
LINE
  5
5D8
330
1F
100
AcDbEntity
  8
Visible (ANSI)
100
AcDbLine
 10
4575.463663762476
 20
13066.96548438878
 30
0.0
 11
4558.463663762475
 21
13066.96548438878
 31
0.0
  0
LINE
  5
5D9
330
1F
100
AcDbEntity
  8
Visible (ANSI)
100
AcDbLine
 10
4569.068663762478
 20
13066.46548438878
 30
0.0
 11
4564.858663762477
 21
13066.46548438878
 31
0.0
  0
ARC
  5
5DA
330
1F
100
AcDbEntity
  8
Visible (ANSI)
100
AcDbCircle
 10
4566.963663762479
 20
13070.64650938878
 30
0.0
 40
4.681024999999991
100
AcDbArc
 50
243.2763424370821
 51
296.7236575629178
  0
LINE
  5
5DB
330
1F
100
AcDbEntity
  8
Visible (ANSI)
100
AcDbLine
 10
4564.858663762477
 20
13066.46548438878
 30
0.0
 11
4564.858663762477
 21
13066.96548438878
 31
0.0
  0
LINE
  5
5DC
330
1F
100
AcDbEntity
  8
Visible (ANSI)
100
AcDbLine
 10
4569.068663762478
 20
13066.46548438878
 30
0.0
 11
4569.068663762478
 21
13066.96548438878
 31
0.0
  0
LINE
  5
5DD
330
1F
100
AcDbEntity
  8
Visible (ANSI)
100
AcDbLine
 10
5246.488043048333
 20
12438.96548438878
 30
0.0
 11
5223.076132053862
 21
12438.96548438878
 31
0.0
  0
LINE
  5
5DE
330
1F
100
AcDbEntity
  8
Visible (ANSI)
100
AcDbLine
 10
4994.13885470042
 20
13067.96548438878
 30
0.0
 11
5223.076132053862
 21
12438.96548438878
 31
0.0
  0
LINE
  5
5DF
330
1F
100
AcDbEntity
  8
Visible (ANSI)
100
AcDbLine
 10
5017.55076569489
 20
13067.96548438878
 30
0.0
 11
5246.488043048333
 21
12438.96548438878
 31
0.0
  0
LINE
  5
5E0
330
1F
100
AcDbEntity
  8
Visible (ANSI)
100
AcDbLine
 10
4615.85119547109
 20
12438.96548438878
 30
0.0
 11
4592.439284476618
 21
12438.96548438878
 31
0.0
  0
LINE
  5
5E1
330
1F
100
AcDbEntity
  8
Visible (ANSI)
100
AcDbLine
 10
4844.788472824532
 20
13067.96548438878
 30
0.0
 11
4615.85119547109
 21
12438.96548438878
 31
0.0
  0
LINE
  5
5E2
330
1F
100
AcDbEntity
  8
Visible (ANSI)
100
AcDbLine
 10
4821.376561830062
 20
13067.96548438878
 30
0.0
 11
4592.439284476618
 21
12438.96548438878
 31
0.0
  0
LINE
  5
5E3
330
1F
100
AcDbEntity
  8
Visible (ANSI)
100
AcDbLine
 10
4875.463663762392
 20
12438.96548438878
 30
0.0
 11
4864.463663762395
 21
12438.96548438878
 31
0.0
  0
LINE
  5
5E4
330
1F
100
AcDbEntity
  8
Visible (ANSI)
100
AcDbLine
 10
4974.463663762396
 20
12438.96548438878
 30
0.0
 11
4963.463663762392
 21
12438.96548438878
 31
0.0
  0
LINE
  5
5E5
330
1F
100
AcDbEntity
  8
Visible (ANSI)
100
AcDbLine
 10
4875.463663762392
 20
12438.96548438878
 30
0.0
 11
4963.463663762392
 21
12438.96548438878
 31
0.0
  0
LINE
  5
5E6
330
1F
100
AcDbEntity
  8
Visible (ANSI)
100
AcDbLine
 10
4974.463663762463
 20
13067.96548438878
 30
0.0
 11
4974.463663762396
 21
12438.96548438878
 31
0.0
  0
LINE
  5
5E7
330
1F
100
AcDbEntity
  8
Visible (ANSI)
100
AcDbLine
 10
4864.463663762463
 20
13067.96548438878
 30
0.0
 11
4864.463663762395
 21
12438.96548438878
 31
0.0
  0
CIRCLE
  5
5E9
330
1F
100
AcDbEntity
  8
Visible (ANSI)
100
AcDbCircle
 10
10459.05341756955
 20
9200.122562454621
 30
0.0
 40
449.9999999999927
  0
MTEXT
  5
5EB
330
1F
100
AcDbEntity
  8
LINE
100
AcDbMText
 10
10186.96502955729
 20
8035.414072724817
 30
0.0
 40
233.9816249415046
 41
813.7963910312031
 46
0.0
 71
     1
 72
     1
  1
FO90
 73
     1
 44
1.0
  0
LINE
  5
6EF
330
1F
100
AcDbEntity
  8
Visible (ANSI)
100
AcDbLine
 10
3397.353546888949
 20
5697.507514850888
 30
0.0
 11
3379.853546888949
 21
5697.507514850888
 31
0.0
  0
LINE
  5
6F0
330
1F
100
AcDbEntity
  8
Visible (ANSI)
100
AcDbLine
 10
3379.853546888949
 20
5697.507514850888
 30
0.0
 11
3304.853546888947
 21
5697.507514850888
 31
0.0
  0
LINE
  5
6F1
330
1F
100
AcDbEntity
  8
Visible (ANSI)
100
AcDbLine
 10
3304.853546888947
 20
5697.507514850888
 30
0.0
 11
3287.353546888946
 21
5697.507514850888
 31
0.0
  0
LINE
  5
6F2
330
1F
100
AcDbEntity
  8
Visible (ANSI)
100
AcDbLine
 10
3287.353546888947
 20
6391.546257228127
 30
0.0
 11
3287.353546888946
 21
5697.507514850888
 31
0.0
  0
LINE
  5
6F3
330
1F
100
AcDbEntity
  8
Visible (ANSI)
100
AcDbLine
 10
3397.353546888949
 20
6391.546257228127
 30
0.0
 11
3397.353546888949
 21
5697.507514850888
 31
0.0
  0
LINE
  5
6F4
330
1F
100
AcDbEntity
  8
Visible (ANSI)
100
AcDbLine
 10
5034.353546888876
 20
5697.507514850917
 30
0.0
 11
5016.853546888876
 21
5697.507514850917
 31
0.0
  0
LINE
  5
6F5
330
1F
100
AcDbEntity
  8
Visible (ANSI)
100
AcDbLine
 10
5016.853546888876
 20
5697.507514850917
 30
0.0
 11
4941.853546888877
 21
5697.507514850915
 31
0.0
  0
LINE
  5
6F6
330
1F
100
AcDbEntity
  8
Visible (ANSI)
100
AcDbLine
 10
4941.853546888877
 20
5697.507514850915
 30
0.0
 11
4924.353546888877
 21
5697.507514850915
 31
0.0
  0
LINE
  5
6F7
330
1F
100
AcDbEntity
  8
Visible (ANSI)
100
AcDbLine
 10
4924.353546888872
 20
6391.546257228131
 30
0.0
 11
4924.353546888877
 21
5697.507514850915
 31
0.0
  0
LINE
  5
6F8
330
1F
100
AcDbEntity
  8
Visible (ANSI)
100
AcDbLine
 10
5034.35354688887
 20
6391.546257228131
 30
0.0
 11
5034.353546888876
 21
5697.507514850917
 31
0.0
  0
LINE
  5
6F9
330
1F
100
AcDbEntity
  8
Visible (ANSI)
100
AcDbLine
 10
3083.853546888911
 20
6390.546257228125
 30
0.0
 11
3079.85354688891
 21
6390.546257228125
 31
0.0
  0
LINE
  5
6FA
330
1F
100
AcDbEntity
  8
Visible (ANSI)
100
AcDbLine
 10
2999.853546888911
 20
6390.546257228125
 30
0.0
 11
2995.853546888911
 21
6390.546257228125
 31
0.0
  0
LINE
  5
6FB
330
1F
100
AcDbEntity
  8
Visible (ANSI)
100
AcDbLine
 10
2995.853546888911
 20
6391.546257228124
 30
0.0
 11
2995.853546888911
 21
6390.546257228125
 31
0.0
  0
LINE
  5
6FC
330
1F
100
AcDbEntity
  8
Visible (ANSI)
100
AcDbLine
 10
3083.853546888911
 20
6390.546257228125
 30
0.0
 11
3083.853546888911
 21
6391.546257228124
 31
0.0
  0
LINE
  5
6FD
330
1F
100
AcDbEntity
  8
Visible (ANSI)
100
AcDbLine
 10
3079.85354688891
 20
6390.546257228125
 30
0.0
 11
2999.853546888911
 21
6390.546257228125
 31
0.0
  0
LINE
  5
6FE
330
1F
100
AcDbEntity
  8
Visible (ANSI)
100
AcDbLine
 10
3077.95854688891
 20
6390.046257228124
 30
0.0
 11
3073.74854688891
 21
6390.046257228124
 31
0.0
  0
ARC
  5
6FF
330
1F
100
AcDbEntity
  8
Visible (ANSI)
100
AcDbCircle
 10
3075.85354688891
 20
6394.227282228125
 30
0.0
 40
4.681024999999991
100
AcDbArc
 50
243.2763424370698
 51
296.7236575629299
  0
LINE
  5
700
330
1F
100
AcDbEntity
  8
Visible (ANSI)
100
AcDbLine
 10
3073.74854688891
 20
6390.046257228124
 30
0.0
 11
3073.74854688891
 21
6390.546257228125
 31
0.0
  0
LINE
  5
701
330
1F
100
AcDbEntity
  8
Visible (ANSI)
100
AcDbLine
 10
3077.95854688891
 20
6390.046257228124
 30
0.0
 11
3077.95854688891
 21
6390.546257228125
 31
0.0
  0
LINE
  5
702
330
1F
100
AcDbEntity
  8
Visible (ANSI)
100
AcDbLine
 10
3005.95854688891
 20
6390.046257228124
 30
0.0
 11
3001.74854688891
 21
6390.046257228124
 31
0.0
  0
ARC
  5
703
330
1F
100
AcDbEntity
  8
Visible (ANSI)
100
AcDbCircle
 10
3003.85354688891
 20
6394.227282228125
 30
0.0
 40
4.681024999999991
100
AcDbArc
 50
243.2763424370698
 51
296.7236575629299
  0
LINE
  5
704
330
1F
100
AcDbEntity
  8
Visible (ANSI)
100
AcDbLine
 10
3001.74854688891
 20
6390.046257228124
 30
0.0
 11
3001.74854688891
 21
6390.546257228125
 31
0.0
  0
LINE
  5
705
330
1F
100
AcDbEntity
  8
Visible (ANSI)
100
AcDbLine
 10
3005.95854688891
 20
6390.046257228124
 30
0.0
 11
3005.95854688891
 21
6390.546257228125
 31
0.0
  0
ARC
  5
706
330
1F
100
AcDbEntity
  8
Visible (ANSI)
100
AcDbCircle
 10
2982.853546888911
 20
6413.546257228126
 30
0.0
 40
22.00000000000003
100
AcDbArc
 50
180.0
 51
270.0
  0
ARC
  5
707
330
1F
100
AcDbEntity
  8
Visible (ANSI)
100
AcDbCircle
 10
5338.853546888909
 20
6413.546257228126
 30
0.0
 40
22.00000000000002
100
AcDbArc
 50
270.0
 51
0.0
  0
LINE
  5
708
330
1F
100
AcDbEntity
  8
Visible (ANSI)
100
AcDbLine
 10
2982.853546888909
 20
6391.546257228124
 30
0.0
 11
5338.853546888909
 21
6391.546257228124
 31
0.0
  0
LINE
  5
709
330
1F
100
AcDbEntity
  8
Visible (ANSI)
100
AcDbLine
 10
2960.853546888911
 20
6417.546257228124
 30
0.0
 11
2960.853546888911
 21
6413.546257228126
 31
0.0
  0
LINE
  5
70A
330
1F
100
AcDbEntity
  8
Visible (ANSI)
100
AcDbLine
 10
2960.853546888911
 20
6417.546257228124
 30
0.0
 11
2978.353546888911
 21
6417.546257228124
 31
0.0
  0
LINE
  5
70B
330
1F
100
AcDbEntity
  8
Visible (ANSI)
100
AcDbLine
 10
5360.853546888909
 20
6413.546257228126
 30
0.0
 11
5360.853546888909
 21
6417.546257228124
 31
0.0
  0
LINE
  5
70C
330
1F
100
AcDbEntity
  8
Visible (ANSI)
100
AcDbLine
 10
5343.353546888909
 20
6417.546257228124
 30
0.0
 11
5360.853546888909
 21
6417.546257228124
 31
0.0
  0
LINE
  5
70D
330
1F
100
AcDbEntity
  8
Visible (ANSI)
100
AcDbLine
 10
2978.353546888911
 20
6417.546257228124
 30
0.0
 11
5343.353546888909
 21
6417.546257228124
 31
0.0
  0
LINE
  5
70E
330
1F
100
AcDbEntity
  8
Visible (ANSI)
100
AcDbLine
 10
4909.853546888909
 20
6321.546257228134
 30
0.0
 11
3411.853546888949
 21
6321.546257228123
 31
0.0
  0
LINE
  5
70F
330
1F
100
AcDbEntity
  8
Visible (ANSI)
100
AcDbLine
 10
4909.853546888909
 20
6391.546257228131
 30
0.0
 11
4909.853546888909
 21
6321.546257228134
 31
0.0
  0
LINE
  5
710
330
1F
100
AcDbEntity
  8
Visible (ANSI)
100
AcDbLine
 10
3411.853546888949
 20
6321.546257228123
 30
0.0
 11
3411.853546888949
 21
6391.546257228121
 31
0.0
  0
LINE
  5
711
330
1F
100
AcDbEntity
  8
Visible (ANSI)
100
AcDbLine
 10
3411.853546888949
 20
6339.046257228122
 30
0.0
 11
3397.353546888989
 21
6339.046257228122
 31
0.0
  0
LINE
  5
712
330
1F
100
AcDbEntity
  8
Visible (ANSI)
100
AcDbLine
 10
3411.853546888949
 20
6374.046257228122
 30
0.0
 11
3397.353546888989
 21
6374.046257228122
 31
0.0
  0
LINE
  5
713
330
1F
100
AcDbEntity
  8
Visible (ANSI)
100
AcDbLine
 10
4909.853546888874
 20
6391.546257228132
 30
0.0
 11
4909.853546888871
 21
6321.546257228134
 31
0.0
  0
LINE
  5
714
330
1F
100
AcDbEntity
  8
Visible (ANSI)
100
AcDbLine
 10
4909.853546888871
 20
6321.546257228134
 30
0.0
 11
4924.353546888872
 21
6321.546257228134
 31
0.0
  0
LINE
  5
715
330
1F
100
AcDbEntity
  8
Visible (ANSI)
100
AcDbLine
 10
8263.441609603153
 20
5701.507514850931
 30
0.0
 11
8227.206943288798
 21
5701.507514850931
 31
0.0
  0
LINE
  5
716
330
1F
100
AcDbEntity
  8
Visible (ANSI)
100
AcDbLine
 10
8041.239822752913
 20
6395.546257228128
 30
0.0
 11
8227.206943288798
 21
5701.507514850931
 31
0.0
  0
LINE
  5
717
330
1F
100
AcDbEntity
  8
Visible (ANSI)
100
AcDbLine
 10
8077.474489067265
 20
6395.546257228128
 30
0.0
 11
8263.441609603153
 21
5701.507514850931
 31
0.0
  0
LINE
  5
718
330
1F
100
AcDbEntity
  8
Visible (ANSI)
100
AcDbLine
 10
7452.772702217038
 20
5701.507514850915
 30
0.0
 11
7416.538035902686
 21
5701.507514850915
 31
0.0
  0
LINE
  5
719
330
1F
100
AcDbEntity
  8
Visible (ANSI)
100
AcDbLine
 10
7638.739822752919
 20
6395.546257228128
 30
0.0
 11
7452.772702217038
 21
5701.507514850915
 31
0.0
  0
LINE
  5
71A
330
1F
100
AcDbEntity
  8
Visible (ANSI)
100
AcDbLine
 10
7602.505156438566
 20
6395.546257228128
 30
0.0
 11
7416.538035902686
 21
5701.507514850915
 31
0.0
  0
LINE
  5
71B
330
1F
100
AcDbEntity
  8
Visible (ANSI)
100
AcDbLine
 10
8354.989822752276
 20
6394.546257228123
 30
0.0
 11
8350.989822752275
 21
6394.546257228123
 31
0.0
  0
LINE
  5
71C
330
1F
100
AcDbEntity
  8
Visible (ANSI)
100
AcDbLine
 10
8333.989822752275
 20
6394.546257228123
 30
0.0
 11
8329.989822752276
 21
6394.546257228123
 31
0.0
  0
LINE
  5
71D
330
1F
100
AcDbEntity
  8
Visible (ANSI)
100
AcDbLine
 10
8329.989822752276
 20
6395.546257228123
 30
0.0
 11
8329.989822752276
 21
6394.546257228123
 31
0.0
  0
LINE
  5
71E
330
1F
100
AcDbEntity
  8
Visible (ANSI)
100
AcDbLine
 10
8354.989822752276
 20
6394.546257228123
 30
0.0
 11
8354.989822752276
 21
6395.546257228123
 31
0.0
  0
LINE
  5
71F
330
1F
100
AcDbEntity
  8
Visible (ANSI)
100
AcDbLine
 10
8350.989822752275
 20
6394.546257228123
 30
0.0
 11
8333.989822752275
 21
6394.546257228123
 31
0.0
  0
LINE
  5
720
330
1F
100
AcDbEntity
  8
Visible (ANSI)
100
AcDbLine
 10
8344.594822752275
 20
6394.046257228123
 30
0.0
 11
8340.384822752273
 21
6394.046257228123
 31
0.0
  0
ARC
  5
721
330
1F
100
AcDbEntity
  8
Visible (ANSI)
100
AcDbCircle
 10
8342.489822752272
 20
6398.227282228123
 30
0.0
 40
4.681024999999991
100
AcDbArc
 50
243.2763424370806
 51
296.7236575629193
  0
LINE
  5
722
330
1F
100
AcDbEntity
  8
Visible (ANSI)
100
AcDbLine
 10
8340.384822752273
 20
6394.046257228123
 30
0.0
 11
8340.384822752273
 21
6394.546257228123
 31
0.0
  0
LINE
  5
723
330
1F
100
AcDbEntity
  8
Visible (ANSI)
100
AcDbLine
 10
8344.594822752275
 20
6394.046257228123
 30
0.0
 11
8344.594822752275
 21
6394.546257228123
 31
0.0
  0
ARC
  5
724
330
1F
100
AcDbEntity
  8
Visible (ANSI)
100
AcDbCircle
 10
8367.989822752944
 20
6417.546257228123
 30
0.0
 40
22.00000000000136
100
AcDbArc
 50
270.0
 51
0.0
  0
ARC
  5
725
330
1F
100
AcDbEntity
  8
Visible (ANSI)
100
AcDbCircle
 10
7311.989822752945
 20
6417.546257228123
 30
0.0
 40
21.99999999999999
100
AcDbArc
 50
180.0
 51
270.0
  0
LINE
  5
726
330
1F
100
AcDbEntity
  8
Visible (ANSI)
100
AcDbLine
 10
7311.989822752945
 20
6395.546257228123
 30
0.0
 11
8367.989822752944
 21
6395.546257228123
 31
0.0
  0
LINE
  5
727
330
1F
100
AcDbEntity
  8
Visible (ANSI)
100
AcDbLine
 10
7289.989822752946
 20
6421.546257228122
 30
0.0
 11
7289.989822752946
 21
6417.546257228123
 31
0.0
  0
LINE
  5
728
330
1F
100
AcDbEntity
  8
Visible (ANSI)
100
AcDbLine
 10
7289.989822752946
 20
6421.546257228122
 30
0.0
 11
7307.48982275295
 21
6421.546257228122
 31
0.0
  0
LINE
  5
729
330
1F
100
AcDbEntity
  8
Visible (ANSI)
100
AcDbLine
 10
8389.98982275295
 20
6417.546257228123
 30
0.0
 11
8389.98982275295
 21
6421.546257228122
 31
0.0
  0
LINE
  5
72A
330
1F
100
AcDbEntity
  8
Visible (ANSI)
100
AcDbLine
 10
8372.489822752951
 20
6421.546257228122
 30
0.0
 11
8389.98982275295
 21
6421.546257228122
 31
0.0
  0
LINE
  5
72B
330
1F
100
AcDbEntity
  8
Visible (ANSI)
100
AcDbLine
 10
7307.48982275295
 20
6421.546257228122
 30
0.0
 11
8372.489822752951
 21
6421.546257228122
 31
0.0
  0
LINE
  5
72C
330
1F
100
AcDbEntity
  8
Visible (ANSI)
100
AcDbLine
 10
8059.983379282735
 20
6325.5943519443
 30
0.0
 11
8041.239822752915
 21
6395.546257228128
 31
0.0
  0
LINE
  5
72D
330
1F
100
AcDbEntity
  8
Visible (ANSI)
100
AcDbLine
 10
7638.739822752919
 20
6395.546257228128
 30
0.0
 11
7619.983379282742
 21
6325.546257228133
 31
0.0
  0
LINE
  5
72E
330
1F
100
AcDbEntity
  8
Visible (ANSI)
100
AcDbLine
 10
8059.983379282735
 20
6325.5943519443
 30
0.0
 11
8059.983379282735
 21
6325.546257228133
 31
0.0
  0
LINE
  5
72F
330
1F
100
AcDbEntity
  8
Visible (ANSI)
100
AcDbLine
 10
7619.983379282742
 20
6325.546257228133
 30
0.0
 11
8059.983379282735
 21
6325.546257228133
 31
0.0
  0
LINE
  5
730
330
1F
100
AcDbEntity
  8
Visible (ANSI)
100
AcDbLine
 10
2117.438433219808
 20
2434.616695593635
 30
0.0
 11
2099.938433219808
 21
2434.616695593635
 31
0.0
  0
LINE
  5
731
330
1F
100
AcDbEntity
  8
Visible (ANSI)
100
AcDbLine
 10
2099.938433219808
 20
2434.616695593635
 30
0.0
 11
2024.938433219806
 21
2434.616695593635
 31
0.0
  0
LINE
  5
732
330
1F
100
AcDbEntity
  8
Visible (ANSI)
100
AcDbLine
 10
2024.938433219806
 20
2434.616695593635
 30
0.0
 11
2007.438433219806
 21
2434.616695593635
 31
0.0
  0
LINE
  5
733
330
1F
100
AcDbEntity
  8
Visible (ANSI)
100
AcDbLine
 10
2007.438433219807
 20
3128.655437970877
 30
0.0
 11
2007.438433219806
 21
2434.616695593635
 31
0.0
  0
LINE
  5
734
330
1F
100
AcDbEntity
  8
Visible (ANSI)
100
AcDbLine
 10
2117.438433219809
 20
3128.655437970877
 30
0.0
 11
2117.438433219808
 21
2434.616695593635
 31
0.0
  0
LINE
  5
735
330
1F
100
AcDbEntity
  8
Visible (ANSI)
100
AcDbLine
 10
3635.93843321974
 20
2434.616695593667
 30
0.0
 11
3618.43843321974
 21
2434.616695593667
 31
0.0
  0
LINE
  5
736
330
1F
100
AcDbEntity
  8
Visible (ANSI)
100
AcDbLine
 10
3618.43843321974
 20
2434.616695593667
 30
0.0
 11
3543.438433219741
 21
2434.616695593667
 31
0.0
  0
LINE
  5
737
330
1F
100
AcDbEntity
  8
Visible (ANSI)
100
AcDbLine
 10
3543.438433219741
 20
2434.616695593667
 30
0.0
 11
3525.938433219741
 21
2434.616695593667
 31
0.0
  0
LINE
  5
738
330
1F
100
AcDbEntity
  8
Visible (ANSI)
100
AcDbLine
 10
3525.938433219736
 20
3128.65543797088
 30
0.0
 11
3525.938433219741
 21
2434.616695593665
 31
0.0
  0
LINE
  5
739
330
1F
100
AcDbEntity
  8
Visible (ANSI)
100
AcDbLine
 10
3635.938433219735
 20
3128.655437970881
 30
0.0
 11
3635.938433219739
 21
2434.616695593667
 31
0.0
  0
LINE
  5
73A
330
1F
100
AcDbEntity
  8
Visible (ANSI)
100
AcDbLine
 10
5154.438433219664
 20
2434.616695593635
 30
0.0
 11
5136.938433219665
 21
2434.616695593635
 31
0.0
  0
LINE
  5
73B
330
1F
100
AcDbEntity
  8
Visible (ANSI)
100
AcDbLine
 10
5136.938433219665
 20
2434.616695593635
 30
0.0
 11
5061.938433219663
 21
2434.616695593635
 31
0.0
  0
LINE
  5
73C
330
1F
100
AcDbEntity
  8
Visible (ANSI)
100
AcDbLine
 10
5061.938433219663
 20
2434.616695593635
 30
0.0
 11
5044.438433219664
 21
2434.616695593635
 31
0.0
  0
LINE
  5
73D
330
1F
100
AcDbEntity
  8
Visible (ANSI)
100
AcDbLine
 10
5044.438433219664
 20
3128.655437970877
 30
0.0
 11
5044.438433219663
 21
2434.616695593635
 31
0.0
  0
LINE
  5
73E
330
1F
100
AcDbEntity
  8
Visible (ANSI)
100
AcDbLine
 10
5154.438433219665
 20
3128.655437970877
 30
0.0
 11
5154.438433219664
 21
2434.616695593635
 31
0.0
  0
LINE
  5
73F
330
1F
100
AcDbEntity
  8
Visible (ANSI)
100
AcDbLine
 10
3511.438433219737
 20
3128.655437970873
 30
0.0
 11
3511.438433219737
 21
3058.655437970874
 31
0.0
  0
LINE
  5
740
330
1F
100
AcDbEntity
  8
Visible (ANSI)
100
AcDbLine
 10
3511.438433219737
 20
3058.655437970874
 30
0.0
 11
3525.938433219735
 21
3058.655437970874
 31
0.0
  0
LINE
  5
741
330
1F
100
AcDbEntity
  8
Visible (ANSI)
100
AcDbLine
 10
2131.938433219808
 20
3058.655437970871
 30
0.0
 11
2131.938433219808
 21
3128.655437970868
 31
0.0
  0
LINE
  5
742
330
1F
100
AcDbEntity
  8
Visible (ANSI)
100
AcDbLine
 10
2131.938433219808
 20
3058.655437970871
 30
0.0
 11
2117.438433219807
 21
3058.655437970871
 31
0.0
  0
LINE
  5
743
330
1F
100
AcDbEntity
  8
Visible (ANSI)
100
AcDbLine
 10
3650.438433219734
 20
3058.655437970871
 30
0.0
 11
3650.438433219734
 21
3128.65543797087
 31
0.0
  0
LINE
  5
744
330
1F
100
AcDbEntity
  8
Visible (ANSI)
100
AcDbLine
 10
3650.438433219734
 20
3058.655437970871
 30
0.0
 11
3635.938433219736
 21
3058.655437970871
 31
0.0
  0
LINE
  5
745
330
1F
100
AcDbEntity
  8
Visible (ANSI)
100
AcDbLine
 10
5029.938433219663
 20
3128.65543797087
 30
0.0
 11
5029.938433219663
 21
3058.655437970874
 31
0.0
  0
LINE
  5
746
330
1F
100
AcDbEntity
  8
Visible (ANSI)
100
AcDbLine
 10
5029.938433219663
 20
3058.655437970874
 30
0.0
 11
5044.438433219664
 21
3058.655437970874
 31
0.0
  0
LINE
  5
747
330
1F
100
AcDbEntity
  8
Visible (ANSI)
100
AcDbLine
 10
3580.938433219735
 20
3150.655437970866
 30
0.0
 11
3580.938433219735
 21
3154.655437970866
 31
0.0
  0
LINE
  5
748
330
1F
100
AcDbEntity
  8
Visible (ANSI)
100
AcDbLine
 10
1698.438433219736
 20
3154.655437970866
 30
0.0
 11
3580.938433219735
 21
3154.655437970866
 31
0.0
  0
LINE
  5
749
330
1F
100
AcDbEntity
  8
Visible (ANSI)
100
AcDbLine
 10
3580.938433219735
 20
3150.655437970866
 30
0.0
 11
3580.938433219735
 21
3128.655437970866
 31
0.0
  0
ARC
  5
74A
330
1F
100
AcDbEntity
  8
Visible (ANSI)
100
AcDbCircle
 10
1702.938433219736
 20
3150.655437970866
 30
0.0
 40
22.00000000000002
100
AcDbArc
 50
180.0
 51
270.0
  0
LINE
  5
74B
330
1F
100
AcDbEntity
  8
Visible (ANSI)
100
AcDbLine
 10
1702.938433219736
 20
3128.655437970866
 30
0.0
 11
3580.938433219735
 21
3128.655437970866
 31
0.0
  0
LINE
  5
74C
330
1F
100
AcDbEntity
  8
Visible (ANSI)
100
AcDbLine
 10
1680.938433219736
 20
3154.655437970866
 30
0.0
 11
1680.938433219736
 21
3150.655437970866
 31
0.0
  0
LINE
  5
74D
330
1F
100
AcDbEntity
  8
Visible (ANSI)
100
AcDbLine
 10
1680.938433219736
 20
3154.655437970866
 30
0.0
 11
1698.438433219736
 21
3154.655437970866
 31
0.0
  0
LINE
  5
74E
330
1F
100
AcDbEntity
  8
Visible (ANSI)
100
AcDbLine
 10
3580.938433219736
 20
3128.655437970866
 30
0.0
 11
3580.938433219736
 21
3150.655437970866
 31
0.0
  0
ARC
  5
74F
330
1F
100
AcDbEntity
  8
Visible (ANSI)
100
AcDbCircle
 10
5458.938433219735
 20
3150.655437970866
 30
0.0
 40
22.00000000000003
100
AcDbArc
 50
270.0
 51
0.0
  0
LINE
  5
750
330
1F
100
AcDbEntity
  8
Visible (ANSI)
100
AcDbLine
 10
3580.938433219735
 20
3128.655437970866
 30
0.0
 11
5458.938433219735
 21
3128.655437970866
 31
0.0
  0
LINE
  5
751
330
1F
100
AcDbEntity
  8
Visible (ANSI)
100
AcDbLine
 10
3580.938433219735
 20
3150.655437970866
 30
0.0
 11
3580.938433219735
 21
3154.655437970866
 31
0.0
  0
LINE
  5
752
330
1F
100
AcDbEntity
  8
Visible (ANSI)
100
AcDbLine
 10
3580.938433219735
 20
3154.655437970866
 30
0.0
 11
5463.438433219735
 21
3154.655437970866
 31
0.0
  0
LINE
  5
753
330
1F
100
AcDbEntity
  8
Visible (ANSI)
100
AcDbLine
 10
5480.938433219736
 20
3150.655437970866
 30
0.0
 11
5480.938433219736
 21
3154.655437970866
 31
0.0
  0
LINE
  5
754
330
1F
100
AcDbEntity
  8
Visible (ANSI)
100
AcDbLine
 10
5463.438433219735
 20
3154.655437970866
 30
0.0
 11
5480.938433219736
 21
3154.655437970866
 31
0.0
  0
LINE
  5
755
330
1F
100
AcDbEntity
  8
Visible (ANSI)
100
AcDbLine
 10
3511.438433219772
 20
3058.655437970871
 30
0.0
 11
2131.938433219807
 21
3058.65543797087
 31
0.0
  0
LINE
  5
756
330
1F
100
AcDbEntity
  8
Visible (ANSI)
100
AcDbLine
 10
3511.438433219771
 20
3128.655437970868
 30
0.0
 11
3511.438433219771
 21
3058.655437970871
 31
0.0
  0
LINE
  5
757
330
1F
100
AcDbEntity
  8
Visible (ANSI)
100
AcDbLine
 10
2131.938433219807
 20
3058.65543797087
 30
0.0
 11
2131.938433219807
 21
3128.655437970868
 31
0.0
  0
LINE
  5
758
330
1F
100
AcDbEntity
  8
Visible (ANSI)
100
AcDbLine
 10
3650.4384332197
 20
3058.655437970871
 30
0.0
 11
5029.938433219663
 21
3058.65543797087
 31
0.0
  0
LINE
  5
759
330
1F
100
AcDbEntity
  8
Visible (ANSI)
100
AcDbLine
 10
3650.4384332197
 20
3058.655437970871
 30
0.0
 11
3650.4384332197
 21
3128.655437970868
 31
0.0
  0
LINE
  5
75A
330
1F
100
AcDbEntity
  8
Visible (ANSI)
100
AcDbLine
 10
5029.938433219663
 20
3128.655437970868
 30
0.0
 11
5029.938433219663
 21
3058.65543797087
 31
0.0
  0
LINE
  5
75B
330
1F
100
AcDbEntity
  8
Visible (ANSI)
100
AcDbLine
 10
7444.022702216884
 20
2434.616695593635
 30
0.0
 11
7407.788035902531
 21
2434.616695593635
 31
0.0
  0
LINE
  5
75C
330
1F
100
AcDbEntity
  8
Visible (ANSI)
100
AcDbLine
 10
7629.98982275278
 20
3128.655437970877
 30
0.0
 11
7444.022702216884
 21
2434.616695593635
 31
0.0
  0
LINE
  5
75D
330
1F
100
AcDbEntity
  8
Visible (ANSI)
100
AcDbLine
 10
7593.75515643843
 20
3128.655437970877
 30
0.0
 11
7407.788035902531
 21
2434.616695593635
 31
0.0
  0
LINE
  5
75E
330
1F
100
AcDbEntity
  8
Visible (ANSI)
100
AcDbLine
 10
8254.691609603012
 20
2434.616695593656
 30
0.0
 11
8218.456943288655
 21
2434.616695593656
 31
0.0
  0
LINE
  5
75F
330
1F
100
AcDbEntity
  8
Visible (ANSI)
100
AcDbLine
 10
8032.489822752765
 20
3128.655437970875
 30
0.0
 11
8218.456943288655
 21
2434.616695593656
 31
0.0
  0
LINE
  5
760
330
1F
100
AcDbEntity
  8
Visible (ANSI)
100
AcDbLine
 10
8068.724489067118
 20
3128.655437970875
 30
0.0
 11
8254.691609603012
 21
2434.616695593656
 31
0.0
  0
LINE
  5
761
330
1F
100
AcDbEntity
  8
Visible (ANSI)
100
AcDbLine
 10
8051.233379282587
 20
3058.703532687046
 30
0.0
 11
8032.489822752765
 21
3128.655437970874
 31
0.0
  0
LINE
  5
762
330
1F
100
AcDbEntity
  8
Visible (ANSI)
100
AcDbLine
 10
7629.98982275278
 20
3128.655437970874
 30
0.0
 11
7611.233379282603
 21
3058.655437970879
 31
0.0
  0
LINE
  5
763
330
1F
100
AcDbEntity
  8
Visible (ANSI)
100
AcDbLine
 10
8051.233379282587
 20
3058.703532687046
 30
0.0
 11
8051.233379282587
 21
3058.655437970879
 31
0.0
  0
LINE
  5
764
330
1F
100
AcDbEntity
  8
Visible (ANSI)
100
AcDbLine
 10
7611.233379282603
 20
3058.655437970879
 30
0.0
 11
8051.233379282587
 21
3058.655437970879
 31
0.0
  0
ARC
  5
765
330
1F
100
AcDbEntity
  8
Visible (ANSI)
100
AcDbCircle
 10
7303.239822752941
 20
3150.655437970866
 30
0.0
 40
22.0
100
AcDbArc
 50
180.0
 51
270.0
  0
ARC
  5
766
330
1F
100
AcDbEntity
  8
Visible (ANSI)
100
AcDbCircle
 10
8359.239822752941
 20
3150.655437970866
 30
0.0
 40
22.00000000000136
100
AcDbArc
 50
270.0
 51
0.0
  0
LINE
  5
767
330
1F
100
AcDbEntity
  8
Visible (ANSI)
100
AcDbLine
 10
7303.239822752941
 20
3128.655437970866
 30
0.0
 11
8359.239822752945
 21
3128.655437970866
 31
0.0
  0
LINE
  5
768
330
1F
100
AcDbEntity
  8
Visible (ANSI)
100
AcDbLine
 10
7298.739822752948
 20
3154.655437970866
 30
0.0
 11
8363.739822752949
 21
3154.655437970866
 31
0.0
  0
LINE
  5
769
330
1F
100
AcDbEntity
  8
Visible (ANSI)
100
AcDbLine
 10
8381.239822752943
 20
3150.655437970866
 30
0.0
 11
8381.239822752943
 21
3154.655437970866
 31
0.0
  0
LINE
  5
76A
330
1F
100
AcDbEntity
  8
Visible (ANSI)
100
AcDbLine
 10
8363.739822752949
 20
3154.655437970866
 30
0.0
 11
8381.239822752943
 21
3154.655437970866
 31
0.0
  0
LINE
  5
76B
330
1F
100
AcDbEntity
  8
Visible (ANSI)
100
AcDbLine
 10
7281.239822752943
 20
3154.655437970866
 30
0.0
 11
7298.739822752948
 21
3154.655437970866
 31
0.0
  0
LINE
  5
76C
330
1F
100
AcDbEntity
  8
Visible (ANSI)
100
AcDbLine
 10
7281.239822752943
 20
3154.655437970866
 30
0.0
 11
7281.239822752943
 21
3150.655437970866
 31
0.0
  0
LINE
  5
76D
330
1F
100
AcDbEntity
  8
Visible (ANSI)
100
AcDbLine
 10
3511.438433219769
 20
35.03809038724467
 30
0.0
 11
2131.938433219806
 21
35.03809038724467
 31
0.0
  0
LINE
  5
76E
330
1F
100
AcDbEntity
  8
Visible (ANSI)
100
AcDbLine
 10
3511.438433219769
 20
105.0380903872419
 30
0.0
 11
3511.438433219769
 21
35.03809038724467
 31
0.0
  0
LINE
  5
76F
330
1F
100
AcDbEntity
  8
Visible (ANSI)
100
AcDbLine
 10
2131.938433219806
 20
35.03809038724467
 30
0.0
 11
2131.938433219806
 21
105.0380903872419
 31
0.0
  0
LINE
  5
770
330
1F
100
AcDbEntity
  8
Visible (ANSI)
100
AcDbLine
 10
3650.4384332197
 20
35.03809038724739
 30
0.0
 11
5029.938433219663
 21
35.03809038724739
 31
0.0
  0
LINE
  5
771
330
1F
100
AcDbEntity
  8
Visible (ANSI)
100
AcDbLine
 10
3650.4384332197
 20
35.03809038724739
 30
0.0
 11
3650.4384332197
 21
105.0380903872456
 31
0.0
  0
LINE
  5
772
330
1F
100
AcDbEntity
  8
Visible (ANSI)
100
AcDbLine
 10
5029.938433219663
 20
105.0380903872446
 30
0.0
 11
5029.938433219663
 21
35.03809038724739
 31
0.0
  0
LINE
  5
773
330
1F
100
AcDbEntity
  8
Visible (ANSI)
100
AcDbLine
 10
2117.438433219806
 20
-589.0006519899961
 30
0.0
 11
2099.938433219806
 21
-589.0006519899961
 31
0.0
  0
LINE
  5
774
330
1F
100
AcDbEntity
  8
Visible (ANSI)
100
AcDbLine
 10
2099.938433219806
 20
-589.0006519899961
 30
0.0
 11
2024.938433219804
 21
-589.0006519899961
 31
0.0
  0
LINE
  5
775
330
1F
100
AcDbEntity
  8
Visible (ANSI)
100
AcDbLine
 10
2024.938433219804
 20
-589.0006519899961
 30
0.0
 11
2007.438433219804
 21
-589.0006519899961
 31
0.0
  0
LINE
  5
776
330
1F
100
AcDbEntity
  8
Visible (ANSI)
100
AcDbLine
 10
2007.438433219804
 20
105.0380903872456
 30
0.0
 11
2007.438433219804
 21
-589.0006519899961
 31
0.0
  0
LINE
  5
777
330
1F
100
AcDbEntity
  8
Visible (ANSI)
100
AcDbLine
 10
2117.438433219806
 20
105.0380903872456
 30
0.0
 11
2117.438433219806
 21
-589.0006519899961
 31
0.0
  0
LINE
  5
778
330
1F
100
AcDbEntity
  8
Visible (ANSI)
100
AcDbLine
 10
3635.93843321974
 20
-589.0006519899634
 30
0.0
 11
3618.43843321974
 21
-589.0006519899634
 31
0.0
  0
LINE
  5
779
330
1F
100
AcDbEntity
  8
Visible (ANSI)
100
AcDbLine
 10
3618.43843321974
 20
-589.0006519899634
 30
0.0
 11
3543.438433219741
 21
-589.0006519899643
 31
0.0
  0
LINE
  5
77A
330
1F
100
AcDbEntity
  8
Visible (ANSI)
100
AcDbLine
 10
3543.438433219741
 20
-589.0006519899643
 30
0.0
 11
3525.938433219741
 21
-589.0006519899643
 31
0.0
  0
LINE
  5
77B
330
1F
100
AcDbEntity
  8
Visible (ANSI)
100
AcDbLine
 10
3525.938433219736
 20
105.0380903872492
 30
0.0
 11
3525.938433219741
 21
-589.0006519899643
 31
0.0
  0
LINE
  5
77C
330
1F
100
AcDbEntity
  8
Visible (ANSI)
100
AcDbLine
 10
3635.938433219735
 20
105.038090387251
 30
0.0
 11
3635.93843321974
 21
-589.0006519899634
 31
0.0
  0
LINE
  5
77D
330
1F
100
AcDbEntity
  8
Visible (ANSI)
100
AcDbLine
 10
5154.438433219667
 20
-589.0006519899989
 30
0.0
 11
5136.938433219667
 21
-589.0006519899989
 31
0.0
  0
LINE
  5
77E
330
1F
100
AcDbEntity
  8
Visible (ANSI)
100
AcDbLine
 10
5136.938433219665
 20
-589.000651989998
 30
0.0
 11
5061.938433219663
 21
-589.000651989998
 31
0.0
  0
LINE
  5
77F
330
1F
100
AcDbEntity
  8
Visible (ANSI)
100
AcDbLine
 10
5061.938433219663
 20
-589.0006519899989
 30
0.0
 11
5044.438433219664
 21
-589.0006519899989
 31
0.0
  0
LINE
  5
780
330
1F
100
AcDbEntity
  8
Visible (ANSI)
100
AcDbLine
 10
5044.438433219664
 20
105.0380903872456
 30
0.0
 11
5044.438433219664
 21
-589.0006519899989
 31
0.0
  0
LINE
  5
781
330
1F
100
AcDbEntity
  8
Visible (ANSI)
100
AcDbLine
 10
5154.438433219667
 20
105.0380903872456
 30
0.0
 11
5154.438433219665
 21
-589.0006519899989
 31
0.0
  0
LINE
  5
782
330
1F
100
AcDbEntity
  8
Visible (ANSI)
100
AcDbLine
 10
3580.938433219735
 20
127.0380903872437
 30
0.0
 11
3580.938433219735
 21
131.0380903872437
 31
0.0
  0
LINE
  5
783
330
1F
100
AcDbEntity
  8
Visible (ANSI)
100
AcDbLine
 10
1698.438433219736
 20
131.0380903872437
 30
0.0
 11
3580.938433219735
 21
131.0380903872437
 31
0.0
  0
LINE
  5
784
330
1F
100
AcDbEntity
  8
Visible (ANSI)
100
AcDbLine
 10
3580.938433219735
 20
127.0380903872437
 30
0.0
 11
3580.938433219735
 21
105.0380903872437
 31
0.0
  0
ARC
  5
785
330
1F
100
AcDbEntity
  8
Visible (ANSI)
100
AcDbCircle
 10
1702.938433219736
 20
127.0380903872437
 30
0.0
 40
22.00000000000002
100
AcDbArc
 50
180.0
 51
270.0
  0
LINE
  5
786
330
1F
100
AcDbEntity
  8
Visible (ANSI)
100
AcDbLine
 10
1702.938433219736
 20
105.0380903872437
 30
0.0
 11
3580.938433219735
 21
105.0380903872437
 31
0.0
  0
LINE
  5
787
330
1F
100
AcDbEntity
  8
Visible (ANSI)
100
AcDbLine
 10
1680.938433219736
 20
131.0380903872437
 30
0.0
 11
1680.938433219736
 21
127.0380903872437
 31
0.0
  0
LINE
  5
788
330
1F
100
AcDbEntity
  8
Visible (ANSI)
100
AcDbLine
 10
1680.938433219736
 20
131.0380903872437
 30
0.0
 11
1698.438433219736
 21
131.0380903872437
 31
0.0
  0
LINE
  5
789
330
1F
100
AcDbEntity
  8
Visible (ANSI)
100
AcDbLine
 10
3580.938433219735
 20
105.0380903872437
 30
0.0
 11
3580.938433219735
 21
127.0380903872437
 31
0.0
  0
ARC
  5
78A
330
1F
100
AcDbEntity
  8
Visible (ANSI)
100
AcDbCircle
 10
5458.938433219736
 20
127.0380903872437
 30
0.0
 40
22.00000000000003
100
AcDbArc
 50
270.0
 51
0.0
  0
LINE
  5
78B
330
1F
100
AcDbEntity
  8
Visible (ANSI)
100
AcDbLine
 10
3580.938433219735
 20
105.0380903872437
 30
0.0
 11
5458.938433219736
 21
105.0380903872437
 31
0.0
  0
LINE
  5
78C
330
1F
100
AcDbEntity
  8
Visible (ANSI)
100
AcDbLine
 10
3580.938433219735
 20
127.0380903872437
 30
0.0
 11
3580.938433219735
 21
131.0380903872437
 31
0.0
  0
LINE
  5
78D
330
1F
100
AcDbEntity
  8
Visible (ANSI)
100
AcDbLine
 10
3580.938433219735
 20
131.0380903872437
 30
0.0
 11
5463.438433219736
 21
131.0380903872437
 31
0.0
  0
LINE
  5
78E
330
1F
100
AcDbEntity
  8
Visible (ANSI)
100
AcDbLine
 10
5480.938433219736
 20
127.0380903872437
 30
0.0
 11
5480.938433219736
 21
131.0380903872437
 31
0.0
  0
LINE
  5
78F
330
1F
100
AcDbEntity
  8
Visible (ANSI)
100
AcDbLine
 10
5463.438433219736
 20
131.0380903872437
 30
0.0
 11
5480.938433219736
 21
131.0380903872437
 31
0.0
  0
LINE
  5
790
330
1F
100
AcDbEntity
  8
Visible (ANSI)
100
AcDbLine
 10
3511.438433219737
 20
105.038090387251
 30
0.0
 11
3511.438433219737
 21
35.03809038725103
 31
0.0
  0
LINE
  5
791
330
1F
100
AcDbEntity
  8
Visible (ANSI)
100
AcDbLine
 10
3511.438433219737
 20
35.03809038725103
 30
0.0
 11
3525.938433219736
 21
35.03809038725103
 31
0.0
  0
LINE
  5
792
330
1F
100
AcDbEntity
  8
Visible (ANSI)
100
AcDbLine
 10
2131.938433219806
 20
35.03809038724739
 30
0.0
 11
2131.938433219806
 21
105.0380903872456
 31
0.0
  0
LINE
  5
793
330
1F
100
AcDbEntity
  8
Visible (ANSI)
100
AcDbLine
 10
2131.938433219806
 20
35.03809038724739
 30
0.0
 11
2117.438433219805
 21
35.03809038724739
 31
0.0
  0
LINE
  5
794
330
1F
100
AcDbEntity
  8
Visible (ANSI)
100
AcDbLine
 10
3650.438433219734
 20
35.03809038724558
 30
0.0
 11
3650.438433219734
 21
105.0380903872446
 31
0.0
  0
LINE
  5
795
330
1F
100
AcDbEntity
  8
Visible (ANSI)
100
AcDbLine
 10
3650.438433219734
 20
35.03809038724558
 30
0.0
 11
3635.938433219737
 21
35.03809038724558
 31
0.0
  0
LINE
  5
796
330
1F
100
AcDbEntity
  8
Visible (ANSI)
100
AcDbLine
 10
5029.938433219663
 20
105.038090387251
 30
0.0
 11
5029.938433219663
 21
35.03809038725285
 31
0.0
  0
LINE
  5
797
330
1F
100
AcDbEntity
  8
Visible (ANSI)
100
AcDbLine
 10
5029.938433219663
 20
35.03809038725285
 30
0.0
 11
5044.438433219665
 21
35.03809038725285
 31
0.0
  0
LINE
  5
798
330
1F
100
AcDbEntity
  8
Visible (ANSI)
100
AcDbLine
 10
7435.272702216959
 20
-589.0006519899993
 30
0.0
 11
7399.038035902606
 21
-589.0006519899993
 31
0.0
  0
LINE
  5
799
330
1F
100
AcDbEntity
  8
Visible (ANSI)
100
AcDbLine
 10
7621.239822752858
 20
105.0380903872451
 30
0.0
 11
7435.272702216959
 21
-589.0006519899993
 31
0.0
  0
LINE
  5
79A
330
1F
100
AcDbEntity
  8
Visible (ANSI)
100
AcDbLine
 10
7585.005156438502
 20
105.0380903872451
 30
0.0
 11
7399.038035902606
 21
-589.0006519899984
 31
0.0
  0
LINE
  5
79B
330
1F
100
AcDbEntity
  8
Visible (ANSI)
100
AcDbLine
 10
8545.941609603072
 20
-589.000651989983
 30
0.0
 11
8509.706943288723
 21
-589.000651989983
 31
0.0
  0
LINE
  5
79C
330
1F
100
AcDbEntity
  8
Visible (ANSI)
100
AcDbLine
 10
8323.739822752829
 20
105.0380903872442
 30
0.0
 11
8509.706943288723
 21
-589.000651989983
 31
0.0
  0
LINE
  5
79D
330
1F
100
AcDbEntity
  8
Visible (ANSI)
100
AcDbLine
 10
8359.974489067182
 20
105.0380903872451
 30
0.0
 11
8545.941609603076
 21
-589.000651989983
 31
0.0
  0
LINE
  5
79E
330
1F
100
AcDbEntity
  8
Visible (ANSI)
100
AcDbLine
 10
8342.483379282651
 20
35.08618510341376
 30
0.0
 11
8323.739822752829
 21
105.0380903872433
 31
0.0
  0
LINE
  5
79F
330
1F
100
AcDbEntity
  8
Visible (ANSI)
100
AcDbLine
 10
7621.239822752858
 20
105.0380903872433
 30
0.0
 11
7602.483379282681
 21
35.03809038724694
 31
0.0
  0
LINE
  5
7A0
330
1F
100
AcDbEntity
  8
Visible (ANSI)
100
AcDbLine
 10
8342.483379282651
 20
35.08618510341376
 30
0.0
 11
8342.483379282651
 21
35.03809038724694
 31
0.0
  0
LINE
  5
7A1
330
1F
100
AcDbEntity
  8
Visible (ANSI)
100
AcDbLine
 10
7602.483379282681
 20
35.03809038724694
 30
0.0
 11
8342.483379282651
 21
35.03809038724694
 31
0.0
  0
ARC
  5
7A2
330
1F
100
AcDbEntity
  8
Visible (ANSI)
100
AcDbCircle
 10
7294.489822752938
 20
127.0380903872433
 30
0.0
 40
22.0
100
AcDbArc
 50
180.0
 51
270.0
  0
ARC
  5
7A3
330
1F
100
AcDbEntity
  8
Visible (ANSI)
100
AcDbCircle
 10
8650.489822752938
 20
127.0380903872433
 30
0.0
 40
22.00000000000136
100
AcDbArc
 50
270.0
 51
0.0
  0
LINE
  5
7A4
330
1F
100
AcDbEntity
  8
Visible (ANSI)
100
AcDbLine
 10
7294.489822752938
 20
105.0380903872433
 30
0.0
 11
8650.489822752938
 21
105.0380903872433
 31
0.0
  0
LINE
  5
7A5
330
1F
100
AcDbEntity
  8
Visible (ANSI)
100
AcDbLine
 10
7289.989822752945
 20
131.0380903872433
 30
0.0
 11
8654.989822752945
 21
131.0380903872433
 31
0.0
  0
LINE
  5
7A6
330
1F
100
AcDbEntity
  8
Visible (ANSI)
100
AcDbLine
 10
8672.489822752938
 20
127.0380903872433
 30
0.0
 11
8672.489822752938
 21
131.0380903872433
 31
0.0
  0
LINE
  5
7A7
330
1F
100
AcDbEntity
  8
Visible (ANSI)
100
AcDbLine
 10
8654.989822752945
 20
131.0380903872433
 30
0.0
 11
8672.489822752938
 21
131.0380903872433
 31
0.0
  0
LINE
  5
7A8
330
1F
100
AcDbEntity
  8
Visible (ANSI)
100
AcDbLine
 10
7272.489822752937
 20
131.0380903872433
 30
0.0
 11
7289.989822752945
 21
131.0380903872433
 31
0.0
  0
LINE
  5
7A9
330
1F
100
AcDbEntity
  8
Visible (ANSI)
100
AcDbLine
 10
7272.489822752939
 20
131.0380903872433
 30
0.0
 11
7272.489822752939
 21
127.0380903872433
 31
0.0
  0
ARC
  5
7AA
330
1F
100
AcDbEntity
  8
Visible (ANSI)
100
AcDbCircle
 10
3096.494782405844
 20
-5945.905871412513
 30
0.0
 40
22.00000000000003
100
AcDbArc
 50
180.0
 51
270.0
  0
ARC
  5
7AB
330
1F
100
AcDbEntity
  8
Visible (ANSI)
100
AcDbCircle
 10
5452.494782405842
 20
-5945.905871412513
 30
0.0
 40
22.00000000000002
100
AcDbArc
 50
270.0
 51
0.0
  0
LINE
  5
7AC
330
1F
100
AcDbEntity
  8
Visible (ANSI)
100
AcDbLine
 10
3096.494782405843
 20
-5967.905871412511
 30
0.0
 11
5452.494782405842
 21
-5967.905871412511
 31
0.0
  0
LINE
  5
7AD
330
1F
100
AcDbEntity
  8
Visible (ANSI)
100
AcDbLine
 10
3074.494782405843
 20
-5941.905871412513
 30
0.0
 11
3074.494782405843
 21
-5945.905871412513
 31
0.0
  0
LINE
  5
7AE
330
1F
100
AcDbEntity
  8
Visible (ANSI)
100
AcDbLine
 10
3074.494782405843
 20
-5941.905871412513
 30
0.0
 11
3091.994782405843
 21
-5941.905871412513
 31
0.0
  0
LINE
  5
7AF
330
1F
100
AcDbEntity
  8
Visible (ANSI)
100
AcDbLine
 10
5474.494782405843
 20
-5945.905871412513
 30
0.0
 11
5474.494782405843
 21
-5941.905871412513
 31
0.0
  0
LINE
  5
7B0
330
1F
100
AcDbEntity
  8
Visible (ANSI)
100
AcDbLine
 10
5456.994782405843
 20
-5941.905871412513
 30
0.0
 11
5474.494782405843
 21
-5941.905871412513
 31
0.0
  0
LINE
  5
7B1
330
1F
100
AcDbEntity
  8
Visible (ANSI)
100
AcDbLine
 10
3091.994782405843
 20
-5941.905871412513
 30
0.0
 11
5456.994782405843
 21
-5941.905871412513
 31
0.0
  0
LINE
  5
7B2
330
1F
100
AcDbEntity
  8
Visible (ANSI)
100
AcDbLine
 10
5023.494782405824
 20
-6037.905871412512
 30
0.0
 11
3525.494782405863
 21
-6037.905871412512
 31
0.0
  0
LINE
  5
7B3
330
1F
100
AcDbEntity
  8
Visible (ANSI)
100
AcDbLine
 10
5023.494782405824
 20
-5967.905871412511
 30
0.0
 11
5023.494782405824
 21
-6037.905871412512
 31
0.0
  0
LINE
  5
7B4
330
1F
100
AcDbEntity
  8
Visible (ANSI)
100
AcDbLine
 10
3525.494782405863
 20
-6037.905871412512
 30
0.0
 11
3525.494782405863
 21
-5967.905871412511
 31
0.0
  0
LINE
  5
7B5
330
1F
100
AcDbEntity
  8
Visible (ANSI)
100
AcDbLine
 10
3510.994782405887
 20
-6991.906650378995
 30
0.0
 11
3493.494782405885
 21
-6991.906650378995
 31
0.0
  0
LINE
  5
7B6
330
1F
100
AcDbEntity
  8
Visible (ANSI)
100
AcDbLine
 10
3493.494782405885
 20
-6991.906650378995
 30
0.0
 11
3418.494782405876
 21
-6991.906650378997
 31
0.0
  0
LINE
  5
7B7
330
1F
100
AcDbEntity
  8
Visible (ANSI)
100
AcDbLine
 10
3418.494782405876
 20
-6991.906650378997
 30
0.0
 11
3400.994782405874
 21
-6991.906650378997
 31
0.0
  0
LINE
  5
7B8
330
1F
100
AcDbEntity
  8
Visible (ANSI)
100
AcDbLine
 10
3400.994782405855
 20
-5967.905871412529
 30
0.0
 11
3400.994782405874
 21
-6991.906650378997
 31
0.0
  0
LINE
  5
7B9
330
1F
100
AcDbEntity
  8
Visible (ANSI)
100
AcDbLine
 10
3510.99478240587
 20
-5967.905871412527
 30
0.0
 11
3510.994782405887
 21
-6991.906650378995
 31
0.0
  0
LINE
  5
7BA
330
1F
100
AcDbEntity
  8
Visible (ANSI)
100
AcDbLine
 10
5147.994782405814
 20
-6991.906650378876
 30
0.0
 11
5130.494782405815
 21
-6991.906650378876
 31
0.0
  0
LINE
  5
7BB
330
1F
100
AcDbEntity
  8
Visible (ANSI)
100
AcDbLine
 10
5130.494782405815
 20
-6991.906650378876
 30
0.0
 11
5055.494782405816
 21
-6991.906650378876
 31
0.0
  0
LINE
  5
7BC
330
1F
100
AcDbEntity
  8
Visible (ANSI)
100
AcDbLine
 10
5055.494782405816
 20
-6991.906650378876
 30
0.0
 11
5037.994782405816
 21
-6991.906650378876
 31
0.0
  0
LINE
  5
7BD
330
1F
100
AcDbEntity
  8
Visible (ANSI)
100
AcDbLine
 10
5037.994782405815
 20
-5967.905871412511
 30
0.0
 11
5037.994782405816
 21
-6991.906650378876
 31
0.0
  0
LINE
  5
7BE
330
1F
100
AcDbEntity
  8
Visible (ANSI)
100
AcDbLine
 10
5147.994782405814
 20
-5967.905871412511
 30
0.0
 11
5147.994782405814
 21
-6991.906650378876
 31
0.0
  0
LINE
  5
7BF
330
1F
100
AcDbEntity
  8
Visible (ANSI)
100
AcDbLine
 10
3525.49478240586
 20
-6037.905871412512
 30
0.0
 11
3525.49478240586
 21
-5967.905871412511
 31
0.0
  0
LINE
  5
7C0
330
1F
100
AcDbEntity
  8
Visible (ANSI)
100
AcDbLine
 10
3525.49478240586
 20
-6037.905871412512
 30
0.0
 11
3510.994782405864
 21
-6037.905871412512
 31
0.0
  0
LINE
  5
7C1
330
1F
100
AcDbEntity
  8
Visible (ANSI)
100
AcDbLine
 10
5023.494782405816
 20
-5967.905871412511
 30
0.0
 11
5023.494782405816
 21
-6037.905871412512
 31
0.0
  0
LINE
  5
7C2
330
1F
100
AcDbEntity
  8
Visible (ANSI)
100
AcDbLine
 10
5023.494782405816
 20
-6037.905871412512
 30
0.0
 11
5037.994782405815
 21
-6037.905871412512
 31
0.0
  0
LINE
  5
7C3
330
1F
100
AcDbEntity
  8
Visible (ANSI)
100
AcDbLine
 10
3197.494782405844
 20
-5968.905871412513
 30
0.0
 11
3193.494782405844
 21
-5968.905871412513
 31
0.0
  0
LINE
  5
7C4
330
1F
100
AcDbEntity
  8
Visible (ANSI)
100
AcDbLine
 10
3113.494782405844
 20
-5968.905871412513
 30
0.0
 11
3109.494782405844
 21
-5968.905871412513
 31
0.0
  0
LINE
  5
7C5
330
1F
100
AcDbEntity
  8
Visible (ANSI)
100
AcDbLine
 10
3109.494782405844
 20
-5967.905871412511
 30
0.0
 11
3109.494782405844
 21
-5968.905871412513
 31
0.0
  0
LINE
  5
7C6
330
1F
100
AcDbEntity
  8
Visible (ANSI)
100
AcDbLine
 10
3197.494782405844
 20
-5968.905871412513
 30
0.0
 11
3197.494782405844
 21
-5967.905871412511
 31
0.0
  0
LINE
  5
7C7
330
1F
100
AcDbEntity
  8
Visible (ANSI)
100
AcDbLine
 10
3193.494782405844
 20
-5968.905871412513
 30
0.0
 11
3113.494782405844
 21
-5968.905871412513
 31
0.0
  0
LINE
  5
7C8
330
1F
100
AcDbEntity
  8
Visible (ANSI)
100
AcDbLine
 10
3191.599782405842
 20
-5969.405871412513
 30
0.0
 11
3187.389782405843
 21
-5969.405871412513
 31
0.0
  0
ARC
  5
7C9
330
1F
100
AcDbEntity
  8
Visible (ANSI)
100
AcDbCircle
 10
3189.494782405843
 20
-5965.224846412514
 30
0.0
 40
4.681024999999991
100
AcDbArc
 50
243.2763424370375
 51
296.7236575629625
  0
LINE
  5
7CA
330
1F
100
AcDbEntity
  8
Visible (ANSI)
100
AcDbLine
 10
3187.389782405843
 20
-5969.405871412513
 30
0.0
 11
3187.389782405843
 21
-5968.905871412513
 31
0.0
  0
LINE
  5
7CB
330
1F
100
AcDbEntity
  8
Visible (ANSI)
100
AcDbLine
 10
3191.599782405842
 20
-5969.405871412513
 30
0.0
 11
3191.599782405842
 21
-5968.905871412513
 31
0.0
  0
LINE
  5
7CC
330
1F
100
AcDbEntity
  8
Visible (ANSI)
100
AcDbLine
 10
3119.599782405843
 20
-5969.405871412513
 30
0.0
 11
3115.389782405842
 21
-5969.405871412513
 31
0.0
  0
ARC
  5
7CD
330
1F
100
AcDbEntity
  8
Visible (ANSI)
100
AcDbCircle
 10
3117.494782405844
 20
-5965.224846412514
 30
0.0
 40
4.681024999999991
100
AcDbArc
 50
243.2763424370375
 51
296.7236575629625
  0
LINE
  5
7CE
330
1F
100
AcDbEntity
  8
Visible (ANSI)
100
AcDbLine
 10
3115.389782405842
 20
-5969.405871412513
 30
0.0
 11
3115.389782405842
 21
-5968.905871412513
 31
0.0
  0
LINE
  5
7CF
330
1F
100
AcDbEntity
  8
Visible (ANSI)
100
AcDbLine
 10
3119.599782405843
 20
-5969.405871412513
 30
0.0
 11
3119.599782405843
 21
-5968.905871412513
 31
0.0
  0
ARC
  5
7D0
330
1F
100
AcDbEntity
  8
Visible (ANSI)
100
AcDbCircle
 10
8344.046171939044
 20
-5945.905871412513
 30
0.0
 40
22.00000000000136
100
AcDbArc
 50
270.0
 51
0.0
  0
ARC
  5
7D1
330
1F
100
AcDbEntity
  8
Visible (ANSI)
100
AcDbCircle
 10
7288.046171939043
 20
-5945.905871412513
 30
0.0
 40
21.99999999999999
100
AcDbArc
 50
180.0
 51
270.0
  0
LINE
  5
7D2
330
1F
100
AcDbEntity
  8
Visible (ANSI)
100
AcDbLine
 10
7288.046171939043
 20
-5967.905871412511
 30
0.0
 11
8344.046171939044
 21
-5967.905871412511
 31
0.0
  0
LINE
  5
7D3
330
1F
100
AcDbEntity
  8
Visible (ANSI)
100
AcDbLine
 10
7266.046171939044
 20
-5941.905871412513
 30
0.0
 11
7266.046171939044
 21
-5945.905871412513
 31
0.0
  0
LINE
  5
7D4
330
1F
100
AcDbEntity
  8
Visible (ANSI)
100
AcDbLine
 10
7266.046171939044
 20
-5941.905871412513
 30
0.0
 11
7283.546171939049
 21
-5941.905871412513
 31
0.0
  0
LINE
  5
7D5
330
1F
100
AcDbEntity
  8
Visible (ANSI)
100
AcDbLine
 10
8366.046171939045
 20
-5945.905871412513
 30
0.0
 11
8366.046171939045
 21
-5941.905871412513
 31
0.0
  0
LINE
  5
7D6
330
1F
100
AcDbEntity
  8
Visible (ANSI)
100
AcDbLine
 10
8348.546171939052
 20
-5941.905871412513
 30
0.0
 11
8366.046171939045
 21
-5941.905871412513
 31
0.0
  0
LINE
  5
7D7
330
1F
100
AcDbEntity
  8
Visible (ANSI)
100
AcDbLine
 10
7283.546171939049
 20
-5941.905871412513
 30
0.0
 11
8348.546171939052
 21
-5941.905871412513
 31
0.0
  0
LINE
  5
7D8
330
1F
100
AcDbEntity
  8
Visible (ANSI)
100
AcDbLine
 10
8251.990400765025
 20
-6991.906650378867
 30
0.0
 11
8216.335316441593
 21
-6991.906650378867
 31
0.0
  0
LINE
  5
7D9
330
1F
100
AcDbEntity
  8
Visible (ANSI)
100
AcDbLine
 10
8017.28972846886
 20
-5967.905871412523
 30
0.0
 11
8216.335316441593
 21
-6991.906650378867
 31
0.0
  0
LINE
  5
7DA
330
1F
100
AcDbEntity
  8
Visible (ANSI)
100
AcDbLine
 10
8052.944812792292
 20
-5967.905871412525
 30
0.0
 11
8251.990400765025
 21
-6991.906650378867
 31
0.0
  0
LINE
  5
7DB
330
1F
100
AcDbEntity
  8
Visible (ANSI)
100
AcDbLine
 10
7415.744140496119
 20
-6991.906650378876
 30
0.0
 11
7380.089056172685
 21
-6991.906650378876
 31
0.0
  0
LINE
  5
7DC
330
1F
100
AcDbEntity
  8
Visible (ANSI)
100
AcDbLine
 10
7614.789728468865
 20
-5967.905871412511
 30
0.0
 11
7415.744140496119
 21
-6991.906650378876
 31
0.0
  0
LINE
  5
7DD
330
1F
100
AcDbEntity
  8
Visible (ANSI)
100
AcDbLine
 10
7579.134644145432
 20
-5967.905871412511
 30
0.0
 11
7380.089056172685
 21
-6991.906650378876
 31
0.0
  0
LINE
  5
7DE
330
1F
100
AcDbEntity
  8
Visible (ANSI)
100
AcDbLine
 10
7326.046171938372
 20
-5968.905871412513
 30
0.0
 11
7322.046171938374
 21
-5968.905871412513
 31
0.0
  0
LINE
  5
7DF
330
1F
100
AcDbEntity
  8
Visible (ANSI)
100
AcDbLine
 10
7305.046171938373
 20
-5968.905871412513
 30
0.0
 11
7301.046171938373
 21
-5968.905871412513
 31
0.0
  0
LINE
  5
7E0
330
1F
100
AcDbEntity
  8
Visible (ANSI)
100
AcDbLine
 10
7301.046171938373
 20
-5967.905871412511
 30
0.0
 11
7301.046171938373
 21
-5968.905871412513
 31
0.0
  0
LINE
  5
7E1
330
1F
100
AcDbEntity
  8
Visible (ANSI)
100
AcDbLine
 10
7326.046171938372
 20
-5968.905871412513
 30
0.0
 11
7326.046171938372
 21
-5967.905871412511
 31
0.0
  0
LINE
  5
7E2
330
1F
100
AcDbEntity
  8
Visible (ANSI)
100
AcDbLine
 10
7322.046171938374
 20
-5968.905871412513
 30
0.0
 11
7305.046171938373
 21
-5968.905871412513
 31
0.0
  0
LINE
  5
7E3
330
1F
100
AcDbEntity
  8
Visible (ANSI)
100
AcDbLine
 10
7315.651171938371
 20
-5969.405871412513
 30
0.0
 11
7311.441171938371
 21
-5969.405871412513
 31
0.0
  0
ARC
  5
7E4
330
1F
100
AcDbEntity
  8
Visible (ANSI)
100
AcDbCircle
 10
7313.546171938371
 20
-5965.224846412514
 30
0.0
 40
4.681024999999991
100
AcDbArc
 50
243.2763424370375
 51
296.7236575629625
  0
LINE
  5
7E5
330
1F
100
AcDbEntity
  8
Visible (ANSI)
100
AcDbLine
 10
7311.441171938371
 20
-5969.405871412513
 30
0.0
 11
7311.441171938371
 21
-5968.905871412513
 31
0.0
  0
LINE
  5
7E6
330
1F
100
AcDbEntity
  8
Visible (ANSI)
100
AcDbLine
 10
7315.651171938371
 20
-5969.405871412513
 30
0.0
 11
7315.651171938371
 21
-5968.905871412513
 31
0.0
  0
LINE
  5
7E7
330
1F
100
AcDbEntity
  8
Visible (ANSI)
100
AcDbLine
 10
8030.896350108497
 20
-6037.905871412512
 30
0.0
 11
8017.289728468858
 21
-5967.905871412511
 31
0.0
  0
LINE
  5
7E8
330
1F
100
AcDbEntity
  8
Visible (ANSI)
100
AcDbLine
 10
7614.789728468865
 20
-5967.905871412511
 30
0.0
 11
7601.183106829224
 21
-6037.905871412512
 31
0.0
  0
LINE
  5
7E9
330
1F
100
AcDbEntity
  8
Visible (ANSI)
100
AcDbLine
 10
7601.183106829224
 20
-6037.905871412512
 30
0.0
 11
8030.896350108497
 21
-6037.905871412512
 31
0.0
  0
LINE
  5
836
330
1F
100
AcDbEntity
  8
Visible (ANSI)
100
AcDbLine
 10
4522.621993873171
 20
8699.814747947501
 30
0.0
 11
4491.99976339976
 21
8699.814747947501
 31
0.0
  0
LINE
  5
837
330
1F
100
AcDbEntity
  8
Visible (ANSI)
100
AcDbLine
 10
4491.99976339976
 20
8699.814747947501
 30
0.0
 11
4438.966754810771
 21
8699.814747947501
 31
0.0
  0
LINE
  5
838
330
1F
100
AcDbEntity
  8
Visible (ANSI)
100
AcDbLine
 10
4438.966754810771
 20
8699.814747947501
 30
0.0
 11
4433.966302602271
 21
8699.814747947501
 31
0.0
  0
LINE
  5
839
330
1F
100
AcDbEntity
  8
Visible (ANSI)
100
AcDbLine
 10
4565.464914610927
 20
9393.853490324721
 30
0.0
 11
4433.966302602271
 21
8699.814747947501
 31
0.0
  0
LINE
  5
83A
330
1F
100
AcDbEntity
  8
Visible (ANSI)
100
AcDbLine
 10
4654.120605881827
 20
9393.853490324721
 30
0.0
 11
4522.621993873171
 21
8699.814747947501
 31
0.0
  0
LINE
  5
83B
330
1F
100
AcDbEntity
  8
Visible (ANSI)
100
AcDbLine
 10
5100.628094136829
 20
8699.814747947495
 30
0.0
 11
5095.627641928327
 21
8699.814747947495
 31
0.0
  0
LINE
  5
83C
330
1F
100
AcDbEntity
  8
Visible (ANSI)
100
AcDbLine
 10
5095.627641928327
 20
8699.814747947495
 30
0.0
 11
5042.594633339337
 21
8699.814747947495
 31
0.0
  0
LINE
  5
83D
330
1F
100
AcDbEntity
  8
Visible (ANSI)
100
AcDbLine
 10
5042.594633339337
 20
8699.814747947495
 30
0.0
 11
5011.972402865925
 21
8699.814747947495
 31
0.0
  0
LINE
  5
83E
330
1F
100
AcDbEntity
  8
Visible (ANSI)
100
AcDbLine
 10
4880.47379085726
 20
9393.853490324721
 30
0.0
 11
5011.972402865925
 21
8699.814747947495
 31
0.0
  0
LINE
  5
83F
330
1F
100
AcDbEntity
  8
Visible (ANSI)
100
AcDbLine
 10
4969.129482128165
 20
9393.853490324721
 30
0.0
 11
5100.628094136829
 21
8699.814747947495
 31
0.0
  0
LINE
  5
840
330
1F
100
AcDbEntity
  8
Visible (ANSI)
100
AcDbLine
 10
4811.297197702816
 20
9392.853490324723
 30
0.0
 11
4807.297197702816
 21
9392.853490324723
 31
0.0
  0
LINE
  5
841
330
1F
100
AcDbEntity
  8
Visible (ANSI)
100
AcDbLine
 10
4727.297197702815
 20
9392.853490324723
 30
0.0
 11
4723.297197702815
 21
9392.853490324723
 31
0.0
  0
LINE
  5
842
330
1F
100
AcDbEntity
  8
Visible (ANSI)
100
AcDbLine
 10
4811.297197702816
 20
9392.853490324723
 30
0.0
 11
4811.297197702816
 21
9393.853490324721
 31
0.0
  0
LINE
  5
843
330
1F
100
AcDbEntity
  8
Visible (ANSI)
100
AcDbLine
 10
4723.297197702815
 20
9393.853490324721
 30
0.0
 11
4723.297197702815
 21
9392.853490324723
 31
0.0
  0
LINE
  5
844
330
1F
100
AcDbEntity
  8
Visible (ANSI)
100
AcDbLine
 10
4807.297197702816
 20
9392.853490324723
 30
0.0
 11
4727.297197702815
 21
9392.853490324723
 31
0.0
  0
LINE
  5
845
330
1F
100
AcDbEntity
  8
Visible (ANSI)
100
AcDbLine
 10
4733.402197702815
 20
9392.353490324721
 30
0.0
 11
4729.192197702816
 21
9392.353490324721
 31
0.0
  0
ARC
  5
846
330
1F
100
AcDbEntity
  8
Visible (ANSI)
100
AcDbCircle
 10
4731.297197702815
 20
9396.53451532472
 30
0.0
 40
4.681024999999991
100
AcDbArc
 50
243.2763424370935
 51
296.7236575629065
  0
LINE
  5
847
330
1F
100
AcDbEntity
  8
Visible (ANSI)
100
AcDbLine
 10
4729.192197702816
 20
9392.353490324721
 30
0.0
 11
4729.192197702816
 21
9392.853490324723
 31
0.0
  0
LINE
  5
848
330
1F
100
AcDbEntity
  8
Visible (ANSI)
100
AcDbLine
 10
4733.402197702815
 20
9392.353490324721
 30
0.0
 11
4733.402197702815
 21
9392.853490324723
 31
0.0
  0
LINE
  5
849
330
1F
100
AcDbEntity
  8
Visible (ANSI)
100
AcDbLine
 10
4805.402197702816
 20
9392.353490324721
 30
0.0
 11
4801.192197702816
 21
9392.353490324721
 31
0.0
  0
ARC
  5
84A
330
1F
100
AcDbEntity
  8
Visible (ANSI)
100
AcDbCircle
 10
4803.297197702814
 20
9396.53451532472
 30
0.0
 40
4.681024999999991
100
AcDbArc
 50
243.2763424370935
 51
296.7236575629065
  0
LINE
  5
84B
330
1F
100
AcDbEntity
  8
Visible (ANSI)
100
AcDbLine
 10
4801.192197702816
 20
9392.353490324721
 30
0.0
 11
4801.192197702816
 21
9392.853490324723
 31
0.0
  0
LINE
  5
84C
330
1F
100
AcDbEntity
  8
Visible (ANSI)
100
AcDbLine
 10
4805.402197702816
 20
9392.353490324721
 30
0.0
 11
4805.402197702816
 21
9392.853490324723
 31
0.0
  0
LINE
  5
84D
330
1F
100
AcDbEntity
  8
Visible (ANSI)
100
AcDbLine
 10
5345.297197702806
 20
9393.853490324721
 30
0.0
 11
4189.297197702824
 21
9393.853490324721
 31
0.0
  0
ARC
  5
84E
330
1F
100
AcDbEntity
  8
Visible (ANSI)
100
AcDbCircle
 10
4189.297197702823
 20
9415.853490324719
 30
0.0
 40
21.99999999999965
100
AcDbArc
 50
180.0
 51
270.0
  0
ARC
  5
84F
330
1F
100
AcDbEntity
  8
Visible (ANSI)
100
AcDbCircle
 10
5345.297197702806
 20
9415.853490324719
 30
0.0
 40
21.99999999999965
100
AcDbArc
 50
270.0
 51
0.0
  0
LINE
  5
850
330
1F
100
AcDbEntity
  8
Visible (ANSI)
100
AcDbLine
 10
5367.297197702805
 20
9419.853490324721
 30
0.0
 11
4167.297197702825
 21
9419.853490324721
 31
0.0
  0
LINE
  5
851
330
1F
100
AcDbEntity
  8
Visible (ANSI)
100
AcDbLine
 10
4167.297197702825
 20
9415.853490324719
 30
0.0
 11
4167.297197702825
 21
9419.853490324721
 31
0.0
  0
LINE
  5
852
330
1F
100
AcDbEntity
  8
Visible (ANSI)
100
AcDbLine
 10
5367.297197702805
 20
9415.853490324719
 30
0.0
 11
5367.297197702805
 21
9419.853490324721
 31
0.0
  0
LINE
  5
853
330
1F
100
AcDbEntity
  8
Visible (ANSI)
100
AcDbLine
 10
4893.736599225966
 20
9323.853490324729
 30
0.0
 11
4640.857797513123
 21
9323.853490324729
 31
0.0
  0
LINE
  5
854
330
1F
100
AcDbEntity
  8
Visible (ANSI)
100
AcDbLine
 10
7649.257074445857
 20
8703.814747947495
 30
0.0
 11
7618.634843972451
 21
8703.814747947495
 31
0.0
  0
LINE
  5
855
330
1F
100
AcDbEntity
  8
Visible (ANSI)
100
AcDbLine
 10
7618.634843972451
 20
8703.814747947495
 30
0.0
 11
7565.601835383444
 21
8703.814747947495
 31
0.0
  0
LINE
  5
856
330
1F
100
AcDbEntity
  8
Visible (ANSI)
100
AcDbLine
 10
7565.601835383444
 20
8703.814747947495
 30
0.0
 11
7560.601383174938
 21
8703.814747947495
 31
0.0
  0
LINE
  5
857
330
1F
100
AcDbEntity
  8
Visible (ANSI)
100
AcDbLine
 10
7692.099995183564
 20
9397.853490324722
 30
0.0
 11
7560.601383174938
 21
8703.814747947495
 31
0.0
  0
LINE
  5
858
330
1F
100
AcDbEntity
  8
Visible (ANSI)
100
AcDbLine
 10
7780.755686454483
 20
9397.853490324722
 30
0.0
 11
7649.257074445857
 21
8703.814747947495
 31
0.0
  0
LINE
  5
859
330
1F
100
AcDbEntity
  8
Visible (ANSI)
100
AcDbLine
 10
8227.208161618429
 20
8703.814747947509
 30
0.0
 11
8222.207709409934
 21
8703.814747947509
 31
0.0
  0
LINE
  5
85A
330
1F
100
AcDbEntity
  8
Visible (ANSI)
100
AcDbLine
 10
8222.207709409934
 20
8703.814747947509
 30
0.0
 11
8169.174700820958
 21
8703.814747947509
 31
0.0
  0
LINE
  5
85B
330
1F
100
AcDbEntity
  8
Visible (ANSI)
100
AcDbLine
 10
8169.174700820958
 20
8703.814747947509
 30
0.0
 11
8138.552470347542
 21
8703.814747947509
 31
0.0
  0
LINE
  5
85C
330
1F
100
AcDbEntity
  8
Visible (ANSI)
100
AcDbLine
 10
8007.053858338844
 20
9397.853490324722
 30
0.0
 11
8138.552470347542
 21
8703.814747947509
 31
0.0
  0
LINE
  5
85D
330
1F
100
AcDbEntity
  8
Visible (ANSI)
100
AcDbLine
 10
8095.709549609733
 20
9397.853490324722
 30
0.0
 11
8227.208161618429
 21
8703.814747947509
 31
0.0
  0
LINE
  5
85E
330
1F
100
AcDbEntity
  8
Visible (ANSI)
100
AcDbLine
 10
7332.904771729893
 20
9396.853490324721
 30
0.0
 11
7328.904771729892
 21
9396.853490324721
 31
0.0
  0
LINE
  5
85F
330
1F
100
AcDbEntity
  8
Visible (ANSI)
100
AcDbLine
 10
7353.904771729891
 20
9396.853490324721
 30
0.0
 11
7349.904771729893
 21
9396.853490324721
 31
0.0
  0
LINE
  5
860
330
1F
100
AcDbEntity
  8
Visible (ANSI)
100
AcDbLine
 10
7328.904771729892
 20
9397.853490324722
 30
0.0
 11
7328.904771729892
 21
9396.853490324721
 31
0.0
  0
LINE
  5
861
330
1F
100
AcDbEntity
  8
Visible (ANSI)
100
AcDbLine
 10
7353.904771729891
 20
9396.853490324721
 30
0.0
 11
7353.904771729891
 21
9397.853490324722
 31
0.0
  0
LINE
  5
862
330
1F
100
AcDbEntity
  8
Visible (ANSI)
100
AcDbLine
 10
7349.904771729893
 20
9396.853490324721
 30
0.0
 11
7332.904771729893
 21
9396.853490324721
 31
0.0
  0
LINE
  5
863
330
1F
100
AcDbEntity
  8
Visible (ANSI)
100
AcDbLine
 10
7343.509771729891
 20
9396.35349032472
 30
0.0
 11
7339.299771729891
 21
9396.35349032472
 31
0.0
  0
ARC
  5
864
330
1F
100
AcDbEntity
  8
Visible (ANSI)
100
AcDbCircle
 10
7341.404771729891
 20
9400.53451532472
 30
0.0
 40
4.681024999999991
100
AcDbArc
 50
243.2763424370827
 51
296.7236575629172
  0
LINE
  5
865
330
1F
100
AcDbEntity
  8
Visible (ANSI)
100
AcDbLine
 10
7339.299771729891
 20
9396.35349032472
 30
0.0
 11
7339.299771729891
 21
9396.853490324721
 31
0.0
  0
LINE
  5
866
330
1F
100
AcDbEntity
  8
Visible (ANSI)
100
AcDbLine
 10
7343.509771729891
 20
9396.35349032472
 30
0.0
 11
7343.509771729891
 21
9396.853490324721
 31
0.0
  0
LINE
  5
867
330
1F
100
AcDbEntity
  8
Visible (ANSI)
100
AcDbLine
 10
8471.904771729871
 20
9397.853490324722
 30
0.0
 11
7315.90477172989
 21
9397.853490324722
 31
0.0
  0
ARC
  5
868
330
1F
100
AcDbEntity
  8
Visible (ANSI)
100
AcDbCircle
 10
7315.90477172989
 20
9419.853490324721
 30
0.0
 40
21.99999999999965
100
AcDbArc
 50
180.0
 51
270.0
  0
ARC
  5
869
330
1F
100
AcDbEntity
  8
Visible (ANSI)
100
AcDbCircle
 10
8471.904771729871
 20
9419.853490324721
 30
0.0
 40
21.99999999999965
100
AcDbArc
 50
270.0
 51
0.0
  0
LINE
  5
86A
330
1F
100
AcDbEntity
  8
Visible (ANSI)
100
AcDbLine
 10
8493.904771729871
 20
9423.85349032472
 30
0.0
 11
7293.904771729891
 21
9423.85349032472
 31
0.0
  0
LINE
  5
86B
330
1F
100
AcDbEntity
  8
Visible (ANSI)
100
AcDbLine
 10
7293.904771729891
 20
9419.853490324721
 30
0.0
 11
7293.904771729891
 21
9423.85349032472
 31
0.0
  0
LINE
  5
86C
330
1F
100
AcDbEntity
  8
Visible (ANSI)
100
AcDbLine
 10
8493.904771729871
 20
9419.853490324721
 30
0.0
 11
8493.904771729871
 21
9423.85349032472
 31
0.0
  0
LINE
  5
86D
330
1F
100
AcDbEntity
  8
Visible (ANSI)
100
AcDbLine
 10
8012.054771729923
 20
9327.853490324729
 30
0.0
 11
7775.754771729942
 21
9327.853490324729
 31
0.0
  0
LINE
  5
86E
330
1F
100
AcDbEntity
  8
Visible (ANSI)
100
AcDbLine
 10
8012.054771729923
 20
9371.459085184868
 30
0.0
 11
8012.054771729923
 21
9327.853490324729
 31
0.0
  0
LINE
  5
86F
330
1F
100
AcDbEntity
  8
Visible (ANSI)
100
AcDbLine
 10
7775.754771729942
 20
9327.853490324729
 30
0.0
 11
7775.754771729942
 21
9371.4590781469
 31
0.0
  0
LINE
  5
870
330
1F
100
AcDbEntity
  8
Visible (ANSI)
100
AcDbLine
 10
8012.054771729919
 20
9327.853490324722
 30
0.0
 11
8012.054771729919
 21
9371.459085184882
 31
0.0
  0
LINE
  5
871
330
1F
100
AcDbEntity
  8
Visible (ANSI)
100
AcDbLine
 10
8020.316666707548
 20
9327.853490324722
 30
0.0
 11
8012.054771729919
 21
9327.853490324722
 31
0.0
  0
LINE
  5
872
330
1F
100
AcDbEntity
  8
Visible (ANSI)
100
AcDbLine
 10
7775.754771729942
 20
9327.853490324729
 30
0.0
 11
7767.492878085779
 21
9327.853490324729
 31
0.0
  0
LINE
  5
873
330
1F
100
AcDbEntity
  8
Visible (ANSI)
100
AcDbLine
 10
7775.754771729942
 20
9371.45907814701
 30
0.0
 11
7775.754771729942
 21
9327.853490324729
 31
0.0
  0
TEXT
  5
87C
330
1F
100
AcDbEntity
  8
LINE
100
AcDbText
 10
10306.75090771754
 20
19284.02547469015
 30
0.0
 40
233.9816249415046
  1
60
 41
1.000399999999999
100
AcDbText
  0
TEXT
  5
88E
330
1F
100
AcDbEntity
  8
LINE
100
AcDbText
 10
12511.41295055449
 20
19311.12675045876
 30
0.0
 40
233.9816249415046
  1
80
 41
1.000399999999999
100
AcDbText
  0
TEXT
  5
897
330
1F
100
AcDbEntity
  8
LINE
100
AcDbText
 10
15043.31215605993
 20
19356.83759168263
 30
0.0
 40
233.9816249415046
  1
100
 41
1.000399999999999
100
AcDbText
  0
TEXT
  5
8A0
330
1F
100
AcDbEntity
  8
LINE
100
AcDbText
 10
10318.73338491235
 20
17086.29284435265
 30
0.0
 40
233.9816249415046
  1
60
 41
1.000399999999999
100
AcDbText
  0
MTEXT
  5
8A1
330
1F
100
AcDbEntity
  8
0
100
AcDbMText
 10
12530.35965272941
 20
17342.13337744877
 30
0.0
 40
233.9816249415046
 41
351.4273130132687
 46
0.0
 71
     1
 72
     1
  1
80
 73
     1
 44
1.0
  0
MTEXT
  5
8A2
330
1F
100
AcDbEntity
  8
0
100
AcDbMText
 10
10255.56676423912
 20
9997.055424173103
 30
0.0
 40
233.9816249415046
 41
351.4273130132687
 46
0.0
 71
     1
 72
     1
  1
90
 73
     1
 44
1.0
  0
MTEXT
  5
8A3
330
1F
100
AcDbEntity
  8
0
100
AcDbMText
 10
15038.90367322962
 20
17430.87156244699
 30
0.0
 40
233.9816249415046
 41
351.4273130132687
 46
0.0
 71
     1
 72
     1
  1
100
 73
     1
 44
1.0
  0
MTEXT
  5
8A4
330
1F
100
AcDbEntity
  8
0
100
AcDbMText
 10
13229.64406976034
 20
18906.14522523895
 30
0.0
 40
233.9816249415046
 41
351.4273130132687
 46
0.0
 71
     1
 72
     1
  1
80
 73
     1
 44
1.0
  0
MTEXT
  5
8A6
330
1F
100
AcDbEntity
  8
0
100
AcDbMText
 10
10998.59417201934
 20
18906.14522523895
 30
0.0
 40
233.9816249415046
 41
351.4273130132687
 46
0.0
 71
     1
 72
     1
  1
60
 73
     1
 44
1.0
  0
MTEXT
  5
8A7
330
1F
100
AcDbEntity
  8
0
100
AcDbMText
 10
15871.38499782845
 20
18895.05298056517
 30
0.0
 40
233.9816249415046
 41
351.4273130132687
 46
0.0
 71
     1
 72
     1
  1
100
 73
     1
 44
1.0
  0
MTEXT
  5
8A8
330
1F
100
AcDbEntity
  8
0
100
AcDbMText
 10
15893.58430847665
 20
16610.0426114877
 30
0.0
 40
233.9816249415046
 41
351.4273130132687
 46
0.0
 71
     1
 72
     1
  1
100
 73
     1
 44
1.0
  0
MTEXT
  5
8A9
330
1F
100
AcDbEntity
  8
0
100
AcDbMText
 10
13296.24252354429
 20
16643.31945931303
 30
0.0
 40
233.9816249415046
 41
351.4273130132687
 46
0.0
 71
     1
 72
     1
  1
80
 73
     1
 44
1.0
  0
MTEXT
  5
8B2
330
1F
100
AcDbEntity
  8
0
100
AcDbMText
 10
10996.91358810657
 20
16667.40060550934
 30
0.0
 40
233.9816249415046
 41
351.4273130132687
 46
0.0
 71
     1
 72
     1
  1
60
 73
     1
 44
1.0
  0
MTEXT
  5
8BB
330
1F
100
AcDbEntity
  8
0
100
AcDbMText
 10
10996.91358810657
 20
12930.38617127336
 30
0.0
 40
233.9816249415046
 41
351.4273130132687
 46
0.0
 71
     1
 72
     1
  1
80
 73
     1
 44
1.0
  0
MTEXT
  5
8C4
330
1F
100
AcDbEntity
  8
0
100
AcDbMText
 10
11075.26771914122
 20
9333.414896907463
 30
0.0
 40
233.9816249415046
 41
351.4273130132687
 46
0.0
 71
     1
 72
     1
  1
90
 73
     1
 44
1.0
  0
MTEXT
  5
8CD
330
1F
100
AcDbEntity
  8
0
100
AcDbMText
 10
10299.71600699157
 20
13631.43667869557
 30
0.0
 40
233.9816249415046
 41
351.4273130132687
 46
0.0
 71
     1
 72
     1
  1
80
 73
     1
 44
1.0
  0
MTEXT
  5
8D6
330
1F
100
AcDbEntity
  8
0
100
AcDbMText
 10
5604.884171215875
 20
18799.03111432171
 30
0.0
 40
233.9816249415046
 41
351.4273130132687
 46
0.0
 71
     1
 72
     1
  1
350
 73
     1
 44
1.0
  0
MTEXT
  5
8DF
330
1F
100
AcDbEntity
  8
0
100
AcDbMText
 10
5568.63224631903
 20
16625.37382617841
 30
0.0
 40
233.9816249415046
 41
351.4273130132687
 46
0.0
 71
     1
 72
     1
  1
450
 73
     1
 44
1.0
  0
MTEXT
  5
8E8
330
1F
100
AcDbEntity
  8
0
100
AcDbMText
 10
5496.128135605657
 20
12875.86633428705
 30
0.0
 40
233.9816249415046
 41
351.4273130132687
 46
0.0
 71
     1
 72
     1
  1
650
 73
     1
 44
1.0
  0
MTEXT
  5
8F1
330
1F
100
AcDbEntity
  8
0
100
AcDbMText
 10
12633.3806729067
 20
10060.54601413597
 30
0.0
 40
233.9816249415046
 41
351.4273130132687
 46
0.0
 71
     1
 72
     1
  1
100
 73
     1
 44
1.0
  0
MTEXT
  5
8FA
330
1F
100
AcDbEntity
  8
0
100
AcDbMText
 10
14883.94762658019
 20
10126.69456767805
 30
0.0
 40
233.9816249415046
 41
351.4273130132687
 46
0.0
 71
     1
 72
     1
  1
120
 73
     1
 44
1.0
  0
MTEXT
  5
903
330
1F
100
AcDbEntity
  8
0
100
AcDbMText
 10
17509.60911601921
 20
10332.49025725997
 30
0.0
 40
233.9816249415046
 41
351.4273130132687
 46
0.0
 71
     1
 72
     1
  1
150
 73
     1
 44
1.0
  0
MTEXT
  5
90C
330
1F
100
AcDbEntity
  8
0
100
AcDbMText
 10
20636.7301268584
 20
10479.57493750318
 30
0.0
 40
233.9816249415046
 41
351.4273130132687
 46
0.0
 71
     1
 72
     1
  1
180
 73
     1
 44
1.0
  0
MTEXT
  5
915
330
1F
100
AcDbEntity
  8
0
100
AcDbMText
 10
13442.10421337327
 20
9280.112121284934
 30
0.0
 40
233.9816249415046
 41
351.4273130132687
 46
0.0
 71
     1
 72
     1
  1
100
 73
     1
 44
1.0
  0
MTEXT
  5
91E
330
1F
100
AcDbEntity
  8
0
100
AcDbMText
 10
15790.24679267971
 20
9287.537943680082
 30
0.0
 40
233.9816249415046
 41
351.4273130132687
 46
0.0
 71
     1
 72
     1
  1
120
 73
     1
 44
1.0
  0
MTEXT
  5
927
330
1F
100
AcDbEntity
  8
0
100
AcDbMText
 10
18585.80328730371
 20
9295.034665944209
 30
0.0
 40
233.9816249415046
 41
351.4273130132687
 46
0.0
 71
     1
 72
     1
  1
150
 73
     1
 44
1.0
  0
MTEXT
  5
930
330
1F
100
AcDbEntity
  8
0
100
AcDbMText
 10
21789.71505892661
 20
9309.983840730851
 30
0.0
 40
233.9816249415046
 41
351.4273130132687
 46
0.0
 71
     1
 72
     1
  1
180
 73
     1
 44
1.0
  0
MTEXT
  5
939
330
1F
100
AcDbEntity
  8
0
100
AcDbMText
 10
5529.835571398667
 20
9177.874054969938
 30
0.0
 40
233.9816249415046
 41
351.4273130132687
 46
0.0
 71
     1
 72
     1
  1
720
 73
     1
 44
1.0
  0
MTEXT
  5
942
330
1F
100
AcDbEntity
  8
0
100
AcDbMText
 10
5543.649444103997
 20
6174.851835812349
 30
0.0
 40
233.9816249415046
 41
351.4273130132687
 46
0.0
 71
     1
 72
     1
  1
720
 73
     1
 44
1.0
  0
MTEXT
  5
94B
330
1F
100
AcDbEntity
  8
0
100
AcDbMText
 10
5544.211726099368
 20
2856.809207856242
 30
0.0
 40
233.9816249415046
 41
351.4273130132687
 46
0.0
 71
     1
 72
     1
  1
720
 73
     1
 44
1.0
  0
MTEXT
  5
954
330
1F
100
AcDbEntity
  8
0
100
AcDbMText
 10
5504.87286000204
 20
-151.5287058398862
 30
0.0
 40
233.9816249415046
 41
351.4273130132687
 46
0.0
 71
     1
 72
     1
  1
720
 73
     1
 44
1.0
  0
MTEXT
  5
95D
330
1F
100
AcDbEntity
  8
0
100
AcDbMText
 10
5478.754557745118
 20
-6414.793066713613
 30
0.0
 40
233.9816249415046
 41
351.4273130132687
 46
0.0
 71
     1
 72
     1
  1
1050
 73
     1
 44
1.0
  0
LINE
  5
9A5
330
1F
100
AcDbEntity
  8
Visible (ANSI)
100
AcDbLine
 10
8450.489822752919
 20
-3080.305656516808
 30
0.0
 11
7294.489822752938
 21
-3080.305656516808
 31
0.0
  0
ARC
  5
9A6
330
1F
100
AcDbEntity
  8
Visible (ANSI)
100
AcDbCircle
 10
7294.489822752938
 20
-3058.305656516809
 30
0.0
 40
21.99999999999965
100
AcDbArc
 50
180.0
 51
270.0
  0
ARC
  5
9A7
330
1F
100
AcDbEntity
  8
Visible (ANSI)
100
AcDbCircle
 10
8450.489822752919
 20
-3058.305656516809
 30
0.0
 40
21.99999999999965
100
AcDbArc
 50
270.0
 51
0.0
  0
LINE
  5
9A8
330
1F
100
AcDbEntity
  8
Visible (ANSI)
100
AcDbLine
 10
8472.489822752919
 20
-3054.305656516808
 30
0.0
 11
7272.489822752937
 21
-3054.305656516808
 31
0.0
  0
LINE
  5
9A9
330
1F
100
AcDbEntity
  8
Visible (ANSI)
100
AcDbLine
 10
7272.489822752937
 20
-3058.305656516809
 30
0.0
 11
7272.489822752937
 21
-3054.305656516808
 31
0.0
  0
LINE
  5
9AA
330
1F
100
AcDbEntity
  8
Visible (ANSI)
100
AcDbLine
 10
8472.489822752919
 20
-3058.305656516809
 30
0.0
 11
8472.489822752919
 21
-3054.305656516808
 31
0.0
  0
LINE
  5
9AB
330
1F
100
AcDbEntity
  8
Visible (ANSI)
100
AcDbLine
 10
7618.638391133089
 20
-4104.306435483165
 30
0.0
 11
7588.367884905704
 21
-4104.306435483165
 31
0.0
  0
LINE
  5
9AC
330
1F
100
AcDbEntity
  8
Visible (ANSI)
100
AcDbLine
 10
7588.367884905704
 20
-4104.306435483165
 30
0.0
 11
7535.334876316714
 21
-4104.306435483165
 31
0.0
  0
LINE
  5
9AD
330
1F
100
AcDbEntity
  8
Visible (ANSI)
100
AcDbLine
 10
7535.334876316714
 20
-4104.306435483165
 30
0.0
 11
7530.276321998207
 21
-4104.306435483165
 31
0.0
  0
LINE
  5
9AE
330
1F
100
AcDbEntity
  8
Visible (ANSI)
100
AcDbLine
 10
7671.022807018989
 20
-3080.305656516808
 30
0.0
 11
7530.276321998207
 21
-4104.306435483165
 31
0.0
  0
LINE
  5
9AF
330
1F
100
AcDbEntity
  8
Visible (ANSI)
100
AcDbLine
 10
7759.384876153871
 20
-3080.305656516808
 30
0.0
 11
7618.638391133089
 21
-4104.306435483165
 31
0.0
  0
LINE
  5
9B0
330
1F
100
AcDbEntity
  8
Visible (ANSI)
100
AcDbLine
 10
8214.703323507668
 20
-4104.306435483173
 30
0.0
 11
8209.644769189155
 21
-4104.306435483173
 31
0.0
  0
LINE
  5
9B1
330
1F
100
AcDbEntity
  8
Visible (ANSI)
100
AcDbLine
 10
8209.644769189155
 20
-4104.306435483173
 30
0.0
 11
8156.611760600165
 21
-4104.306435483174
 31
0.0
  0
LINE
  5
9B2
330
1F
100
AcDbEntity
  8
Visible (ANSI)
100
AcDbLine
 10
8156.611760600165
 20
-4104.306435483173
 30
0.0
 11
8126.341254372778
 21
-4104.306435483173
 31
0.0
  0
LINE
  5
9B3
330
1F
100
AcDbEntity
  8
Visible (ANSI)
100
AcDbLine
 10
7985.594769351985
 20
-3080.305656516808
 30
0.0
 11
8126.341254372778
 21
-4104.306435483174
 31
0.0
  0
LINE
  5
9B4
330
1F
100
AcDbEntity
  8
Visible (ANSI)
100
AcDbLine
 10
8073.956838486873
 20
-3080.305656516808
 30
0.0
 11
8214.703323507668
 21
-4104.306435483174
 31
0.0
  0
LINE
  5
9B5
330
1F
100
AcDbEntity
  8
Visible (ANSI)
100
AcDbLine
 10
7916.489822752929
 20
-3081.305656516808
 30
0.0
 11
7912.48982275293
 21
-3081.305656516808
 31
0.0
  0
LINE
  5
9B6
330
1F
100
AcDbEntity
  8
Visible (ANSI)
100
AcDbLine
 10
7832.489822752929
 20
-3081.305656516808
 30
0.0
 11
7828.48982275293
 21
-3081.305656516808
 31
0.0
  0
LINE
  5
9B7
330
1F
100
AcDbEntity
  8
Visible (ANSI)
100
AcDbLine
 10
7916.489822752929
 20
-3081.305656516808
 30
0.0
 11
7916.489822752929
 21
-3080.305656516808
 31
0.0
  0
LINE
  5
9B8
330
1F
100
AcDbEntity
  8
Visible (ANSI)
100
AcDbLine
 10
7828.48982275293
 20
-3080.305656516808
 30
0.0
 11
7828.48982275293
 21
-3081.305656516808
 31
0.0
  0
LINE
  5
9B9
330
1F
100
AcDbEntity
  8
Visible (ANSI)
100
AcDbLine
 10
7912.48982275293
 20
-3081.305656516808
 30
0.0
 11
7832.489822752929
 21
-3081.305656516808
 31
0.0
  0
LINE
  5
9BA
330
1F
100
AcDbEntity
  8
Visible (ANSI)
100
AcDbLine
 10
7838.594822752928
 20
-3081.805656516808
 30
0.0
 11
7834.384822752929
 21
-3081.805656516808
 31
0.0
  0
ARC
  5
9BB
330
1F
100
AcDbEntity
  8
Visible (ANSI)
100
AcDbCircle
 10
7836.48982275293
 20
-3077.624631516809
 30
0.0
 40
4.681024999999991
100
AcDbArc
 50
243.2763424371221
 51
296.7236575628778
  0
LINE
  5
9BC
330
1F
100
AcDbEntity
  8
Visible (ANSI)
100
AcDbLine
 10
7834.384822752929
 20
-3081.805656516808
 30
0.0
 11
7834.384822752929
 21
-3081.305656516808
 31
0.0
  0
LINE
  5
9BD
330
1F
100
AcDbEntity
  8
Visible (ANSI)
100
AcDbLine
 10
7838.594822752928
 20
-3081.805656516808
 30
0.0
 11
7838.594822752928
 21
-3081.305656516808
 31
0.0
  0
LINE
  5
9BE
330
1F
100
AcDbEntity
  8
Visible (ANSI)
100
AcDbLine
 10
7910.59482275293
 20
-3081.805656516808
 30
0.0
 11
7906.38482275293
 21
-3081.805656516808
 31
0.0
  0
ARC
  5
9BF
330
1F
100
AcDbEntity
  8
Visible (ANSI)
100
AcDbCircle
 10
7908.48982275293
 20
-3077.624631516809
 30
0.0
 40
4.681024999999991
100
AcDbArc
 50
243.2763424371221
 51
296.7236575628778
  0
LINE
  5
9C0
330
1F
100
AcDbEntity
  8
Visible (ANSI)
100
AcDbLine
 10
7906.38482275293
 20
-3081.805656516808
 30
0.0
 11
7906.38482275293
 21
-3081.305656516808
 31
0.0
  0
LINE
  5
9C1
330
1F
100
AcDbEntity
  8
Visible (ANSI)
100
AcDbLine
 10
7910.59482275293
 20
-3081.805656516808
 30
0.0
 11
7910.59482275293
 21
-3081.305656516808
 31
0.0
  0
LINE
  5
9C2
330
1F
100
AcDbEntity
  8
Visible (ANSI)
100
AcDbLine
 10
7995.216103782414
 20
-3150.305656516801
 30
0.0
 11
7749.763541723443
 21
-3150.305656516801
 31
0.0
  0
CIRCLE
  5
9C3
330
1F
100
AcDbEntity
  8
Visible (ANSI)
100
AcDbCircle
 10
10673.55105511593
 20
-3436.924905934385
 30
0.0
 40
599.9999999999905
  0
LINE
  5
9C4
330
1F
100
AcDbEntity
  8
Visible (ANSI)
100
AcDbLine
 10
5452.494782405842
 20
-3080.305656516808
 30
0.0
 11
4296.494782405861
 21
-3080.305656516808
 31
0.0
  0
ARC
  5
9C5
330
1F
100
AcDbEntity
  8
Visible (ANSI)
100
AcDbCircle
 10
4296.494782405861
 20
-3058.305656516809
 30
0.0
 40
21.99999999999965
100
AcDbArc
 50
180.0
 51
270.0
  0
ARC
  5
9C6
330
1F
100
AcDbEntity
  8
Visible (ANSI)
100
AcDbCircle
 10
5452.494782405842
 20
-3058.305656516809
 30
0.0
 40
21.99999999999965
100
AcDbArc
 50
270.0
 51
0.0
  0
LINE
  5
9C7
330
1F
100
AcDbEntity
  8
Visible (ANSI)
100
AcDbLine
 10
5474.494782405842
 20
-3054.305656516808
 30
0.0
 11
4274.49478240586
 21
-3054.305656516808
 31
0.0
  0
LINE
  5
9C8
330
1F
100
AcDbEntity
  8
Visible (ANSI)
100
AcDbLine
 10
4274.49478240586
 20
-3058.305656516809
 30
0.0
 11
4274.49478240586
 21
-3054.305656516808
 31
0.0
  0
LINE
  5
9C9
330
1F
100
AcDbEntity
  8
Visible (ANSI)
100
AcDbLine
 10
5474.494782405842
 20
-3058.305656516809
 30
0.0
 11
5474.494782405842
 21
-3054.305656516808
 31
0.0
  0
LINE
  5
9CA
330
1F
100
AcDbEntity
  8
Visible (ANSI)
100
AcDbLine
 10
4992.64478240579
 20
-3150.305656516801
 30
0.0
 11
4756.344782405812
 21
-3150.305656516801
 31
0.0
  0
LINE
  5
9CB
330
1F
100
AcDbEntity
  8
Visible (ANSI)
100
AcDbLine
 10
4992.64478240579
 20
-3117.010932756714
 30
0.0
 11
4992.64478240579
 21
-3150.305656516801
 31
0.0
  0
LINE
  5
9CC
330
1F
100
AcDbEntity
  8
Visible (ANSI)
100
AcDbLine
 10
4756.344782405812
 20
-3150.305656516801
 30
0.0
 11
4756.344782405812
 21
-3117.010932756871
 31
0.0
  0
LINE
  5
9CD
330
1F
100
AcDbEntity
  8
Visible (ANSI)
100
AcDbLine
 10
5216.70828316049
 20
-4104.306435483165
 30
0.0
 11
5211.649728841978
 21
-4104.306435483165
 31
0.0
  0
LINE
  5
9CE
330
1F
100
AcDbEntity
  8
Visible (ANSI)
100
AcDbLine
 10
5211.649728841978
 20
-4104.306435483165
 30
0.0
 11
5158.616720252974
 21
-4104.306435483165
 31
0.0
  0
LINE
  5
9CF
330
1F
100
AcDbEntity
  8
Visible (ANSI)
100
AcDbLine
 10
5158.616720252974
 20
-4104.306435483165
 30
0.0
 11
5128.346214025593
 21
-4104.306435483165
 31
0.0
  0
LINE
  5
9D0
330
1F
100
AcDbEntity
  8
Visible (ANSI)
100
AcDbLine
 10
4987.599729004854
 20
-3080.305656516808
 30
0.0
 11
5128.346214025593
 21
-4104.306435483165
 31
0.0
  0
LINE
  5
9D1
330
1F
100
AcDbEntity
  8
Visible (ANSI)
100
AcDbLine
 10
5075.961798139752
 20
-3080.305656516808
 30
0.0
 11
5216.70828316049
 21
-4104.306435483165
 31
0.0
  0
LINE
  5
9D2
330
1F
100
AcDbEntity
  8
Visible (ANSI)
100
AcDbLine
 10
4620.6433507859
 20
-4104.306435483252
 30
0.0
 11
4590.372844558508
 21
-4104.306435483252
 31
0.0
  0
LINE
  5
9D3
330
1F
100
AcDbEntity
  8
Visible (ANSI)
100
AcDbLine
 10
4590.372844558508
 20
-4104.306435483252
 30
0.0
 11
4537.339835969529
 21
-4104.306435483252
 31
0.0
  0
LINE
  5
9D4
330
1F
100
AcDbEntity
  8
Visible (ANSI)
100
AcDbLine
 10
4537.339835969529
 20
-4104.306435483252
 30
0.0
 11
4532.281281651022
 21
-4104.306435483252
 31
0.0
  0
LINE
  5
9D5
330
1F
100
AcDbEntity
  8
Visible (ANSI)
100
AcDbLine
 10
4673.027766671867
 20
-3080.305656516808
 30
0.0
 11
4532.281281651022
 21
-4104.306435483252
 31
0.0
  0
LINE
  5
9D6
330
1F
100
AcDbEntity
  8
Visible (ANSI)
100
AcDbLine
 10
4761.389835806745
 20
-3080.305656516808
 30
0.0
 11
4620.6433507859
 21
-4104.306435483252
 31
0.0
  0
LINE
  5
9D7
330
1F
100
AcDbEntity
  8
Visible (ANSI)
100
AcDbLine
 10
5439.494782405839
 20
-3081.305656516808
 30
0.0
 11
5435.494782405839
 21
-3081.305656516808
 31
0.0
  0
LINE
  5
9D8
330
1F
100
AcDbEntity
  8
Visible (ANSI)
100
AcDbLine
 10
5418.494782405838
 20
-3081.305656516808
 30
0.0
 11
5414.494782405839
 21
-3081.305656516808
 31
0.0
  0
LINE
  5
9D9
330
1F
100
AcDbEntity
  8
Visible (ANSI)
100
AcDbLine
 10
5414.49478240584
 20
-3080.305656516808
 30
0.0
 11
5414.49478240584
 21
-3081.305656516808
 31
0.0
  0
LINE
  5
9DA
330
1F
100
AcDbEntity
  8
Visible (ANSI)
100
AcDbLine
 10
5439.494782405839
 20
-3081.305656516808
 30
0.0
 11
5439.494782405839
 21
-3080.305656516808
 31
0.0
  0
LINE
  5
9DB
330
1F
100
AcDbEntity
  8
Visible (ANSI)
100
AcDbLine
 10
5435.494782405839
 20
-3081.305656516808
 30
0.0
 11
5418.494782405838
 21
-3081.305656516808
 31
0.0
  0
LINE
  5
9DC
330
1F
100
AcDbEntity
  8
Visible (ANSI)
100
AcDbLine
 10
5429.099782405842
 20
-3081.805656516808
 30
0.0
 11
5424.889782405841
 21
-3081.805656516808
 31
0.0
  0
ARC
  5
9DD
330
1F
100
AcDbEntity
  8
Visible (ANSI)
100
AcDbCircle
 10
5426.99478240584
 20
-3077.624631516809
 30
0.0
 40
4.681024999999991
100
AcDbArc
 50
243.2763424371234
 51
296.7236575628765
  0
LINE
  5
9DE
330
1F
100
AcDbEntity
  8
Visible (ANSI)
100
AcDbLine
 10
5424.889782405841
 20
-3081.805656516808
 30
0.0
 11
5424.889782405841
 21
-3081.305656516808
 31
0.0
  0
LINE
  5
9DF
330
1F
100
AcDbEntity
  8
Visible (ANSI)
100
AcDbLine
 10
5429.099782405842
 20
-3081.805656516808
 30
0.0
 11
5429.099782405842
 21
-3081.305656516808
 31
0.0
  0
LINE
  5
9E0
330
1F
100
AcDbEntity
  8
Visible (ANSI)
100
AcDbLine
 10
4756.344782405812
 20
-3150.305656516807
 30
0.0
 11
4751.768501376314
 21
-3150.305656516807
 31
0.0
  0
LINE
  5
9E1
330
1F
100
AcDbEntity
  8
Visible (ANSI)
100
AcDbLine
 10
4756.344782405812
 20
-3117.010932756705
 30
0.0
 11
4756.344782405812
 21
-3150.305656516807
 31
0.0
  0
LINE
  5
9E2
330
1F
100
AcDbEntity
  8
Visible (ANSI)
100
AcDbLine
 10
4992.64478240579
 20
-3150.305656516801
 30
0.0
 11
4992.64478240579
 21
-3117.010932756713
 31
0.0
  0
LINE
  5
9E3
330
1F
100
AcDbEntity
  8
Visible (ANSI)
100
AcDbLine
 10
4997.221063435283
 20
-3150.305656516801
 30
0.0
 11
4992.64478240579
 21
-3150.305656516801
 31
0.0
  0
CIRCLE
  5
9E4
330
1F
100
AcDbEntity
  8
Visible (ANSI)
100
AcDbCircle
 10
13888.49333129839
 20
-3436.924905934385
 30
0.0
 40
749.999999999988
  0
TEXT
  5
9ED
330
1F
100
AcDbEntity
  8
LINE
100
AcDbText
 10
13287.46169034652
 20
-4668.255558930511
 30
0.0
 40
233.9816249415046
  1
FOB150
 41
1.000399999999999
100
AcDbText
  0
TEXT
  5
9F6
330
1F
100
AcDbEntity
  8
LINE
100
AcDbText
 10
10150.97961841475
 20
-4636.883907431677
 30
0.0
 40
233.9816249415046
  1
FOB120
 41
1.000399999999999
100
AcDbText
  0
MTEXT
  5
9FF
330
1F
100
AcDbEntity
  8
0
100
AcDbMText
 10
5489.395885005069
 20
-3463.358471236573
 30
0.0
 40
233.9816249415046
 41
351.4273130132687
 46
0.0
 71
     1
 72
     1
  1
1050
 73
     1
 44
1.0
  0
MTEXT
  5
A08
330
1F
100
AcDbEntity
  8
0
100
AcDbMText
 10
10319.65836206666
 20
-2428.229032926235
 30
0.0
 40
233.9816249415046
 41
351.4273130132687
 46
0.0
 71
     1
 72
     1
  1
120
 73
     1
 44
1.0
  0
MTEXT
  5
A18
330
1F
100
AcDbEntity
  8
0
100
AcDbMText
 10
11381.28147162002
 20
-3324.662053504321
 30
0.0
 40
233.9816249415046
 41
351.4273130132687
 46
0.0
 71
     1
 72
     1
  1
120
 73
     1
 44
1.0
  0
MTEXT
  5
A21
330
1F
100
AcDbEntity
  8
0
100
AcDbMText
 10
13606.1747076615
 20
-2322.244653950521
 30
0.0
 40
233.9816249415046
 41
351.4273130132687
 46
0.0
 71
     1
 72
     1
  1
150
 73
     1
 44
1.0
  0
MTEXT
  5
A2A
330
1F
100
AcDbEntity
  8
0
100
AcDbMText
 10
14736.2054883333
 20
-3296.82571793815
 30
0.0
 40
233.9816249415046
 41
351.4273130132687
 46
0.0
 71
     1
 72
     1
  1
150
 73
     1
 44
1.0
  0
MTEXT
  5
A33
330
1F
100
AcDbEntity
  8
0
100
AcDbMText
 10
10718.69932692166
 20
7081.861455307482
 30
0.0
 40
233.9816249415046
 41
351.4273130132687
 46
0.0
 71
     1
 72
     1
  1
210
 73
     1
 44
1.0
  0
MTEXT
  5
A3C
330
1F
100
AcDbEntity
  8
0
100
AcDbMText
 10
14270.24383384088
 20
7081.861455307482
 30
0.0
 40
233.9816249415046
 41
351.4273130132687
 46
0.0
 71
     1
 72
     1
  1
240
 73
     1
 44
1.0
  0
MTEXT
  5
A45
330
1F
100
AcDbEntity
  8
0
100
AcDbMText
 10
18101.09011533554
 20
7031.660478720174
 30
0.0
 40
233.9816249415046
 41
351.4273130132687
 46
0.0
 71
     1
 72
     1
  1
270
 73
     1
 44
1.0
  0
MTEXT
  5
A4E
330
1F
100
AcDbEntity
  8
0
100
AcDbMText
 10
22474.11296228558
 20
7031.720453408716
 30
0.0
 40
233.9816249415046
 41
351.4273130132687
 46
0.0
 71
     1
 72
     1
  1
300
 73
     1
 44
1.0
  0
MTEXT
  5
A57
330
1F
100
AcDbEntity
  8
0
100
AcDbMText
 10
12203.70094907883
 20
6178.102418409873
 30
0.0
 40
233.9816249415046
 41
351.4273130132687
 46
0.0
 71
     1
 72
     1
  1
110
 73
     1
 44
1.0
  0
MTEXT
  5
A60
330
1F
100
AcDbEntity
  8
0
100
AcDbMText
 10
15861.65582333063
 20
6248.400378249929
 30
0.0
 40
233.9816249415046
 41
351.4273130132687
 46
0.0
 71
     1
 72
     1
  1
110
 73
     1
 44
1.0
  0
MTEXT
  5
A69
330
1F
100
AcDbEntity
  8
0
100
AcDbMText
 10
19831.1399713023
 20
6258.442895168229
 30
0.0
 40
233.9816249415046
 41
351.4273130132687
 46
0.0
 71
     1
 72
     1
  1
110
 73
     1
 44
1.0
  0
MTEXT
  5
A72
330
1F
100
AcDbEntity
  8
0
100
AcDbMText
 10
24252.84391490358
 20
6268.48552589051
 30
0.0
 40
233.9816249415046
 41
351.4273130132687
 46
0.0
 71
     1
 72
     1
  1
110
 73
     1
 44
1.0
  0
MTEXT
  5
A7B
330
1F
100
AcDbEntity
  8
0
100
AcDbMText
 10
11619.48891222587
 20
4167.501627708692
 30
0.0
 40
233.9816249415046
 41
351.4273130132687
 46
0.0
 71
     1
 72
     1
  1
380
 73
     1
 44
1.0
  0
MTEXT
  5
A84
330
1F
100
AcDbEntity
  8
0
100
AcDbMText
 10
13870.53804554086
 20
3323.926109628164
 30
0.0
 40
233.9816249415046
 41
351.4273130132687
 46
0.0
 71
     1
 72
     1
  1
110
 73
     1
 44
1.0
  0
MTEXT
  5
A8D
330
1F
100
AcDbEntity
  8
0
100
AcDbMText
 10
17840.02219351253
 20
4167.501627708692
 30
0.0
 40
233.9816249415046
 41
351.4273130132687
 46
0.0
 71
     1
 72
     1
  1
440
 73
     1
 44
1.0
  0
MTEXT
  5
A96
330
1F
100
AcDbEntity
  8
0
100
AcDbMText
 10
20422.69924653449
 20
3364.096404909326
 30
0.0
 40
233.9816249415046
 41
351.4273130132687
 46
0.0
 71
     1
 72
     1
  1
110
 73
     1
 44
1.0
  0
MTEXT
  5
A9F
330
1F
100
AcDbEntity
  8
0
100
AcDbMText
 10
11577.76236977609
 20
1111.622247465444
 30
0.0
 40
233.9816249415046
 41
351.4273130132687
 46
0.0
 71
     1
 72
     1
  1
210
 73
     1
 44
1.0
  0
MTEXT
  5
AA8
330
1F
100
AcDbEntity
  8
0
100
AcDbMText
 10
13899.156764046
 20
147.5359573453988
 30
0.0
 40
233.9816249415046
 41
351.4273130132687
 46
0.0
 71
     1
 72
     1
  1
140
 73
     1
 44
1.0
  0
MTEXT
  5
AB1
330
1F
100
AcDbEntity
  8
0
100
AcDbMText
 10
17838.49294303701
 20
1111.622247465444
 30
0.0
 40
233.9816249415046
 41
351.4273130132687
 46
0.0
 71
     1
 72
     1
  1
210
 73
     1
 44
1.0
  0
MTEXT
  5
ABA
330
1F
100
AcDbEntity
  8
0
100
AcDbMText
 10
20442.89730293467
 20
167.2851556869518
 30
0.0
 40
233.9816249415046
 41
351.4273130132687
 46
0.0
 71
     1
 72
     1
  1
140
 73
     1
 44
1.0
  0
MTEXT
  5
AC3
330
1F
100
AcDbEntity
  8
0
100
AcDbMText
 10
10756.43799495673
 20
-5213.639781200857
 30
0.0
 40
233.9816249415046
 41
351.4273130132687
 46
0.0
 71
     1
 72
     1
  1
210
 73
     1
 44
1.0
  0
MTEXT
  5
ACC
330
1F
100
AcDbEntity
  8
0
100
AcDbMText
 10
12153.29441289999
 20
-6047.172668559118
 30
0.0
 40
233.9816249415046
 41
351.4273130132687
 46
0.0
 71
     1
 72
     1
  1
110
 73
     1
 44
1.0
  0
MTEXT
  5
AD5
330
1F
100
AcDbEntity
  8
0
100
AcDbMText
 10
14595.28094401222
 20
-5233.72481503747
 30
0.0
 40
233.9816249415046
 41
351.4273130132687
 46
0.0
 71
     1
 72
     1
  1
240
 73
     1
 44
1.0
  0
MTEXT
  5
ADE
330
1F
100
AcDbEntity
  8
0
100
AcDbMText
 10
16082.58126889745
 20
-6017.045004000223
 30
0.0
 40
233.9816249415046
 41
351.4273130132687
 46
0.0
 71
     1
 72
     1
  1
110
 73
     1
 44
1.0
  0
MTEXT
  5
AE7
330
1F
100
AcDbEntity
  8
0
100
AcDbMText
 10
18446.02678974805
 20
-5233.712979425318
 30
0.0
 40
233.9816249415046
 41
351.4273130132687
 46
0.0
 71
     1
 72
     1
  1
270
 73
     1
 44
1.0
  0
MTEXT
  5
AF0
330
1F
100
AcDbEntity
  8
0
100
AcDbMText
 10
20124.9869991336
 20
-5996.924008111271
 30
0.0
 40
233.9816249415046
 41
351.4273130132687
 46
0.0
 71
     1
 72
     1
  1
110
 73
     1
 44
1.0
  0
LINE
  5
AF1
330
1F
100
AcDbEntity
  8
0
100
AcDbLine
 10
25.85742833564109
 20
14754.81300018263
 30
0.0
 11
20680.8420148467
 21
14754.81300018263
 31
0.0
  0
TEXT
  5
AFA
330
1F
100
AcDbEntity
  8
LINE
100
AcDbText
 10
59.30178017617163
 20
13872.26827912537
 30
0.0
 40
233.9816249415046
  1
Breakout Tables
 41
1.000399999999999
100
AcDbText
  0
ENDSEC
  0
SECTION
  2
OBJECTS
  0
DICTIONARY
  5
C
330
0
100
AcDbDictionary
281
     1
  3
ACAD_CIP_PREVIOUS_PRODUCT_INFO
350
1A5
  3
ACAD_COLOR
350
73
  3
ACAD_DETAILVIEWSTYLE
350
1AB
  3
ACAD_FIELDLIST
350
423
  3
ACAD_GROUP
350
D
  3
ACAD_LAYOUT
350
1A
  3
ACAD_MATERIAL
350
72
  3
ACAD_MLEADERSTYLE
350
D7
  3
ACAD_MLINESTYLE
350
17
  3
ACAD_PLOTSETTINGS
350
19
  3
ACAD_PLOTSTYLENAME
350
E
  3
ACAD_RENDER_ACTIVE_RAPIDRT_SETTINGS
350
B31
  3
ACAD_RENDER_ACTIVE_SETTINGS
350
B60
  3
ACAD_RENDER_RAPIDRT_SETTINGS
350
B2A
  3
ACAD_SCALELIST
350
B6
  3
ACAD_SECTIONVIEWSTYLE
350
1A8
  3
ACAD_TABLESTYLE
350
86
  3
ACAD_VISUALSTYLE
350
99
  3
ACDB_RECOMPOSE_DATA
350
B4F
  3
AcDbVariableDictionary
350
66
  3
AcDsDecomposeData
350
B55
  3
AcmDictionary
350
3DE
  3
AMG
350
3B2
  3
AMGSNAPSETTINGS
350
42D
  0
DICTIONARY
  5
18E
330
2
100
AcDbDictionary
280
     1
281
     1
  3
ACAD_LAYERSTATES
360
18F
  0
DICTIONARY
  5
E6
330
10
100
AcDbDictionary
280
     1
281
     1
  0
DICTIONARY
  5
15D
330
1F
100
AcDbDictionary
280
     1
281
     1
  3
ACAD_SORTENTS
360
270
  0
DICTIONARY
  5
478
330
44A
100
AcDbDictionary
280
     1
281
     1
  3
ACAD_SORTENTS
360
479
  0
DICTIONARY
  5
A0C
330
A0A
100
AcDbDictionary
280
     1
281
     1
  3
ACAD_SORTENTS
360
A0D
  0
XRECORD
  5
1A5
102
{ACAD_REACTORS
330
C
102
}
330
C
100
AcDbXrecord
280
     1
300
AMECH_PP
300
2019
300
AMECH_PP_F_S
  0
DICTIONARY
  5
73
102
{ACAD_REACTORS
330
C
102
}
330
C
100
AcDbDictionary
281
     1
  0
DICTIONARY
  5
1AB
102
{ACAD_REACTORS
330
C
102
}
330
C
100
AcDbDictionary
281
     1
  3
Imperial24
350
1AC
  3
Metric50
350
25F
  0
FIELDLIST
  5
423
102
{ACAD_REACTORS
330
C
102
}
330
C
100
AcDbIdSet
 90
        7
330
421
330
422
330
424
330
425
330
446
330
447
330
448
100
AcDbFieldList
  0
DICTIONARY
  5
D
102
{ACAD_REACTORS
330
C
102
}
330
C
100
AcDbDictionary
281
     1
  0
DICTIONARY
  5
1A
102
{ACAD_REACTORS
330
C
102
}
330
C
100
AcDbDictionary
281
     1
  3
Layout1
350
59
  3
Layout2
350
5E
  3
Model
350
22
  0
DICTIONARY
  5
72
102
{ACAD_REACTORS
330
C
102
}
330
C
100
AcDbDictionary
281
     1
  3
ByBlock
350
97
  3
ByLayer
350
96
  3
Global
350
98
  0
DICTIONARY
  5
D7
102
{ACAD_REACTORS
330
C
102
}
330
C
100
AcDbDictionary
281
     1
  3
Annotative
350
E5
  3
Standard
350
D8
  0
DICTIONARY
  5
17
102
{ACAD_REACTORS
330
C
102
}
330
C
100
AcDbDictionary
281
     1
  3
Standard
350
18
  0
DICTIONARY
  5
19
102
{ACAD_REACTORS
330
C
102
}
330
C
100
AcDbDictionary
281
     1
  0
ACDBDICTIONARYWDFLT
  5
E
102
{ACAD_REACTORS
330
C
102
}
330
C
100
AcDbDictionary
281
     1
  3
Normal
350
F
100
AcDbDictionaryWithDefault
340
F
  0
RAPIDRTRENDERSETTINGS
  5
B31
102
{ACAD_REACTORS
330
C
102
}
330
C
100
AcDbRenderSettings
 90
        2
  1
Medium
290
     1
290
     0
290
     1
290
     1
  1

  1
Applies 5 rendering levels
 90
        0
100
AcDbRapidRTRenderSettings
 90
        3
 70
     0
 90
        5
 90
        1
 70
     1
 70
     2
 40
3.0
 40
3.0
290
     1
  0
MENTALRAYRENDERSETTINGS
  5
B60
102
{ACAD_XDICTIONARY
360
B61
102
}
102
{ACAD_REACTORS
330
C
102
}
330
C
100
AcDbRenderSettings
 90
        2
  1
Medium
290
     1
290
     1
290
     1
290
     1
  1

  1

 90
        0
100
AcDbMentalRayRenderSettings
 90
        2
 90
        0
 90
        1
 70
     2
 40
3.0
 40
3.0
 40
0.0500000007450581
 40
0.0500000007450581
 40
0.0500000007450581
 40
0.0500000007450581
 70
     0
290
     0
290
     1
 90
        5
 90
        5
 90
        5
290
     0
 90
      500
290
     0
 40
1.0
 90
    10000
 90
        5
 90
        5
 90
        5
290
     0
 90
      200
290
     0
290
     0
290
     0
 40
1.0
 40
1.0
 40
1500.0
 70
     0
 70
     0
 40
10.0
 70
     0
 70
     0
290
     0
  1

 90
       32
 70
     0
 90
     1048
290
     0
 40
1.0
  0
DICTIONARY
  5
B2A
102
{ACAD_REACTORS
330
C
102
}
330
C
100
AcDbDictionary
281
     1
  3
Coffee-Break Quality
350
B2E
  3
High
350
B2D
  3
Low
350
B2B
  3
Lunch Quality
350
B2F
  3
Medium
350
B2C
  3
Overnight Quality
350
B30
  0
DICTIONARY
  5
B6
102
{ACAD_REACTORS
330
C
102
}
330
C
100
AcDbDictionary
281
     1
  3
A0
350
B7
  3
A1
350
124
  3
A2
350
125
  3
A3
350
126
  3
A4
350
127
  3
A5
350
128
  3
A6
350
129
  3
A7
350
12A
  3
A8
350
12B
  3
A9
350
12C
  3
B0
350
12D
  3
B1
350
12E
  3
B2
350
12F
  3
B3
350
130
  3
B4
350
131
  3
B5
350
132
  3
B6
350
133
  3
B7
350
134
  3
B8
350
135
  3
B9
350
136
  3
C0
350
137
  3
C1
350
138
  3
C2
350
139
  3
C3
350
13A
  3
C4
350
13B
  3
C5
350
13C
  3
C6
350
13D
  3
C7
350
13E
  3
C8
350
13F
  3
C9
350
140
  3
D0
350
141
  3
D1
350
142
  3
D2
350
143
  0
DICTIONARY
  5
1A8
102
{ACAD_REACTORS
330
C
102
}
330
C
100
AcDbDictionary
281
     1
  3
Imperial24
350
1AA
  3
Metric50
350
25E
  0
DICTIONARY
  5
86
102
{ACAD_REACTORS
330
C
102
}
330
C
100
AcDbDictionary
281
     1
  3
Standard
350
87
  0
DICTIONARY
  5
99
102
{ACAD_REACTORS
330
C
102
}
330
C
100
AcDbDictionary
281
     1
  3
2dWireframe
350
9F
  3
Basic
350
9E
  3
Brighten
350
A5
  3
ColorChange
350
A9
  3
Conceptual
350
A2
  3
Dim
350
A4
  3
EdgeColorOff
350
175
  3
Facepattern
350
A8
  3
Flat
350
9A
  3
FlatWithEdges
350
9B
  3
Gouraud
350
9C
  3
GouraudWithEdges
350
9D
  3
Hidden
350
A1
  3
JitterOff
350
173
  3
Linepattern
350
A7
  3
OverhangOff
350
174
  3
Realistic
350
A3
  3
Shaded
350
182
  3
Shaded with edges
350
181
  3
Shades of Gray
350
17E
  3
Sketchy
350
17F
  3
Thicken
350
A6
  3
Wireframe
350
A0
  3
X-Ray
350
180
  0
XRECORD
  5
B4F
102
{ACAD_REACTORS
330
C
102
}
330
C
100
AcDbXrecord
280
     1
 90
        1
330
87
  0
DICTIONARY
  5
66
102
{ACAD_REACTORS
330
C
102
}
330
C
100
AcDbDictionary
281
     1
  3
CANNOSCALE
350
F0
  3
CMLEADERSTYLE
350
EF
  3
CTABLESTYLE
350
89
  3
CVIEWDETAILSTYLE
350
1B7
  3
CVIEWSECTIONSTYLE
350
1B8
  3
DIMASSOC
350
67
  3
HIDETEXT
350
6B
  3
LAYEREVAL
350
14D
  3
LAYERNOTIFY
350
14E
  0
DICTIONARY
  5
B55
102
{ACAD_REACTORS
330
C
102
}
330
C
100
AcDbDictionary
281
     1
  3
AcDsRecords
350
B57
  3
AcDsSchemas
350
B56
1001
ACAD
1070
     2
  0
DICTIONARY
  5
3DE
102
{ACAD_REACTORS
330
C
102
}
330
C
100
AcDbDictionary
281
     1
  3
AcmStdDictionary
350
3E5
  0
DICTIONARY
  5
3B2
102
{ACAD_REACTORS
330
C
102
}
330
C
100
AcDbDictionary
281
     1
  0
DICTIONARY
  5
42D
102
{ACAD_REACTORS
330
C
102
}
330
C
100
AcDbDictionary
281
     1
  0
DICTIONARY
  5
18F
102
{ACAD_REACTORS
330
18E
102
}
330
18E
100
AcDbDictionary
281
     1
  0
SORTENTSTABLE
  5
270
102
{ACAD_REACTORS
330
15D
102
}
330
15D
100
AcDbSortentsTable
330
1F
331
21E
  5
21F
331
21F
  5
224
331
220
  5
226
331
223
  5
228
331
224
  5
22A
331
226
  5
22C
331
227
  5
22F
331
231
  5
239
331
232
  5
23E
331
233
  5
241
331
234
  5
243
331
235
  5
244
331
236
  5
246
331
237
  5
24B
331
238
  5
24D
331
239
  5
24E
331
23A
  5
24F
331
23E
  5
250
331
23F
  5
252
331
240
  5
254
331
241
  5
258
331
242
  5
26A
331
243
  5
26B
331
244
  5
26E
331
245
  5
26F
331
246
  5
273
331
247
  5
274
331
24A
  5
275
331
24B
  5
276
331
24C
  5
279
331
24D
  5
27B
331
24E
  5
27D
331
24F
  5
280
331
250
  5
282
331
251
  5
283
331
252
  5
285
331
253
  5
287
331
254
  5
289
331
255
  5
28A
331
26A
  5
28F
331
26B
  5
290
331
26C
  5
291
331
26D
  5
292
331
26E
  5
293
331
26F
  5
21E
331
271
  5
227
331
272
  5
223
331
273
  5
220
331
274
  5
22E
331
275
  5
229
331
276
  5
22D
331
277
  5
22B
331
278
  5
294
331
279
  5
295
331
27A
  5
296
331
27B
  5
297
331
27C
  5
298
331
27D
  5
299
331
27E
  5
29A
331
27F
  5
29B
331
280
  5
29C
331
281
  5
29D
331
282
  5
29E
331
283
  5
29F
331
284
  5
2A0
331
285
  5
2A1
331
286
  5
2A2
331
287
  5
2A3
331
288
  5
23A
331
289
  5
242
331
28A
  5
240
331
28B
  5
23F
331
28C
  5
245
331
28D
  5
24C
331
28E
  5
24A
331
28F
  5
247
331
290
  5
251
331
291
  5
256
331
292
  5
253
331
293
  5
255
331
294
  5
272
331
295
  5
271
331
296
  5
26D
331
297
  5
26C
331
298
  5
27C
331
299
  5
27A
331
29A
  5
278
331
29B
  5
277
331
29C
  5
284
331
29D
  5
27F
331
29E
  5
281
331
29F
  5
27E
331
2A0
  5
28C
331
2A1
  5
28B
331
2A2
  5
288
331
2A3
  5
286
  0
SORTENTSTABLE
  5
479
102
{ACAD_REACTORS
330
478
102
}
330
478
100
AcDbSortentsTable
330
44A
  0
SORTENTSTABLE
  5
A0D
102
{ACAD_REACTORS
330
A0C
102
}
330
A0C
100
AcDbSortentsTable
330
A0A
  0
ACDBDETAILVIEWSTYLE
  5
1AC
102
{ACAD_XDICTIONARY
360
B5A
102
}
102
{ACAD_REACTORS
330
1AB
330
412
330
499
102
}
330
1AB
100
AcDbModelDocViewStyle
 70
     0
  3
Imperial24
290
     0
100
AcDbDetailViewStyle
 70
     0
 71
     0
 90
        3
 71
     1
340
11
 62
   256
 40
0.24
340
0
 62
   256
 40
0.24
300

 40
0.36
280
     3
 71
     2
340
16
 90
       25
 62
   256
 71
     3
340
11
 62
   256
 40
0.24
 90
        1
 40
0.75
 90
        1
300
%<\AcVar ViewType \f "%tc1">% %<\AcVar ViewDetailId>%\PSCALE %<\AcVar ViewScale \f "%sn">%
 71
     4
340
16
 90
       25
 62
   256
340
16
 90
       25
 62
   256
280
     0
  0
ACDBDETAILVIEWSTYLE
  5
25F
102
{ACAD_XDICTIONARY
360
B5E
102
}
102
{ACAD_REACTORS
330
1AB
330
413
102
}
330
1AB
100
AcDbModelDocViewStyle
 70
     0
  3
Metric50
290
     0
100
AcDbDetailViewStyle
 70
     0
 71
     0
 90
        3
 71
     1
340
11
 62
   256
 40
5.0
340
0
 62
   256
 40
5.0
300

 40
0.0
280
     1
 71
     2
340
16
 90
       25
 62
   256
 71
     3
340
11
 62
   256
 40
5.0
 90
        0
 40
15.0
 90
        1
300
%<\AcVar ViewDetailId>% (%<\AcVar ViewScale \f "%sn">%)
 71
     4
340
16
 90
       25
 62
   256
340
16
 90
       25
 62
   256
280
     0
  0
LAYOUT
  5
59
102
{ACAD_REACTORS
330
1A
102
}
330
1A
100
AcDbPlotSettings
  1

  2
None
  4

  6

 40
0.0
 41
0.0
 42
0.0
 43
0.0
 44
0.0
 45
0.0
 46
0.0
 47
0.0
 48
0.0
 49
0.0
140
0.0
141
0.0
142
1.0
143
1.0
 70
   688
 72
     0
 73
     0
 74
     5
  7

 75
    16
147
1.0
 76
     0
 77
     2
 78
   300
148
0.0
149
0.0
100
AcDbLayout
  1
Layout1
 70
     1
 71
     1
 10
0.0
 20
0.0
 11
12.0
 21
9.0
 12
0.0
 22
0.0
 32
0.0
 14
0.0
 24
0.0
 34
0.0
 15
0.0
 25
0.0
 35
0.0
146
0.0
 13
0.0
 23
0.0
 33
0.0
 16
1.0
 26
0.0
 36
0.0
 17
0.0
 27
1.0
 37
0.0
 76
     0
330
58
  0
LAYOUT
  5
5E
102
{ACAD_REACTORS
330
1A
102
}
330
1A
100
AcDbPlotSettings
  1

  2
None
  4

  6

 40
0.0
 41
0.0
 42
0.0
 43
0.0
 44
0.0
 45
0.0
 46
0.0
 47
0.0
 48
0.0
 49
0.0
140
0.0
141
0.0
142
1.0
143
1.0
 70
   688
 72
     0
 73
     0
 74
     5
  7

 75
    16
147
1.0
 76
     0
 77
     2
 78
   300
148
0.0
149
0.0
100
AcDbLayout
  1
Layout2
 70
     1
 71
     2
 10
0.0
 20
0.0
 11
12.0
 21
9.0
 12
0.0
 22
0.0
 32
0.0
 14
0.0
 24
0.0
 34
0.0
 15
0.0
 25
0.0
 35
0.0
146
0.0
 13
0.0
 23
0.0
 33
0.0
 16
1.0
 26
0.0
 36
0.0
 17
0.0
 27
1.0
 37
0.0
 76
     0
330
5D
  0
LAYOUT
  5
22
102
{ACAD_XDICTIONARY
360
194
102
}
102
{ACAD_REACTORS
330
1A
102
}
330
1A
100
AcDbPlotSettings
  1

  2
none_device
  4
ANSI_A_(8.50_x_11.00_Inches)
  6

 40
6.349999904632568
 41
19.04999923706055
 42
6.350006103515625
 43
19.04998779296875
 44
215.8999938964844
 45
279.3999938964844
 46
0.0
 47
0.0
 48
0.0
 49
0.0
140
0.0
141
0.0
142
1.0
143
2.584895464708373
 70
 11952
 72
     0
 73
     1
 74
     0
  7

 75
     0
147
0.3868628397755418
 76
     0
 77
     2
 78
   300
148
0.0
149
0.0
100
AcDbLayout
  1
Model
 70
     1
 71
     0
 10
0.0
 20
0.0
 11
12.0
 21
9.0
 12
0.0
 22
0.0
 32
0.0
 14
0.0
 24
0.0
 34
0.0
 15
0.0
 25
0.0
 35
0.0
146
0.0
 13
0.0
 23
0.0
 33
0.0
 16
1.0
 26
0.0
 36
0.0
 17
0.0
 27
1.0
 37
0.0
 76
     0
330
1F
331
94
  0
MATERIAL
  5
97
102
{ACAD_XDICTIONARY
360
188
102
}
102
{ACAD_REACTORS
330
72
102
}
330
72
100
AcDbMaterial
  1
ByBlock
 94
       63
  0
MATERIAL
  5
96
102
{ACAD_XDICTIONARY
360
186
102
}
102
{ACAD_REACTORS
330
72
102
}
330
72
100
AcDbMaterial
  1
ByLayer
 94
       63
  0
MATERIAL
  5
98
102
{ACAD_XDICTIONARY
360
110
102
}
102
{ACAD_REACTORS
330
72
102
}
330
72
100
AcDbMaterial
  1
Global
 43
0.0208000000566244
 43
0.0
 43
0.0
 43
0.0
 43
0.0
 43
0.0208000000566244
 43
0.0
 43
0.0
 43
0.0
 43
0.0
 43
1.0
 43
0.0
 43
0.0
 43
0.0
 43
0.0
 43
1.0
 49
0.0208000000566244
 49
0.0
 49
0.0
 49
0.0
 49
0.0
 49
0.0208000000566244
 49
0.0
 49
0.0
 49
0.0
 49
0.0
 49
1.0
 49
0.0
 49
0.0
 49
0.0
 49
0.0
 49
1.0
142
0.0208000000566244
142
0.0
142
0.0
142
0.0
142
0.0
142
0.0208000000566244
142
0.0
142
0.0
142
0.0
142
0.0
142
1.0
142
0.0
142
0.0
142
0.0
142
0.0
142
1.0
144
0.0208000000566244
144
0.0
144
0.0
144
0.0
144
0.0
144
0.0208000000566244
144
0.0
144
0.0
144
0.0
144
0.0
144
1.0
144
0.0
144
0.0
144
0.0
144
0.0
144
1.0
 94
       63
1001
ACAD
1070
    -1
1070
     3
1070
     0
1000

1071
        0
1070
     0
  0
MLEADERSTYLE
  5
E5
102
{ACAD_REACTORS
330
D7
102
}
330
D7
100
AcDbMLeaderStyle
179
     2
170
     2
171
     1
172
     0
 90
        2
 40
0.0
 41
0.0
173
     1
 91
-1056964608
340
14
 92
       -2
290
     1
 42
0.09
291
     1
 43
0.36
  3
Standard
 44
0.18
300

342
11
174
     1
178
     1
175
     1
176
     0
 93
-1056964608
 45
0.18
292
     0
297
     0
 46
0.18
 94
-1056964608
 47
1.0
 49
1.0
140
1.0
293
     1
141
0.0
294
     1
177
     0
142
1.0
295
     0
296
     1
143
0.125
271
     0
272
     9
273
     9
298
     0
  0
MLEADERSTYLE
  5
D8
102
{ACAD_REACTORS
330
D7
102
}
330
D7
100
AcDbMLeaderStyle
179
     2
170
     2
171
     1
172
     0
 90
        2
 40
0.0
 41
0.0
173
     1
 91
-1056964608
340
14
 92
       -2
290
     1
 42
0.09
291
     1
 43
0.36
  3
Standard
 44
0.18
300

342
11
174
     1
178
     1
175
     1
176
     0
 93
-1056964608
 45
0.18
292
     0
297
     0
 46
0.18
 94
-1056964608
 47
1.0
 49
1.0
140
1.0
293
     1
141
0.0
294
     1
177
     0
142
1.0
295
     0
296
     0
143
0.125
271
     0
272
     9
273
     9
298
     0
  0
MLINESTYLE
  5
18
102
{ACAD_REACTORS
330
17
102
}
330
17
100
AcDbMlineStyle
  2
STANDARD
 70
     0
  3

 62
   256
 51
90.0
 52
90.0
 71
     2
 49
0.5
 62
   256
  6
BYLAYER
 49
-0.5
 62
   256
  6
BYLAYER
  0
ACDBPLACEHOLDER
  5
F
102
{ACAD_REACTORS
330
E
102
}
330
E
  0
DICTIONARY
  5
B61
330
B60
100
AcDbDictionary
280
     1
281
     1
  3
ACAD_XREC_ROUNDTRIP
360
B63
  3
ADSK_XREC_MENTALRAYSETTINGSINFO
360
B62
  0
RAPIDRTRENDERSETTINGS
  5
B2E
102
{ACAD_REACTORS
330
B2A
102
}
330
B2A
100
AcDbRenderSettings
 90
        2
  1
Coffee-Break Quality
290
     1
290
     0
290
     1
290
     1
  1

  1
Renders for 10 minutes
 90
        3
100
AcDbRapidRTRenderSettings
 90
        3
 70
     1
 90
        1
 90
       10
 70
     1
 70
     2
 40
3.0
 40
3.0
290
     1
  0
RAPIDRTRENDERSETTINGS
  5
B2D
102
{ACAD_REACTORS
330
B2A
102
}
330
B2A
100
AcDbRenderSettings
 90
        2
  1
High
290
     1
290
     0
290
     1
290
     1
  1

  1
Applies 10 rendering levels
 90
        2
100
AcDbRapidRTRenderSettings
 90
        3
 70
     0
 90
       10
 90
        1
 70
     2
 70
     2
 40
3.0
 40
3.0
290
     1
  0
RAPIDRTRENDERSETTINGS
  5
B2B
102
{ACAD_REACTORS
330
B2A
102
}
330
B2A
100
AcDbRenderSettings
 90
        2
  1
Low
290
     1
290
     0
290
     1
290
     1
  1

  1
Applies 1 rendering level
 90
        0
100
AcDbRapidRTRenderSettings
 90
        3
 70
     0
 90
        1
 90
        1
 70
     0
 70
     2
 40
3.0
 40
3.0
290
     1
  0
RAPIDRTRENDERSETTINGS
  5
B2F
102
{ACAD_REACTORS
330
B2A
102
}
330
B2A
100
AcDbRenderSettings
 90
        2
  1
Lunch Quality
290
     1
290
     0
290
     1
290
     1
  1

  1
Renders for 60 minutes
 90
        4
100
AcDbRapidRTRenderSettings
 90
        3
 70
     1
 90
        1
 90
       60
 70
     2
 70
     2
 40
3.0
 40
3.0
290
     1
  0
RAPIDRTRENDERSETTINGS
  5
B2C
102
{ACAD_REACTORS
330
B2A
102
}
330
B2A
100
AcDbRenderSettings
 90
        2
  1
Medium
290
     1
290
     0
290
     1
290
     1
  1

  1
Applies 5 rendering levels
 90
        1
100
AcDbRapidRTRenderSettings
 90
        3
 70
     0
 90
        5
 90
        1
 70
     1
 70
     2
 40
3.0
 40
3.0
290
     1
  0
RAPIDRTRENDERSETTINGS
  5
B30
102
{ACAD_REACTORS
330
B2A
102
}
330
B2A
100
AcDbRenderSettings
 90
        2
  1
Overnight Quality
290
     1
290
     0
290
     1
290
     1
  1

  1
Renders for 12 hours
 90
        5
100
AcDbRapidRTRenderSettings
 90
        3
 70
     1
 90
        1
 90
      720
 70
     2
 70
     2
 40
3.0
 40
3.0
290
     1
  0
SCALE
  5
B7
102
{ACAD_REACTORS
330
B6
102
}
330
B6
100
AcDbScale
 70
     0
300
1:1
140
1.0
141
1.0
290
     1
  0
SCALE
  5
124
102
{ACAD_REACTORS
330
B6
102
}
330
B6
100
AcDbScale
 70
     0
300
1:2
140
1.0
141
2.0
290
     0
  0
SCALE
  5
125
102
{ACAD_REACTORS
330
B6
102
}
330
B6
100
AcDbScale
 70
     0
300
1:4
140
1.0
141
4.0
290
     0
  0
SCALE
  5
126
102
{ACAD_REACTORS
330
B6
102
}
330
B6
100
AcDbScale
 70
     0
300
1:5
140
1.0
141
5.0
290
     0
  0
SCALE
  5
127
102
{ACAD_REACTORS
330
B6
102
}
330
B6
100
AcDbScale
 70
     0
300
1:8
140
1.0
141
8.0
290
     0
  0
SCALE
  5
128
102
{ACAD_REACTORS
330
B6
102
}
330
B6
100
AcDbScale
 70
     0
300
1:10
140
1.0
141
10.0
290
     0
  0
SCALE
  5
129
102
{ACAD_REACTORS
330
B6
102
}
330
B6
100
AcDbScale
 70
     0
300
1:16
140
1.0
141
16.0
290
     0
  0
SCALE
  5
12A
102
{ACAD_REACTORS
330
B6
102
}
330
B6
100
AcDbScale
 70
     0
300
1:20
140
1.0
141
20.0
290
     0
  0
SCALE
  5
12B
102
{ACAD_REACTORS
330
B6
102
}
330
B6
100
AcDbScale
 70
     0
300
1:30
140
1.0
141
30.0
290
     0
  0
SCALE
  5
12C
102
{ACAD_REACTORS
330
B6
102
}
330
B6
100
AcDbScale
 70
     0
300
1:40
140
1.0
141
40.0
290
     0
  0
SCALE
  5
12D
102
{ACAD_REACTORS
330
B6
102
}
330
B6
100
AcDbScale
 70
     0
300
1:50
140
1.0
141
50.0
290
     0
  0
SCALE
  5
12E
102
{ACAD_REACTORS
330
B6
102
}
330
B6
100
AcDbScale
 70
     0
300
1:100
140
1.0
141
100.0
290
     0
  0
SCALE
  5
12F
102
{ACAD_REACTORS
330
B6
102
}
330
B6
100
AcDbScale
 70
     0
300
2:1
140
2.0
141
1.0
290
     0
  0
SCALE
  5
130
102
{ACAD_REACTORS
330
B6
102
}
330
B6
100
AcDbScale
 70
     0
300
4:1
140
4.0
141
1.0
290
     0
  0
SCALE
  5
131
102
{ACAD_REACTORS
330
B6
102
}
330
B6
100
AcDbScale
 70
     0
300
8:1
140
8.0
141
1.0
290
     0
  0
SCALE
  5
132
102
{ACAD_REACTORS
330
B6
102
}
330
B6
100
AcDbScale
 70
     0
300
10:1
140
10.0
141
1.0
290
     0
  0
SCALE
  5
133
102
{ACAD_REACTORS
330
B6
102
}
330
B6
100
AcDbScale
 70
     0
300
100:1
140
100.0
141
1.0
290
     0
  0
SCALE
  5
134
102
{ACAD_REACTORS
330
B6
102
}
330
B6
100
AcDbScale
 70
     0
300
1/128" = 1'-0"
140
0.0078125
141
12.0
290
     0
  0
SCALE
  5
135
102
{ACAD_REACTORS
330
B6
102
}
330
B6
100
AcDbScale
 70
     0
300
1/64" = 1'-0"
140
0.015625
141
12.0
290
     0
  0
SCALE
  5
136
102
{ACAD_REACTORS
330
B6
102
}
330
B6
100
AcDbScale
 70
     0
300
1/32" = 1'-0"
140
0.03125
141
12.0
290
     0
  0
SCALE
  5
137
102
{ACAD_REACTORS
330
B6
102
}
330
B6
100
AcDbScale
 70
     0
300
1/16" = 1'-0"
140
0.0625
141
12.0
290
     0
  0
SCALE
  5
138
102
{ACAD_REACTORS
330
B6
102
}
330
B6
100
AcDbScale
 70
     0
300
3/32" = 1'-0"
140
0.09375
141
12.0
290
     0
  0
SCALE
  5
139
102
{ACAD_REACTORS
330
B6
102
}
330
B6
100
AcDbScale
 70
     0
300
1/8" = 1'-0"
140
0.125
141
12.0
290
     0
  0
SCALE
  5
13A
102
{ACAD_REACTORS
330
B6
102
}
330
B6
100
AcDbScale
 70
     0
300
3/16" = 1'-0"
140
0.1875
141
12.0
290
     0
  0
SCALE
  5
13B
102
{ACAD_REACTORS
330
B6
102
}
330
B6
100
AcDbScale
 70
     0
300
1/4" = 1'-0"
140
0.25
141
12.0
290
     0
  0
SCALE
  5
13C
102
{ACAD_REACTORS
330
B6
102
}
330
B6
100
AcDbScale
 70
     0
300
3/8" = 1'-0"
140
0.375
141
12.0
290
     0
  0
SCALE
  5
13D
102
{ACAD_REACTORS
330
B6
102
}
330
B6
100
AcDbScale
 70
     0
300
1/2" = 1'-0"
140
0.5
141
12.0
290
     0
  0
SCALE
  5
13E
102
{ACAD_REACTORS
330
B6
102
}
330
B6
100
AcDbScale
 70
     0
300
3/4" = 1'-0"
140
0.75
141
12.0
290
     0
  0
SCALE
  5
13F
102
{ACAD_REACTORS
330
B6
102
}
330
B6
100
AcDbScale
 70
     0
300
1" = 1'-0"
140
1.0
141
12.0
290
     0
  0
SCALE
  5
140
102
{ACAD_REACTORS
330
B6
102
}
330
B6
100
AcDbScale
 70
     0
300
1-1/2" = 1'-0"
140
1.5
141
12.0
290
     0
  0
SCALE
  5
141
102
{ACAD_REACTORS
330
B6
102
}
330
B6
100
AcDbScale
 70
     0
300
3" = 1'-0"
140
3.0
141
12.0
290
     0
  0
SCALE
  5
142
102
{ACAD_REACTORS
330
B6
102
}
330
B6
100
AcDbScale
 70
     0
300
6" = 1'-0"
140
6.0
141
12.0
290
     0
  0
SCALE
  5
143
102
{ACAD_REACTORS
330
B6
102
}
330
B6
100
AcDbScale
 70
     0
300
1'-0" = 1'-0"
140
12.0
141
12.0
290
     0
  0
ACDBSECTIONVIEWSTYLE
  5
1AA
102
{ACAD_XDICTIONARY
360
B58
102
}
102
{ACAD_REACTORS
330
1A8
330
410
330
498
102
}
330
1A8
100
AcDbModelDocViewStyle
 70
     0
  3
Imperial24
290
     0
100
AcDbSectionViewStyle
 70
     0
 71
     0
 90
       78
 71
     1
340
11
 62
   256
 40
0.24
340
0
340
0
 62
   256
 40
0.24
300
I, O, Q, S, X, Z
 40
0.48
 90
        3
 40
0.18
 90
        1
 71
     2
340
16
 90
       25
 62
   256
340
16
 90
       50
 62
   256
 40
0.24
 40
0.0
 40
0.24
 71
     3
340
11
 62
   256
 40
0.24
 90
        1
 40
0.75
 90
        1
300
%<\AcVar ViewType \f "%tc1">% %<\AcVar ViewSectionStartId>%-%<\AcVar ViewSectionEndId>%\PSCALE %<\AcVar ViewScale \f "%sn">%
 71
     4
 62
   256
 62
   257
300
ANSI31
 40
1.0
 90
        0
290
     0
290
     0
 90
        6
 40
0.0
 40
1.570796326794896
 40
0.2617993877991494
 40
1.308996938995747
 40
-0.2617993877991494
 40
1.832595714594046
  0
ACDBSECTIONVIEWSTYLE
  5
25E
102
{ACAD_XDICTIONARY
360
B5C
102
}
102
{ACAD_REACTORS
330
1A8
330
411
102
}
330
1A8
100
AcDbModelDocViewStyle
 70
     0
  3
Metric50
290
     0
100
AcDbSectionViewStyle
 70
     0
 71
     0
 90
      102
 71
     1
340
11
 62
   256
 40
5.0
340
0
340
0
 62
   256
 40
5.0
300
I, O, Q, S, X, Z
 40
10.0
 90
        0
 40
2.5
 90
        0
 71
     2
340
16
 90
       25
 62
   256
340
16
 90
       50
 62
   256
 40
5.0
 40
2.5
 40
5.0
 71
     3
340
11
 62
   256
 40
5.0
 90
        0
 40
15.0
 90
        1
300
%<\AcVar ViewSectionStartId>%-%<\AcVar ViewSectionEndId>% (%<\AcVar ViewScale \f "%sn">%)
 71
     4
 62
   256
 62
   257
300
ANSI31
 40
1.0
 90
        0
290
     0
290
     0
 90
        6
 40
0.0
 40
1.570796326794896
 40
0.2617993877991494
 40
1.308996938995747
 40
-0.2617993877991494
 40
1.832595714594046
  0
TABLESTYLE
  5
87
102
{ACAD_XDICTIONARY
360
104
102
}
102
{ACAD_REACTORS
330
86
102
}
330
86
100
AcDbTableStyle
280
     0
  3
Standard
 70
     0
 71
     0
 40
0.06
 41
0.06
280
     0
281
     0
  7
Standard
140
0.18
170
     2
 62
     0
 63
     7
283
     0
 90
      512
 91
        0
  1

274
    -2
284
     1
 64
     0
275
    -2
285
     1
 65
     0
276
    -2
286
     1
 66
     0
277
    -2
287
     1
 67
     0
278
    -2
288
     1
 68
     0
279
    -2
289
     1
 69
     0
  7
Standard
140
0.25
170
     5
 62
     0
 63
     7
283
     0
 90
      512
 91
        0
  1

274
    -2
284
     1
 64
     0
275
    -2
285
     1
 65
     0
276
    -2
286
     1
 66
     0
277
    -2
287
     1
 67
     0
278
    -2
288
     1
 68
     0
279
    -2
289
     1
 69
     0
  7
Standard
140
0.18
170
     5
 62
     0
 63
     7
283
     0
 90
      512
 91
        0
  1

274
    -2
284
     1
 64
     0
275
    -2
285
     1
 65
     0
276
    -2
286
     1
 66
     0
277
    -2
287
     1
 67
     0
278
    -2
288
     1
 68
     0
279
    -2
289
     1
 69
     0
  0
VISUALSTYLE
  5
9F
102
{ACAD_REACTORS
330
99
102
}
330
99
100
AcDbVisualStyle
  2
2dWireframe
 70
     4
177
     3
291
     0
 70
    58
 90
        0
176
     1
 90
        2
176
     1
 90
        1
176
     1
 90
        0
176
     1
 40
0.6
176
     1
 40
30.0
176
     1
 62
     7
420
 16777215
176
     1
 90
        1
176
     1
 90
        4
176
     1
 62
     7
176
     1
 62
   257
176
     1
 90
        1
176
     1
 90
        1
176
     1
 40
1.0
176
     1
 90
        0
176
     1
 62
   257
176
     1
 40
1.0
176
     1
 90
        1
176
     1
 90
        6
176
     1
 90
        2
176
     1
 62
     7
176
     1
 90
        5
176
     1
 90
        0
176
     1
 90
        0
176
     1
290
     0
176
     1
 90
        1
176
     1
 40
0.0
176
     1
 90
        0
176
     1
290
     1
176
     1
290
     1
176
     1
290
     0
176
     1
290
     0
176
     1
290
     0
176
     1
290
     0
176
     1
290
     0
176
     1
290
     0
176
     1
290
     0
176
     1
 90
       50
176
     1
 40
0.0
176
     1
 40
1.0
176
     1
 90
        0
176
     1
 62
    18
420
        0
176
     1
 90
       50
176
     1
 90
        3
176
     1
 62
     5
420
      255
176
     1
290
     0
176
     1
 90
       50
176
     1
 90
       50
176
     1
 90
       50
176
     1
290
     0
176
     1
 90
       50
176
     1
 62
   256
176
     0
 40
1.0
176
     0
 90
        2
176
     1
  1
strokes_ogs.tif
176
     1
290
     0
176
     1
 40
1.0
176
     1
 40
1.0
176
     1
1001
ACAD
1000
AcDbSavedByObjectVersion
1070
     0
  0
VISUALSTYLE
  5
9E
102
{ACAD_REACTORS
330
99
102
}
330
99
100
AcDbVisualStyle
  2
Basic
 70
     7
177
     3
291
     1
 70
    58
 90
        1
176
     1
 90
        0
176
     1
 90
        1
176
     1
 90
        0
176
     1
 40
0.6
176
     1
 40
30.0
176
     1
 62
     7
420
 16777215
176
     1
 90
        0
176
     1
 90
        4
176
     1
 62
     7
176
     1
 62
   257
176
     1
 90
        1
176
     1
 90
        1
176
     1
 40
1.0
176
     1
 90
        8
176
     1
 62
     7
176
     1
 40
1.0
176
     1
 90
        1
176
     1
 90
        6
176
     1
 90
        2
176
     1
 62
     7
176
     1
 90
        5
176
     1
 90
        0
176
     1
 90
        0
176
     1
290
     0
176
     1
 90
        1
176
     1
 40
0.0
176
     1
 90
        0
176
     1
290
     0
176
     1
290
     1
176
     1
290
     1
176
     1
290
     0
176
     1
290
     0
176
     1
290
     0
176
     1
290
     0
176
     1
290
     0
176
     1
290
     0
176
     1
 90
       50
176
     1
 40
0.0
176
     1
 40
1.0
176
     1
 90
        0
176
     1
 62
    18
420
        0
176
     1
 90
       50
176
     1
 90
        3
176
     1
 62
     5
420
      255
176
     1
290
     0
176
     1
 90
       50
176
     1
 90
       50
176
     1
 90
       50
176
     1
290
     0
176
     1
 90
       50
176
     1
 62
   256
176
     0
 40
1.0
176
     0
 90
        2
176
     1
  1
strokes_ogs.tif
176
     1
290
     0
176
     1
 40
1.0
176
     1
 40
1.0
176
     1
1001
ACAD
1000
AcDbSavedByObjectVersion
1070
     0
  0
VISUALSTYLE
  5
A5
102
{ACAD_REACTORS
330
99
102
}
330
99
100
AcDbVisualStyle
  2
Brighten
 70
    12
177
     3
291
     1
 70
    58
 90
        2
176
     1
 90
        2
176
     1
 90
        1
176
     1
 90
        0
176
     1
 40
0.6
176
     1
 40
30.0
176
     1
 62
     7
420
 16777215
176
     1
 90
        1
176
     1
 90
        4
176
     1
 62
     7
176
     1
 62
   257
176
     1
 90
        1
176
     1
 90
        1
176
     1
 40
1.0
176
     1
 90
        8
176
     1
 62
     7
176
     1
 40
1.0
176
     1
 90
        1
176
     1
 90
        6
176
     1
 90
        2
176
     1
 62
     7
176
     1
 90
        5
176
     1
 90
        0
176
     1
 90
        0
176
     1
290
     0
176
     1
 90
        1
176
     1
 40
50.0
176
     1
 90
        0
176
     1
290
     0
176
     1
290
     1
176
     1
290
     1
176
     1
290
     0
176
     1
290
     0
176
     1
290
     0
176
     1
290
     0
176
     1
290
     0
176
     1
290
     0
176
     1
 90
       50
176
     1
 40
0.0
176
     1
 40
1.0
176
     1
 90
        0
176
     1
 62
    18
420
        0
176
     1
 90
       50
176
     1
 90
        3
176
     1
 62
     5
420
      255
176
     1
290
     0
176
     1
 90
       50
176
     1
 90
       50
176
     1
 90
       50
176
     1
290
     0
176
     1
 90
       50
176
     1
 62
   256
176
     0
 40
1.0
176
     0
 90
        2
176
     1
  1
strokes_ogs.tif
176
     1
290
     0
176
     1
 40
1.0
176
     1
 40
1.0
176
     1
1001
ACAD
1000
AcDbSavedByObjectVersion
1070
     0
  0
VISUALSTYLE
  5
A9
102
{ACAD_REACTORS
330
99
102
}
330
99
100
AcDbVisualStyle
  2
ColorChange
 70
    16
177
     3
291
     1
 70
    58
 90
        2
176
     1
 90
        2
176
     1
 90
        3
176
     1
 90
        0
176
     1
 40
0.6
176
     1
 40
30.0
176
     1
 62
     8
420
  8421504
176
     1
 90
        1
176
     1
 90
        4
176
     1
 62
     7
176
     1
 62
   257
176
     1
 90
        1
176
     1
 90
        1
176
     1
 40
1.0
176
     1
 90
        8
176
     1
 62
     8
420
  8421504
176
     1
 40
1.0
176
     1
 90
        1
176
     1
 90
        6
176
     1
 90
        2
176
     1
 62
     7
176
     1
 90
        5
176
     1
 90
        0
176
     1
 90
        0
176
     1
290
     0
176
     1
 90
        1
176
     1
 40
0.0
176
     1
 90
        0
176
     1
290
     0
176
     1
290
     1
176
     1
290
     1
176
     1
290
     0
176
     1
290
     0
176
     1
290
     0
176
     1
290
     0
176
     1
290
     0
176
     1
290
     0
176
     1
 90
       50
176
     1
 40
0.0
176
     1
 40
1.0
176
     1
 90
        0
176
     1
 62
    18
420
        0
176
     1
 90
       50
176
     1
 90
        3
176
     1
 62
     5
420
      255
176
     1
290
     0
176
     1
 90
       50
176
     1
 90
       50
176
     1
 90
       50
176
     1
290
     0
176
     1
 90
       50
176
     1
 62
   256
176
     0
 40
1.0
176
     0
 90
        2
176
     1
  1
strokes_ogs.tif
176
     1
290
     0
176
     1
 40
1.0
176
     1
 40
1.0
176
     1
1001
ACAD
1000
AcDbSavedByObjectVersion
1070
     0
  0
VISUALSTYLE
  5
A2
102
{ACAD_REACTORS
330
99
102
}
330
99
100
AcDbVisualStyle
  2
Conceptual
 70
     9
177
     3
291
     0
 70
    58
 90
        3
176
     1
 90
        2
176
     1
 90
        1
176
     1
 90
        0
176
     1
 40
0.6
176
     1
 40
30.0
176
     1
 62
     7
420
 16777215
176
     1
 90
        2
176
     1
 90
        2
176
     1
 62
     7
176
     1
 62
   257
176
     1
 90
        1
176
     1
 90
        1
176
     1
 40
40.0
176
     1
 90
        8
176
     1
 62
     7
176
     1
 40
1.0
176
     1
 90
        1
176
     1
 90
        6
176
     1
 90
        2
176
     1
 62
     7
176
     1
 90
        3
176
     1
 90
        0
176
     1
 90
        0
176
     1
290
     0
176
     1
 90
        1
176
     1
 40
0.0
176
     1
 90
        0
176
     1
290
     0
176
     1
290
     1
176
     1
290
     1
176
     1
290
     0
176
     1
290
     0
176
     1
290
     0
176
     1
290
     0
176
     1
290
     0
176
     1
290
     0
176
     1
 90
       50
176
     1
 40
0.0
176
     1
 40
1.0
176
     1
 90
        0
176
     1
 62
    18
420
        0
176
     1
 90
       50
176
     1
 90
        3
176
     1
 62
     5
420
      255
176
     1
290
     0
176
     1
 90
       50
176
     1
 90
       50
176
     1
 90
       50
176
     1
290
     0
176
     1
 90
       50
176
     1
 62
   256
176
     0
 40
1.0
176
     0
 90
        2
176
     1
  1
strokes_ogs.tif
176
     1
290
     0
176
     1
 40
1.0
176
     1
 40
1.0
176
     1
1001
ACAD
1000
AcDbSavedByObjectVersion
1070
     0
  0
VISUALSTYLE
  5
A4
102
{ACAD_REACTORS
330
99
102
}
330
99
100
AcDbVisualStyle
  2
Dim
 70
    11
177
     3
291
     1
 70
    58
 90
        2
176
     1
 90
        2
176
     1
 90
        1
176
     1
 90
        0
176
     1
 40
0.6
176
     1
 40
30.0
176
     1
 62
     7
420
 16777215
176
     1
 90
        1
176
     1
 90
        4
176
     1
 62
     7
176
     1
 62
   257
176
     1
 90
        1
176
     1
 90
        1
176
     1
 40
1.0
176
     1
 90
        8
176
     1
 62
     7
176
     1
 40
1.0
176
     1
 90
        1
176
     1
 90
        6
176
     1
 90
        2
176
     1
 62
     7
176
     1
 90
        5
176
     1
 90
        0
176
     1
 90
        0
176
     1
290
     0
176
     1
 90
        1
176
     1
 40
-50.0
176
     1
 90
        0
176
     1
290
     0
176
     1
290
     1
176
     1
290
     1
176
     1
290
     0
176
     1
290
     0
176
     1
290
     0
176
     1
290
     0
176
     1
290
     0
176
     1
290
     0
176
     1
 90
       50
176
     1
 40
0.0
176
     1
 40
1.0
176
     1
 90
        0
176
     1
 62
    18
420
        0
176
     1
 90
       50
176
     1
 90
        3
176
     1
 62
     5
420
      255
176
     1
290
     0
176
     1
 90
       50
176
     1
 90
       50
176
     1
 90
       50
176
     1
290
     0
176
     1
 90
       50
176
     1
 62
   256
176
     0
 40
1.0
176
     0
 90
        2
176
     1
  1
strokes_ogs.tif
176
     1
290
     0
176
     1
 40
1.0
176
     1
 40
1.0
176
     1
1001
ACAD
1000
AcDbSavedByObjectVersion
1070
     0
  0
VISUALSTYLE
  5
175
102
{ACAD_REACTORS
330
99
102
}
330
99
100
AcDbVisualStyle
  2
EdgeColorOff
 70
    22
177
     3
291
     1
 70
    58
 90
        2
176
     0
 90
        2
176
     0
 90
        0
176
     0
 90
        0
176
     0
 40
0.6
176
     0
 40
30.0
176
     0
 62
     7
420
 16777215
176
     0
 90
        1
176
     0
 90
        4
176
     0
 62
     7
176
     0
 62
   257
176
     0
 90
        1
176
     0
 90
        1
176
     0
 40
1.0
176
     0
 90
        8
176
     2
 62
     7
176
     0
 40
1.0
176
     0
 90
        1
176
     0
 90
        6
176
     0
 90
        2
176
     0
 62
     7
176
     0
 90
        5
176
     0
 90
        0
176
     0
 90
        0
176
     0
290
     0
176
     0
 90
        1
176
     0
 40
0.0
176
     0
 90
        0
176
     0
290
     0
176
     1
290
     1
176
     1
290
     1
176
     1
290
     0
176
     1
290
     0
176
     1
290
     0
176
     1
290
     0
176
     1
290
     0
176
     1
290
     0
176
     1
 90
       50
176
     1
 40
0.0
176
     1
 40
1.0
176
     1
 90
        0
176
     1
 62
    18
420
        0
176
     1
 90
       50
176
     1
 90
        3
176
     1
 62
     5
420
      255
176
     1
290
     0
176
     1
 90
       50
176
     1
 90
       50
176
     1
 90
       50
176
     1
290
     0
176
     1
 90
       50
176
     1
 62
   256
176
     0
 40
1.0
176
     0
 90
        2
176
     1
  1
strokes_ogs.tif
176
     1
290
     0
176
     1
 40
1.0
176
     1
 40
1.0
176
     1
1001
ACAD
1000
AcDbSavedByObjectVersion
1070
     0
  0
VISUALSTYLE
  5
A8
102
{ACAD_REACTORS
330
99
102
}
330
99
100
AcDbVisualStyle
  2
Facepattern
 70
    15
177
     3
291
     1
 70
    58
 90
        2
176
     1
 90
        2
176
     1
 90
        1
176
     1
 90
        0
176
     1
 40
0.6
176
     1
 40
30.0
176
     1
 62
     7
420
 16777215
176
     1
 90
        1
176
     1
 90
        4
176
     1
 62
     7
176
     1
 62
   257
176
     1
 90
        1
176
     1
 90
        1
176
     1
 40
1.0
176
     1
 90
        8
176
     1
 62
     7
176
     1
 40
1.0
176
     1
 90
        1
176
     1
 90
        6
176
     1
 90
        2
176
     1
 62
     7
176
     1
 90
        5
176
     1
 90
        0
176
     1
 90
        0
176
     1
290
     0
176
     1
 90
        1
176
     1
 40
0.0
176
     1
 90
        0
176
     1
290
     0
176
     1
290
     1
176
     1
290
     1
176
     1
290
     0
176
     1
290
     0
176
     1
290
     0
176
     1
290
     0
176
     1
290
     0
176
     1
290
     0
176
     1
 90
       50
176
     1
 40
0.0
176
     1
 40
1.0
176
     1
 90
        0
176
     1
 62
    18
420
        0
176
     1
 90
       50
176
     1
 90
        3
176
     1
 62
     5
420
      255
176
     1
290
     0
176
     1
 90
       50
176
     1
 90
       50
176
     1
 90
       50
176
     1
290
     0
176
     1
 90
       50
176
     1
 62
   256
176
     0
 40
1.0
176
     0
 90
        2
176
     1
  1
strokes_ogs.tif
176
     1
290
     0
176
     1
 40
1.0
176
     1
 40
1.0
176
     1
1001
ACAD
1000
AcDbSavedByObjectVersion
1070
     0
  0
VISUALSTYLE
  5
9A
102
{ACAD_REACTORS
330
99
102
}
330
99
100
AcDbVisualStyle
  2
Flat
 70
     0
177
     3
291
     1
 70
    58
 90
        2
176
     1
 90
        1
176
     1
 90
        1
176
     1
 90
        2
176
     1
 40
0.6
176
     1
 40
30.0
176
     1
 62
     7
420
 16777215
176
     1
 90
        0
176
     1
 90
        0
176
     1
 62
     7
176
     1
 62
   257
176
     1
 90
        1
176
     1
 90
        1
176
     1
 40
1.0
176
     1
 90
        8
176
     1
 62
     7
176
     1
 40
1.0
176
     1
 90
        1
176
     1
 90
        6
176
     1
 90
        2
176
     1
 62
     7
176
     1
 90
        5
176
     1
 90
        0
176
     1
 90
        0
176
     1
290
     0
176
     1
 90
       13
176
     1
 40
0.0
176
     1
 90
        0
176
     1
290
     0
176
     1
290
     1
176
     1
290
     1
176
     1
290
     0
176
     1
290
     0
176
     1
290
     0
176
     1
290
     0
176
     1
290
     0
176
     1
290
     0
176
     1
 90
       50
176
     1
 40
0.0
176
     1
 40
1.0
176
     1
 90
        0
176
     1
 62
    18
420
        0
176
     1
 90
       50
176
     1
 90
        3
176
     1
 62
     5
420
      255
176
     1
290
     0
176
     1
 90
       50
176
     1
 90
       50
176
     1
 90
       50
176
     1
290
     0
176
     1
 90
       50
176
     1
 62
   256
176
     0
 40
1.0
176
     0
 90
        2
176
     1
  1
strokes_ogs.tif
176
     1
290
     0
176
     1
 40
1.0
176
     1
 40
1.0
176
     1
1001
ACAD
1000
AcDbSavedByObjectVersion
1070
     0
  0
VISUALSTYLE
  5
9B
102
{ACAD_REACTORS
330
99
102
}
330
99
100
AcDbVisualStyle
  2
FlatWithEdges
 70
     1
177
     3
291
     1
 70
    58
 90
        2
176
     1
 90
        1
176
     1
 90
        1
176
     1
 90
        2
176
     1
 40
0.6
176
     1
 40
30.0
176
     1
 62
     7
420
 16777215
176
     1
 90
        1
176
     1
 90
        0
176
     1
 62
     7
176
     1
 62
   257
176
     1
 90
        1
176
     1
 90
        1
176
     1
 40
1.0
176
     1
 90
        0
176
     1
 62
   257
176
     1
 40
1.0
176
     1
 90
        1
176
     1
 90
        6
176
     1
 90
        2
176
     1
 62
     7
176
     1
 90
        5
176
     1
 90
        0
176
     1
 90
        0
176
     1
290
     0
176
     1
 90
       13
176
     1
 40
0.0
176
     1
 90
        0
176
     1
290
     0
176
     1
290
     1
176
     1
290
     1
176
     1
290
     0
176
     1
290
     0
176
     1
290
     0
176
     1
290
     0
176
     1
290
     0
176
     1
290
     0
176
     1
 90
       50
176
     1
 40
0.0
176
     1
 40
1.0
176
     1
 90
        0
176
     1
 62
    18
420
        0
176
     1
 90
       50
176
     1
 90
        3
176
     1
 62
     5
420
      255
176
     1
290
     0
176
     1
 90
       50
176
     1
 90
       50
176
     1
 90
       50
176
     1
290
     0
176
     1
 90
       50
176
     1
 62
   256
176
     0
 40
1.0
176
     0
 90
        2
176
     1
  1
strokes_ogs.tif
176
     1
290
     0
176
     1
 40
1.0
176
     1
 40
1.0
176
     1
1001
ACAD
1000
AcDbSavedByObjectVersion
1070
     0
  0
VISUALSTYLE
  5
9C
102
{ACAD_REACTORS
330
99
102
}
330
99
100
AcDbVisualStyle
  2
Gouraud
 70
     2
177
     3
291
     1
 70
    58
 90
        2
176
     1
 90
        2
176
     1
 90
        1
176
     1
 90
        2
176
     1
 40
0.6
176
     1
 40
30.0
176
     1
 62
     7
420
 16777215
176
     1
 90
        0
176
     1
 90
        0
176
     1
 62
     7
176
     1
 62
   257
176
     1
 90
        1
176
     1
 90
        1
176
     1
 40
1.0
176
     1
 90
        0
176
     1
 62
     7
176
     1
 40
1.0
176
     1
 90
        1
176
     1
 90
        6
176
     1
 90
        2
176
     1
 62
     7
176
     1
 90
        5
176
     1
 90
        0
176
     1
 90
        0
176
     1
290
     0
176
     1
 90
       13
176
     1
 40
0.0
176
     1
 90
        0
176
     1
290
     0
176
     1
290
     1
176
     1
290
     1
176
     1
290
     0
176
     1
290
     0
176
     1
290
     0
176
     1
290
     0
176
     1
290
     0
176
     1
290
     0
176
     1
 90
       50
176
     1
 40
0.0
176
     1
 40
1.0
176
     1
 90
        0
176
     1
 62
    18
420
        0
176
     1
 90
       50
176
     1
 90
        3
176
     1
 62
     5
420
      255
176
     1
290
     0
176
     1
 90
       50
176
     1
 90
       50
176
     1
 90
       50
176
     1
290
     0
176
     1
 90
       50
176
     1
 62
   256
176
     0
 40
1.0
176
     0
 90
        2
176
     1
  1
strokes_ogs.tif
176
     1
290
     0
176
     1
 40
1.0
176
     1
 40
1.0
176
     1
1001
ACAD
1000
AcDbSavedByObjectVersion
1070
     0
  0
VISUALSTYLE
  5
9D
102
{ACAD_REACTORS
330
99
102
}
330
99
100
AcDbVisualStyle
  2
GouraudWithEdges
 70
     3
177
     3
291
     1
 70
    58
 90
        2
176
     1
 90
        2
176
     1
 90
        1
176
     1
 90
        2
176
     1
 40
0.6
176
     1
 40
30.0
176
     1
 62
     7
420
 16777215
176
     1
 90
        1
176
     1
 90
        0
176
     1
 62
     7
176
     1
 62
   257
176
     1
 90
        1
176
     1
 90
        1
176
     1
 40
1.0
176
     1
 90
        0
176
     1
 62
   257
176
     1
 40
1.0
176
     1
 90
        1
176
     1
 90
        6
176
     1
 90
        2
176
     1
 62
     7
176
     1
 90
        5
176
     1
 90
        0
176
     1
 90
        0
176
     1
290
     0
176
     1
 90
       13
176
     1
 40
0.0
176
     1
 90
        0
176
     1
290
     0
176
     1
290
     1
176
     1
290
     1
176
     1
290
     0
176
     1
290
     0
176
     1
290
     0
176
     1
290
     0
176
     1
290
     0
176
     1
290
     0
176
     1
 90
       50
176
     1
 40
0.0
176
     1
 40
1.0
176
     1
 90
        0
176
     1
 62
    18
420
        0
176
     1
 90
       50
176
     1
 90
        3
176
     1
 62
     5
420
      255
176
     1
290
     0
176
     1
 90
       50
176
     1
 90
       50
176
     1
 90
       50
176
     1
290
     0
176
     1
 90
       50
176
     1
 62
   256
176
     0
 40
1.0
176
     0
 90
        2
176
     1
  1
strokes_ogs.tif
176
     1
290
     0
176
     1
 40
1.0
176
     1
 40
1.0
176
     1
1001
ACAD
1000
AcDbSavedByObjectVersion
1070
     0
  0
VISUALSTYLE
  5
A1
102
{ACAD_REACTORS
330
99
102
}
330
99
100
AcDbVisualStyle
  2
Hidden
 70
     6
177
     3
291
     0
 70
    58
 90
        1
176
     1
 90
        2
176
     1
 90
        2
176
     1
 90
        0
176
     1
 40
0.6
176
     1
 40
30.0
176
     1
 62
     7
420
 16777215
176
     1
 90
        2
176
     1
 90
        2
176
     1
 62
     7
176
     1
 62
   257
176
     1
 90
        2
176
     1
 90
        1
176
     1
 40
40.0
176
     1
 90
        0
176
     1
 62
   257
176
     1
 40
1.0
176
     1
 90
        1
176
     1
 90
        6
176
     1
 90
        2
176
     1
 62
     7
176
     1
 90
        3
176
     1
 90
        0
176
     1
 90
        0
176
     1
290
     0
176
     1
 90
        1
176
     1
 40
0.0
176
     1
 90
        0
176
     1
290
     0
176
     1
290
     1
176
     1
290
     1
176
     1
290
     0
176
     1
290
     0
176
     1
290
     0
176
     1
290
     0
176
     1
290
     0
176
     1
290
     0
176
     1
 90
       50
176
     1
 40
0.0
176
     1
 40
1.0
176
     1
 90
        0
176
     1
 62
    18
420
        0
176
     1
 90
       50
176
     1
 90
        3
176
     1
 62
     5
420
      255
176
     1
290
     0
176
     1
 90
       50
176
     1
 90
       50
176
     1
 90
       50
176
     1
290
     0
176
     1
 90
       50
176
     1
 62
   256
176
     0
 40
1.0
176
     0
 90
        2
176
     1
  1
strokes_ogs.tif
176
     1
290
     0
176
     1
 40
1.0
176
     1
 40
1.0
176
     1
1001
ACAD
1000
AcDbSavedByObjectVersion
1070
     0
  0
VISUALSTYLE
  5
173
102
{ACAD_REACTORS
330
99
102
}
330
99
100
AcDbVisualStyle
  2
JitterOff
 70
    20
177
     3
291
     1
 70
    58
 90
        2
176
     0
 90
        2
176
     0
 90
        0
176
     0
 90
        0
176
     0
 40
0.6
176
     0
 40
30.0
176
     0
 62
     7
420
 16777215
176
     0
 90
        1
176
     0
 90
        4
176
     0
 62
     7
176
     0
 62
   257
176
     0
 90
        1
176
     0
 90
        1
176
     0
 40
1.0
176
     0
 90
       10
176
     2
 62
     7
176
     0
 40
1.0
176
     0
 90
        1
176
     0
 90
        6
176
     0
 90
        2
176
     0
 62
     7
176
     0
 90
        5
176
     0
 90
        0
176
     0
 90
        0
176
     0
290
     0
176
     0
 90
        1
176
     0
 40
0.0
176
     0
 90
        0
176
     0
290
     0
176
     1
290
     1
176
     1
290
     1
176
     1
290
     0
176
     1
290
     0
176
     1
290
     0
176
     1
290
     0
176
     1
290
     0
176
     1
290
     0
176
     1
 90
       50
176
     1
 40
0.0
176
     1
 40
1.0
176
     1
 90
        0
176
     1
 62
    18
420
        0
176
     1
 90
       50
176
     1
 90
        3
176
     1
 62
     5
420
      255
176
     1
290
     0
176
     1
 90
       50
176
     1
 90
       50
176
     1
 90
       50
176
     1
290
     0
176
     1
 90
       50
176
     1
 62
   256
176
     0
 40
1.0
176
     0
 90
        2
176
     1
  1
strokes_ogs.tif
176
     1
290
     0
176
     1
 40
1.0
176
     1
 40
1.0
176
     1
1001
ACAD
1000
AcDbSavedByObjectVersion
1070
     0
  0
VISUALSTYLE
  5
A7
102
{ACAD_REACTORS
330
99
102
}
330
99
100
AcDbVisualStyle
  2
Linepattern
 70
    14
177
     3
291
     1
 70
    58
 90
        2
176
     1
 90
        2
176
     1
 90
        1
176
     1
 90
        0
176
     1
 40
0.6
176
     1
 40
30.0
176
     1
 62
     7
420
 16777215
176
     1
 90
        1
176
     1
 90
        4
176
     1
 62
     7
176
     1
 62
   257
176
     1
 90
        7
176
     1
 90
        7
176
     1
 40
1.0
176
     1
 90
        8
176
     1
 62
     7
176
     1
 40
1.0
176
     1
 90
        1
176
     1
 90
        6
176
     1
 90
        2
176
     1
 62
     7
176
     1
 90
        5
176
     1
 90
        0
176
     1
 90
        0
176
     1
290
     0
176
     1
 90
        1
176
     1
 40
0.0
176
     1
 90
        0
176
     1
290
     0
176
     1
290
     1
176
     1
290
     1
176
     1
290
     0
176
     1
290
     0
176
     1
290
     0
176
     1
290
     0
176
     1
290
     0
176
     1
290
     0
176
     1
 90
       50
176
     1
 40
0.0
176
     1
 40
1.0
176
     1
 90
        0
176
     1
 62
    18
420
        0
176
     1
 90
       50
176
     1
 90
        3
176
     1
 62
     5
420
      255
176
     1
290
     0
176
     1
 90
       50
176
     1
 90
       50
176
     1
 90
       50
176
     1
290
     0
176
     1
 90
       50
176
     1
 62
   256
176
     0
 40
1.0
176
     0
 90
        2
176
     1
  1
strokes_ogs.tif
176
     1
290
     0
176
     1
 40
1.0
176
     1
 40
1.0
176
     1
1001
ACAD
1000
AcDbSavedByObjectVersion
1070
     0
  0
VISUALSTYLE
  5
174
102
{ACAD_REACTORS
330
99
102
}
330
99
100
AcDbVisualStyle
  2
OverhangOff
 70
    21
177
     3
291
     1
 70
    58
 90
        2
176
     0
 90
        2
176
     0
 90
        0
176
     0
 90
        0
176
     0
 40
0.6
176
     0
 40
30.0
176
     0
 62
     7
420
 16777215
176
     0
 90
        1
176
     0
 90
        4
176
     0
 62
     7
176
     0
 62
   257
176
     0
 90
        1
176
     0
 90
        1
176
     0
 40
1.0
176
     0
 90
        9
176
     2
 62
     7
176
     0
 40
1.0
176
     0
 90
        1
176
     0
 90
        6
176
     0
 90
        2
176
     0
 62
     7
176
     0
 90
        5
176
     0
 90
        0
176
     0
 90
        0
176
     0
290
     0
176
     0
 90
        1
176
     0
 40
0.0
176
     0
 90
        0
176
     0
290
     0
176
     1
290
     1
176
     1
290
     1
176
     1
290
     0
176
     1
290
     0
176
     1
290
     0
176
     1
290
     0
176
     1
290
     0
176
     1
290
     0
176
     1
 90
       50
176
     1
 40
0.0
176
     1
 40
1.0
176
     1
 90
        0
176
     1
 62
    18
420
        0
176
     1
 90
       50
176
     1
 90
        3
176
     1
 62
     5
420
      255
176
     1
290
     0
176
     1
 90
       50
176
     1
 90
       50
176
     1
 90
       50
176
     1
290
     0
176
     1
 90
       50
176
     1
 62
   256
176
     0
 40
1.0
176
     0
 90
        2
176
     1
  1
strokes_ogs.tif
176
     1
290
     0
176
     1
 40
1.0
176
     1
 40
1.0
176
     1
1001
ACAD
1000
AcDbSavedByObjectVersion
1070
     0
  0
VISUALSTYLE
  5
A3
102
{ACAD_REACTORS
330
99
102
}
330
99
100
AcDbVisualStyle
  2
Realistic
 70
     8
177
     3
291
     0
 70
    58
 90
        2
176
     1
 90
        3
176
     1
 90
        0
176
     1
 90
        2
176
     1
 40
0.6
176
     1
 40
30.0
176
     1
 62
     7
420
 16777215
176
     1
 90
        0
176
     1
 90
        0
176
     1
 62
     7
176
     1
 62
   257
176
     1
 90
        1
176
     1
 90
        1
176
     1
 40
1.0
176
     1
 90
        8
176
     1
 62
   257
176
     1
 40
1.0
176
     1
 90
        1
176
     1
 90
        6
176
     1
 90
        2
176
     1
 62
     7
176
     1
 90
        3
176
     1
 90
        0
176
     1
 90
        0
176
     1
290
     0
176
     1
 90
       13
176
     1
 40
0.0
176
     1
 90
        0
176
     1
290
     0
176
     1
290
     1
176
     1
290
     1
176
     1
290
     0
176
     1
290
     0
176
     1
290
     0
176
     1
290
     0
176
     1
290
     0
176
     1
290
     0
176
     1
 90
       50
176
     1
 40
0.0
176
     1
 40
1.0
176
     1
 90
        0
176
     1
 62
    18
420
        0
176
     1
 90
       50
176
     1
 90
        3
176
     1
 62
     5
420
      255
176
     1
290
     0
176
     1
 90
       50
176
     1
 90
       50
176
     1
 90
       50
176
     1
290
     0
176
     1
 90
       50
176
     1
 62
   256
176
     0
 40
1.0
176
     0
 90
        2
176
     1
  1
strokes_ogs.tif
176
     1
290
     0
176
     1
 40
1.0
176
     1
 40
1.0
176
     1
1001
ACAD
1000
AcDbSavedByObjectVersion
1070
     0
  0
VISUALSTYLE
  5
182
102
{ACAD_REACTORS
330
99
102
}
330
99
100
AcDbVisualStyle
  2
Shaded
 70
    27
177
     3
291
     0
 70
    58
 90
        2
176
     1
 90
        2
176
     1
 90
        1
176
     1
 90
        2
176
     1
 40
0.6
176
     1
 40
30.0
176
     1
 62
     7
420
 16777215
176
     1
 90
        0
176
     1
 90
        4
176
     1
 62
     7
176
     1
 62
   257
176
     1
 90
        1
176
     1
 90
        1
176
     1
 40
1.0
176
     1
 90
        8
176
     1
 62
   257
176
     1
 40
1.0
176
     1
 90
        1
176
     1
 90
        6
176
     1
 90
        2
176
     1
 62
     8
420
  7895160
176
     1
 90
        3
176
     1
 90
        0
176
     1
 90
        0
176
     1
290
     0
176
     1
 90
        5
176
     1
 40
0.0
176
     1
 90
        0
176
     1
290
     0
176
     1
290
     1
176
     1
290
     1
176
     1
290
     0
176
     1
290
     0
176
     1
290
     0
176
     1
290
     0
176
     1
290
     0
176
     1
290
     0
176
     1
 90
       50
176
     1
 40
0.0
176
     1
 40
1.0
176
     1
 90
        0
176
     1
 62
    18
420
        0
176
     1
 90
       50
176
     1
 90
        3
176
     1
 62
     5
420
      255
176
     1
290
     0
176
     1
 90
       50
176
     1
 90
       50
176
     1
 90
       50
176
     1
290
     0
176
     1
 90
       50
176
     1
 62
   256
176
     0
 40
1.0
176
     0
 90
        2
176
     1
  1
strokes_ogs.tif
176
     1
290
     0
176
     1
 40
1.0
176
     1
 40
1.0
176
     1
1001
ACAD
1000
AcDbSavedByObjectVersion
1070
     0
  0
VISUALSTYLE
  5
181
102
{ACAD_REACTORS
330
99
102
}
330
99
100
AcDbVisualStyle
  2
Shaded with edges
 70
    26
177
     3
291
     0
 70
    58
 90
        2
176
     1
 90
        2
176
     1
 90
        1
176
     1
 90
        2
176
     1
 40
0.6
176
     1
 40
30.0
176
     1
 62
     7
420
 16777215
176
     1
 90
        1
176
     1
 90
        2
176
     1
 62
     7
176
     1
 62
   257
176
     1
 90
        2
176
     1
 90
        1
176
     1
 40
1.0
176
     1
 90
        8
176
     1
 62
   257
176
     1
 40
1.0
176
     1
 90
        1
176
     1
 90
        6
176
     1
 90
        2
176
     1
 62
     7
176
     1
 90
        3
176
     1
 90
        0
176
     1
 90
        0
176
     1
290
     0
176
     1
 90
        5
176
     1
 40
0.0
176
     1
 90
        0
176
     1
290
     0
176
     1
290
     1
176
     1
290
     1
176
     1
290
     0
176
     1
290
     0
176
     1
290
     0
176
     1
290
     0
176
     1
290
     0
176
     1
290
     0
176
     1
 90
       50
176
     1
 40
0.0
176
     1
 40
1.0
176
     1
 90
        0
176
     1
 62
    18
420
        0
176
     1
 90
       50
176
     1
 90
        3
176
     1
 62
     5
420
      255
176
     1
290
     0
176
     1
 90
       50
176
     1
 90
       50
176
     1
 90
       50
176
     1
290
     0
176
     1
 90
       50
176
     1
 62
   256
176
     0
 40
1.0
176
     0
 90
        2
176
     1
  1
strokes_ogs.tif
176
     1
290
     0
176
     1
 40
1.0
176
     1
 40
1.0
176
     1
1001
ACAD
1000
AcDbSavedByObjectVersion
1070
     0
  0
VISUALSTYLE
  5
17E
102
{ACAD_REACTORS
330
99
102
}
330
99
100
AcDbVisualStyle
  2
Shades of Gray
 70
    23
177
     3
291
     0
 70
    58
 90
        2
176
     1
 90
        2
176
     1
 90
        3
176
     1
 90
        0
176
     1
 40
0.6
176
     1
 40
30.0
176
     1
 62
     7
420
 16777215
176
     1
 90
        2
176
     1
 90
        2
176
     1
 62
     7
176
     1
 62
     7
176
     1
 90
        1
176
     1
 90
        1
176
     1
 40
40.0
176
     1
 90
        8
176
     1
 62
     7
176
     1
 40
1.0
176
     1
 90
        1
176
     1
 90
        6
176
     1
 90
        2
176
     1
 62
     7
176
     1
 90
        3
176
     1
 90
        0
176
     1
 90
        0
176
     1
290
     0
176
     1
 90
        1
176
     1
 40
0.0
176
     1
 90
        0
176
     1
290
     0
176
     1
290
     1
176
     1
290
     1
176
     1
290
     0
176
     1
290
     0
176
     1
290
     0
176
     1
290
     0
176
     1
290
     0
176
     1
290
     0
176
     1
 90
       50
176
     1
 40
0.0
176
     1
 40
1.0
176
     1
 90
        0
176
     1
 62
    18
420
        0
176
     1
 90
       50
176
     1
 90
        3
176
     1
 62
     5
420
      255
176
     1
290
     0
176
     1
 90
       50
176
     1
 90
       50
176
     1
 90
       50
176
     1
290
     0
176
     1
 90
       50
176
     1
 62
   256
176
     0
 40
1.0
176
     0
 90
        2
176
     1
  1
strokes_ogs.tif
176
     1
290
     0
176
     1
 40
1.0
176
     1
 40
1.0
176
     1
1001
ACAD
1000
AcDbSavedByObjectVersion
1070
     0
  0
VISUALSTYLE
  5
17F
102
{ACAD_REACTORS
330
99
102
}
330
99
100
AcDbVisualStyle
  2
Sketchy
 70
    24
177
     3
291
     0
 70
    58
 90
        1
176
     1
 90
        2
176
     1
 90
        2
176
     1
 90
        0
176
     1
 40
0.6
176
     1
 40
30.0
176
     1
 62
     7
420
 16777215
176
     1
 90
        2
176
     1
 90
        2
176
     1
 62
     7
176
     1
 62
     7
176
     1
 90
        1
176
     1
 90
        1
176
     1
 40
40.0
176
     1
 90
       11
176
     1
 62
     7
176
     1
 40
1.0
176
     1
 90
        1
176
     1
 90
        6
176
     1
 90
        2
176
     1
 62
     7
176
     1
 90
        6
176
     1
 90
        0
176
     1
 90
        0
176
     1
290
     0
176
     1
 90
        1
176
     1
 40
0.0
176
     1
 90
        0
176
     1
290
     0
176
     1
290
     1
176
     1
290
     1
176
     1
290
     0
176
     1
290
     0
176
     1
290
     0
176
     1
290
     0
176
     1
290
     0
176
     1
290
     0
176
     1
 90
       50
176
     1
 40
0.0
176
     1
 40
1.0
176
     1
 90
        0
176
     1
 62
    18
420
        0
176
     1
 90
       50
176
     1
 90
        3
176
     1
 62
     5
420
      255
176
     1
290
     0
176
     1
 90
       50
176
     1
 90
       50
176
     1
 90
       50
176
     1
290
     0
176
     1
 90
       50
176
     1
 62
   256
176
     0
 40
1.0
176
     0
 90
        2
176
     1
  1
strokes_ogs.tif
176
     1
290
     0
176
     1
 40
1.0
176
     1
 40
1.0
176
     1
1001
ACAD
1000
AcDbSavedByObjectVersion
1070
     0
  0
VISUALSTYLE
  5
A6
102
{ACAD_REACTORS
330
99
102
}
330
99
100
AcDbVisualStyle
  2
Thicken
 70
    13
177
     3
291
     1
 70
    58
 90
        2
176
     1
 90
        2
176
     1
 90
        1
176
     1
 90
        0
176
     1
 40
0.6
176
     1
 40
30.0
176
     1
 62
     7
420
 16777215
176
     1
 90
        1
176
     1
 90
        4
176
     1
 62
     7
176
     1
 62
   257
176
     1
 90
        1
176
     1
 90
        1
176
     1
 40
1.0
176
     1
 90
       12
176
     1
 62
     7
176
     1
 40
1.0
176
     1
 90
        1
176
     1
 90
        6
176
     1
 90
        2
176
     1
 62
     7
176
     1
 90
        5
176
     1
 90
        0
176
     1
 90
        0
176
     1
290
     0
176
     1
 90
        1
176
     1
 40
0.0
176
     1
 90
        0
176
     1
290
     0
176
     1
290
     1
176
     1
290
     1
176
     1
290
     0
176
     1
290
     0
176
     1
290
     0
176
     1
290
     0
176
     1
290
     0
176
     1
290
     0
176
     1
 90
       50
176
     1
 40
0.0
176
     1
 40
1.0
176
     1
 90
        0
176
     1
 62
    18
420
        0
176
     1
 90
       50
176
     1
 90
        3
176
     1
 62
     5
420
      255
176
     1
290
     0
176
     1
 90
       50
176
     1
 90
       50
176
     1
 90
       50
176
     1
290
     0
176
     1
 90
       50
176
     1
 62
   256
176
     0
 40
1.0
176
     0
 90
        2
176
     1
  1
strokes_ogs.tif
176
     1
290
     0
176
     1
 40
1.0
176
     1
 40
1.0
176
     1
1001
ACAD
1000
AcDbSavedByObjectVersion
1070
     0
  0
VISUALSTYLE
  5
A0
102
{ACAD_REACTORS
330
99
102
}
330
99
100
AcDbVisualStyle
  2
Wireframe
 70
     5
177
     3
291
     0
 70
    58
 90
        0
176
     1
 90
        2
176
     1
 90
        0
176
     1
 90
        0
176
     1
 40
0.6
176
     1
 40
30.0
176
     1
 62
     7
420
 16777215
176
     1
 90
        1
176
     1
 90
        4
176
     1
 62
     7
176
     1
 62
   257
176
     1
 90
        1
176
     1
 90
        1
176
     1
 40
1.0
176
     1
 90
        0
176
     1
 62
   257
176
     1
 40
1.0
176
     1
 90
        1
176
     1
 90
        6
176
     1
 90
        2
176
     1
 62
     7
176
     1
 90
        3
176
     1
 90
        0
176
     1
 90
        0
176
     1
290
     0
176
     1
 90
        1
176
     1
 40
0.0
176
     1
 90
        0
176
     1
290
     0
176
     1
290
     1
176
     1
290
     1
176
     1
290
     0
176
     1
290
     0
176
     1
290
     0
176
     1
290
     0
176
     1
290
     0
176
     1
290
     0
176
     1
 90
       50
176
     1
 40
0.0
176
     1
 40
1.0
176
     1
 90
        0
176
     1
 62
    18
420
        0
176
     1
 90
       50
176
     1
 90
        3
176
     1
 62
     5
420
      255
176
     1
290
     0
176
     1
 90
       50
176
     1
 90
       50
176
     1
 90
       50
176
     1
290
     0
176
     1
 90
       50
176
     1
 62
   256
176
     0
 40
1.0
176
     0
 90
        2
176
     1
  1
strokes_ogs.tif
176
     1
290
     0
176
     1
 40
1.0
176
     1
 40
1.0
176
     1
1001
ACAD
1000
AcDbSavedByObjectVersion
1070
     0
  0
VISUALSTYLE
  5
180
102
{ACAD_REACTORS
330
99
102
}
330
99
100
AcDbVisualStyle
  2
X-Ray
 70
    25
177
     3
291
     0
 70
    58
 90
        2
176
     1
 90
        2
176
     1
 90
        1
176
     1
 90
        1
176
     1
 40
0.5
176
     1
 40
30.0
176
     1
 62
     7
420
 16777215
176
     1
 90
        1
176
     1
 90
        0
176
     1
 62
     7
176
     1
 62
   257
176
     1
 90
        1
176
     1
 90
        1
176
     1
 40
1.0
176
     1
 90
        8
176
     1
 62
     7
176
     1
 40
1.0
176
     1
 90
        1
176
     1
 90
        6
176
     1
 90
        2
176
     1
 62
     7
176
     1
 90
        3
176
     1
 90
        0
176
     1
 90
        0
176
     1
290
     0
176
     1
 90
       13
176
     1
 40
0.0
176
     1
 90
        0
176
     1
290
     0
176
     1
290
     1
176
     1
290
     1
176
     1
290
     0
176
     1
290
     0
176
     1
290
     0
176
     1
290
     0
176
     1
290
     0
176
     1
290
     0
176
     1
 90
       50
176
     1
 40
0.0
176
     1
 40
1.0
176
     1
 90
        0
176
     1
 62
    18
420
        0
176
     1
 90
       50
176
     1
 90
        3
176
     1
 62
     5
420
      255
176
     1
290
     0
176
     1
 90
       50
176
     1
 90
       50
176
     1
 90
       50
176
     1
290
     0
176
     1
 90
       50
176
     1
 62
   256
176
     0
 40
1.0
176
     0
 90
        2
176
     1
  1
strokes_ogs.tif
176
     1
290
     0
176
     1
 40
1.0
176
     1
 40
1.0
176
     1
1001
ACAD
1000
AcDbSavedByObjectVersion
1070
     0
  0
DICTIONARYVAR
  5
F0
102
{ACAD_REACTORS
330
66
102
}
330
66
100
DictionaryVariables
280
     0
  1
1:1
  0
DICTIONARYVAR
  5
EF
102
{ACAD_REACTORS
330
66
102
}
330
66
100
DictionaryVariables
280
     0
  1
STANDARD
  0
DICTIONARYVAR
  5
89
102
{ACAD_REACTORS
330
66
102
}
330
66
100
DictionaryVariables
280
     0
  1
STANDARD
  0
DICTIONARYVAR
  5
1B7
102
{ACAD_REACTORS
330
66
102
}
330
66
100
DictionaryVariables
280
     0
  1
Metric50
  0
DICTIONARYVAR
  5
1B8
102
{ACAD_REACTORS
330
66
102
}
330
66
100
DictionaryVariables
280
     0
  1
Metric50
  0
DICTIONARYVAR
  5
67
102
{ACAD_REACTORS
330
66
102
}
330
66
100
DictionaryVariables
280
     0
  1
2
  0
DICTIONARYVAR
  5
6B
102
{ACAD_REACTORS
330
66
102
}
330
66
100
DictionaryVariables
280
     0
  1
1
  0
DICTIONARYVAR
  5
14D
102
{ACAD_REACTORS
330
66
102
}
330
66
100
DictionaryVariables
280
     0
  1
0
  0
DICTIONARYVAR
  5
14E
102
{ACAD_REACTORS
330
66
102
}
330
66
100
DictionaryVariables
280
     0
  1
0
  0
DICTIONARY
  5
B57
102
{ACAD_REACTORS
330
B55
102
}
330
B55
100
AcDbDictionary
281
     1
  0
DICTIONARY
  5
B56
102
{ACAD_REACTORS
330
B55
102
}
330
B55
100
AcDbDictionary
281
     1
  3
1735186984576
350
B50
  3
1735186984592
350
B51
  3
1735186984608
350
B52
  3
1735186984624
350
B53
  3
1735186984640
350
B54
  0
DICTIONARY
  5
3E5
102
{ACAD_REACTORS
330
3DE
102
}
330
3DE
100
AcDbDictionary
281
     1
  0
DICTIONARY
  5
B5A
330
1AC
100
AcDbDictionary
280
     1
281
     1
  3
ACAD_XREC_ROUNDTRIP
360
B5B
  0
DICTIONARY
  5
B5E
330
25F
100
AcDbDictionary
280
     1
281
     1
  3
ACAD_XREC_ROUNDTRIP
360
B5F
  0
DICTIONARY
  5
194
330
22
100
AcDbDictionary
280
     1
281
     1
  0
DICTIONARY
  5
188
330
97
100
AcDbDictionary
280
     1
281
     1
  3
FBXASSET
360
189
  0
DICTIONARY
  5
186
330
96
100
AcDbDictionary
280
     1
281
     1
  3
FBXASSET
360
187
  0
DICTIONARY
  5
110
330
98
100
AcDbDictionary
280
     1
281
     1
  3
BUMPTILE
360
112
  3
DIFFUSETILE
360
111
  3
FBXASSET
360
18A
  3
OPACITYTILE
360
113
  3
REFLECTIONTILE
360
114
  0
XRECORD
  5
B63
102
{ACAD_REACTORS
330
B61
102
}
330
B61
100
AcDbXrecord
280
     1
102
ACAD_MENTALRAY_SETTING_RT
330
B31
 70
     1
  0
XRECORD
  5
B62
102
{ACAD_REACTORS
330
B61
102
}
330
B61
100
AcDbXrecord
280
     1
 70
     2
 71
     3
 72
     0
  0
DICTIONARY
  5
B58
330
1AA
100
AcDbDictionary
280
     1
281
     1
  3
ACAD_XREC_ROUNDTRIP
360
B59
  0
DICTIONARY
  5
B5C
330
25E
100
AcDbDictionary
280
     1
281
     1
  3
ACAD_XREC_ROUNDTRIP
360
B5D
  0
DICTIONARY
  5
104
330
87
100
AcDbDictionary
280
     1
281
     1
  3
ACAD_ROUNDTRIP_2008_TABLESTYLE_CELLSTYLEMAP
360
B4E
  0
XRECORD
  5
B50
102
{ACAD_REACTORS
330
B56
102
}
330
B56
100
AcDbXrecord
280
     1
  1
AcDb_Thumbnail_Schema
102
{ATTRRECORD
341
B51
  2
AcDbDs::TreatedAsObjectData
280
     1
291
     1
102
ATTRRECORD}
102
{ATTRRECORD
341
B52
  2
AcDbDs::Legacy
280
     1
291
     1
102
ATTRRECORD}
  2
AcDbDs::ID
280
    10
 91
        8
102
{ATTRRECORD
341
B53
  2
AcDs:Indexable
280
     1
291
     1
102
ATTRRECORD}
102
{ATTRRECORD
341
B54
  2
AcDbDs::HandleAttribute
280
     7
282
     1
102
ATTRRECORD}
  2
Thumbnail_Data
280
    15
 91
        0
  0
XRECORD
  5
B51
102
{ACAD_REACTORS
330
B56
102
}
330
B56
100
AcDbXrecord
280
     1
  1
AcDbDs::TreatedAsObjectDataSchema
  2
AcDbDs::TreatedAsObjectData
280
     1
 91
        0
  0
XRECORD
  5
B52
102
{ACAD_REACTORS
330
B56
102
}
330
B56
100
AcDbXrecord
280
     1
  1
AcDbDs::LegacySchema
  2
AcDbDs::Legacy
280
     1
 91
        0
  0
XRECORD
  5
B53
102
{ACAD_REACTORS
330
B56
102
}
330
B56
100
AcDbXrecord
280
     1
  1
AcDbDs::IndexedPropertySchema
  2
AcDs:Indexable
280
     1
 91
        0
  0
XRECORD
  5
B54
102
{ACAD_REACTORS
330
B56
102
}
330
B56
100
AcDbXrecord
280
     1
  1
AcDbDs::HandleAttributeSchema
  2
AcDbDs::HandleAttribute
280
     7
 91
        1
284
     1
  0
XRECORD
  5
B5B
102
{ACAD_REACTORS
330
B5A
102
}
330
B5A
100
AcDbXrecord
280
     1
102
DISPLAYNAME
  1
Imperial24
102
FLAGS
 90
        0
  0
XRECORD
  5
B5F
102
{ACAD_REACTORS
330
B5E
102
}
330
B5E
100
AcDbXrecord
280
     1
102
DISPLAYNAME
  1
Metric50
102
FLAGS
 90
        0
  0
XRECORD
  5
189
102
{ACAD_REACTORS
330
188
102
}
330
188
100
AcDbXrecord
280
     1
 70
     1
 90
429727718
  1
508B35C9-AEE7-456F-BE74-D52651303AC6
310
504B03040A0000080000B670623B3DEE336E79000000790000001B0000006175746F6465736B2D64657369676E2D7061636B6167652E786D6C3C3F786D6C2076657273696F6E3D22312E302220656E636F64696E673D227574662D3822203F3E3C666F726D6174733E3C666F726D61743E687474703A2F2F736368656D612E
310
6175746F6465736B2E636F6D2F64657369676E2D7061636B6167652F323030393C2F666F726D61743E3C2F666F726D6174733E504B0304140006080800B670623BD486FD9CA0000000F4000000130000005B436F6E74656E745F54797065735D2E786D6C7D8EC10E82300C865F65E91D8A1E8C310C0EEA1BF002731658846E
310
D98AC1B77784ABF1D8FE5FBFBF75BBCE937A534CCEB38643598122B6FEE978D0B0485F9C41B54DDD7D022595594E1A469170414C76A4D9A4D207E29CF43ECE46F218070CC6BECC4078ACAA135ACF422C856C0E68EA1BF5669944DDD7BCDE7B1F8E415D77AECB980613C2E4AC91FC167A2B244592486606FC29C8FD7F045B9A
310
EF7053A7E60B504B0304140006080800B670623B28ED286BEB0000007C01000008000000636F72652E786D6C8D90416EC3201045AF82665B6183218D6D61A254764FD00B204C5C94182C03558F5F9C3852BBEB6A467FFE9B197D71FA9E6FE8CBACC17AD7012D0820E3B41FAD9B3A48F1826B40272956EFE32F1B20A766D3C1
310
268314D3EAD3B24BDABB685CCCAAF3A3D94515828980F42D371D04FD696655A814B3235C8B45E9AB9A4C419F5D8653B2237A1CB163DE672FD6AC209BF3C08E0D1B30EB19C3FC9D72FCC6EB231EFA33EDE96BDD341517E5064B11EDFCBCAF57A3A2194156843498524CAA0FCA5B7268F9E185D42D21A2DCEC7FA0B48CFF8492
310
759155FBBB0F2C80A4F991FB408A72CB22977B50B96EB9C91F504B0304140006080800B670623B55019EA25F0000007C00000007000000636E782E786D6C4DCB3B0E80201045D1AD90E915ED2CF8AC45050C11660C8261F98AB1B07AC9C97D42D718D865D3E909258CFD00CCE24AC6E326A164D74DC0B4128928FF32603847
310
2BA13128B1252AC747C6BAB984FC68F0B87FE8960A5C09FE86CFB69FBA01504B0304140006080800B670623B7BC41AC871010000D40300000C0000006662782F636F72652E786D6CC553ED6E8320147D15C2DF4501B56B6D90A64BBB27D80B50A5CE54C120983EFEAE1F4DD7A56BBA5FF3879273EEE59E7310BE393735EA95
310
ED2AA333CC428A91D2B9292A5D66D8BB63B0C26823B835C67D2BC348CB46657880B1E0A535BE9DA1DC68A7B403549B42CDA0EC3AE530CA6B5864B8CB3F552343E91D5474A7B095F949962A6421D0502778E72C0840D390E18DC5F170E664C205F7BE2A66B62A605A75AC94C522DDEEE3651AEF837817C741F2CE92E02D592D
310
83FD6ECB76EC7595A651C2C9D02CB8AB9A8BBADC2AE954814544691A3016D0E883256BBA58278B17BA5A53CAC9507ED3E4DBE2C9265F691747B3DCA9ADC382819091F8E1162272A8933DE82182932144F88C09DF060D8140C84E1EEA8B8F1340BDCA9DB1093085F157AA97B557309586747CD0EF0B4EA64E983A6E0EAEEFCE
310
889E9EF17847386AA94B30211D2C0FDE0D3AF9A4610EAD5536E8DD1969631B593F67E381C33F5157F17725E5A636F6BF1491F980C8FC7B90E13E8A2F504B0304140006080800B670623B70102A487D0000009D0000000B0000006662782F636E782E786D6C4DCCD10A83201886E15B91FFDC95A5C30335ACCDFB886521330D
310
A76397BF1A1DECE883878F57749FD5A3B74D2F17830472A901D9F088930B8B849267CC01754AA418F3DF0D5018572BE160506249B16C274D761E8BCFBB7A179E27F65CB39A0F14D396184C9921B81F34C3ACA1B4B99ABB6E6F062A25AA5F69DF23ACBE504B0304140006080800B670623B3610CA3329010000120200003100
310
00006662782F42384135303843342D343331462D343546312D424341352D3532343432364645413344462F636F72652E786D6C8D515B6EC32010BC0AE22B55850D0E446E848992B43E412FE000495162B07854397EA176A4F62F3F2C9A9D991D58BEBB8F37F0AD7D30CE76905418026DA553C65E3A98E219B510EC04F7CEC5
310
3F3408EC30EA0E16180A7EF12E4D0B249D8DDAC68C5AA7F4020E21E80881BCE54B0783FCD2E3500D296646B856D320AFC34557A4CAEDCC133C449F0380794839A138B47B86DB2345744D7A44594FD0E1B867883594369BFE63BF7EEF793D0B054FC9A8456E548E63CE46FB674D8A58F068C6477CE9F510B582A2C1F80D1182
310
70F349E816B32D65AFB8DD62CCEB42FF274A937A52948C8DEB66893BCB021484D7734370E5D2E9F608A3EF93F3119479ABA0E50B14B8C298119A43CCC4FCFCECB8A18B6388CEE7EF5D5D4F994BD86CBBA182D76543B9FCAE2FD7B24DF103504B0304140006080800B670623B1B8617914E0100003303000030000000666278
310
2F42384135303843342D343331462D343546312D424341352D3532343432364645413344462F636E782E786D6CD593C16EC32010447F0571AD6CE3D489D20813A9877E410FBD62D82434182CC055F3F75D1292E692438FBD206B7698593D61BEFD1E2DF982108D773D6D6B460938E5B571FB9ECE6957AD29D90A1EBC4F7736
310
4A9C1CA1A759A682EF839FA72269D8C9D92654AD71C72206887E0E0A22CAF926B15E498B01E0AA19451807D01A34B919F16B070157417138917400F2F6FA41FCF0092A45DEE414C19BDC21783E4BD39D891265658C3D8DEA00A3ACE59CBC8678ACB54CB26EEB6BD7839D7E9348BE70AD9C8321B9BCA7F9A4A26C542347DEE0
310
50F09802D22BA6749A800A394DD62899107273365E3C82CFC6A55557BC06C10774B7ABE7AEC3B0F34CF06446280E154026D0542C187BA9DAB6628BF7B6DBB0E5A65B3EB1F58631DE64BBE083F7B65CC218087E22CABB042E51D1F2268F1FE12B3EA24D40D63E9CFE00120194D60B9D5BC67FE6D39CDF37E20AF817881F504B
310
0304140006080800B670623BBFEF2E3B690500003C100000340000006662782F42384135303843342D343331462D343546312D424341352D3532343432364645413344462F6F626A656374732E786D6CAD575D739B3814FD2B0CFB0C98D84E931D4227B6938EA793B6534F3BFB90198F0099B001899144EAECAFDF231018B0
310
D37A3FFC609090EEE7B94757C1FB7D915B2F54C88CB31BDB7727B64559CC938CA53776A576CE956DBD0F03C1B9EA2DB32D460A7A63EB693B0C52C1ABD24C257447AA5C8D66EF177F5832A68CDA569C13296F6C193FD182B8A4523CA1F2D94D88226EBADBBBBEDB2C1C8A4D05299F46424B222853B014F30C52ACC6287F389C
310
D85E1878FA7B18E87FB36AFAF62AAFF667A83F635211161F291B8999FAB3D5DDC5FCDA99CF6653677679E13B8BFBC5CAF1DF4D27CBCBE5F2FAF6EE1A8AA51290642C117467871F101B91C581D77CEA2C36869F3229E68CD1B8F61F1ED6361B89092D294B90C78C4A68EB793D190E7D1D9BDEE7A91E1B95FDE9F3BCEAEFE809
310
6A6D6F9F7D4B79F4275C90E7A04248AA51D5C4C738DAE06F72885AC4796EBE65D22A88A22223B995679120E2D50EB1542F098381188D4EA111AE3DB043FF20AF6F2B4AE3D7D83D65E5AECA730D4D3BAC91BD05FEA992B565D95F549CD6069B90AB2A63EACA38A45E4B6A87D781574F86817E4C2FCCC72690D62E2729520E37
310
9BAF234797BAF6D62B3BFC781FED37BA1E4F2B2F052FA9501A3E80569BB8F6A9A364D4FA67654E6F803383981F82F21591FF84F23D9882BC896C3FDBCF8C162508933B2E0AE4C69DD43F6BD2BE38DDDBF10BF86CB4FA784D37F3AF16075E67EC9030DECA1FC0A55373F5DFF3378C591FA9BDF485C10B0A8C8BA909E5262639
310
A8E72163488806A595734C81CB77D1DE0ED7604A303B76913CEC0272F412782FF88EFF4636D8AA56DF7B322474C4B767303F625997056C7B032C473C592B36CEBD15F3F9FF5233B7ABCDC74D257624A60F8658567497B14CE1EC3C80B76FD02011038F9EE9EB0F2E12387A9C844D3F09855125116D1D731DF8B43D2CF4E0A0
310
79A020C6BE946BCE0B7EA1E1219331CD73C228AF5A2DDD31A4B1DA918CE91350854D40A71723140BFA92E94E62B0626016CEFA5864A50E5977E8753CEDBEE1CBB7F52780D20E17AF0BA0F5F9B02A3AD07DCC732EB6D1EBB661421BE0C39E21BABF0FE16D22EA6929407C8DE596724C88B749B6DB5512BC7B228ADFD7CB7EA6
310
3A22397E690BA8D5D8D4E40CEC8CDA23C2C0B7D5898640101CEC9C6D331CE328CB93CAFBBAC70A642DF70DF95155945B52F08AA973C23469FD69ADEF84F7BB18F983A8F8C90E37F5D35980B2139A1C523540813E824EF83448CF7C72B598CE97D7CEEDDDDD3B6736BFBC771677EF66CE6A7E7139F7A793E9EDF2B2B3A8B624
310
0CDA13AA5F8388264EC4A0129909F3B7F5A16CEDF08128E97D680ACA4B9BE7B7B58BB638F0B00700EF36AE8B32A705658A68F83EE897FC2B41573190D1CCAF0B92D233A47CFEB019D9809933F67DD1A5467F8CF69AD9A5AE859342D45355448C64F968A371DC2D596ADC6E43D93D1B466F877A64E2893E54F23C4B40388995
310
525E5005DA3983ED45412510D3EFCA13737B3863F74BD30F2A12E5B4B5E489A025CE25500DB855B11ACE5BBFA185D35DD48D8DC3CE7DC69F2944DB42AA6F6CF09BCA622ADD08C7A36E7C6AE18000BAB08E040135C2D21C9D75B3A91B77BB746C403F38018DFE6EC939DD92F16B40BC05294B9CDA035AAD6D330AE27FE4786B
310
8E45145EA34A75BE1C263A676A35A8ACC6297337400BF16C54EF515F3F77CB77EB3583889C754FFA29081AA98E2222ADEF05DA3E63D2EDEA8B8756C05A7FB6CABC4A91CBF325398202CC952E70A008A830324BA200D5E5EF8F5F04C75DB4B0EE3340E071C98B823333B83577596BF3849B69F2085AA0FAFA212F26BEFF5877
310
FDE622B28D88A42E49E43326DA82D31E8CB006401E1DA726059ECEC168F97A6599036306A135688F9AD2E61A6EA178F4CD51974A9F2CCB9F36FE5EBD14601068D9C3BF01504B0304140006080000B670623B000000000000000000000000350000006662782F42384135303843342D343331462D343546312D424341352D35
310
32343432364645413344462F76657274696365732E62696E504B0304140006080800B670623BF270F1330600000004000000360000006662782F42384135303843342D343331462D343546312D424341352D3532343432364645413344462F747269616E676C65732E62696E636660600000504B0304140006080000B67062
310
3B000000000000000000000000370000006662782F42384135303843342D343331462D343546312D424341352D3532343432364645413344462F617474726962757465732E62696E504B0304140006080800B670623B08DA0BD19000000041010000360000006662782F42384135303843342D343331462D343546312D4243
310
41352D3532343432364645413344462F6469726563746F72792E786D6C858F410AC3201045AF22B36F53E9A60B35CBEEBAE80D244E44489C6234F4F835464A48035D0DF398FF9F8AF63D0E6CC63039F212F8F9020C7D47C6792B21C5FE7403D62A1188E2E60C98D7234A5830286103A55745067B9D86B8A3CF9C7F90C11DE6
310
07FB144396D7B6A82D282E9A152AD114D5EF2CB866EEE831B8EEA07A7BB5A8D7D61A2BAAEB7FD5F70921FF497D00504B0304140006080800B670623B3B4606F3FE000000A00100003B0000006662782F42384135303843342D343331462D343546312D424341352D3532343432364645413344462F7265736F75726365732F
310
636F72652E786D6C8D504B6E833010BD0A9A6D65B08134808CA354A427E8052C332156828DFCA97AFC9A40A576D7CDCCE87D344F8F9FBEE647F689CE6B6B7A6039850C8DB2A336530F315C4903D94970676DF82583CCC8197B5861107C72362E3BA4AC096842428D1D7107A5F71820538F74F4E0D50D6799CB1892C2DFF345
310
AABB9C306779A2934E701F5C0A906D4FD609C2A1B7D129F4BCD858C163D4E3AED163FAA9AF1A1D88F67CA98E6D35906AA82A52BFB39ABCD5CD915C86331BD86BD3B665CD8BD52C78D0F34F46E550061C419494B6843142CB0F5677F4D0D58717DA7494F26295FF31C565FCA7296A13AA728FBBD93C0896823C09C18BB5AFB4
310
9E65A6BD762BBE01504B010214000A0000080000B670623B3DEE336E79000000790000001B00000000000000000000000000000000006175746F6465736B2D64657369676E2D7061636B6167652E786D6C504B01021400140006080800B670623BD486FD9CA0000000F40000001300000000000000000000000000B2000000
310
5B436F6E74656E745F54797065735D2E786D6C504B01021400140006080800B670623B28ED286BEB0000007C010000080000000000000000000000000083010000636F72652E786D6C504B01021400140006080800B670623B55019EA25F0000007C000000070000000000000000000000000094020000636E782E786D6C50
310
4B01021400140006080800B670623B7BC41AC871010000D40300000C00000000000000000000000000180300006662782F636F72652E786D6C504B01021400140006080800B670623B70102A487D0000009D0000000B00000000000000000000000000B30400006662782F636E782E786D6C504B01021400140006080800B6
310
70623B3610CA3329010000120200003100000000000000000000000000590500006662782F42384135303843342D343331462D343546312D424341352D3532343432364645413344462F636F72652E786D6C504B01021400140006080800B670623B1B8617914E010000330300003000000000000000000000000000D10600
310
006662782F42384135303843342D343331462D343546312D424341352D3532343432364645413344462F636E782E786D6C504B01021400140006080800B670623BBFEF2E3B690500003C10000034000000000000000000000000006D0800006662782F42384135303843342D343331462D343546312D424341352D35323434
310
32364645413344462F6F626A656374732E786D6C504B01021400140006080000B670623B0000000000000000000000003500000000000000000000000000280E00006662782F42384135303843342D343331462D343546312D424341352D3532343432364645413344462F76657274696365732E62696E504B010214001400
310
06080800B670623BF270F133060000000400000036000000000000000000000000007B0E00006662782F42384135303843342D343331462D343546312D424341352D3532343432364645413344462F747269616E676C65732E62696E504B01021400140006080000B670623B00000000000000000000000037000000000000
310
00000000000000D50E00006662782F42384135303843342D343331462D343546312D424341352D3532343432364645413344462F617474726962757465732E62696E504B01021400140006080800B670623B08DA0BD1900000004101000036000000000000000000000000002A0F00006662782F42384135303843342D3433
310
31462D343546312D424341352D3532343432364645413344462F6469726563746F72792E786D6C504B01021400140006080800B670623B3B4606F3FE000000A00100003B000000000000000000000000000E1000006662782F42384135303843342D343331462D343546312D424341352D3532343432364645413344462F72
310
65736F75726365732F636F72652E786D6C504B0506000000000E000E0080040000651100000000
  0
XRECORD
  5
187
102
{ACAD_REACTORS
330
186
102
}
330
186
100
AcDbXrecord
280
     1
 70
     1
 90
429727718
  1
887D55A9-D0DD-414E-B741-A7DCD4DA2B4C
310
504B03040A0000080000B670623B3DEE336E79000000790000001B0000006175746F6465736B2D64657369676E2D7061636B6167652E786D6C3C3F786D6C2076657273696F6E3D22312E302220656E636F64696E673D227574662D3822203F3E3C666F726D6174733E3C666F726D61743E687474703A2F2F736368656D612E
310
6175746F6465736B2E636F6D2F64657369676E2D7061636B6167652F323030393C2F666F726D61743E3C2F666F726D6174733E504B0304140006080800B670623BD486FD9CA0000000F4000000130000005B436F6E74656E745F54797065735D2E786D6C7D8EC10E82300C865F65E91D8A1E8C310C0EEA1BF002731658846E
310
D98AC1B77784ABF1D8FE5FBFBF75BBCE937A534CCEB38643598122B6FEE978D0B0485F9C41B54DDD7D022595594E1A469170414C76A4D9A4D207E29CF43ECE46F218070CC6BECC4078ACAA135ACF422C856C0E68EA1BF5669944DDD7BCDE7B1F8E415D77AECB980613C2E4AC91FC167A2B244592486606FC29C8FD7F045B9A
310
EF7053A7E60B504B0304140006080800B670623BBC1638F5EC0000007C01000008000000636F72652E786D6C8D90416EC3201045AF82665B61836BE2D8C24471DB9CA01740401C94182C03558F5F9C3852BBEB6A467FFE9B197D7EF89E6EE8CB2CC17AD7032D0820E394D7D68D3DA478C67B4007C117EFE32F1B202727D3C3
310
2A83E0E3E2D3BC49CABB685CCCAAF3DA6CA20CC14440EA969B1E82BA98491632C5EC08D76296EA2A4753D06797E194AC468F2356E77DF66CCD02825543D50CACC62D39ED70FDC68EB8FD68F6F8787A6784342D1DDA1D2F5758F068A7E77DB518198D065111D2624A31A93E69DD11D6D5EC85EC3B4278B9DAFF4069D6FF8492
310
75F1B5DADE7D600104CD8FDC0782976B16B9DC83CA75CD4DFC00504B0304140006080800B670623B55019EA25F0000007C00000007000000636E782E786D6C4DCB3B0E80201045D1AD90E915ED2CF8AC45050C11660C8261F98AB1B07AC9C97D42D718D865D3E909258CFD00CCE24AC6E326A164D74DC0B4128928FF326038
310
472BA13128B1252AC747C6BAB984FC68F0B87FE8960A5C09FE86CFB69FBA01504B0304140006080800B670623B3586FFB671010000D40300000C0000006662782F636F72652E786D6CC553ED6E8320147D15C2DF4541A76D6D90A6DDD627D80B50A4CE54C120983EFEAE1F4DD7A55BBA5FF3879273EEE59E7310B6393735EA
310
95ED2AA3731C851423A5A5292A5DE6D8BB63B0C268C39935C67D29C3488B46E578803167A535BE9D2169B453DA01AA4DA16650749D7218C91A1639EEE4876A4428BC838AEE14B6429E44A9C228041AEA38EB9C0501681A32BC313F1ECE8C4C3867DE57C5CC56054CAB8E95B298A7F12E5EEED224C8E87E11242FE936C8DE96
310
AB60BB7F4D295D66D12E5B30323473E6AAE6A24E5A259C2A308F29CD82280A68FC1E256B9AAE93F489AED694323294DF34F9B678B0C957DA3DC7B3DCA9ADC33C022123F1CD2D44E450277AD04338234388F01913BE0D1A0281909D38D4171F27807A259DB1093085F157AA17B557309586747CD0CF0B46A64E983A6E0EAEEF
310
CE881F9EF1FB8E70D44297604238581EBC1B74B249C31C5AAB6CD0BB33D2C636A27ECCC62F0EFF445DC5DF95244D6DEC7F2922F30191F9F720C37DE49F504B0304140006080800B670623B4220A0FF7D0000009D0000000B0000006662782F636E782E786D6C4DCCD10A83201886E15B91FFDCE542CB0335D0EC3E6259C84A
310
C3E9D8E5AF46073BFAE0E1E315DD675BD1DBA5978F41C2FD4600B9F088930F8B849267CC01754AA418F3DF0D50183727E164506249B1EC174D6E1ECB9A0F5D7D785E68DB8151CD286E5A5363CA6B8A39E90D36D40E96B086F55A43A544F52B1D7B86D517504B0304140006080800B670623B2FA3FEDE290100001202000031
310
0000006662782F45374635344235342D363743322D343832342D383044432D4334454645303536354442422F636F72652E786D6C8D515B6EC32010BC0AE22B55850D2E386E848994D7097A0117488A1283C5A3CAF10BB523B57FF961D1ECCCECC0F2ED7DBC816FED8371B687A4C210682B9D32F6D2C314CFA883602BB8772E
310
FEA141608751F7B0C050F08B77695A20E96CD43666D43AA5177008414708E42D5F7A18E4971E876A483133C2B59A06791D2EBA22556E679EE021FA1C00CC43CA09C5717D6274C7286AD7FB06D1AEA1A8C3873DDAD3E3E98859CB0EBB1DAF67A1E02919B5C88DCA71CCD968FFAC49110B1ECDF8882FBD1EA256503418BF2342
310
106E3E08DD60B6A1EC15771B8C795DE8FF4469524F8A92B1F1AD59E2CEB20005E1F5DC105CB9F4797B84D1F7C9F908CABC55D0F2050A5C61CC1AD2F27A26E6E767C7962E8E213A9FBF7775FDCC5CC266DB960A5E970DE5F2BBBE5CCB36C50F504B0304140006080800B670623B1B8617914E01000033030000300000006662
310
782F45374635344235342D363743322D343832342D383044432D4334454645303536354442422F636E782E786D6CD593C16EC32010447F0571AD6CE3D489D20813A9877E410FBD62D82434182CC055F3F75D1292E692438FBD206B7698593D61BEFD1E2DF982108D773D6D6B460938E5B571FB9ECE6957AD29D90A1EBC4F77
310
364A9C1CA1A759A682EF839FA72269D8C9D92654AD71C72206887E0E0A22CAF926B15E498B01E0AA19451807D01A34B919F16B070157417138917400F2F6FA41FCF0092A45DEE414C19BDC21783E4BD39D891265658C3D8DEA00A3ACE59CBC8678ACB54CB26EEB6BD7839D7E9348BE70AD9C8321B9BCA7F9A4A26C542347DE
310
E050F09802D22BA6749A800A394DD62899107273365E3C82CFC6A55557BC06C10774B7ABE7AEC3B0F34CF06446280E154026D0542C187BA9DAB6628BF7B6DBB0E5A65B3EB1F58631DE64BBE083F7B65CC218087E22CABB042E51D1F2268F1FE12B3EA24D40D63E9CFE00120194D60B9D5BC67FE6D39CDF37E20AF817881F50
310
4B0304140006080800B670623B29652116630500003C100000340000006662782F45374635344235342D363743322D343832342D383044432D4334454645303536354442422F6F626A656374732E786D6CAD575D739B3814FD2B0CFB0C989834C90EA1639B24E3E9A6EDD4D3CE3E64C623834CD8006224913AFDF57B040203
310
B65BEF871F0C12D2FD3CF7E8CA7FBFCB33E3957291B2E2D674ED8969D02262715A24B76625B7D6B569BC0F7CCE98EC2D338D82E4F4D654D366E0279C55A59E8AE99654991CCDDECFFF3444440B6A1A514684B83545F44C7362934AB2988A173B2692D8C97667BB76B3702836E1A47C1E092D09A78584A5982F20C5688C7287
310
C389E904BEA3BE07BEFAD7ABA6A75739B53F43FD69212429A20365233153D70BEF2E2E6FAC4BCF9B5ADEBB0BD79ADFCF43CBBD9A4E16EF168B9BD9DD0D140BC921495BC2E9D60C1E101B9E46BED37CEA2CD6861F3329624541A3DA7F7858DBAC25C6B4A4458C3CA654405BCFEBC970E8AAD8F43E4FD558ABEC4F9FE7557F47
310
4F506B7BFBEC5BCA367FC105710E2AB8A00A554D7CB4A30DFE26FBA86D18CBF4B75418399194A72433B274C3097F33032C554B027F2046A1932B842B0FCCC0DDCBEBDB8AD2F835768F59B9ADB24C41D30C6A64AF817F2A456D59FA83F2E3DA60137255A585BCD60EC9B7929AC18DEFD49381AF1ED30BFDB109A4B1CD488294
310
C3CDE6EBC8D185AABD6568061FEE37BB95AAC7E3CA4BCE4ACAA5820FA0D526AE7DAA2869B5EE5999531BE0CC20E6FBA07C41E43FA27CF7A6206F3CDD793B4F6B919C1462CB788EDCD893FA674CDA17AB7B3B7C019F8D561FAEE966FED562DFE98C1D12C6A9FC015C2A35D7FF3D7FC398F591DA4B5FE0BFA2C0189FEA50AE22
310
92817A1ED3020951A03432862970F976B33383259812CC8E5D240BBA801CBCF8CE2BBEE3BF910DB6AAD5F79E05123AE2DB33981FB1ACCB02B69D00CB014FD68AB573A7627EF9BFD4CC2C5C7D58557C4B22FAA88925A4DBB44825CECE3D78FB060D1231F0E885BE7D673C86A3874958F593906B5502D1563157814FDAC3420D
310
F69A070A22EC4B98E23CFF171A1E5311D12C23056555ABA53B8614563B92D17D02AAB009E8F46284624E5F53D5490C560CCCC2591FF1B45421EB0EBD8EA7ED13BE7C5D7E0428CD60FEF60779EB13E6664FF711CB185F6FDED60D139A001FF60CD1FD6D086F1D51474901E26B2CB794A343BC8ED3EDB612E0DD2351FCB65CF4
310
33D511C9E14B5B40ADC6A6263DB0336A8F700DDF56271A024E70B0B3629DE21847591E55DED73D56206AB927E46FAABC5C939C55853C274C93D69FD6FA4E78BF8B11DF898C9ECD60553FAD39283BA6F18984AA23E8884F83F45C5F5F859797B31B2B9C84A1E5B9DE9D35BFF25C6B76152E422F9C5DCC3D847F5801ED09D5AF
310
41441327A25FF15487F9EB725FB666F048A4701E9A827292E6F97569A32DF61DEC01C0BB8DCBBCCC684E0B49147C1FD54BF685A0AB18C868E6973949E819523E3DAC463660E68C7D9F55A9D1EFA3BD7A76A16AE1A810F95CE59B82A4D968A376DC2E8B44BBDD86B27B368CDE0ED548C7137DA860591A83706223A12CA712B4
310
7306DBF39C0A20A6DF95C7FAF670C6EED7A61F946493D1D6926782963813403548A78AE470DEF80D2D9CEAA26E4D1C76F60BFE74219A06527D6B82DF641A51616F703CAAC6A7160E08A00BEB4810A0274592A1B36E3675E36E978A0DE80727A0D6DF2D39A75BD27E0D8837276589537B40ABB56D5A41F48F1C6FCD3188C4EB
310
A6929D2FFB89CE995A4D00AE813BDD032DC48B56BD437DFDDC2DD7AED70C2272D63DE9A72068A45A92F0A4BE17A8A06B9366E16707AD80B1FC649459952097E74BB23805982B55E0401150A165964402AA8BDF9F3E7386BB686EDCA780C0D382E5392BF460A6EFB2C6EA1937D3F809B440D5F5435C4C5CF7A9EEFAF54564BD
310
2182DA24162F98680B4E7930C21A0079709CEAEB99A372305ABE0C0D7D6078105A83F6A0296DAEE1068A47DD1C55A9F4C9B2FC69E3EFD44B81028E963DF81B504B0304140006080000B670623B000000000000000000000000350000006662782F45374635344235342D363743322D343832342D383044432D433445464530
310
3536354442422F76657274696365732E62696E504B0304140006080800B670623BF270F1330600000004000000360000006662782F45374635344235342D363743322D343832342D383044432D4334454645303536354442422F747269616E676C65732E62696E636660600000504B0304140006080000B670623B00000000
310
0000000000000000370000006662782F45374635344235342D363743322D343832342D383044432D4334454645303536354442422F617474726962757465732E62696E504B0304140006080800B670623B08DA0BD19000000041010000360000006662782F45374635344235342D363743322D343832342D383044432D4334
310
454645303536354442422F6469726563746F72792E786D6C858F410AC3201045AF22B36F53E9A60B35CBEEBAE80D244E44489C6234F4F835464A48035D0DF398FF9F8AF63D0E6CC63039F212F8F9020C7D47C6792B21C5FE7403D62A1188E2E60C98D7234A5830286103A55745067B9D86B8A3CF9C7F90C11DE607FB144396
310
D7B6A82D282E9A152AD114D5EF2CB866EEE831B8EEA07A7BB5A8D7D61A2BAAEB7FD5F70921FF497D00504B0304140006080800B670623B6378F24DFF000000A00100003B0000006662782F45374635344235342D363743322D343832342D383044432D4334454645303536354442422F7265736F75726365732F636F72652E
310
786D6C8D504B6E833010BD0A9A6D65B0094E42641C85B639412F6099496225D8C89FAAC7AF09546A77DDCC8CDE47F3F4C4F16B7C149FE88371B603565228D06A37187BED20C50BD9437194C23B177FC9A0B06AC40E6618A4B87A97A615D2CE46B431A3D60DB8822A048C50E8473E3A08FA86A32A558A5911EEE5A4F45D5DB1
310
6465A6B34E8A107D0E502C4FE609D26370C96B0CA25A58295232C3AA3143FE692E063D485EF7F5AEE71BD2D2F39634AFFC44DAF7DD9E9CCE6F9CD25DCBFA762BAAD92C4534E34F46ED51451C40D694B6843142EB0FD61C283F34FC85EE0F948A6A96FF31A569F8A729191B37F51A77B105902C0779125254735F793DCBCC7B
310
EE567E03504B010214000A0000080000B670623B3DEE336E79000000790000001B00000000000000000000000000000000006175746F6465736B2D64657369676E2D7061636B6167652E786D6C504B01021400140006080800B670623BD486FD9CA0000000F40000001300000000000000000000000000B20000005B436F6E
310
74656E745F54797065735D2E786D6C504B01021400140006080800B670623BBC1638F5EC0000007C010000080000000000000000000000000083010000636F72652E786D6C504B01021400140006080800B670623B55019EA25F0000007C000000070000000000000000000000000095020000636E782E786D6C504B010214
310
00140006080800B670623B3586FFB671010000D40300000C00000000000000000000000000190300006662782F636F72652E786D6C504B01021400140006080800B670623B4220A0FF7D0000009D0000000B00000000000000000000000000B40400006662782F636E782E786D6C504B01021400140006080800B670623B2F
310
A3FEDE290100001202000031000000000000000000000000005A0500006662782F45374635344235342D363743322D343832342D383044432D4334454645303536354442422F636F72652E786D6C504B01021400140006080800B670623B1B8617914E010000330300003000000000000000000000000000D2060000666278
310
2F45374635344235342D363743322D343832342D383044432D4334454645303536354442422F636E782E786D6C504B01021400140006080800B670623B29652116630500003C10000034000000000000000000000000006E0800006662782F45374635344235342D363743322D343832342D383044432D4334454645303536
310
354442422F6F626A656374732E786D6C504B01021400140006080000B670623B0000000000000000000000003500000000000000000000000000230E00006662782F45374635344235342D363743322D343832342D383044432D4334454645303536354442422F76657274696365732E62696E504B01021400140006080800
310
B670623BF270F13306000000040000003600000000000000000000000000760E00006662782F45374635344235342D363743322D343832342D383044432D4334454645303536354442422F747269616E676C65732E62696E504B01021400140006080000B670623B0000000000000000000000003700000000000000000000
310
000000D00E00006662782F45374635344235342D363743322D343832342D383044432D4334454645303536354442422F617474726962757465732E62696E504B01021400140006080800B670623B08DA0BD190000000410100003600000000000000000000000000250F00006662782F45374635344235342D363743322D34
310
3832342D383044432D4334454645303536354442422F6469726563746F72792E786D6C504B01021400140006080800B670623B6378F24DFF000000A00100003B00000000000000000000000000091000006662782F45374635344235342D363743322D343832342D383044432D4334454645303536354442422F7265736F75
310
726365732F636F72652E786D6C504B0506000000000E000E0080040000611100000000
  0
XRECORD
  5
112
102
{ACAD_REACTORS
330
110
102
}
330
110
100
AcDbXrecord
280
     1
270
     1
271
     1
  0
XRECORD
  5
111
102
{ACAD_REACTORS
330
110
102
}
330
110
100
AcDbXrecord
280
     1
270
     1
271
     1
  0
XRECORD
  5
18A
102
{ACAD_REACTORS
330
110
102
}
330
110
100
AcDbXrecord
280
     1
 70
     0
 90
1778669749
  1
9BF507EE-FAF7-4A99-A33D-4EE51894BC40
310
504B03040A0000080000B670623B3DEE336E79000000790000001B0000006175746F6465736B2D64657369676E2D7061636B6167652E786D6C3C3F786D6C2076657273696F6E3D22312E302220656E636F64696E673D227574662D3822203F3E3C666F726D6174733E3C666F726D61743E687474703A2F2F736368656D612E
310
6175746F6465736B2E636F6D2F64657369676E2D7061636B6167652F323030393C2F666F726D61743E3C2F666F726D6174733E504B0304140006080800B670623BD486FD9CA0000000F4000000130000005B436F6E74656E745F54797065735D2E786D6C7D8EC10E82300C865F65E91D8A1E8C310C0EEA1BF002731658846E
310
D98AC1B77784ABF1D8FE5FBFBF75BBCE937A534CCEB38643598122B6FEE978D0B0485F9C41B54DDD7D022595594E1A469170414C76A4D9A4D207E29CF43ECE46F218070CC6BECC4078ACAA135ACF422C856C0E68EA1BF5669944DDD7BCDE7B1F8E415D77AECB980613C2E4AC91FC167A2B244592486606FC29C8FD7F045B9A
310
EF7053A7E60B504B0304140006080800B670623BCA089DFFEC0000007C01000008000000636F72652E786D6C8D90416E83301045AF62CDB632D8402020E32882F604BD80653BC44AB011B6AB1EBF262152BBEB6A467FFE9B197D76FA9EEFE84BAFDE38DB03CD08206DA553C64E3DC470C1474027CE56E7C22F1B202B66DDC3
310
260367D3EAE2B24BD2D9A06D48AA754AEFA2F05E0740F29E9A1EBCBCEA59642286E4F0B76C11F226269DD15797E0188D42CF2346A57DE662F40ABCAEC77628C6120F654571D50C04B7F5B9C1E3997CD4F550BE3745C3F20DE62C98F9755FAE5A04AD801784B498524C8A4F5A75E4D055873772EC0861F966FF03C545FD138A
310
C686B2D8DF7D621E384D8F3C069CE55B16A93C824A75CB8DFF00504B0304140006080800B670623B55019EA25F0000007C00000007000000636E782E786D6C4DCB3B0E80201045D1AD90E915ED2CF8AC45050C11660C8261F98AB1B07AC9C97D42D718D865D3E909258CFD00CCE24AC6E326A164D74DC0B4128928FF326038
310
472BA13128B1252AC747C6BAB984FC68F0B87FE8960A5C09FE86CFB69FBA01504B0304140006080800B670623B68FC0B7272010000D40300000C0000006662782F636F72652E786D6CC5535B6E833010BC8AE5DF0A6C1E8124328E22D29EA01770C0A128602363A31CBFCB234A53A555FA553EC09AD9F5CE8C31DB5DDA060D
310
D2F4B556190E7C8A9154852E6B5565D8D993B7C668C799D1DA7E29C3488956667884316795D1AE5BA0422B2B950554E9522EA0E87B69312A1A5864B82F3E642B7CE12C54F467BF13C55954D20F7CA0A18EB3DE1A1080E621E31BF3D3F1C2C88C73E65C5D2E6C5DC2B4FA544B8379921C36797888BC3C8A032F4E73EA6D927D
310
EA1DF6F42D49F2E8350D5346C666CE6CDD5ED515460A2B4BCC434A375E1078347C0FE22D5D6DE3D50B5D6F2965642CBF6B725DF96493AB958DC245EEDCD6631E809089F8E61622B2A81703E8219C913144F84C09DF070D8140C8561C9BAB8F3340832CAC363130A576376A108D933095FA747AD0CF0B46E64E983A6D0EAE1F
310
CE089F9EF1FB8E70D44255604258581E9D1D75B259C3125A278D37D80B52DAB4A279CEC62F0EFF44DDC43F9454E8469BFF5244960322CBEF41C6FBC83F01504B0304140006080800B670623B0F71DDB67E0000009D0000000B0000006662782F636E782E786D6C4DCCD10A83201886E15B91FFDCA54DB73F502386BB8F5816
310
32D3703976F9ABD1C18E3E78F87855FB990379BBFCF2296AE02706C4C5471A7C9C349475A408A4352AA7B4FEDD80C47E761A7606A3A69CCA72D0E0C6BE8475D3E0E3F3409428EA6B27A84079A782899AA2EC1A7AE3ECCC2FD858CB2D544655BFD2B67BD87C01504B0304140006080800B670623BE134B4FB28010000120200
310
00310000006662782F38353834323741342D343835462D343034322D383541392D4331303331363839454531452F636F72652E786D6C8D515B6EC32010BC0AE22B55850D0EA424C24451959EA0172086A42831583CAA1CBF503B52FB971F16CDCECC0EACD8DFC71BF836215AEF7A481A0C817183D7D65D7A98D3197108F652
310
04EFD31F1A044E8DA6871586525C82CFD3020DDE25E352419DD76601558C264130DCCAA58771F832A36A544E8511AFCDA486ABBA988634A55D7852C4144A00300FA927949C71DABD1D28A29C7D208A6987383B6CD13BC16BB2E1DBE3911C453B0BA5C8D9EA456E758963CFD684674DAA588A64C747FC2118958C86B2C3788B
310
0841B8FB247487D98EB257CC77188BB6D2FF89F2A49F1465EBD2BA5BE2CEB2082511EDDC9042FB7CBA3DC298FBE4430275DE2A9AE1054ADC60CC08E3A29D89E5F9C5714317C7987C28DFBBBA9E0A97B0D97643A568EB864AF95D5FA9759BF207504B0304140006080800B670623B1B8617914E010000330300003000000066
310
62782F38353834323741342D343835462D343034322D383541392D4331303331363839454531452F636E782E786D6CD593C16EC32010447F0571AD6CE3D489D20813A9877E410FBD62D82434182CC055F3F75D1292E692438FBD206B7698593D61BEFD1E2DF982108D773D6D6B460938E5B571FB9ECE6957AD29D90A1EBC4F
310
77364A9C1CA1A759A682EF839FA72269D8C9D92654AD71C72206887E0E0A22CAF926B15E498B01E0AA19451807D01A34B919F16B070157417138917400F2F6FA41FCF0092A45DEE414C19BDC21783E4BD39D891265658C3D8DEA00A3ACE59CBC8678ACB54CB26EEB6BD7839D7E9348BE70AD9C8321B9BCA7F9A4A26C542347
310
DEE050F09802D22BA6749A800A394DD62899107273365E3C82CFC6A55557BC06C10774B7ABE7AEC3B0F34CF06446280E154026D0542C187BA9DAB6628BF7B6DBB0E5A65B3EB1F58631DE64BBE083F7B65CC218087E22CABB042E51D1F2268F1FE12B3EA24D40D63E9CFE00120194D60B9D5BC67FE6D39CDF37E20AF817881F
310
504B0304140006080800B670623B5933D422630500003B100000340000006662782F38353834323741342D343835462D343034322D383541392D4331303331363839454531452F6F626A656374732E786D6CAD575B6FA33814FE2B887D0642934E9B156594264D158D3A534DD4D13E548A0C38942D60649B4EBABF7E3F8321
310
40924EF6928780CDF1B97EE762EFF32E4B8D37CA45C2F21BD3B547A641F39045491EDF98A5DC5AD7A6F1D9F73863B243661A39C9E88DA9B64DDF8B392B0BBD15D12D295339D85DDEFE618890E6D434C2940871638AF08566C426A5641115AF764424B1E3EDCE76ED9AB0CF36E6A47819302D08A7B984A6D8CFC1C5A89572FB
310
CB91E9F89EA3BEFB9EFAD754E3D3544E654F5F7E920B49F2F040D880CDD89D2CEE2E2EA7D6E56432B6269F2E5CEB7679BBB0DCABF168FE693E9FCEEEA6102C240727AD09A75BD3BF876F78127A4EFDA9D5582B7E4CA590E5390D2BFB6161A5B3E618D182E611E2985001691DAB47FDA5AB7CD3F93C566B2DB2BB7D9E55DD13
310
1D468DEECDB3AB290BFE8409E21C54704115AA6AFF68436BFC8DF65E0B184BF5B74418199194272435D224E084BF9B3E481589EFF5D828747285706581E9BB7B7E5D5D911ABFC6EE312DB7659A2A689A7E85EC0DF04FA5A8344BFEA2FCB834E8845895492EAFB541F2BDA0A63FF59C6AD3F7D4637CA13FD68E34B629891172
310
98597F1D183A57B9B75A98FE9765B05BAB7C3C2EBCE0ACA05C2AF8005A4DE09AA7F29216EB9E15397500C6F47CBE77CA7778FE2BD277AF0AE2C693DD6437D1522427B9D8329E2136F6A8FA19A3E6C56ADF0E5F50CF06D48734EDCEBF22F69C56D97EC138153F804B85E6FABFC7AFEFB32E523BE1F3BD372418E363EDCA7548
310
52949E8724474014288D94610BB57C1BEC4C7F854A89CA8E5324F55B871CBC78CE1BBEE3BFE68D6A5589EF3C730474506FCFA8FCF0659516D0ED04580EEA6425581B77CAE797FF4BCECC16EB2FEB926F49481F746159D06D922712BD730FDEAE42BD40F42C7AA5EF3F198F60E86110D6DD20645A9480B795CF95E3E3A659A8
310
C55E724F408873315335CFFB8584874484344D494E59D94869DB90C26A5B64F49C802CAC1D3ABE18A098D3B7444D123D8A9E5AE8F5214F0AE5B2B6E9B575DA3E61CBD3EA2B4009FA940524DD1305FB6A1FB294F14DF0BEA90BA109ECE1481FDC3FFAE8D60E75141700BE82725371B4873751B2DD960265F788137FACE6DD40
310
B575E4F0A5C99F46629D92131467A41EE11ABD8D4CCC039CA0AFB37C93A08B232B8F0AEFCA1E0A1015DF13FC83322B362463652ECF71D3A8B1A7D1BE65DE1D62C44F22C317D35F574FEB16153BA2D13E543D10A80E74C4A65E78A6B7CBCBD1D5DD9DB59C2DAFACC96C3AB566E3F1C29ADCDD5DBAD7D3C9ED7C822ED74F80A6
310
41755310DE4443F44A9E68373FADF6596BFA0F440AE7BECE2727AE9F4F2B1B53B1E7E00CF0DD1E5C65454A339A4BA2D0FBA05ED2EF0443458F47BDBFCA484CCFE0F2ED7E3DD0013B679C7B5499467F0ECEEADDB9CA85A34CE44B99053949D2C1416DB85DE4B136BB7165FBAC0B7AB3542BED4F8CA182A549847A1319316519
310
95A83A67147B9E5101C47487F2485F1ECE38FD568F839204296D3479219888530154036E6528FBFBC66F98E0D4107563A2D7D9AFF8D389681A08F58D89F22693900A3B407754734FC51C10C010D6D640809EE4718AC1BA3ED4AEDB53CA37283F68805A7E4B72CEB0A4EDEAD5DD8C14059A76AFAA56BA6901E13F32BC51C720
310
12AF41295B5BF61BAD3195181FB506E6B40F4C10AF5AF40EF9F5B159AE5DD1F43C72D635E94310D45C2D49785C5D0B94D3B54AB3C5A38349C0587D338AB48C11CBF339599C02CCA54A70A008A8D03C0B2201D5F9EFCF8F9CE12A9A19CB0410789EB32C63B95ECCF455D658BFE0621A3DA32C5075FB101723D77DAE867E7D0F
310
D90444509B44E2151B4DC2290B065803200FBAA9BE9D392A0603F2D5C2D00D6302A615680F66D2FA166E2079D4C551A54AB758161FCEFD4E450A14704CECFEDF504B0304140006080000B670623B000000000000000000000000350000006662782F38353834323741342D343835462D343034322D383541392D4331303331
310
363839454531452F76657274696365732E62696E504B0304140006080800B670623BF270F1330600000004000000360000006662782F38353834323741342D343835462D343034322D383541392D4331303331363839454531452F747269616E676C65732E62696E636660600000504B0304140006080000B670623B000000
310
000000000000000000370000006662782F38353834323741342D343835462D343034322D383541392D4331303331363839454531452F617474726962757465732E62696E504B0304140006080800B670623B08DA0BD19000000041010000360000006662782F38353834323741342D343835462D343034322D383541392D43
310
31303331363839454531452F6469726563746F72792E786D6C858F410AC3201045AF22B36F53E9A60B35CBEEBAE80D244E44489C6234F4F835464A48035D0DF398FF9F8AF63D0E6CC63039F212F8F9020C7D47C6792B21C5FE7403D62A1188E2E60C98D7234A5830286103A55745067B9D86B8A3CF9C7F90C11DE607FB1443
310
96D7B6A82D282E9A152AD114D5EF2CB866EEE831B8EEA07A7BB5A8D7D61A2BAAEB7FD5F70921FF497D00504B0304140006080800B670623BD9A3B367FE000000A00100003B0000006662782F38353834323741342D343835462D343034322D383541392D4331303331363839454531452F7265736F75726365732F636F7265
310
2E786D6C8D504B6E833010BD0A9A6D65B01D0201194711694FD00B586642AD043BF2A7EAF16B122AB5BB6E6646EFA3797AE2F8B5DC8A4FF4C1383B002B291468B59B8C9D0748F1420E501CA5F0CEC55F3228AC5A708015062966EFD27D83B4B3116DCCA875136EA00A012314FA968F0182FEC045952AC5AC08D7F2AEF455CD
310
58B232D3592745883E07289E4FD609D26370C96B0CA27AB252A464A64D63A6FCD35C0C7A904D73EE467EE664DCD58CD4ED4849D79C5A723ED1B7A61977AF2D6F45B59AA58866F9C9A83DAA8813484E6947182394BFB3BAA7FBBEDEBFD0434FA9A856F91F53BA4FFF342563E38E6F719FB60092E5200F428A6AED2BAF479979
310
AFDDCA6F504B010214000A0000080000B670623B3DEE336E79000000790000001B00000000000000000000000000000000006175746F6465736B2D64657369676E2D7061636B6167652E786D6C504B01021400140006080800B670623BD486FD9CA0000000F40000001300000000000000000000000000B20000005B436F6E
310
74656E745F54797065735D2E786D6C504B01021400140006080800B670623BCA089DFFEC0000007C010000080000000000000000000000000083010000636F72652E786D6C504B01021400140006080800B670623B55019EA25F0000007C000000070000000000000000000000000095020000636E782E786D6C504B010214
310
00140006080800B670623B68FC0B7272010000D40300000C00000000000000000000000000190300006662782F636F72652E786D6C504B01021400140006080800B670623B0F71DDB67E0000009D0000000B00000000000000000000000000B50400006662782F636E782E786D6C504B01021400140006080800B670623BE1
310
34B4FB280100001202000031000000000000000000000000005C0500006662782F38353834323741342D343835462D343034322D383541392D4331303331363839454531452F636F72652E786D6C504B01021400140006080800B670623B1B8617914E010000330300003000000000000000000000000000D3060000666278
310
2F38353834323741342D343835462D343034322D383541392D4331303331363839454531452F636E782E786D6C504B01021400140006080800B670623B5933D422630500003B10000034000000000000000000000000006F0800006662782F38353834323741342D343835462D343034322D383541392D4331303331363839
310
454531452F6F626A656374732E786D6C504B01021400140006080000B670623B0000000000000000000000003500000000000000000000000000240E00006662782F38353834323741342D343835462D343034322D383541392D4331303331363839454531452F76657274696365732E62696E504B01021400140006080800
310
B670623BF270F13306000000040000003600000000000000000000000000770E00006662782F38353834323741342D343835462D343034322D383541392D4331303331363839454531452F747269616E676C65732E62696E504B01021400140006080000B670623B0000000000000000000000003700000000000000000000
310
000000D10E00006662782F38353834323741342D343835462D343034322D383541392D4331303331363839454531452F617474726962757465732E62696E504B01021400140006080800B670623B08DA0BD190000000410100003600000000000000000000000000260F00006662782F38353834323741342D343835462D34
310
3034322D383541392D4331303331363839454531452F6469726563746F72792E786D6C504B01021400140006080800B670623BD9A3B367FE000000A00100003B000000000000000000000000000A1000006662782F38353834323741342D343835462D343034322D383541392D4331303331363839454531452F7265736F75
310
726365732F636F72652E786D6C504B0506000000000E000E0080040000611100000000
  0
XRECORD
  5
113
102
{ACAD_REACTORS
330
110
102
}
330
110
100
AcDbXrecord
280
     1
270
     1
271
     1
  0
XRECORD
  5
114
102
{ACAD_REACTORS
330
110
102
}
330
110
100
AcDbXrecord
280
     1
270
     1
271
     1
  0
XRECORD
  5
B59
102
{ACAD_REACTORS
330
B58
102
}
330
B58
100
AcDbXrecord
280
     1
102
DISPLAYNAME
  1
Imperial24
102
FLAGS
 90
        0
  0
XRECORD
  5
B5D
102
{ACAD_REACTORS
330
B5C
102
}
330
B5C
100
AcDbXrecord
280
     1
102
DISPLAYNAME
  1
Metric50
102
FLAGS
 90
        0
  0
CELLSTYLEMAP
  5
B4E
102
{ACAD_REACTORS
330
104
102
}
330
104
100
AcDbCellStyleMap
 90
        3
300
CELLSTYLE
  1
TABLEFORMAT_BEGIN
 90
        5
170
     1
 91
        0
 92
    32768
 62
   257
 93
        1
300
CONTENTFORMAT
  1
CONTENTFORMAT_BEGIN
 90
        0
 91
        0
 92
      512
 93
        0
300

 40
0.0
140
1.0
 94
        5
 62
     0
340
11
144
0.25
309
CONTENTFORMAT_END
171
     1
301
MARGIN
  1
CELLMARGIN_BEGIN
 40
0.06
 40
0.06
 40
0.06
 40
0.06
 40
0.18
 40
0.18
309
CELLMARGIN_END
 94
        6
 95
        1
302
GRIDFORMAT
  1
GRIDFORMAT_BEGIN
 90
        0
 91
        1
 62
     0
 92
       -2
340
0
 93
        0
 40
0.045
309
GRIDFORMAT_END
 95
        2
302
GRIDFORMAT
  1
GRIDFORMAT_BEGIN
 90
        0
 91
        1
 62
     0
 92
       -2
340
0
 93
        0
 40
0.045
309
GRIDFORMAT_END
 95
        4
302
GRIDFORMAT
  1
GRIDFORMAT_BEGIN
 90
        0
 91
        1
 62
     0
 92
       -2
340
0
 93
        0
 40
0.045
309
GRIDFORMAT_END
 95
        8
302
GRIDFORMAT
  1
GRIDFORMAT_BEGIN
 90
        0
 91
        1
 62
     0
 92
       -2
340
0
 93
        0
 40
0.045
309
GRIDFORMAT_END
 95
       16
302
GRIDFORMAT
  1
GRIDFORMAT_BEGIN
 90
        0
 91
        1
 62
     0
 92
       -2
340
0
 93
        0
 40
0.045
309
GRIDFORMAT_END
 95
       32
302
GRIDFORMAT
  1
GRIDFORMAT_BEGIN
 90
        0
 91
        1
 62
     0
 92
       -2
340
0
 93
        0
 40
0.045
309
GRIDFORMAT_END
309
TABLEFORMAT_END
  1
CELLSTYLE_BEGIN
 90
        1
 91
        1
300
_TITLE
309
CELLSTYLE_END
300
CELLSTYLE
  1
TABLEFORMAT_BEGIN
 90
        5
170
     1
 91
        0
 92
        0
 62
   257
 93
        1
300
CONTENTFORMAT
  1
CONTENTFORMAT_BEGIN
 90
        0
 91
        0
 92
      512
 93
        0
300

 40
0.0
140
1.0
 94
        5
 62
     0
340
11
144
0.18
309
CONTENTFORMAT_END
171
     1
301
MARGIN
  1
CELLMARGIN_BEGIN
 40
0.06
 40
0.06
 40
0.06
 40
0.06
 40
0.18
 40
0.18
309
CELLMARGIN_END
 94
        6
 95
        1
302
GRIDFORMAT
  1
GRIDFORMAT_BEGIN
 90
        0
 91
        1
 62
     0
 92
       -2
340
0
 93
        0
 40
0.045
309
GRIDFORMAT_END
 95
        2
302
GRIDFORMAT
  1
GRIDFORMAT_BEGIN
 90
        0
 91
        1
 62
     0
 92
       -2
340
0
 93
        0
 40
0.045
309
GRIDFORMAT_END
 95
        4
302
GRIDFORMAT
  1
GRIDFORMAT_BEGIN
 90
        0
 91
        1
 62
     0
 92
       -2
340
0
 93
        0
 40
0.045
309
GRIDFORMAT_END
 95
        8
302
GRIDFORMAT
  1
GRIDFORMAT_BEGIN
 90
        0
 91
        1
 62
     0
 92
       -2
340
0
 93
        0
 40
0.045
309
GRIDFORMAT_END
 95
       16
302
GRIDFORMAT
  1
GRIDFORMAT_BEGIN
 90
        0
 91
        1
 62
     0
 92
       -2
340
0
 93
        0
 40
0.045
309
GRIDFORMAT_END
 95
       32
302
GRIDFORMAT
  1
GRIDFORMAT_BEGIN
 90
        0
 91
        1
 62
     0
 92
       -2
340
0
 93
        0
 40
0.045
309
GRIDFORMAT_END
309
TABLEFORMAT_END
  1
CELLSTYLE_BEGIN
 90
        2
 91
        1
300
_HEADER
309
CELLSTYLE_END
300
CELLSTYLE
  1
TABLEFORMAT_BEGIN
 90
        5
170
     1
 91
        0
 92
        0
 62
   257
 93
        1
300
CONTENTFORMAT
  1
CONTENTFORMAT_BEGIN
 90
        0
 91
        0
 92
      512
 93
        0
300

 40
0.0
140
1.0
 94
        2
 62
     0
340
11
144
0.18
309
CONTENTFORMAT_END
171
     1
301
MARGIN
  1
CELLMARGIN_BEGIN
 40
0.06
 40
0.06
 40
0.06
 40
0.06
 40
0.18
 40
0.18
309
CELLMARGIN_END
 94
        6
 95
        1
302
GRIDFORMAT
  1
GRIDFORMAT_BEGIN
 90
        0
 91
        1
 62
     0
 92
       -2
340
0
 93
        0
 40
0.045
309
GRIDFORMAT_END
 95
        2
302
GRIDFORMAT
  1
GRIDFORMAT_BEGIN
 90
        0
 91
        1
 62
     0
 92
       -2
340
0
 93
        0
 40
0.045
309
GRIDFORMAT_END
 95
        4
302
GRIDFORMAT
  1
GRIDFORMAT_BEGIN
 90
        0
 91
        1
 62
     0
 92
       -2
340
0
 93
        0
 40
0.045
309
GRIDFORMAT_END
 95
        8
302
GRIDFORMAT
  1
GRIDFORMAT_BEGIN
 90
        0
 91
        1
 62
     0
 92
       -2
340
0
 93
        0
 40
0.045
309
GRIDFORMAT_END
 95
       16
302
GRIDFORMAT
  1
GRIDFORMAT_BEGIN
 90
        0
 91
        1
 62
     0
 92
       -2
340
0
 93
        0
 40
0.045
309
GRIDFORMAT_END
 95
       32
302
GRIDFORMAT
  1
GRIDFORMAT_BEGIN
 90
        0
 91
        1
 62
     0
 92
       -2
340
0
 93
        0
 40
0.045
309
GRIDFORMAT_END
309
TABLEFORMAT_END
  1
CELLSTYLE_BEGIN
 90
        3
 91
        2
300
_DATA
309
CELLSTYLE_END
  0
ENDSEC
  0
SECTION
  2
ACDSDATA
 70
     2
 71
     8
  0
ACDSSCHEMA
 90
        0
  1
AcDb_Thumbnail_Schema
  2
AcDbDs::ID
280
    10
 91
        8
  2
Thumbnail_Data
280
    15
 91
        0
101
ACDSRECORD
 95
        0
 90
        1
  2
AcDbDs::TreatedAsObjectData
280
     1
291
     1
101
ACDSRECORD
 95
        0
 90
        2
  2
AcDbDs::Legacy
280
     1
291
     1
101
ACDSRECORD
  1
AcDbDs::ID
 90
        3
  2
AcDs:Indexable
280
     1
291
     1
101
ACDSRECORD
  1
AcDbDs::ID
 90
        4
  2
AcDbDs::HandleAttribute
280
     7
282
     1
  0
ACDSSCHEMA
 90
        1
  1
AcDbDs::TreatedAsObjectDataSchema
  2
AcDbDs::TreatedAsObjectData
280
     1
 91
        0
  0
ACDSSCHEMA
 90
        2
  1
AcDbDs::LegacySchema
  2
AcDbDs::Legacy
280
     1
 91
        0
  0
ACDSSCHEMA
 90
        3
  1
AcDbDs::IndexedPropertySchema
  2
AcDs:Indexable
280
     1
 91
        0
  0
ACDSSCHEMA
 90
        4
  1
AcDbDs::HandleAttributeSchema
  2
AcDbDs::HandleAttribute
280
     7
 91
        1
284
     1
  0
ACDSRECORD
 90
        0
  2
AcDbDs::ID
280
    10
320
22
  2
Thumbnail_Data
280
    15
 94
     1401
310
89504E470D0A1A0A0000000D49484452000001000000007808030000002AAADC4C00000300504C5445212830FFFFFF2128300000000000000000000000000000000000000000000000000000330000660000990000CC0000FF0033000033330033660033990033CC0033FF0066000066330066660066990066CC0066FF0099
310
000099330099660099990099CC0099FF00CC0000CC3300CC6600CC9900CCCC00CCFF00FF0000FF3300FF6600FF9900FFCC00FFFF3300003300333300663300993300CC3300FF3333003333333333663333993333CC3333FF3366003366333366663366993366CC3366FF3399003399333399663399993399CC3399FF33CC00
310
33CC3333CC6633CC9933CCCC33CCFF33FF0033FF3333FF6633FF9933FFCC33FFFF6600006600336600666600996600CC6600FF6633006633336633666633996633CC6633FF6666006666336666666666996666CC6666FF6699006699336699666699996699CC6699FF66CC0066CC3366CC6666CC9966CCCC66CCFF66FF0066
310
FF3366FF6666FF9966FFCC66FFFF9900009900339900669900999900CC9900FF9933009933339933669933999933CC9933FF9966009966339966669966999966CC9966FF9999009999339999669999999999CC9999FF99CC0099CC3399CC6699CC9999CCCC99CCFF99FF0099FF3399FF6699FF9999FFCC99FFFFCC0000CC00
310
33CC0066CC0099CC00CCCC00FFCC3300CC3333CC3366CC3399CC33CCCC33FFCC6600CC6633CC6666CC6699CC66CCCC66FFCC9900CC9933CC9966CC9999CC99CCCC99FFCCCC00CCCC33CCCC66CCCC99CCCCCCCCCCFFCCFF00CCFF33CCFF66CCFF99CCFFCCCCFFFFFF0000FF0033FF0066FF0099FF00CCFF00FFFF3300FF3333
310
FF3366FF3399FF33CCFF33FFFF6600FF6633FF6666FF6699FF66CCFF66FFFF9900FF9933FF9966FF9999FF99CCFF99FFFFCC00FFCC33FFCC66FFCC99FFCCCCFFCCFFFFFF00FFFF33FFFF66FFFF99FFFFCCFFFFFF0000000D0D0D1A1A1A2828283535354343435050505D5D5D6B6B6B787878868686939393A1A1A1AEAEAEBB
310
BBBBC9C9C9D6D6D6E4E4E4F1F1F1FFFFFF0000000000000000000000000000000000000000000000000000000000002E4550F1000001814944415478DAED9ACB8E03210C04FDFFFFDBF7DDD530600F21D14A39B9AB22A1917272E3271001000000000000000000F05D247B01E4AD81FE0D51D3CF038EB9E1FACB66D3358CBE
310
ACFEFD5DCB586D9CE1DE6FCD25E4191A2904487CEE1E4012F412802480FDCC02CC02601602E8B0F701AE956FD63EC311A878407056481F401FE0E301C8406E3818AABD1EF45540B30CAE53902CC0EC8F3A2BF0E887F4B72A6E4586F16A1EDED9C7BD3C802CB8D9396E4A4A874CCDF43A26D0F6113D5BE26ADFCA7E73325C23
310
62CE899D1488720A7EA7FC19F8B936F61560B5037621702E77D3D265722BE3EDCF0318873F39C6D34D5C0428895171988D3B6E77ED03EE49B0B70031DE46A571D83E04F66A47AE04CA20659032E85006A5909B0790038E223C24E9BDD5C6E33055FF4D1F2CAB904F97A3D372D96D7A7D2526A3BB2095F7F2861E002F9A006A
310
84F738BC1AA5F6F741E76930724D689C12F3DD606CEF6196006A2D407910E215026F66C117B7A300000000000000000000000000000000F0257E008E8D26F502937A800000000049454E44AE4260823F1E556D8003603D26D81240A57DC0CA12407ABFF5610B7A634302A0288AA2A8548EF0E686049067FFC398607832EC12
310
122380DC00DE8A09025300854362DE0DCF5501585D415B00F28EE75246B03D006E84A83BA6C26D0D098000A8278D38AF14A5BA2D0102A06E26DB69121140670075D74018139CCC01E32FC36A0190F10CFB4EC92700FC00AAC47A7A76061CDF0000000049454E44AE426082E18BF0005C3C7C43562BD1960000000049454E44
310
AE426082
  0
ENDSEC
  0
EOF
