  0
SECTION
  2
HEADER
  9
$ACADVER
  1
AC1032
  9
$ACADMAINTVER
 90
        4
  9
$DWGCODEPAGE
  3
ANSI_1252
  9
$LASTSAVEDBY
  1
jesse.cowley
  9
$REQUIREDVERSIONS
160
                 0
  9
$INSBASE
 10
0.0
 20
0.0
 30
0.0
  9
$EXTMIN
 10
-1441.619798980291
 20
-3410.209831569389
 30
0.0
  9
$EXTMAX
 10
3842.729066784471
 20
2609.236930214428
 30
0.0
  9
$LIMMIN
 10
0.0
 20
0.0
  9
$LIMMAX
 10
12.0
 20
9.0
  9
$ORTHOMODE
 70
     0
  9
$REGENMODE
 70
     1
  9
$FILLMODE
 70
     1
  9
$QTEXTMODE
 70
     0
  9
$MIRRTEXT
 70
     1
  9
$LTSCALE
 40
1.0
  9
$ATTMODE
 70
     1
  9
$TEXTSIZE
 40
0.2
  9
$TRACEWID
 40
0.05
  9
$TEXTSTYLE
  7
Standard
  9
$CLAYER
  8
0
  9
$CELTYPE
  6
ByLayer
  9
$CECOLOR
 62
   256
  9
$CELTSCALE
 40
1.0
  9
$DISPSILH
 70
     0
  9
$DIMSCALE
 40
1.0
  9
$DIMASZ
 40
0.18
  9
$DIMEXO
 40
0.0625
  9
$DIMDLI
 40
0.38
  9
$DIMRND
 40
0.0
  9
$DIMDLE
 40
0.0
  9
$DIMEXE
 40
0.18
  9
$DIMTP
 40
0.0
  9
$DIMTM
 40
0.0
  9
$DIMTXT
 40
0.18
  9
$DIMCEN
 40
0.09
  9
$DIMTSZ
 40
0.0
  9
$DIMTOL
 70
     0
  9
$DIMLIM
 70
     0
  9
$DIMTIH
 70
     1
  9
$DIMTOH
 70
     1
  9
$DIMSE1
 70
     0
  9
$DIMSE2
 70
     0
  9
$DIMTAD
 70
     0
  9
$DIMZIN
 70
     0
  9
$DIMBLK
  1

  9
$DIMASO
 70
     1
  9
$DIMSHO
 70
     1
  9
$DIMPOST
  1

  9
$DIMAPOST
  1

  9
$DIMALT
 70
     0
  9
$DIMALTD
 70
     2
  9
$DIMALTF
 40
25.4
  9
$DIMLFAC
 40
1.0
  9
$DIMTOFL
 70
     0
  9
$DIMTVP
 40
0.0
  9
$DIMTIX
 70
     0
  9
$DIMSOXD
 70
     0
  9
$DIMSAH
 70
     0
  9
$DIMBLK1
  1

  9
$DIMBLK2
  1

  9
$DIMSTYLE
  2
Standard
  9
$DIMCLRD
 70
     0
  9
$DIMCLRE
 70
     0
  9
$DIMCLRT
 70
     0
  9
$DIMTFAC
 40
1.0
  9
$DIMGAP
 40
0.09
  9
$DIMJUST
 70
     0
  9
$DIMSD1
 70
     0
  9
$DIMSD2
 70
     0
  9
$DIMTOLJ
 70
     1
  9
$DIMTZIN
 70
     0
  9
$DIMALTZ
 70
     0
  9
$DIMALTTZ
 70
     0
  9
$DIMUPT
 70
     0
  9
$DIMDEC
 70
     4
  9
$DIMTDEC
 70
     4
  9
$DIMALTU
 70
     2
  9
$DIMALTTD
 70
     2
  9
$DIMTXSTY
  7
Standard
  9
$DIMAUNIT
 70
     0
  9
$DIMADEC
 70
     0
  9
$DIMALTRND
 40
0.0
  9
$DIMAZIN
 70
     0
  9
$DIMDSEP
 70
    46
  9
$DIMATFIT
 70
     3
  9
$DIMFRAC
 70
     0
  9
$DIMLDRBLK
  1

  9
$DIMLUNIT
 70
     2
  9
$DIMLWD
 70
    -2
  9
$DIMLWE
 70
    -2
  9
$DIMTMOVE
 70
     0
  9
$DIMFXL
 40
1.0
  9
$DIMFXLON
 70
     0
  9
$DIMJOGANG
 40
0.7853981633974483
  9
$DIMTFILL
 70
     0
  9
$DIMTFILLCLR
 70
     0
  9
$DIMARCSYM
 70
     0
  9
$DIMLTYPE
  6

  9
$DIMLTEX1
  6

  9
$DIMLTEX2
  6

  9
$DIMTXTDIRECTION
 70
     0
  9
$LUNITS
 70
     2
  9
$LUPREC
 70
     4
  9
$SKETCHINC
 40
0.1
  9
$FILLETRAD
 40
0.5
  9
$AUNITS
 70
     0
  9
$AUPREC
 70
     0
  9
$MENU
  1
.
  9
$ELEVATION
 40
0.0
  9
$PELEVATION
 40
0.0
  9
$THICKNESS
 40
0.0
  9
$LIMCHECK
 70
     0
  9
$CHAMFERA
 40
0.5
  9
$CHAMFERB
 40
0.5
  9
$CHAMFERC
 40
1.0
  9
$CHAMFERD
 40
0.0
  9
$SKPOLY
 70
     0
  9
$TDCREATE
 40
2456463.582060185
  9
$TDUCREATE
 40
2456463.165399329
  9
$TDUPDATE
 40
2458442.437847222
  9
$TDUUPDATE
 40
2458441.979513889
  9
$TDINDWG
 40
0.0165472917
  9
$TDUSRTIMER
 40
0.0165472917
  9
$USRTIMER
 70
     1
  9
$ANGBASE
 50
0.0
  9
$ANGDIR
 70
     0
  9
$PDMODE
 70
     0
  9
$PDSIZE
 40
0.0
  9
$PLINEWID
 40
0.0
  9
$SPLFRAME
 70
     0
  9
$SPLINETYPE
 70
     6
  9
$SPLINESEGS
 70
     8
  9
$HANDSEED
  5
988
  9
$SURFTAB1
 70
     6
  9
$SURFTAB2
 70
     6
  9
$SURFTYPE
 70
     6
  9
$SURFU
 70
     6
  9
$SURFV
 70
     6
  9
$UCSBASE
  2

  9
$UCSNAME
  2

  9
$UCSORG
 10
0.0
 20
0.0
 30
0.0
  9
$UCSXDIR
 10
1.0
 20
0.0
 30
0.0
  9
$UCSYDIR
 10
0.0
 20
1.0
 30
0.0
  9
$UCSORTHOREF
  2

  9
$UCSORTHOVIEW
 70
     0
  9
$UCSORGTOP
 10
0.0
 20
0.0
 30
0.0
  9
$UCSORGBOTTOM
 10
0.0
 20
0.0
 30
0.0
  9
$UCSORGLEFT
 10
0.0
 20
0.0
 30
0.0
  9
$UCSORGRIGHT
 10
0.0
 20
0.0
 30
0.0
  9
$UCSORGFRONT
 10
0.0
 20
0.0
 30
0.0
  9
$UCSORGBACK
 10
0.0
 20
0.0
 30
0.0
  9
$PUCSBASE
  2

  9
$PUCSNAME
  2

  9
$PUCSORG
 10
0.0
 20
0.0
 30
0.0
  9
$PUCSXDIR
 10
1.0
 20
0.0
 30
0.0
  9
$PUCSYDIR
 10
0.0
 20
1.0
 30
0.0
  9
$PUCSORTHOREF
  2

  9
$PUCSORTHOVIEW
 70
     0
  9
$PUCSORGTOP
 10
0.0
 20
0.0
 30
0.0
  9
$PUCSORGBOTTOM
 10
0.0
 20
0.0
 30
0.0
  9
$PUCSORGLEFT
 10
0.0
 20
0.0
 30
0.0
  9
$PUCSORGRIGHT
 10
0.0
 20
0.0
 30
0.0
  9
$PUCSORGFRONT
 10
0.0
 20
0.0
 30
0.0
  9
$PUCSORGBACK
 10
0.0
 20
0.0
 30
0.0
  9
$USERI1
 70
     0
  9
$USERI2
 70
     0
  9
$USERI3
 70
     0
  9
$USERI4
 70
     0
  9
$USERI5
 70
     0
  9
$USERR1
 40
0.0
  9
$USERR2
 40
0.0
  9
$USERR3
 40
0.0
  9
$USERR4
 40
0.0
  9
$USERR5
 40
0.0
  9
$WORLDVIEW
 70
     1
  9
$SHADEDGE
 70
     3
  9
$SHADEDIF
 70
    70
  9
$TILEMODE
 70
     1
  9
$MAXACTVP
 70
    64
  9
$PINSBASE
 10
0.0
 20
0.0
 30
0.0
  9
$PLIMCHECK
 70
     0
  9
$PEXTMIN
 10
1.000000000000000E+20
 20
1.000000000000000E+20
 30
1.000000000000000E+20
  9
$PEXTMAX
 10
-1.000000000000000E+20
 20
-1.000000000000000E+20
 30
-1.000000000000000E+20
  9
$PLIMMIN
 10
0.0
 20
0.0
  9
$PLIMMAX
 10
12.0
 20
9.0
  9
$UNITMODE
 70
     0
  9
$VISRETAIN
 70
     1
  9
$PLINEGEN
 70
     0
  9
$PSLTSCALE
 70
     1
  9
$TREEDEPTH
 70
  3020
  9
$CMLSTYLE
  2
Standard
  9
$CMLJUST
 70
     0
  9
$CMLSCALE
 40
1.0
  9
$PROXYGRAPHICS
 70
     1
  9
$MEASUREMENT
 70
     0
  9
$CELWEIGHT
370
    -1
  9
$ENDCAPS
280
     0
  9
$JOINSTYLE
280
     0
  9
$LWDISPLAY
290
     1
  9
$INSUNITS
 70
     1
  9
$HYPERLINKBASE
  1

  9
$STYLESHEET
  1

  9
$XEDIT
290
     1
  9
$CEPSNTYPE
380
     0
  9
$PSTYLEMODE
290
     1
  9
$FINGERPRINTGUID
  2
{235FA4C2-5361-4EC0-B630-114C2AFB22C4}
  9
$VERSIONGUID
  2
{4068DBF0-90FD-F84A-82CB-8D2A6CD8F9E6}
  9
$EXTNAMES
290
     1
  9
$PSVPSCALE
 40
0.0
  9
$OLESTARTUP
290
     0
  9
$SORTENTS
280
   127
  9
$INDEXCTL
280
     0
  9
$HIDETEXT
280
     1
  9
$XCLIPFRAME
280
     0
  9
$HALOGAP
280
     0
  9
$OBSCOLOR
 70
   257
  9
$OBSLTYPE
280
     0
  9
$INTERSECTIONDISPLAY
280
     0
  9
$INTERSECTIONCOLOR
 70
   257
  9
$DIMASSOC
280
     2
  9
$PROJECTNAME
  1

  9
$CAMERADISPLAY
290
     0
  9
$LENSLENGTH
 40
50.0
  9
$CAMERAHEIGHT
 40
0.0
  9
$STEPSPERSEC
 40
2.0
  9
$STEPSIZE
 40
6.0
  9
$3DDWFPREC
 40
2.0
  9
$PSOLWIDTH
 40
0.25
  9
$PSOLHEIGHT
 40
4.0
  9
$LOFTANG1
 40
1.570796326794896
  9
$LOFTANG2
 40
1.570796326794896
  9
$LOFTMAG1
 40
0.0
  9
$LOFTMAG2
 40
0.0
  9
$LOFTPARAM
 70
     7
  9
$LOFTNORMALS
280
     1
  9
$LATITUDE
 40
37.795
  9
$LONGITUDE
 40
-122.394
  9
$NORTHDIRECTION
 40
0.0
  9
$TIMEZONE
 70
 -8000
  9
$LIGHTGLYPHDISPLAY
280
     1
  9
$TILEMODELIGHTSYNCH
280
     1
  9
$CMATERIAL
347
400
  9
$SOLIDHIST
280
     1
  9
$SHOWHIST
280
     1
  9
$DWFFRAME
280
     2
  9
$DGNFRAME
280
     0
  9
$REALWORLDSCALE
290
     1
  9
$INTERFERECOLOR
 62
     1
  9
$INTERFEREOBJVS
345
33
  9
$INTERFEREVPVS
346
7B0
  9
$CSHADOW
280
     0
  9
$SHADOWPLANELOCATION
 40
0.0
  0
ENDSEC
  0
SECTION
  2
CLASSES
  0
CLASS
  1
ACDBDICTIONARYWDFLT
  2
AcDbDictionaryWithDefault
  3
ObjectDBX Classes
 90
        0
 91
        1
280
     0
281
     0
  0
CLASS
  1
VISUALSTYLE
  2
AcDbVisualStyle
  3
ObjectDBX Classes
 90
     4095
 91
       26
280
     0
281
     0
  0
CLASS
  1
MATERIAL
  2
AcDbMaterial
  3
ObjectDBX Classes
 90
     1153
 91
        3
280
     0
281
     0
  0
CLASS
  1
TABLESTYLE
  2
AcDbTableStyle
  3
ObjectDBX Classes
 90
     4095
 91
        1
280
     0
281
     0
  0
CLASS
  1
SCALE
  2
AcDbScale
  3
ObjectDBX Classes
 90
     1153
 91
       33
280
     0
281
     0
  0
CLASS
  1
MLEADERSTYLE
  2
AcDbMLeaderStyle
  3
ACDB_MLEADERSTYLE_CLASS
 90
     4095
 91
        1
280
     0
281
     0
  0
CLASS
  1
DICTIONARYVAR
  2
AcDbDictionaryVar
  3
ObjectDBX Classes
 90
        0
 91
        9
280
     0
281
     0
  0
CLASS
  1
EXACXREFPANELOBJECT
  2
ExAcXREFPanelObject
  3
EXAC_ESW
 90
     1025
 91
        1
280
     0
281
     0
  0
CLASS
  1
NPOCOLLECTION
  2
AcDbImpNonPersistentObjectsCollection
  3
ObjectDBX Classes
 90
     1153
 91
        1
280
     0
281
     0
  0
CLASS
  1
SORTENTSTABLE
  2
AcDbSortentsTable
  3
ObjectDBX Classes
 90
        0
 91
        3
280
     0
281
     0
  0
CLASS
  1
ACDBSECTIONVIEWSTYLE
  2
AcDbSectionViewStyle
  3
ObjectDBX Classes
 90
     1025
 91
        1
280
     0
281
     0
  0
CLASS
  1
ACDBDETAILVIEWSTYLE
  2
AcDbDetailViewStyle
  3
ObjectDBX Classes
 90
     1025
 91
        1
280
     0
281
     0
  0
CLASS
  1
CELLSTYLEMAP
  2
AcDbCellStyleMap
  3
ObjectDBX Classes
 90
     1152
 91
        1
280
     0
281
     0
  0
ENDSEC
  0
SECTION
  2
TABLES
  0
TABLE
  2
VPORT
  5
8
330
0
100
AcDbSymbolTable
 70
     1
  0
VPORT
  5
29
330
8
100
AcDbSymbolTableRecord
100
AcDbViewportTableRecord
  2
*Active
 70
     0
 10
0.0
 20
0.0
 11
1.0
 21
1.0
 12
-1852.696315869487
 22
-4105.583113336201
 13
0.0
 23
0.0
 14
0.5
 24
0.5
 15
0.5
 25
0.5
 16
0.0
 26
0.0
 36
1.0
 17
148.4999796178229
 27
-105.0008259828643
 37
0.0
 40
12754.64618265305
 41
2.292712066905615
 42
50.0
 43
0.0
 44
0.0
 50
0.0
 51
0.0
 71
     0
 72
   100
 73
     1
 74
     3
 75
     0
 76
     0
 77
     0
 78
     0
281
     0
 65
     1
110
0.0
120
0.0
130
0.0
111
1.0
121
0.0
131
0.0
112
0.0
122
1.0
132
0.0
 79
     0
146
0.0
348
2F
 60
     3
 61
     5
292
     1
282
     1
141
0.0
142
0.0
 63
   250
421
  3355443
1001
ACAD_NAV_VCDISPLAY
1070
     3
  0
ENDTAB
  0
TABLE
  2
LTYPE
  5
5
330
0
100
AcDbSymbolTable
 70
     1
  0
LTYPE
  5
14
330
5
100
AcDbSymbolTableRecord
100
AcDbLinetypeTableRecord
  2
ByBlock
 70
     0
  3

 72
    65
 73
     0
 40
0.0
  0
LTYPE
  5
15
330
5
100
AcDbSymbolTableRecord
100
AcDbLinetypeTableRecord
  2
ByLayer
 70
     0
  3

 72
    65
 73
     0
 40
0.0
  0
LTYPE
  5
16
330
5
100
AcDbSymbolTableRecord
100
AcDbLinetypeTableRecord
  2
Continuous
 70
     0
  3
Solid line
 72
    65
 73
     0
 40
0.0
  0
ENDTAB
  0
TABLE
  2
LAYER
  5
2
102
{ACAD_XDICTIONARY
360
44B
102
}
330
0
100
AcDbSymbolTable
 70
     5
  0
LAYER
  5
10
102
{ACAD_XDICTIONARY
360
444
102
}
330
2
100
AcDbSymbolTableRecord
100
AcDbLayerTableRecord
  2
0
 70
     0
 62
     7
  6
Continuous
370
    -3
390
F
347
410
348
0
  0
LAYER
  5
3B
102
{ACAD_XDICTIONARY
360
446
102
}
330
2
100
AcDbSymbolTableRecord
100
AcDbLayerTableRecord
  2
Layer 1
 70
     0
 62
     7
  6
Continuous
370
    -3
390
F
347
410
348
0
  0
LAYER
  5
7C1
330
2
100
AcDbSymbolTableRecord
100
AcDbLayerTableRecord
  2
Dimensions
 70
     0
 62
     7
  6
Continuous
370
    -3
390
F
347
410
348
0
1001
AcAecLayerStandard
1000

1000

1001
AcCmTransparency
1071
        0
  0
LAYER
  5
7C4
330
2
100
AcDbSymbolTableRecord
100
AcDbLayerTableRecord
  2
Text
 70
     0
 62
     7
  6
Continuous
370
    -3
390
F
347
410
348
0
1001
AcAecLayerStandard
1000

1000

1001
AcCmTransparency
1071
        0
  0
LAYER
  5
7C5
330
2
100
AcDbSymbolTableRecord
100
AcDbLayerTableRecord
  2
Furniture
 70
     0
 62
     7
  6
Continuous
370
    -3
390
F
347
410
348
0
1001
AcAecLayerStandard
1000

1000

1001
AcCmTransparency
1071
        0
  0
ENDTAB
  0
TABLE
  2
STYLE
  5
3
330
0
100
AcDbSymbolTable
 70
     1
  0
STYLE
  5
11
330
3
100
AcDbSymbolTableRecord
100
AcDbTextStyleTableRecord
  2
Standard
 70
     0
 40
0.0
 41
1.000099999999999
 50
0.0
 71
     0
 42
0.2
  3
apercu_regular-webfont.ttf
  4

1001
ACAD
1000
Apercu
1071
        2
  0
ENDTAB
  0
TABLE
  2
VIEW
  5
6
330
0
100
AcDbSymbolTable
 70
     1
  0
ENDTAB
  0
TABLE
  2
UCS
  5
7
330
0
100
AcDbSymbolTable
 70
     0
  0
ENDTAB
  0
TABLE
  2
APPID
  5
9
330
0
100
AcDbSymbolTable
 70
     6
  0
APPID
  5
12
330
9
100
AcDbSymbolTableRecord
100
AcDbRegAppTableRecord
  2
ACAD
 70
     0
  0
APPID
  5
45F
330
9
100
AcDbSymbolTableRecord
100
AcDbRegAppTableRecord
  2
ACAD_EXEMPT_FROM_CAD_STANDARDS
 70
     0
  0
APPID
  5
7C2
330
9
100
AcDbSymbolTableRecord
100
AcDbRegAppTableRecord
  2
AcAecLayerStandard
 70
     0
  0
APPID
  5
7C3
330
9
100
AcDbSymbolTableRecord
100
AcDbRegAppTableRecord
  2
AcCmTransparency
 70
     0
  0
APPID
  5
7CD
330
9
100
AcDbSymbolTableRecord
100
AcDbRegAppTableRecord
  2
ACAD_NAV_VCDISPLAY
 70
     0
  0
APPID
  5
81B
330
9
100
AcDbSymbolTableRecord
100
AcDbRegAppTableRecord
  2
AcadAnnoPO
 70
     0
  0
ENDTAB
  0
TABLE
  2
DIMSTYLE
  5
A
330
0
100
AcDbSymbolTable
 70
     1
100
AcDbDimStyleTable
 71
     1
340
27
  0
DIMSTYLE
105
27
330
A
100
AcDbSymbolTableRecord
100
AcDbDimStyleTableRecord
  2
Standard
 70
     0
340
11
  0
ENDTAB
  0
TABLE
  2
BLOCK_RECORD
  5
1
330
0
100
AcDbSymbolTable
 70
    27
  0
BLOCK_RECORD
  5
1F
102
{ACAD_XDICTIONARY
360
492
102
}
330
1
100
AcDbSymbolTableRecord
100
AcDbBlockTableRecord
  2
*Model_Space
340
22
 70
     0
280
     1
281
     0
  0
BLOCK_RECORD
  5
1B
330
1
100
AcDbSymbolTableRecord
100
AcDbBlockTableRecord
  2
*Paper_Space
340
1E
 70
     0
280
     1
281
     0
  0
BLOCK_RECORD
  5
23
330
1
100
AcDbSymbolTableRecord
100
AcDbBlockTableRecord
  2
*Paper_Space0
340
26
 70
     0
280
     1
281
     0
  0
BLOCK_RECORD
  5
3C
330
1
100
AcDbSymbolTableRecord
100
AcDbBlockTableRecord
  2
block 2
340
0
102
{BLKREFS
331
3D
102
}
 70
     0
280
     1
281
     0
  0
BLOCK_RECORD
  5
40
330
1
100
AcDbSymbolTableRecord
100
AcDbBlockTableRecord
  2
block 3
340
0
102
{BLKREFS
331
41
102
}
 70
     0
280
     1
281
     0
  0
BLOCK_RECORD
  5
44
330
1
100
AcDbSymbolTableRecord
100
AcDbBlockTableRecord
  2
block 4
340
0
102
{BLKREFS
331
45
102
}
 70
     0
280
     1
281
     0
  0
BLOCK_RECORD
  5
48
330
1
100
AcDbSymbolTableRecord
100
AcDbBlockTableRecord
  2
block 5
340
0
102
{BLKREFS
331
49
102
}
 70
     0
280
     1
281
     0
  0
BLOCK_RECORD
  5
4C
330
1
100
AcDbSymbolTableRecord
100
AcDbBlockTableRecord
  2
block 6
340
0
102
{BLKREFS
331
4D
102
}
 70
     0
280
     1
281
     0
  0
BLOCK_RECORD
  5
54
330
1
100
AcDbSymbolTableRecord
100
AcDbBlockTableRecord
  2
block 7
340
0
 70
     0
280
     1
281
     0
  0
BLOCK_RECORD
  5
89
330
1
100
AcDbSymbolTableRecord
100
AcDbBlockTableRecord
  2
block 8
340
0
 70
     0
280
     1
281
     0
  0
BLOCK_RECORD
  5
CA
330
1
100
AcDbSymbolTableRecord
100
AcDbBlockTableRecord
  2
block 9
340
0
 70
     0
280
     1
281
     0
  0
BLOCK_RECORD
  5
10B
330
1
100
AcDbSymbolTableRecord
100
AcDbBlockTableRecord
  2
block 10
340
0
 70
     0
280
     1
281
     0
  0
BLOCK_RECORD
  5
14B
330
1
100
AcDbSymbolTableRecord
100
AcDbBlockTableRecord
  2
block 11
340
0
 70
     0
280
     1
281
     0
  0
BLOCK_RECORD
  5
191
330
1
100
AcDbSymbolTableRecord
100
AcDbBlockTableRecord
  2
block 12
340
0
 70
     0
280
     1
281
     0
  0
BLOCK_RECORD
  5
1C9
330
1
100
AcDbSymbolTableRecord
100
AcDbBlockTableRecord
  2
block 13
340
0
 70
     0
280
     1
281
     0
  0
BLOCK_RECORD
  5
1E9
330
1
100
AcDbSymbolTableRecord
100
AcDbBlockTableRecord
  2
block 14
340
0
 70
     0
280
     1
281
     0
  0
BLOCK_RECORD
  5
20B
330
1
100
AcDbSymbolTableRecord
100
AcDbBlockTableRecord
  2
block 15
340
0
 70
     0
280
     1
281
     0
  0
BLOCK_RECORD
  5
292
330
1
100
AcDbSymbolTableRecord
100
AcDbBlockTableRecord
  2
block 16
340
0
 70
     0
280
     1
281
     0
  0
BLOCK_RECORD
  5
296
330
1
100
AcDbSymbolTableRecord
100
AcDbBlockTableRecord
  2
block 17
340
0
102
{BLKREFS
331
297
102
}
 70
     0
280
     1
281
     0
  0
BLOCK_RECORD
  5
2D6
330
1
100
AcDbSymbolTableRecord
100
AcDbBlockTableRecord
  2
block 18
340
0
102
{BLKREFS
331
2D7
331
6E5
102
}
 70
     0
280
     1
281
     0
  0
BLOCK_RECORD
  5
329
330
1
100
AcDbSymbolTableRecord
100
AcDbBlockTableRecord
  2
block 19
340
0
 70
     0
280
     1
281
     0
  0
BLOCK_RECORD
  5
32D
330
1
100
AcDbSymbolTableRecord
100
AcDbBlockTableRecord
  2
block 20
340
0
102
{BLKREFS
331
32E
102
}
 70
     0
280
     1
281
     0
  0
BLOCK_RECORD
  5
3BD
330
1
100
AcDbSymbolTableRecord
100
AcDbBlockTableRecord
  2
block 21
340
0
 70
     0
280
     1
281
     0
  0
BLOCK_RECORD
  5
3DE
330
1
100
AcDbSymbolTableRecord
100
AcDbBlockTableRecord
  2
block 22
340
0
102
{BLKREFS
331
3DF
102
}
 70
     0
280
     1
281
     0
  0
BLOCK_RECORD
  5
3E2
330
1
100
AcDbSymbolTableRecord
100
AcDbBlockTableRecord
  2
block 23
340
0
102
{BLKREFS
331
3E3
102
}
 70
     0
280
     1
281
     0
  0
BLOCK_RECORD
  5
3E6
330
1
100
AcDbSymbolTableRecord
100
AcDbBlockTableRecord
  2
block 24
340
0
102
{BLKREFS
331
3E7
102
}
 70
     0
280
     1
281
     0
  0
BLOCK_RECORD
  5
3EA
330
1
100
AcDbSymbolTableRecord
100
AcDbBlockTableRecord
  2
block 25
340
0
102
{BLKREFS
331
3EB
102
}
 70
     0
280
     1
281
     0
  0
BLOCK_RECORD
  5
82D
102
{ACAD_XDICTIONARY
360
936
102
}
330
1
100
AcDbSymbolTableRecord
100
AcDbBlockTableRecord
  2
A$C7D515EA7
340
0
 70
     1
280
     1
281
     0
  0
BLOCK_RECORD
  5
93A
102
{ACAD_XDICTIONARY
360
93D
102
}
330
1
100
AcDbSymbolTableRecord
100
AcDbBlockTableRecord
  2
A$C05CE5150
340
0
 70
     1
280
     1
281
     0
  0
ENDTAB
  0
ENDSEC
  0
SECTION
  2
BLOCKS
  0
BLOCK
  5
20
330
1F
100
AcDbEntity
  8
0
100
AcDbBlockBegin
  2
*Model_Space
 70
     0
 10
0.0
 20
0.0
 30
0.0
  3
*Model_Space
  1

  0
ENDBLK
  5
21
330
1F
100
AcDbEntity
  8
0
100
AcDbBlockEnd
  0
BLOCK
  5
1C
330
1B
100
AcDbEntity
 67
     1
  8
0
100
AcDbBlockBegin
  2
*Paper_Space
 70
     0
 10
0.0
 20
0.0
 30
0.0
  3
*Paper_Space
  1

  0
ENDBLK
  5
1D
330
1B
100
AcDbEntity
 67
     1
  8
0
100
AcDbBlockEnd
  0
BLOCK
  5
24
330
23
100
AcDbEntity
 67
     1
  8
0
100
AcDbBlockBegin
  2
*Paper_Space0
 70
     0
 10
0.0
 20
0.0
 30
0.0
  3
*Paper_Space0
  1

  0
ENDBLK
  5
25
330
23
100
AcDbEntity
 67
     1
  8
0
100
AcDbBlockEnd
  0
BLOCK
  5
3E
330
3C
100
AcDbEntity
  8
0
100
AcDbBlockBegin
  2
block 2
 70
     0
 10
0.0
 20
0.0
 30
0.0
  3
block 2
  1

  0
ENDBLK
  5
3F
330
3C
100
AcDbEntity
  8
0
100
AcDbBlockEnd
  0
BLOCK
  5
42
330
40
100
AcDbEntity
  8
0
100
AcDbBlockBegin
  2
block 3
 70
     0
 10
0.0
 20
0.0
 30
0.0
  3
block 3
  1

  0
ENDBLK
  5
43
330
40
100
AcDbEntity
  8
0
100
AcDbBlockEnd
  0
BLOCK
  5
46
330
44
100
AcDbEntity
  8
0
100
AcDbBlockBegin
  2
block 4
 70
     0
 10
0.0
 20
0.0
 30
0.0
  3
block 4
  1

  0
INSERT
  5
49
330
44
100
AcDbEntity
  8
Layer 1
100
AcDbBlockReference
  2
block 5
 10
0.0
 20
0.0
 30
0.0
  0
INSERT
  5
4D
330
44
100
AcDbEntity
  8
Layer 1
100
AcDbBlockReference
  2
block 6
 10
0.0
 20
0.0
 30
0.0
  0
ENDBLK
  5
47
330
44
100
AcDbEntity
  8
0
100
AcDbBlockEnd
  0
BLOCK
  5
4A
330
48
100
AcDbEntity
  8
0
100
AcDbBlockBegin
  2
block 5
 70
     0
 10
0.0
 20
0.0
 30
0.0
  3
block 5
  1

  0
ENDBLK
  5
4B
330
48
100
AcDbEntity
  8
0
100
AcDbBlockEnd
  0
BLOCK
  5
4E
330
4C
100
AcDbEntity
  8
0
100
AcDbBlockBegin
  2
block 6
 70
     0
 10
0.0
 20
0.0
 30
0.0
  3
block 6
  1

  0
ENDBLK
  5
4F
330
4C
100
AcDbEntity
  8
0
100
AcDbBlockEnd
  0
BLOCK
  5
56
330
54
100
AcDbEntity
  8
0
100
AcDbBlockBegin
  2
block 7
 70
     0
 10
0.0
 20
0.0
 30
0.0
  3
block 7
  1

  0
POLYLINE
  5
58
330
54
100
AcDbEntity
  8
Layer 1
 62
   250
370
     9
100
AcDb2dPolyline
 66
     1
 10
0.0
 20
0.0
 30
0.0
  0
VERTEX
  5
59
330
58
100
AcDbEntity
  8
Layer 1
 62
   250
370
     9
100
AcDbVertex
100
AcDb2dVertex
 10
197.6392713264582
 20
-69.18061792975345
 30
0.0
  0
VERTEX
  5
5A
330
58
100
AcDbEntity
  8
Layer 1
 62
   250
370
     9
100
AcDbVertex
100
AcDb2dVertex
 10
197.6392713264582
 20
-60.72256400391658
 30
0.0
  0
SEQEND
  5
5B
330
58
100
AcDbEntity
  8
Layer 1
370
     9
  0
POLYLINE
  5
5C
330
54
100
AcDbEntity
  8
Layer 1
 62
   250
370
     9
100
AcDb2dPolyline
 66
     1
 10
0.0
 20
0.0
 30
0.0
  0
VERTEX
  5
5D
330
5C
100
AcDbEntity
  8
Layer 1
 62
   250
370
     9
100
AcDbVertex
100
AcDb2dVertex
 10
197.6392713264582
 20
-60.72256400391658
 30
0.0
  0
VERTEX
  5
5E
330
5C
100
AcDbEntity
  8
Layer 1
 62
   250
370
     9
100
AcDbVertex
100
AcDb2dVertex
 10
205.1357991023619
 20
-60.72256400391658
 30
0.0
  0
SEQEND
  5
5F
330
5C
100
AcDbEntity
  8
Layer 1
370
     9
  0
POLYLINE
  5
60
330
54
100
AcDbEntity
  8
Layer 1
 62
   250
370
     9
100
AcDb2dPolyline
 66
     1
 10
0.0
 20
0.0
 30
0.0
  0
VERTEX
  5
61
330
60
100
AcDbEntity
  8
Layer 1
 62
   250
370
     9
100
AcDbVertex
100
AcDb2dVertex
 10
197.6392713264582
 20
-69.18061792975345
 30
0.0
  0
VERTEX
  5
62
330
60
100
AcDbEntity
  8
Layer 1
 62
   250
370
     9
100
AcDbVertex
100
AcDb2dVertex
 10
198.215291291592
 20
-69.18061792975345
 30
0.0
  0
SEQEND
  5
63
330
60
100
AcDbEntity
  8
Layer 1
370
     9
  0
POLYLINE
  5
64
330
54
100
AcDbEntity
  8
Layer 1
 62
   250
370
     9
100
AcDb2dPolyline
 66
     1
 10
0.0
 20
0.0
 30
0.0
  0
VERTEX
  5
65
330
64
100
AcDbEntity
  8
Layer 1
 62
   250
370
     9
100
AcDbVertex
100
AcDb2dVertex
 10
198.4840087394415
 20
-61.58762748026282
 30
0.0
  0
VERTEX
  5
66
330
64
100
AcDbEntity
  8
Layer 1
 62
   250
370
     9
100
AcDbVertex
100
AcDb2dVertex
 10
205.1357991023619
 20
-61.58762748026282
 30
0.0
  0
SEQEND
  5
67
330
64
100
AcDbEntity
  8
Layer 1
370
     9
  0
POLYLINE
  5
68
330
54
100
AcDbEntity
  8
Layer 1
 62
   250
370
     9
100
AcDb2dPolyline
 66
     1
 10
0.0
 20
0.0
 30
0.0
  0
VERTEX
  5
69
330
68
100
AcDbEntity
  8
Layer 1
 62
   250
370
     9
100
AcDbVertex
100
AcDb2dVertex
 10
198.4840087394415
 20
-61.58762748026282
 30
0.0
  0
VERTEX
  5
6A
330
68
100
AcDbEntity
  8
Layer 1
 62
   250
370
     9
100
AcDbVertex
100
AcDb2dVertex
 10
198.215291291592
 20
-69.18061792975345
 30
0.0
  0
SEQEND
  5
6B
330
68
100
AcDbEntity
  8
Layer 1
370
     9
  0
POLYLINE
  5
6C
330
54
100
AcDbEntity
  8
Layer 1
 62
   250
370
     9
100
AcDb2dPolyline
 66
     1
 10
0.0
 20
0.0
 30
0.0
  0
VERTEX
  5
6D
330
6C
100
AcDbEntity
  8
Layer 1
 62
   250
370
     9
100
AcDbVertex
100
AcDb2dVertex
 10
205.9047444146697
 20
-60.72256400391658
 30
0.0
  0
VERTEX
  5
6E
330
6C
100
AcDbEntity
  8
Layer 1
 62
   250
370
     9
100
AcDbVertex
100
AcDb2dVertex
 10
205.9047444146697
 20
-61.58762748026282
 30
0.0
  0
SEQEND
  5
6F
330
6C
100
AcDbEntity
  8
Layer 1
370
     9
  0
POLYLINE
  5
70
330
54
100
AcDbEntity
  8
Layer 1
 62
   250
370
     9
100
AcDb2dPolyline
 66
     1
 10
0.0
 20
0.0
 30
0.0
  0
VERTEX
  5
71
330
70
100
AcDbEntity
  8
Layer 1
 62
   250
370
     9
100
AcDbVertex
100
AcDb2dVertex
 10
205.1357991023619
 20
-60.72256400391658
 30
0.0
  0
VERTEX
  5
72
330
70
100
AcDbEntity
  8
Layer 1
 62
   250
370
     9
100
AcDbVertex
100
AcDb2dVertex
 10
206.0005180691596
 20
-54.37945419647459
 30
0.0
  0
SEQEND
  5
73
330
70
100
AcDbEntity
  8
Layer 1
370
     9
  0
POLYLINE
  5
74
330
54
100
AcDbEntity
  8
Layer 1
 62
   250
370
     9
100
AcDb2dPolyline
 66
     1
 10
0.0
 20
0.0
 30
0.0
  0
VERTEX
  5
75
330
74
100
AcDbEntity
  8
Layer 1
 62
   250
370
     9
100
AcDbVertex
100
AcDb2dVertex
 10
206.0005180691596
 20
-54.37945419647459
 30
0.0
  0
VERTEX
  5
76
330
74
100
AcDbEntity
  8
Layer 1
 62
   250
370
     9
100
AcDbVertex
100
AcDb2dVertex
 10
206.3843017062164
 20
-54.37945419647459
 30
0.0
  0
SEQEND
  5
77
330
74
100
AcDbEntity
  8
Layer 1
370
     9
  0
POLYLINE
  5
78
330
54
100
AcDbEntity
  8
Layer 1
 62
   250
370
     9
100
AcDb2dPolyline
 66
     1
 10
0.0
 20
0.0
 30
0.0
  0
VERTEX
  5
79
330
78
100
AcDbEntity
  8
Layer 1
 62
   250
370
     9
100
AcDbVertex
100
AcDb2dVertex
 10
206.3843017062164
 20
-54.37945419647459
 30
0.0
  0
VERTEX
  5
7A
330
78
100
AcDbEntity
  8
Layer 1
 62
   250
370
     9
100
AcDbVertex
100
AcDb2dVertex
 10
205.9047444146697
 20
-60.72256400391658
 30
0.0
  0
SEQEND
  5
7B
330
78
100
AcDbEntity
  8
Layer 1
370
     9
  0
POLYLINE
  5
7C
330
54
100
AcDbEntity
  8
Layer 1
 62
   250
370
     9
100
AcDb2dPolyline
 66
     1
 10
0.0
 20
0.0
 30
0.0
  0
VERTEX
  5
7D
330
7C
100
AcDbEntity
  8
Layer 1
 62
   250
370
     9
100
AcDbVertex
100
AcDb2dVertex
 10
205.1357991023619
 20
-61.58762748026282
 30
0.0
  0
VERTEX
  5
7E
330
7C
100
AcDbEntity
  8
Layer 1
 62
   250
370
     9
100
AcDbVertex
100
AcDb2dVertex
 10
205.8082817410827
 20
-69.18061792975345
 30
0.0
  0
SEQEND
  5
7F
330
7C
100
AcDbEntity
  8
Layer 1
370
     9
  0
POLYLINE
  5
80
330
54
100
AcDbEntity
  8
Layer 1
 62
   250
370
     9
100
AcDb2dPolyline
 66
     1
 10
0.0
 20
0.0
 30
0.0
  0
VERTEX
  5
81
330
80
100
AcDbEntity
  8
Layer 1
 62
   250
370
     9
100
AcDbVertex
100
AcDb2dVertex
 10
205.8082817410827
 20
-69.18061792975345
 30
0.0
  0
VERTEX
  5
82
330
80
100
AcDbEntity
  8
Layer 1
 62
   250
370
     9
100
AcDbVertex
100
AcDb2dVertex
 10
206.3843017062164
 20
-69.18061792975345
 30
0.0
  0
SEQEND
  5
83
330
80
100
AcDbEntity
  8
Layer 1
370
     9
  0
POLYLINE
  5
84
330
54
100
AcDbEntity
  8
Layer 1
 62
   250
370
     9
100
AcDb2dPolyline
 66
     1
 10
0.0
 20
0.0
 30
0.0
  0
VERTEX
  5
85
330
84
100
AcDbEntity
  8
Layer 1
 62
   250
370
     9
100
AcDbVertex
100
AcDb2dVertex
 10
206.3843017062164
 20
-69.18061792975345
 30
0.0
  0
VERTEX
  5
86
330
84
100
AcDbEntity
  8
Layer 1
 62
   250
370
     9
100
AcDbVertex
100
AcDb2dVertex
 10
205.9047444146697
 20
-61.58762748026282
 30
0.0
  0
SEQEND
  5
87
330
84
100
AcDbEntity
  8
Layer 1
370
     9
  0
ENDBLK
  5
57
330
54
100
AcDbEntity
  8
0
100
AcDbBlockEnd
  0
BLOCK
  5
8B
330
89
100
AcDbEntity
  8
0
100
AcDbBlockBegin
  2
block 8
 70
     0
 10
0.0
 20
0.0
 30
0.0
  3
block 8
  1

  0
POLYLINE
  5
8D
330
89
100
AcDbEntity
  8
Layer 1
 62
   250
370
     9
100
AcDb2dPolyline
 66
     1
 10
0.0
 20
0.0
 30
0.0
  0
VERTEX
  5
8E
330
8D
100
AcDbEntity
  8
Layer 1
 62
   250
370
     9
100
AcDbVertex
100
AcDb2dVertex
 10
197.6489175938169
 20
-105.1918565275214
 30
0.0
  0
VERTEX
  5
8F
330
8D
100
AcDbEntity
  8
Layer 1
 62
   250
370
     9
100
AcDbVertex
100
AcDb2dVertex
 10
197.6489175938169
 20
-92.12081974693509
 30
0.0
  0
SEQEND
  5
90
330
8D
100
AcDbEntity
  8
Layer 1
370
     9
  0
POLYLINE
  5
91
330
89
100
AcDbEntity
  8
Layer 1
 62
   250
370
     9
100
AcDb2dPolyline
 66
     1
 10
0.0
 20
0.0
 30
0.0
  0
VERTEX
  5
92
330
91
100
AcDbEntity
  8
Layer 1
 62
   250
370
     9
100
AcDbVertex
100
AcDb2dVertex
 10
197.6489175938169
 20
-92.12081974693509
 30
0.0
  0
VERTEX
  5
93
330
91
100
AcDbEntity
  8
Layer 1
 62
   250
370
     9
100
AcDbVertex
100
AcDb2dVertex
 10
204.9911050919814
 20
-92.12081974693509
 30
0.0
  0
SEQEND
  5
94
330
91
100
AcDbEntity
  8
Layer 1
370
     9
  0
POLYLINE
  5
95
330
89
100
AcDbEntity
  8
Layer 1
 62
   250
370
     9
100
AcDb2dPolyline
 66
     1
 10
0.0
 20
0.0
 30
0.0
  0
VERTEX
  5
96
330
95
100
AcDbEntity
  8
Layer 1
 62
   250
370
     9
100
AcDbVertex
100
AcDb2dVertex
 10
197.6489175938169
 20
-105.1918565275214
 30
0.0
  0
VERTEX
  5
97
330
95
100
AcDbEntity
  8
Layer 1
 62
   250
370
     9
100
AcDbVertex
100
AcDb2dVertex
 10
198.2249375589507
 20
-105.1918565275214
 30
0.0
  0
SEQEND
  5
98
330
95
100
AcDbEntity
  8
Layer 1
370
     9
  0
POLYLINE
  5
99
330
89
100
AcDbEntity
  8
Layer 1
 62
   250
370
     9
100
AcDb2dPolyline
 66
     1
 10
0.0
 20
0.0
 30
0.0
  0
VERTEX
  5
9A
330
99
100
AcDbEntity
  8
Layer 1
 62
   250
370
     9
100
AcDbVertex
100
AcDb2dVertex
 10
198.4750514911798
 20
-93.08165687777124
 30
0.0
  0
VERTEX
  5
9B
330
99
100
AcDbEntity
  8
Layer 1
 62
   250
370
     9
100
AcDbVertex
100
AcDb2dVertex
 10
204.9911050919814
 20
-93.08165687777124
 30
0.0
  0
SEQEND
  5
9C
330
99
100
AcDbEntity
  8
Layer 1
370
     9
  0
POLYLINE
  5
9D
330
89
100
AcDbEntity
  8
Layer 1
 62
   250
370
     9
100
AcDb2dPolyline
 66
     1
 10
0.0
 20
0.0
 30
0.0
  0
VERTEX
  5
9E
330
9D
100
AcDbEntity
  8
Layer 1
 62
   250
370
     9
100
AcDbVertex
100
AcDb2dVertex
 10
198.4750514911798
 20
-93.08165687777124
 30
0.0
  0
VERTEX
  5
9F
330
9D
100
AcDbEntity
  8
Layer 1
 62
   250
370
     9
100
AcDbVertex
100
AcDb2dVertex
 10
198.2249375589507
 20
-105.1918565275214
 30
0.0
  0
SEQEND
  5
A0
330
9D
100
AcDbEntity
  8
Layer 1
370
     9
  0
POLYLINE
  5
A1
330
89
100
AcDbEntity
  8
Layer 1
 62
   250
370
     9
100
AcDb2dPolyline
 66
     1
 10
0.0
 20
0.0
 30
0.0
  0
VERTEX
  5
A2
330
A1
100
AcDbEntity
  8
Layer 1
 62
   250
370
     9
100
AcDbVertex
100
AcDb2dVertex
 10
205.8565130778762
 20
-86.93061114363194
 30
0.0
  0
VERTEX
  5
A3
330
A1
100
AcDbEntity
  8
Layer 1
 62
   250
370
     9
100
AcDbVertex
100
AcDb2dVertex
 10
204.9911050919814
 20
-92.12081974693509
 30
0.0
  0
SEQEND
  5
A4
330
A1
100
AcDbEntity
  8
Layer 1
370
     9
  0
POLYLINE
  5
A5
330
89
100
AcDbEntity
  8
Layer 1
 62
   250
370
     9
100
AcDb2dPolyline
 66
     1
 10
0.0
 20
0.0
 30
0.0
  0
VERTEX
  5
A6
330
A5
100
AcDbEntity
  8
Layer 1
 62
   250
370
     9
100
AcDbVertex
100
AcDb2dVertex
 10
205.8565130778762
 20
-86.93061114363194
 30
0.0
  0
VERTEX
  5
A7
330
A5
100
AcDbEntity
  8
Layer 1
 62
   250
370
     9
100
AcDbVertex
100
AcDb2dVertex
 10
206.24098573403
 20
-86.93061114363194
 30
0.0
  0
SEQEND
  5
A8
330
A5
100
AcDbEntity
  8
Layer 1
370
     9
  0
POLYLINE
  5
A9
330
89
100
AcDbEntity
  8
Layer 1
 62
   250
370
     9
100
AcDb2dPolyline
 66
     1
 10
0.0
 20
0.0
 30
0.0
  0
VERTEX
  5
AA
330
A9
100
AcDbEntity
  8
Layer 1
 62
   250
370
     9
100
AcDbVertex
100
AcDb2dVertex
 10
206.24098573403
 20
-86.93061114363194
 30
0.0
  0
VERTEX
  5
AB
330
A9
100
AcDbEntity
  8
Layer 1
 62
   250
370
     9
100
AcDbVertex
100
AcDb2dVertex
 10
205.799324492821
 20
-92.12081974693509
 30
0.0
  0
SEQEND
  5
AC
330
A9
100
AcDbEntity
  8
Layer 1
370
     9
  0
POLYLINE
  5
AD
330
89
100
AcDbEntity
  8
Layer 1
 62
   250
370
     9
100
AcDb2dPolyline
 66
     1
 10
0.0
 20
0.0
 30
0.0
  0
VERTEX
  5
AE
330
AD
100
AcDbEntity
  8
Layer 1
 62
   250
370
     9
100
AcDbVertex
100
AcDb2dVertex
 10
205.799324492821
 20
-92.12081974693509
 30
0.0
  0
VERTEX
  5
AF
330
AD
100
AcDbEntity
  8
Layer 1
 62
   250
370
     9
100
AcDbVertex
100
AcDb2dVertex
 10
205.799324492821
 20
-93.08165687777124
 30
0.0
  0
SEQEND
  5
B0
330
AD
100
AcDbEntity
  8
Layer 1
370
     9
  0
POLYLINE
  5
B1
330
89
100
AcDbEntity
  8
Layer 1
 62
   250
370
     9
100
AcDb2dPolyline
 66
     1
 10
0.0
 20
0.0
 30
0.0
  0
VERTEX
  5
B2
330
B1
100
AcDbEntity
  8
Layer 1
 62
   250
370
     9
100
AcDbVertex
100
AcDb2dVertex
 10
204.9911050919814
 20
-93.08165687777124
 30
0.0
  0
VERTEX
  5
B3
330
B1
100
AcDbEntity
  8
Layer 1
 62
   250
370
     9
100
AcDbVertex
100
AcDb2dVertex
 10
205.799324492821
 20
-105.1918565275214
 30
0.0
  0
SEQEND
  5
B4
330
B1
100
AcDbEntity
  8
Layer 1
370
     9
  0
POLYLINE
  5
B5
330
89
100
AcDbEntity
  8
Layer 1
 62
   250
370
     9
100
AcDb2dPolyline
 66
     1
 10
0.0
 20
0.0
 30
0.0
  0
VERTEX
  5
B6
330
B5
100
AcDbEntity
  8
Layer 1
 62
   250
370
     9
100
AcDbVertex
100
AcDb2dVertex
 10
205.799324492821
 20
-105.1918565275214
 30
0.0
  0
VERTEX
  5
B7
330
B5
100
AcDbEntity
  8
Layer 1
 62
   250
370
     9
100
AcDbVertex
100
AcDb2dVertex
 10
206.3753444579548
 20
-105.1918565275214
 30
0.0
  0
SEQEND
  5
B8
330
B5
100
AcDbEntity
  8
Layer 1
370
     9
  0
POLYLINE
  5
B9
330
89
100
AcDbEntity
  8
Layer 1
 62
   250
370
     9
100
AcDb2dPolyline
 66
     1
 10
0.0
 20
0.0
 30
0.0
  0
VERTEX
  5
BA
330
B9
100
AcDbEntity
  8
Layer 1
 62
   250
370
     9
100
AcDbVertex
100
AcDb2dVertex
 10
206.3753444579548
 20
-105.1918565275214
 30
0.0
  0
VERTEX
  5
BB
330
B9
100
AcDbEntity
  8
Layer 1
 62
   250
370
     9
100
AcDbVertex
100
AcDb2dVertex
 10
205.799324492821
 20
-93.08165687777124
 30
0.0
  0
SEQEND
  5
BC
330
B9
100
AcDbEntity
  8
Layer 1
370
     9
  0
POLYLINE
  5
BD
330
89
100
AcDbEntity
  8
Layer 1
 62
   250
370
     9
100
AcDb2dPolyline
 66
     1
 10
0.0
 20
0.0
 30
0.0
  0
VERTEX
  5
BE
330
BD
100
AcDbEntity
  8
Layer 1
 62
   250
370
     9
100
AcDbVertex
100
AcDb2dVertex
 10
198.2614555710943
 20
-103.4619018296033
 30
0.0
  0
VERTEX
  5
BF
330
BD
100
AcDbEntity
  8
Layer 1
 62
   250
370
     9
100
AcDbVertex
100
AcDb2dVertex
 10
205.6828802654195
 20
-103.4619018296033
 30
0.0
  0
SEQEND
  5
C0
330
BD
100
AcDbEntity
  8
Layer 1
370
     9
  0
POLYLINE
  5
C1
330
89
100
AcDbEntity
  8
Layer 1
 62
   250
370
     9
100
AcDb2dPolyline
 66
     1
 10
0.0
 20
0.0
 30
0.0
  0
VERTEX
  5
C2
330
C1
100
AcDbEntity
  8
Layer 1
 62
   250
370
     9
100
AcDbVertex
100
AcDb2dVertex
 10
205.6449842150818
 20
-102.8857096096952
 30
0.0
  0
VERTEX
  5
C3
330
C1
100
AcDbEntity
  8
Layer 1
 62
   250
370
     9
100
AcDbVertex
100
AcDb2dVertex
 10
198.2724798766471
 20
-102.8857096096952
 30
0.0
  0
SEQEND
  5
C4
330
C1
100
AcDbEntity
  8
Layer 1
370
     9
  0
ENDBLK
  5
8C
330
89
100
AcDbEntity
  8
0
100
AcDbBlockEnd
  0
BLOCK
  5
CC
330
CA
100
AcDbEntity
  8
0
100
AcDbBlockBegin
  2
block 9
 70
     0
 10
0.0
 20
0.0
 30
0.0
  3
block 9
  1

  0
POLYLINE
  5
CE
330
CA
100
AcDbEntity
  8
Layer 1
 62
   250
370
     9
100
AcDb2dPolyline
 66
     1
 10
0.0
 20
0.0
 30
0.0
  0
VERTEX
  5
CF
330
CE
100
AcDbEntity
  8
Layer 1
 62
   250
370
     9
100
AcDbVertex
100
AcDb2dVertex
 10
164.4602457271141
 20
-105.1918565275214
 30
0.0
  0
VERTEX
  5
D0
330
CE
100
AcDbEntity
  8
Layer 1
 62
   250
370
     9
100
AcDbVertex
100
AcDb2dVertex
 10
164.4602457271141
 20
-92.12081974693509
 30
0.0
  0
SEQEND
  5
D1
330
CE
100
AcDbEntity
  8
Layer 1
370
     9
  0
POLYLINE
  5
D2
330
CA
100
AcDbEntity
  8
Layer 1
 62
   250
370
     9
100
AcDb2dPolyline
 66
     1
 10
0.0
 20
0.0
 30
0.0
  0
VERTEX
  5
D3
330
D2
100
AcDbEntity
  8
Layer 1
 62
   250
370
     9
100
AcDbVertex
100
AcDb2dVertex
 10
171.8031222443756
 20
-92.12081974693509
 30
0.0
  0
VERTEX
  5
D4
330
D2
100
AcDbEntity
  8
Layer 1
 62
   250
370
     9
100
AcDbVertex
100
AcDb2dVertex
 10
164.4602457271141
 20
-92.12081974693509
 30
0.0
  0
VERTEX
  5
D5
330
D2
100
AcDbEntity
  8
Layer 1
 62
   250
370
     9
100
AcDbVertex
100
AcDb2dVertex
 10
164.4946966819666
 20
-91.76580265718007
 30
0.0
  0
VERTEX
  5
D6
330
D2
100
AcDbEntity
  8
Layer 1
 62
   250
370
     9
100
AcDbVertex
100
AcDb2dVertex
 10
171.8334390846458
 20
-91.76580265718007
 30
0.0
  0
SEQEND
  5
D7
330
D2
100
AcDbEntity
  8
Layer 1
370
     9
  0
POLYLINE
  5
D8
330
CA
100
AcDbEntity
  8
Layer 1
 62
   250
370
     9
100
AcDb2dPolyline
 66
     1
 10
0.0
 20
0.0
 30
0.0
  0
VERTEX
  5
D9
330
D8
100
AcDbEntity
  8
Layer 1
 62
   250
370
     9
100
AcDbVertex
100
AcDb2dVertex
 10
164.4602457271141
 20
-105.1918565275214
 30
0.0
  0
VERTEX
  5
DA
330
D8
100
AcDbEntity
  8
Layer 1
 62
   250
370
     9
100
AcDbVertex
100
AcDb2dVertex
 10
165.0369547113449
 20
-105.1918565275214
 30
0.0
  0
SEQEND
  5
DB
330
D8
100
AcDbEntity
  8
Layer 1
370
     9
  0
POLYLINE
  5
DC
330
CA
100
AcDbEntity
  8
Layer 1
 62
   250
370
     9
100
AcDb2dPolyline
 66
     1
 10
0.0
 20
0.0
 30
0.0
  0
VERTEX
  5
DD
330
DC
100
AcDbEntity
  8
Layer 1
 62
   250
370
     9
100
AcDbVertex
100
AcDb2dVertex
 10
165.2870686435741
 20
-93.08165687777124
 30
0.0
  0
VERTEX
  5
DE
330
DC
100
AcDbEntity
  8
Layer 1
 62
   250
370
     9
100
AcDbVertex
100
AcDb2dVertex
 10
171.8031222443756
 20
-93.08165687777124
 30
0.0
  0
SEQEND
  5
DF
330
DC
100
AcDbEntity
  8
Layer 1
370
     9
  0
POLYLINE
  5
E0
330
CA
100
AcDbEntity
  8
Layer 1
 62
   250
370
     9
100
AcDb2dPolyline
 66
     1
 10
0.0
 20
0.0
 30
0.0
  0
VERTEX
  5
E1
330
E0
100
AcDbEntity
  8
Layer 1
 62
   250
370
     9
100
AcDbVertex
100
AcDb2dVertex
 10
165.2870686435741
 20
-93.08165687777124
 30
0.0
  0
VERTEX
  5
E2
330
E0
100
AcDbEntity
  8
Layer 1
 62
   250
370
     9
100
AcDbVertex
100
AcDb2dVertex
 10
165.0369547113449
 20
-105.1918565275214
 30
0.0
  0
SEQEND
  5
E3
330
E0
100
AcDbEntity
  8
Layer 1
370
     9
  0
POLYLINE
  5
E4
330
CA
100
AcDbEntity
  8
Layer 1
 62
   250
370
     9
100
AcDb2dPolyline
 66
     1
 10
0.0
 20
0.0
 30
0.0
  0
VERTEX
  5
E5
330
E4
100
AcDbEntity
  8
Layer 1
 62
   250
370
     9
100
AcDbVertex
100
AcDb2dVertex
 10
171.8031222443756
 20
-92.12081974693509
 30
0.0
  0
VERTEX
  5
E6
330
E4
100
AcDbEntity
  8
Layer 1
 62
   250
370
     9
100
AcDbVertex
100
AcDb2dVertex
 10
172.6685302302703
 20
-86.93061114363194
 30
0.0
  0
SEQEND
  5
E7
330
E4
100
AcDbEntity
  8
Layer 1
370
     9
  0
POLYLINE
  5
E8
330
CA
100
AcDbEntity
  8
Layer 1
 62
   250
370
     9
100
AcDb2dPolyline
 66
     1
 10
0.0
 20
0.0
 30
0.0
  0
VERTEX
  5
E9
330
E8
100
AcDbEntity
  8
Layer 1
 62
   250
370
     9
100
AcDbVertex
100
AcDb2dVertex
 10
172.6685302302703
 20
-86.93061114363194
 30
0.0
  0
VERTEX
  5
EA
330
E8
100
AcDbEntity
  8
Layer 1
 62
   250
370
     9
100
AcDbVertex
100
AcDb2dVertex
 10
173.0530028864242
 20
-86.93061114363194
 30
0.0
  0
SEQEND
  5
EB
330
E8
100
AcDbEntity
  8
Layer 1
370
     9
  0
POLYLINE
  5
EC
330
CA
100
AcDbEntity
  8
Layer 1
 62
   250
370
     9
100
AcDb2dPolyline
 66
     1
 10
0.0
 20
0.0
 30
0.0
  0
VERTEX
  5
ED
330
EC
100
AcDbEntity
  8
Layer 1
 62
   250
370
     9
100
AcDbVertex
100
AcDb2dVertex
 10
173.0530028864242
 20
-86.93061114363194
 30
0.0
  0
VERTEX
  5
EE
330
EC
100
AcDbEntity
  8
Layer 1
 62
   250
370
     9
100
AcDbVertex
100
AcDb2dVertex
 10
172.6106526261181
 20
-92.12081974693509
 30
0.0
  0
SEQEND
  5
EF
330
EC
100
AcDbEntity
  8
Layer 1
370
     9
  0
POLYLINE
  5
F0
330
CA
100
AcDbEntity
  8
Layer 1
 62
   250
370
     9
100
AcDb2dPolyline
 66
     1
 10
0.0
 20
0.0
 30
0.0
  0
VERTEX
  5
F1
330
F0
100
AcDbEntity
  8
Layer 1
 62
   250
370
     9
100
AcDbVertex
100
AcDb2dVertex
 10
172.6106526261181
 20
-92.12081974693509
 30
0.0
  0
VERTEX
  5
F2
330
F0
100
AcDbEntity
  8
Layer 1
 62
   250
370
     9
100
AcDbVertex
100
AcDb2dVertex
 10
172.6106526261181
 20
-93.08165687777124
 30
0.0
  0
SEQEND
  5
F3
330
F0
100
AcDbEntity
  8
Layer 1
370
     9
  0
POLYLINE
  5
F4
330
CA
100
AcDbEntity
  8
Layer 1
 62
   250
370
     9
100
AcDb2dPolyline
 66
     1
 10
0.0
 20
0.0
 30
0.0
  0
VERTEX
  5
F5
330
F4
100
AcDbEntity
  8
Layer 1
 62
   250
370
     9
100
AcDbVertex
100
AcDb2dVertex
 10
171.8031222443756
 20
-93.08165687777124
 30
0.0
  0
VERTEX
  5
F6
330
F4
100
AcDbEntity
  8
Layer 1
 62
   250
370
     9
100
AcDbVertex
100
AcDb2dVertex
 10
172.6106526261181
 20
-105.1918565275214
 30
0.0
  0
SEQEND
  5
F7
330
F4
100
AcDbEntity
  8
Layer 1
370
     9
  0
POLYLINE
  5
F8
330
CA
100
AcDbEntity
  8
Layer 1
 62
   250
370
     9
100
AcDb2dPolyline
 66
     1
 10
0.0
 20
0.0
 30
0.0
  0
VERTEX
  5
F9
330
F8
100
AcDbEntity
  8
Layer 1
 62
   250
370
     9
100
AcDbVertex
100
AcDb2dVertex
 10
172.6106526261181
 20
-105.1918565275214
 30
0.0
  0
VERTEX
  5
FA
330
F8
100
AcDbEntity
  8
Layer 1
 62
   250
370
     9
100
AcDbVertex
100
AcDb2dVertex
 10
173.187361610349
 20
-105.1918565275214
 30
0.0
  0
SEQEND
  5
FB
330
F8
100
AcDbEntity
  8
Layer 1
370
     9
  0
POLYLINE
  5
FC
330
CA
100
AcDbEntity
  8
Layer 1
 62
   250
370
     9
100
AcDb2dPolyline
 66
     1
 10
0.0
 20
0.0
 30
0.0
  0
VERTEX
  5
FD
330
FC
100
AcDbEntity
  8
Layer 1
 62
   250
370
     9
100
AcDbVertex
100
AcDb2dVertex
 10
173.187361610349
 20
-105.1918565275214
 30
0.0
  0
VERTEX
  5
FE
330
FC
100
AcDbEntity
  8
Layer 1
 62
   250
370
     9
100
AcDbVertex
100
AcDb2dVertex
 10
172.6106526261181
 20
-93.08165687777124
 30
0.0
  0
SEQEND
  5
FF
330
FC
100
AcDbEntity
  8
Layer 1
370
     9
  0
POLYLINE
  5
100
330
CA
100
AcDbEntity
  8
Layer 1
 62
   250
370
     9
100
AcDb2dPolyline
 66
     1
 10
0.0
 20
0.0
 30
0.0
  0
VERTEX
  5
101
330
100
100
AcDbEntity
  8
Layer 1
 62
   250
370
     9
100
AcDbVertex
100
AcDb2dVertex
 10
165.0734727234886
 20
-103.4619018296033
 30
0.0
  0
VERTEX
  5
102
330
100
100
AcDbEntity
  8
Layer 1
 62
   250
370
     9
100
AcDbVertex
100
AcDb2dVertex
 10
172.4948974178138
 20
-103.4619018296033
 30
0.0
  0
SEQEND
  5
103
330
100
100
AcDbEntity
  8
Layer 1
370
     9
  0
POLYLINE
  5
104
330
CA
100
AcDbEntity
  8
Layer 1
 62
   250
370
     9
100
AcDb2dPolyline
 66
     1
 10
0.0
 20
0.0
 30
0.0
  0
VERTEX
  5
105
330
104
100
AcDbEntity
  8
Layer 1
 62
   250
370
     9
100
AcDbVertex
100
AcDb2dVertex
 10
172.457001367476
 20
-102.8857096096952
 30
0.0
  0
VERTEX
  5
106
330
104
100
AcDbEntity
  8
Layer 1
 62
   250
370
     9
100
AcDbVertex
100
AcDb2dVertex
 10
165.0844970290414
 20
-102.8857096096952
 30
0.0
  0
SEQEND
  5
107
330
104
100
AcDbEntity
  8
Layer 1
370
     9
  0
ENDBLK
  5
CD
330
CA
100
AcDbEntity
  8
0
100
AcDbBlockEnd
  0
BLOCK
  5
10D
330
10B
100
AcDbEntity
  8
0
100
AcDbBlockBegin
  2
block 10
 70
     0
 10
0.0
 20
0.0
 30
0.0
  3
block 10
  1

  0
POLYLINE
  5
10F
330
10B
100
AcDbEntity
  8
Layer 1
 62
   250
370
     9
100
AcDb2dPolyline
 66
     1
 10
0.0
 20
0.0
 30
0.0
  0
VERTEX
  5
110
330
10F
100
AcDbEntity
  8
Layer 1
 62
   250
370
     9
100
AcDbVertex
100
AcDb2dVertex
 10
197.6489175938169
 20
-137.2650064761004
 30
0.0
  0
VERTEX
  5
111
330
10F
100
AcDbEntity
  8
Layer 1
 62
   250
370
     9
100
AcDbVertex
100
AcDb2dVertex
 10
197.6489175938169
 20
-122.6281737974679
 30
0.0
  0
SEQEND
  5
112
330
10F
100
AcDbEntity
  8
Layer 1
370
     9
  0
POLYLINE
  5
113
330
10B
100
AcDbEntity
  8
Layer 1
 62
   250
370
     9
100
AcDb2dPolyline
 66
     1
 10
0.0
 20
0.0
 30
0.0
  0
VERTEX
  5
114
330
113
100
AcDbEntity
  8
Layer 1
 62
   250
370
     9
100
AcDbVertex
100
AcDb2dVertex
 10
197.6489175938169
 20
-122.6281737974679
 30
0.0
  0
VERTEX
  5
115
330
113
100
AcDbEntity
  8
Layer 1
 62
   250
370
     9
100
AcDbVertex
100
AcDb2dVertex
 10
204.9911050919814
 20
-122.6281737974679
 30
0.0
  0
SEQEND
  5
116
330
113
100
AcDbEntity
  8
Layer 1
370
     9
  0
POLYLINE
  5
117
330
10B
100
AcDbEntity
  8
Layer 1
 62
   250
370
     9
100
AcDb2dPolyline
 66
     1
 10
0.0
 20
0.0
 30
0.0
  0
VERTEX
  5
118
330
117
100
AcDbEntity
  8
Layer 1
 62
   250
370
     9
100
AcDbVertex
100
AcDb2dVertex
 10
197.6489175938169
 20
-137.2650064761004
 30
0.0
  0
VERTEX
  5
119
330
117
100
AcDbEntity
  8
Layer 1
 62
   250
370
     9
100
AcDbVertex
100
AcDb2dVertex
 10
198.2249375589507
 20
-137.2650064761004
 30
0.0
  0
SEQEND
  5
11A
330
117
100
AcDbEntity
  8
Layer 1
370
     9
  0
POLYLINE
  5
11B
330
10B
100
AcDbEntity
  8
Layer 1
 62
   250
370
     9
100
AcDb2dPolyline
 66
     1
 10
0.0
 20
0.0
 30
0.0
  0
VERTEX
  5
11C
330
11B
100
AcDbEntity
  8
Layer 1
 62
   250
370
     9
100
AcDbVertex
100
AcDb2dVertex
 10
198.4750514911798
 20
-123.5886664187556
 30
0.0
  0
VERTEX
  5
11D
330
11B
100
AcDbEntity
  8
Layer 1
 62
   250
370
     9
100
AcDbVertex
100
AcDb2dVertex
 10
204.9911050919814
 20
-123.5886664187556
 30
0.0
  0
SEQEND
  5
11E
330
11B
100
AcDbEntity
  8
Layer 1
370
     9
  0
POLYLINE
  5
11F
330
10B
100
AcDbEntity
  8
Layer 1
 62
   250
370
     9
100
AcDb2dPolyline
 66
     1
 10
0.0
 20
0.0
 30
0.0
  0
VERTEX
  5
120
330
11F
100
AcDbEntity
  8
Layer 1
 62
   250
370
     9
100
AcDbVertex
100
AcDb2dVertex
 10
198.4750514911798
 20
-123.5886664187556
 30
0.0
  0
VERTEX
  5
121
330
11F
100
AcDbEntity
  8
Layer 1
 62
   250
370
     9
100
AcDbVertex
100
AcDb2dVertex
 10
198.2249375589507
 20
-137.238479240864
 30
0.0
  0
SEQEND
  5
122
330
11F
100
AcDbEntity
  8
Layer 1
370
     9
  0
POLYLINE
  5
123
330
10B
100
AcDbEntity
  8
Layer 1
 62
   250
370
     9
100
AcDb2dPolyline
 66
     1
 10
0.0
 20
0.0
 30
0.0
  0
VERTEX
  5
124
330
123
100
AcDbEntity
  8
Layer 1
 62
   250
370
     9
100
AcDbVertex
100
AcDb2dVertex
 10
205.8565130778762
 20
-117.4384819584876
 30
0.0
  0
VERTEX
  5
125
330
123
100
AcDbEntity
  8
Layer 1
 62
   250
370
     9
100
AcDbVertex
100
AcDb2dVertex
 10
204.9911050919814
 20
-122.6281737974679
 30
0.0
  0
SEQEND
  5
126
330
123
100
AcDbEntity
  8
Layer 1
370
     9
  0
POLYLINE
  5
127
330
10B
100
AcDbEntity
  8
Layer 1
 62
   250
370
     9
100
AcDb2dPolyline
 66
     1
 10
0.0
 20
0.0
 30
0.0
  0
VERTEX
  5
128
330
127
100
AcDbEntity
  8
Layer 1
 62
   250
370
     9
100
AcDbVertex
100
AcDb2dVertex
 10
205.8565130778762
 20
-117.4384819584876
 30
0.0
  0
VERTEX
  5
129
330
127
100
AcDbEntity
  8
Layer 1
 62
   250
370
     9
100
AcDbVertex
100
AcDb2dVertex
 10
206.24098573403
 20
-117.4384819584876
 30
0.0
  0
SEQEND
  5
12A
330
127
100
AcDbEntity
  8
Layer 1
370
     9
  0
POLYLINE
  5
12B
330
10B
100
AcDbEntity
  8
Layer 1
 62
   250
370
     9
100
AcDb2dPolyline
 66
     1
 10
0.0
 20
0.0
 30
0.0
  0
VERTEX
  5
12C
330
12B
100
AcDbEntity
  8
Layer 1
 62
   250
370
     9
100
AcDbVertex
100
AcDb2dVertex
 10
206.24098573403
 20
-117.4384819584876
 30
0.0
  0
VERTEX
  5
12D
330
12B
100
AcDbEntity
  8
Layer 1
 62
   250
370
     9
100
AcDbVertex
100
AcDb2dVertex
 10
205.799324492821
 20
-122.6281737974679
 30
0.0
  0
SEQEND
  5
12E
330
12B
100
AcDbEntity
  8
Layer 1
370
     9
  0
POLYLINE
  5
12F
330
10B
100
AcDbEntity
  8
Layer 1
 62
   250
370
     9
100
AcDb2dPolyline
 66
     1
 10
0.0
 20
0.0
 30
0.0
  0
VERTEX
  5
130
330
12F
100
AcDbEntity
  8
Layer 1
 62
   250
370
     9
100
AcDbVertex
100
AcDb2dVertex
 10
205.799324492821
 20
-122.6281737974679
 30
0.0
  0
VERTEX
  5
131
330
12F
100
AcDbEntity
  8
Layer 1
 62
   250
370
     9
100
AcDbVertex
100
AcDb2dVertex
 10
205.799324492821
 20
-123.5886664187556
 30
0.0
  0
SEQEND
  5
132
330
12F
100
AcDbEntity
  8
Layer 1
370
     9
  0
POLYLINE
  5
133
330
10B
100
AcDbEntity
  8
Layer 1
 62
   250
370
     9
100
AcDb2dPolyline
 66
     1
 10
0.0
 20
0.0
 30
0.0
  0
VERTEX
  5
134
330
133
100
AcDbEntity
  8
Layer 1
 62
   250
370
     9
100
AcDbVertex
100
AcDb2dVertex
 10
204.9911050919814
 20
-123.5886664187556
 30
0.0
  0
VERTEX
  5
135
330
133
100
AcDbEntity
  8
Layer 1
 62
   250
370
     9
100
AcDbVertex
100
AcDb2dVertex
 10
205.799324492821
 20
-137.1967935854925
 30
0.0
  0
SEQEND
  5
136
330
133
100
AcDbEntity
  8
Layer 1
370
     9
  0
POLYLINE
  5
137
330
10B
100
AcDbEntity
  8
Layer 1
 62
   250
370
     9
100
AcDb2dPolyline
 66
     1
 10
0.0
 20
0.0
 30
0.0
  0
VERTEX
  5
138
330
137
100
AcDbEntity
  8
Layer 1
 62
   250
370
     9
100
AcDbVertex
100
AcDb2dVertex
 10
205.799324492821
 20
-137.2650064761004
 30
0.0
  0
VERTEX
  5
139
330
137
100
AcDbEntity
  8
Layer 1
 62
   250
370
     9
100
AcDbVertex
100
AcDb2dVertex
 10
206.3753444579548
 20
-137.2650064761004
 30
0.0
  0
SEQEND
  5
13A
330
137
100
AcDbEntity
  8
Layer 1
370
     9
  0
POLYLINE
  5
13B
330
10B
100
AcDbEntity
  8
Layer 1
 62
   250
370
     9
100
AcDb2dPolyline
 66
     1
 10
0.0
 20
0.0
 30
0.0
  0
VERTEX
  5
13C
330
13B
100
AcDbEntity
  8
Layer 1
 62
   250
370
     9
100
AcDbVertex
100
AcDb2dVertex
 10
206.3753444579548
 20
-137.2650064761004
 30
0.0
  0
VERTEX
  5
13D
330
13B
100
AcDbEntity
  8
Layer 1
 62
   250
370
     9
100
AcDbVertex
100
AcDb2dVertex
 10
205.799324492821
 20
-123.5886664187556
 30
0.0
  0
SEQEND
  5
13E
330
13B
100
AcDbEntity
  8
Layer 1
370
     9
  0
POLYLINE
  5
13F
330
10B
100
AcDbEntity
  8
Layer 1
 62
   250
370
     9
100
AcDb2dPolyline
 66
     1
 10
0.0
 20
0.0
 30
0.0
  0
VERTEX
  5
140
330
13F
100
AcDbEntity
  8
Layer 1
 62
   250
370
     9
100
AcDbVertex
100
AcDb2dVertex
 10
198.2614555710943
 20
-135.5348795234079
 30
0.0
  0
VERTEX
  5
141
330
13F
100
AcDbEntity
  8
Layer 1
 62
   250
370
     9
100
AcDbVertex
100
AcDb2dVertex
 10
205.6828802654195
 20
-135.5348795234079
 30
0.0
  0
SEQEND
  5
142
330
13F
100
AcDbEntity
  8
Layer 1
370
     9
  0
POLYLINE
  5
143
330
10B
100
AcDbEntity
  8
Layer 1
 62
   250
370
     9
100
AcDb2dPolyline
 66
     1
 10
0.0
 20
0.0
 30
0.0
  0
VERTEX
  5
144
330
143
100
AcDbEntity
  8
Layer 1
 62
   250
370
     9
100
AcDbVertex
100
AcDb2dVertex
 10
205.6449842150818
 20
-134.9588595582742
 30
0.0
  0
VERTEX
  5
145
330
143
100
AcDbEntity
  8
Layer 1
 62
   250
370
     9
100
AcDbVertex
100
AcDb2dVertex
 10
198.2724798766471
 20
-134.9588595582742
 30
0.0
  0
SEQEND
  5
146
330
143
100
AcDbEntity
  8
Layer 1
370
     9
  0
ENDBLK
  5
10E
330
10B
100
AcDbEntity
  8
0
100
AcDbBlockEnd
  0
BLOCK
  5
14D
330
14B
100
AcDbEntity
  8
0
100
AcDbBlockBegin
  2
block 11
 70
     0
 10
0.0
 20
0.0
 30
0.0
  3
block 11
  1

  0
POLYLINE
  5
14F
330
14B
100
AcDbEntity
  8
Layer 1
 62
   250
370
     9
100
AcDb2dPolyline
 66
     1
 10
0.0
 20
0.0
 30
0.0
  0
VERTEX
  5
150
330
14F
100
AcDbEntity
  8
Layer 1
 62
   250
370
     9
100
AcDbVertex
100
AcDb2dVertex
 10
164.4926296246754
 20
-122.628862816565
 30
0.0
  0
VERTEX
  5
151
330
14F
100
AcDbEntity
  8
Layer 1
 62
   250
370
     9
100
AcDbVertex
100
AcDb2dVertex
 10
164.4678249371816
 20
-122.628862816565
 30
0.0
  0
VERTEX
  5
152
330
14F
100
AcDbEntity
  8
Layer 1
 62
   250
370
     9
100
AcDbVertex
100
AcDb2dVertex
 10
164.5022758920341
 20
-122.2740179815843
 30
0.0
  0
VERTEX
  5
153
330
14F
100
AcDbEntity
  8
Layer 1
 62
   250
370
     9
100
AcDbVertex
100
AcDb2dVertex
 10
171.8410182947133
 20
-122.2740179815843
 30
0.0
  0
SEQEND
  5
154
330
14F
100
AcDbEntity
  8
Layer 1
370
     9
  0
POLYLINE
  5
155
330
14B
100
AcDbEntity
  8
Layer 1
 62
   250
370
     9
100
AcDb2dPolyline
 66
     1
 10
0.0
 20
0.0
 30
0.0
  0
VERTEX
  5
156
330
155
100
AcDbEntity
  8
Layer 1
 62
   250
370
     9
100
AcDbVertex
100
AcDb2dVertex
 10
164.4602457271141
 20
-137.2650064761004
 30
0.0
  0
VERTEX
  5
157
330
155
100
AcDbEntity
  8
Layer 1
 62
   250
370
     9
100
AcDbVertex
100
AcDb2dVertex
 10
164.4602457271141
 20
-122.6281737974679
 30
0.0
  0
SEQEND
  5
158
330
155
100
AcDbEntity
  8
Layer 1
370
     9
  0
POLYLINE
  5
159
330
14B
100
AcDbEntity
  8
Layer 1
 62
   250
370
     9
100
AcDb2dPolyline
 66
     1
 10
0.0
 20
0.0
 30
0.0
  0
VERTEX
  5
15A
330
159
100
AcDbEntity
  8
Layer 1
 62
   250
370
     9
100
AcDbVertex
100
AcDb2dVertex
 10
164.4602457271141
 20
-122.6281737974679
 30
0.0
  0
VERTEX
  5
15B
330
159
100
AcDbEntity
  8
Layer 1
 62
   250
370
     9
100
AcDbVertex
100
AcDb2dVertex
 10
171.8031222443756
 20
-122.6281737974679
 30
0.0
  0
SEQEND
  5
15C
330
159
100
AcDbEntity
  8
Layer 1
370
     9
  0
POLYLINE
  5
15D
330
14B
100
AcDbEntity
  8
Layer 1
 62
   250
370
     9
100
AcDb2dPolyline
 66
     1
 10
0.0
 20
0.0
 30
0.0
  0
VERTEX
  5
15E
330
15D
100
AcDbEntity
  8
Layer 1
 62
   250
370
     9
100
AcDbVertex
100
AcDb2dVertex
 10
164.4602457271141
 20
-137.2650064761004
 30
0.0
  0
VERTEX
  5
15F
330
15D
100
AcDbEntity
  8
Layer 1
 62
   250
370
     9
100
AcDbVertex
100
AcDb2dVertex
 10
165.0369547113449
 20
-137.2650064761004
 30
0.0
  0
SEQEND
  5
160
330
15D
100
AcDbEntity
  8
Layer 1
370
     9
  0
POLYLINE
  5
161
330
14B
100
AcDbEntity
  8
Layer 1
 62
   250
370
     9
100
AcDb2dPolyline
 66
     1
 10
0.0
 20
0.0
 30
0.0
  0
VERTEX
  5
162
330
161
100
AcDbEntity
  8
Layer 1
 62
   250
370
     9
100
AcDbVertex
100
AcDb2dVertex
 10
165.2870686435741
 20
-123.5886664187556
 30
0.0
  0
VERTEX
  5
163
330
161
100
AcDbEntity
  8
Layer 1
 62
   250
370
     9
100
AcDbVertex
100
AcDb2dVertex
 10
171.8031222443756
 20
-123.5886664187556
 30
0.0
  0
SEQEND
  5
164
330
161
100
AcDbEntity
  8
Layer 1
370
     9
  0
POLYLINE
  5
165
330
14B
100
AcDbEntity
  8
Layer 1
 62
   250
370
     9
100
AcDb2dPolyline
 66
     1
 10
0.0
 20
0.0
 30
0.0
  0
VERTEX
  5
166
330
165
100
AcDbEntity
  8
Layer 1
 62
   250
370
     9
100
AcDbVertex
100
AcDb2dVertex
 10
165.2870686435741
 20
-123.5886664187556
 30
0.0
  0
VERTEX
  5
167
330
165
100
AcDbEntity
  8
Layer 1
 62
   250
370
     9
100
AcDbVertex
100
AcDb2dVertex
 10
165.0369547113449
 20
-137.238479240864
 30
0.0
  0
SEQEND
  5
168
330
165
100
AcDbEntity
  8
Layer 1
370
     9
  0
POLYLINE
  5
169
330
14B
100
AcDbEntity
  8
Layer 1
 62
   250
370
     9
100
AcDb2dPolyline
 66
     1
 10
0.0
 20
0.0
 30
0.0
  0
VERTEX
  5
16A
330
169
100
AcDbEntity
  8
Layer 1
 62
   250
370
     9
100
AcDbVertex
100
AcDb2dVertex
 10
172.6685302302703
 20
-117.4384819584876
 30
0.0
  0
VERTEX
  5
16B
330
169
100
AcDbEntity
  8
Layer 1
 62
   250
370
     9
100
AcDbVertex
100
AcDb2dVertex
 10
171.8031222443756
 20
-122.6281737974679
 30
0.0
  0
SEQEND
  5
16C
330
169
100
AcDbEntity
  8
Layer 1
370
     9
  0
POLYLINE
  5
16D
330
14B
100
AcDbEntity
  8
Layer 1
 62
   250
370
     9
100
AcDb2dPolyline
 66
     1
 10
0.0
 20
0.0
 30
0.0
  0
VERTEX
  5
16E
330
16D
100
AcDbEntity
  8
Layer 1
 62
   250
370
     9
100
AcDbVertex
100
AcDb2dVertex
 10
172.6685302302703
 20
-117.4384819584876
 30
0.0
  0
VERTEX
  5
16F
330
16D
100
AcDbEntity
  8
Layer 1
 62
   250
370
     9
100
AcDbVertex
100
AcDb2dVertex
 10
173.0530028864242
 20
-117.4384819584876
 30
0.0
  0
SEQEND
  5
170
330
16D
100
AcDbEntity
  8
Layer 1
370
     9
  0
POLYLINE
  5
171
330
14B
100
AcDbEntity
  8
Layer 1
 62
   250
370
     9
100
AcDb2dPolyline
 66
     1
 10
0.0
 20
0.0
 30
0.0
  0
VERTEX
  5
172
330
171
100
AcDbEntity
  8
Layer 1
 62
   250
370
     9
100
AcDbVertex
100
AcDb2dVertex
 10
173.0530028864242
 20
-117.4384819584876
 30
0.0
  0
VERTEX
  5
173
330
171
100
AcDbEntity
  8
Layer 1
 62
   250
370
     9
100
AcDbVertex
100
AcDb2dVertex
 10
172.6113416452152
 20
-122.6281737974679
 30
0.0
  0
SEQEND
  5
174
330
171
100
AcDbEntity
  8
Layer 1
370
     9
  0
POLYLINE
  5
175
330
14B
100
AcDbEntity
  8
Layer 1
 62
   250
370
     9
100
AcDb2dPolyline
 66
     1
 10
0.0
 20
0.0
 30
0.0
  0
VERTEX
  5
176
330
175
100
AcDbEntity
  8
Layer 1
 62
   250
370
     9
100
AcDbVertex
100
AcDb2dVertex
 10
172.6113416452152
 20
-122.6281737974679
 30
0.0
  0
VERTEX
  5
177
330
175
100
AcDbEntity
  8
Layer 1
 62
   250
370
     9
100
AcDbVertex
100
AcDb2dVertex
 10
172.6113416452152
 20
-123.5886664187556
 30
0.0
  0
SEQEND
  5
178
330
175
100
AcDbEntity
  8
Layer 1
370
     9
  0
POLYLINE
  5
179
330
14B
100
AcDbEntity
  8
Layer 1
 62
   250
370
     9
100
AcDb2dPolyline
 66
     1
 10
0.0
 20
0.0
 30
0.0
  0
VERTEX
  5
17A
330
179
100
AcDbEntity
  8
Layer 1
 62
   250
370
     9
100
AcDbVertex
100
AcDb2dVertex
 10
171.8031222443756
 20
-123.5886664187556
 30
0.0
  0
VERTEX
  5
17B
330
179
100
AcDbEntity
  8
Layer 1
 62
   250
370
     9
100
AcDbVertex
100
AcDb2dVertex
 10
172.6113416452152
 20
-137.1967935854925
 30
0.0
  0
SEQEND
  5
17C
330
179
100
AcDbEntity
  8
Layer 1
370
     9
  0
POLYLINE
  5
17D
330
14B
100
AcDbEntity
  8
Layer 1
 62
   250
370
     9
100
AcDb2dPolyline
 66
     1
 10
0.0
 20
0.0
 30
0.0
  0
VERTEX
  5
17E
330
17D
100
AcDbEntity
  8
Layer 1
 62
   250
370
     9
100
AcDbVertex
100
AcDb2dVertex
 10
172.6113416452152
 20
-137.2650064761004
 30
0.0
  0
VERTEX
  5
17F
330
17D
100
AcDbEntity
  8
Layer 1
 62
   250
370
     9
100
AcDbVertex
100
AcDb2dVertex
 10
173.187361610349
 20
-137.2650064761004
 30
0.0
  0
SEQEND
  5
180
330
17D
100
AcDbEntity
  8
Layer 1
370
     9
  0
POLYLINE
  5
181
330
14B
100
AcDbEntity
  8
Layer 1
 62
   250
370
     9
100
AcDb2dPolyline
 66
     1
 10
0.0
 20
0.0
 30
0.0
  0
VERTEX
  5
182
330
181
100
AcDbEntity
  8
Layer 1
 62
   250
370
     9
100
AcDbVertex
100
AcDb2dVertex
 10
173.187361610349
 20
-137.2650064761004
 30
0.0
  0
VERTEX
  5
183
330
181
100
AcDbEntity
  8
Layer 1
 62
   250
370
     9
100
AcDbVertex
100
AcDb2dVertex
 10
172.6113416452152
 20
-123.5886664187556
 30
0.0
  0
SEQEND
  5
184
330
181
100
AcDbEntity
  8
Layer 1
370
     9
  0
POLYLINE
  5
185
330
14B
100
AcDbEntity
  8
Layer 1
 62
   250
370
     9
100
AcDb2dPolyline
 66
     1
 10
0.0
 20
0.0
 30
0.0
  0
VERTEX
  5
186
330
185
100
AcDbEntity
  8
Layer 1
 62
   250
370
     9
100
AcDbVertex
100
AcDb2dVertex
 10
165.0734727234886
 20
-135.5348795234079
 30
0.0
  0
VERTEX
  5
187
330
185
100
AcDbEntity
  8
Layer 1
 62
   250
370
     9
100
AcDbVertex
100
AcDb2dVertex
 10
172.4948974178138
 20
-135.5348795234079
 30
0.0
  0
SEQEND
  5
188
330
185
100
AcDbEntity
  8
Layer 1
370
     9
  0
POLYLINE
  5
189
330
14B
100
AcDbEntity
  8
Layer 1
 62
   250
370
     9
100
AcDb2dPolyline
 66
     1
 10
0.0
 20
0.0
 30
0.0
  0
VERTEX
  5
18A
330
189
100
AcDbEntity
  8
Layer 1
 62
   250
370
     9
100
AcDbVertex
100
AcDb2dVertex
 10
172.457001367476
 20
-134.9588595582742
 30
0.0
  0
VERTEX
  5
18B
330
189
100
AcDbEntity
  8
Layer 1
 62
   250
370
     9
100
AcDbVertex
100
AcDb2dVertex
 10
165.0844970290414
 20
-134.9588595582742
 30
0.0
  0
SEQEND
  5
18C
330
189
100
AcDbEntity
  8
Layer 1
370
     9
  0
ENDBLK
  5
14E
330
14B
100
AcDbEntity
  8
0
100
AcDbBlockEnd
  0
BLOCK
  5
193
330
191
100
AcDbEntity
  8
0
100
AcDbBlockBegin
  2
block 12
 70
     0
 10
0.0
 20
0.0
 30
0.0
  3
block 12
  1

  0
POLYLINE
  5
195
330
191
100
AcDbEntity
  8
Layer 1
 62
   250
370
     9
100
AcDb2dPolyline
 66
     1
 10
0.0
 20
0.0
 30
0.0
  0
VERTEX
  5
196
330
195
100
AcDbEntity
  8
Layer 1
 62
   250
370
     9
100
AcDbVertex
100
AcDb2dVertex
 10
164.4416422114937
 20
-69.18061792975345
 30
0.0
  0
VERTEX
  5
197
330
195
100
AcDbEntity
  8
Layer 1
 62
   250
370
     9
100
AcDbVertex
100
AcDb2dVertex
 10
164.4416422114937
 20
-60.72256400391658
 30
0.0
  0
SEQEND
  5
198
330
195
100
AcDbEntity
  8
Layer 1
370
     9
  0
POLYLINE
  5
199
330
191
100
AcDbEntity
  8
Layer 1
 62
   250
370
     9
100
AcDb2dPolyline
 66
     1
 10
0.0
 20
0.0
 30
0.0
  0
VERTEX
  5
19A
330
199
100
AcDbEntity
  8
Layer 1
 62
   250
370
     9
100
AcDbVertex
100
AcDb2dVertex
 10
171.9388590064944
 20
-60.72256400391658
 30
0.0
  0
VERTEX
  5
19B
330
199
100
AcDbEntity
  8
Layer 1
 62
   250
370
     9
100
AcDbVertex
100
AcDb2dVertex
 10
164.4416422114937
 20
-60.72256400391658
 30
0.0
  0
VERTEX
  5
19C
330
199
100
AcDbEntity
  8
Layer 1
 62
   250
370
     9
100
AcDbVertex
100
AcDb2dVertex
 10
164.4698919944728
 20
-60.39717473533474
 30
0.0
  0
VERTEX
  5
19D
330
199
100
AcDbEntity
  8
Layer 1
 62
   250
370
     9
100
AcDbVertex
100
AcDb2dVertex
 10
171.9595295794059
 20
-60.39717473533474
 30
0.0
  0
VERTEX
  5
19E
330
199
100
AcDbEntity
  8
Layer 1
 62
   250
370
     9
100
AcDbVertex
100
AcDb2dVertex
 10
171.9388590064944
 20
-60.72256400391658
 30
0.0
  0
VERTEX
  5
19F
330
199
100
AcDbEntity
  8
Layer 1
 62
   250
370
     9
100
AcDbVertex
100
AcDb2dVertex
 10
172.8028889541951
 20
-54.37945419647459
 30
0.0
  0
SEQEND
  5
1A0
330
199
100
AcDbEntity
  8
Layer 1
370
     9
  0
POLYLINE
  5
1A1
330
191
100
AcDbEntity
  8
Layer 1
 62
   250
370
     9
100
AcDb2dPolyline
 66
     1
 10
0.0
 20
0.0
 30
0.0
  0
VERTEX
  5
1A2
330
1A1
100
AcDbEntity
  8
Layer 1
 62
   250
370
     9
100
AcDbVertex
100
AcDb2dVertex
 10
164.4416422114937
 20
-69.18061792975345
 30
0.0
  0
VERTEX
  5
1A3
330
1A1
100
AcDbEntity
  8
Layer 1
 62
   250
370
     9
100
AcDbVertex
100
AcDb2dVertex
 10
165.0176621766275
 20
-69.18061792975345
 30
0.0
  0
SEQEND
  5
1A4
330
1A1
100
AcDbEntity
  8
Layer 1
370
     9
  0
POLYLINE
  5
1A5
330
191
100
AcDbEntity
  8
Layer 1
 62
   250
370
     9
100
AcDb2dPolyline
 66
     1
 10
0.0
 20
0.0
 30
0.0
  0
VERTEX
  5
1A6
330
1A5
100
AcDbEntity
  8
Layer 1
 62
   250
370
     9
100
AcDbVertex
100
AcDb2dVertex
 10
165.2870686435741
 20
-61.58762748026282
 30
0.0
  0
VERTEX
  5
1A7
330
1A5
100
AcDbEntity
  8
Layer 1
 62
   250
370
     9
100
AcDbVertex
100
AcDb2dVertex
 10
171.9388590064944
 20
-61.58762748026282
 30
0.0
  0
SEQEND
  5
1A8
330
1A5
100
AcDbEntity
  8
Layer 1
370
     9
  0
POLYLINE
  5
1A9
330
191
100
AcDbEntity
  8
Layer 1
 62
   250
370
     9
100
AcDb2dPolyline
 66
     1
 10
0.0
 20
0.0
 30
0.0
  0
VERTEX
  5
1AA
330
1A9
100
AcDbEntity
  8
Layer 1
 62
   250
370
     9
100
AcDbVertex
100
AcDb2dVertex
 10
165.2870686435741
 20
-61.58762748026282
 30
0.0
  0
VERTEX
  5
1AB
330
1A9
100
AcDbEntity
  8
Layer 1
 62
   250
370
     9
100
AcDbVertex
100
AcDb2dVertex
 10
165.0176621766275
 20
-69.18061792975345
 30
0.0
  0
SEQEND
  5
1AC
330
1A9
100
AcDbEntity
  8
Layer 1
370
     9
  0
POLYLINE
  5
1AD
330
191
100
AcDbEntity
  8
Layer 1
 62
   250
370
     9
100
AcDb2dPolyline
 66
     1
 10
0.0
 20
0.0
 30
0.0
  0
VERTEX
  5
1AE
330
1AD
100
AcDbEntity
  8
Layer 1
 62
   250
370
     9
100
AcDbVertex
100
AcDb2dVertex
 10
172.7064262806081
 20
-60.72256400391658
 30
0.0
  0
VERTEX
  5
1AF
330
1AD
100
AcDbEntity
  8
Layer 1
 62
   250
370
     9
100
AcDbVertex
100
AcDb2dVertex
 10
172.7064262806081
 20
-61.58762748026282
 30
0.0
  0
SEQEND
  5
1B0
330
1AD
100
AcDbEntity
  8
Layer 1
370
     9
  0
POLYLINE
  5
1B1
330
191
100
AcDbEntity
  8
Layer 1
 62
   250
370
     9
100
AcDb2dPolyline
 66
     1
 10
0.0
 20
0.0
 30
0.0
  0
VERTEX
  5
1B2
330
1B1
100
AcDbEntity
  8
Layer 1
 62
   250
370
     9
100
AcDbVertex
100
AcDb2dVertex
 10
172.8028889541951
 20
-54.37945419647459
 30
0.0
  0
VERTEX
  5
1B3
330
1B1
100
AcDbEntity
  8
Layer 1
 62
   250
370
     9
100
AcDbVertex
100
AcDb2dVertex
 10
173.187361610349
 20
-54.37945419647459
 30
0.0
  0
SEQEND
  5
1B4
330
1B1
100
AcDbEntity
  8
Layer 1
370
     9
  0
POLYLINE
  5
1B5
330
191
100
AcDbEntity
  8
Layer 1
 62
   250
370
     9
100
AcDb2dPolyline
 66
     1
 10
0.0
 20
0.0
 30
0.0
  0
VERTEX
  5
1B6
330
1B5
100
AcDbEntity
  8
Layer 1
 62
   250
370
     9
100
AcDbVertex
100
AcDb2dVertex
 10
173.187361610349
 20
-54.37945419647459
 30
0.0
  0
VERTEX
  5
1B7
330
1B5
100
AcDbEntity
  8
Layer 1
 62
   250
370
     9
100
AcDbVertex
100
AcDb2dVertex
 10
172.7064262806081
 20
-60.72256400391658
 30
0.0
  0
SEQEND
  5
1B8
330
1B5
100
AcDbEntity
  8
Layer 1
370
     9
  0
POLYLINE
  5
1B9
330
191
100
AcDbEntity
  8
Layer 1
 62
   250
370
     9
100
AcDb2dPolyline
 66
     1
 10
0.0
 20
0.0
 30
0.0
  0
VERTEX
  5
1BA
330
1B9
100
AcDbEntity
  8
Layer 1
 62
   250
370
     9
100
AcDbVertex
100
AcDb2dVertex
 10
171.9388590064944
 20
-61.58762748026282
 30
0.0
  0
VERTEX
  5
1BB
330
1B9
100
AcDbEntity
  8
Layer 1
 62
   250
370
     9
100
AcDbVertex
100
AcDb2dVertex
 10
172.6113416452152
 20
-69.18061792975345
 30
0.0
  0
SEQEND
  5
1BC
330
1B9
100
AcDbEntity
  8
Layer 1
370
     9
  0
POLYLINE
  5
1BD
330
191
100
AcDbEntity
  8
Layer 1
 62
   250
370
     9
100
AcDb2dPolyline
 66
     1
 10
0.0
 20
0.0
 30
0.0
  0
VERTEX
  5
1BE
330
1BD
100
AcDbEntity
  8
Layer 1
 62
   250
370
     9
100
AcDbVertex
100
AcDb2dVertex
 10
172.6113416452152
 20
-69.18061792975345
 30
0.0
  0
VERTEX
  5
1BF
330
1BD
100
AcDbEntity
  8
Layer 1
 62
   250
370
     9
100
AcDbVertex
100
AcDb2dVertex
 10
173.187361610349
 20
-69.18061792975345
 30
0.0
  0
SEQEND
  5
1C0
330
1BD
100
AcDbEntity
  8
Layer 1
370
     9
  0
POLYLINE
  5
1C1
330
191
100
AcDbEntity
  8
Layer 1
 62
   250
370
     9
100
AcDb2dPolyline
 66
     1
 10
0.0
 20
0.0
 30
0.0
  0
VERTEX
  5
1C2
330
1C1
100
AcDbEntity
  8
Layer 1
 62
   250
370
     9
100
AcDbVertex
100
AcDb2dVertex
 10
173.187361610349
 20
-69.18061792975345
 30
0.0
  0
VERTEX
  5
1C3
330
1C1
100
AcDbEntity
  8
Layer 1
 62
   250
370
     9
100
AcDbVertex
100
AcDb2dVertex
 10
172.7064262806081
 20
-61.58762748026282
 30
0.0
  0
SEQEND
  5
1C4
330
1C1
100
AcDbEntity
  8
Layer 1
370
     9
  0
ENDBLK
  5
194
330
191
100
AcDbEntity
  8
0
100
AcDbBlockEnd
  0
BLOCK
  5
1CB
330
1C9
100
AcDbEntity
  8
0
100
AcDbBlockBegin
  2
block 13
 70
     0
 10
0.0
 20
0.0
 30
0.0
  3
block 13
  1

  0
POLYLINE
  5
1CD
330
1C9
100
AcDbEntity
  8
Layer 1
 62
   250
370
     9
100
AcDb2dPolyline
 66
     1
 10
0.0
 20
0.0
 30
0.0
  0
VERTEX
  5
1CE
330
1CD
100
AcDbEntity
  8
Layer 1
 62
   250
370
     9
100
AcDbVertex
100
AcDb2dVertex
 10
102.9726982706978
 20
-61.06793482631288
 30
0.0
  0
VERTEX
  5
1CF
330
1CD
100
AcDbEntity
  8
Layer 1
 62
   250
370
     9
100
AcDbVertex
100
AcDb2dVertex
 10
102.9726982706978
 20
-69.18061792975345
 30
0.0
  0
VERTEX
  5
1D0
330
1CD
100
AcDbEntity
  8
Layer 1
 62
   250
370
     9
100
AcDbVertex
100
AcDb2dVertex
 10
111.4426377759588
 20
-69.18061792975345
 30
0.0
  0
VERTEX
  5
1D1
330
1CD
100
AcDbEntity
  8
Layer 1
 62
   250
370
     9
100
AcDbVertex
100
AcDb2dVertex
 10
111.4426377759588
 20
-61.06793482631288
 30
0.0
  0
SEQEND
  5
1D2
330
1CD
100
AcDbEntity
  8
Layer 1
370
     9
  0
POLYLINE
  5
1D3
330
1C9
100
AcDbEntity
  8
Layer 1
 62
   250
370
     9
100
AcDb2dPolyline
 66
     1
 10
0.0
 20
0.0
 30
0.0
  0
VERTEX
  5
1D4
330
1D3
100
AcDbEntity
  8
Layer 1
 62
   250
370
     9
100
AcDbVertex
100
AcDb2dVertex
 10
103.5530246051881
 20
-61.7521307896835
 30
0.0
  0
VERTEX
  5
1D5
330
1D3
100
AcDbEntity
  8
Layer 1
 62
   250
370
     9
100
AcDbVertex
100
AcDb2dVertex
 10
103.5530246051881
 20
-61.30495739569806
 30
0.0
  0
SEQEND
  5
1D6
330
1D3
100
AcDbEntity
  8
Layer 1
370
     9
  0
POLYLINE
  5
1D7
330
1C9
100
AcDbEntity
  8
Layer 1
 62
   250
370
     9
100
AcDb2dPolyline
 66
     1
 10
0.0
 20
0.0
 30
0.0
  0
VERTEX
  5
1D8
330
1D7
100
AcDbEntity
  8
Layer 1
 62
   250
370
     9
100
AcDbVertex
100
AcDb2dVertex
 10
110.9041693516142
 20
-61.7521307896835
 30
0.0
  0
VERTEX
  5
1D9
330
1D7
100
AcDbEntity
  8
Layer 1
 62
   250
370
     9
100
AcDbVertex
100
AcDb2dVertex
 10
110.9041693516142
 20
-61.30495739569806
 30
0.0
  0
SEQEND
  5
1DA
330
1D7
100
AcDbEntity
  8
Layer 1
370
     9
  0
POLYLINE
  5
1DB
330
1C9
100
AcDbEntity
  8
Layer 1
 62
   250
370
     9
100
AcDb2dPolyline
 66
     1
 10
0.0
 20
0.0
 30
0.0
  0
VERTEX
  5
1DC
330
1DB
100
AcDbEntity
  8
Layer 1
 62
   250
370
     9
100
AcDbVertex
100
AcDb2dVertex
 10
103.5575032293189
 20
-61.28221976549542
 30
0.0
  0
VERTEX
  5
1DD
330
1DB
100
AcDbEntity
  8
Layer 1
 62
   250
370
     9
100
AcDbVertex
100
AcDb2dVertex
 10
110.9029635681944
 20
-61.28221976549542
 30
0.0
  0
SEQEND
  5
1DE
330
1DB
100
AcDbEntity
  8
Layer 1
370
     9
  0
POLYLINE
  5
1DF
330
1C9
100
AcDbEntity
  8
Layer 1
 62
   250
370
     9
100
AcDb2dPolyline
 66
     1
 10
0.0
 20
0.0
 30
0.0
  0
VERTEX
  5
1E0
330
1DF
100
AcDbEntity
  8
Layer 1
 62
   250
370
     9
100
AcDbVertex
100
AcDb2dVertex
 10
110.9110595425847
 20
-61.772801362595
 30
0.0
  0
VERTEX
  5
1E1
330
1DF
100
AcDbEntity
  8
Layer 1
 62
   250
370
     9
100
AcDbVertex
100
AcDb2dVertex
 10
111.4364366040853
 20
-61.772801362595
 30
0.0
  0
SEQEND
  5
1E2
330
1DF
100
AcDbEntity
  8
Layer 1
370
     9
  0
POLYLINE
  5
1E3
330
1C9
100
AcDbEntity
  8
Layer 1
 62
   250
370
     9
100
AcDb2dPolyline
 66
     1
 10
0.0
 20
0.0
 30
0.0
  0
VERTEX
  5
1E4
330
1E3
100
AcDbEntity
  8
Layer 1
 62
   250
370
     9
100
AcDbVertex
100
AcDb2dVertex
 10
102.9911295315439
 20
-61.772801362595
 30
0.0
  0
VERTEX
  5
1E5
330
1E3
100
AcDbEntity
  8
Layer 1
 62
   250
370
     9
100
AcDbVertex
100
AcDb2dVertex
 10
103.5354546182133
 20
-61.772801362595
 30
0.0
  0
SEQEND
  5
1E6
330
1E3
100
AcDbEntity
  8
Layer 1
370
     9
  0
SPLINE
  5
1E7
330
1C9
100
AcDbEntity
  8
Layer 1
 62
   250
370
     9
100
AcDbSpline
210
0.0
220
0.0
230
1.0
 70
     8
 71
     3
 72
     8
 73
     4
 74
     0
 42
0.000000001
 43
0.0000000001
 40
0.0
 40
0.0
 40
0.0
 40
0.0
 40
1.0
 40
1.0
 40
1.0
 40
1.0
 10
103.0252359768478
 20
-61.0613891448909
 30
0.0
 10
103.0252359768478
 20
-61.0613891448909
 30
0.0
 10
106.6489596630079
 20
-60.40647649314491
 30
0.0
 10
111.4279961201464
 20
-61.03658445739711
 30
0.0
  0
SPLINE
  5
1E8
330
1C9
100
AcDbEntity
  8
Layer 1
 62
   250
370
     9
100
AcDbSpline
210
0.0
220
0.0
230
1.0
 70
     8
 71
     3
 72
    20
 73
    16
 74
     0
 42
0.000000001
 43
0.0000000001
 40
0.0
 40
0.0
 40
0.0
 40
0.0
 40
1.0
 40
1.0
 40
1.0
 40
2.0
 40
2.0
 40
2.0
 40
3.0
 40
3.0
 40
3.0
 40
4.0
 40
4.0
 40
4.0
 40
5.0
 40
5.0
 40
5.0
 40
5.0
 10
111.431613470406
 20
-61.05380993482335
 30
0.0
 10
111.431613470406
 20
-61.05380993482335
 30
0.0
 10
111.431613470406
 20
-60.74667967231333
 30
0.0
 10
111.431613470406
 20
-60.74667967231333
 30
0.0
 10
111.431613470406
 20
-60.74667967231333
 30
0.0
 10
111.4279961201464
 20
-60.70895587674985
 30
0.0
 10
111.4279961201464
 20
-60.70895587674985
 30
0.0
 10
106.6489596630079
 20
-60.07850340294912
 30
0.0
 10
103.0252359768478
 20
-60.73427732856643
 30
0.0
 10
103.0252359768478
 20
-60.73427732856643
 30
0.0
 10
103.0252359768478
 20
-60.73427732856643
 30
0.0
 10
102.9726982706978
 20
-60.74667967231333
 30
0.0
 10
102.9726982706978
 20
-60.74667967231333
 30
0.0
 10
102.9726982706978
 20
-60.74667967231333
 30
0.0
 10
102.9726982706978
 20
-61.10100774297127
 30
0.0
 10
102.9726982706978
 20
-61.10100774297127
 30
0.0
  0
ENDBLK
  5
1CC
330
1C9
100
AcDbEntity
  8
0
100
AcDbBlockEnd
  0
BLOCK
  5
1EB
330
1E9
100
AcDbEntity
  8
0
100
AcDbBlockBegin
  2
block 14
 70
     0
 10
0.0
 20
0.0
 30
0.0
  3
block 14
  1

  0
POLYLINE
  5
1ED
330
1E9
100
AcDbEntity
  8
Layer 1
 62
   250
370
     9
100
AcDb2dPolyline
 66
     1
 10
0.0
 20
0.0
 30
0.0
  0
VERTEX
  5
1EE
330
1ED
100
AcDbEntity
  8
Layer 1
 62
   250
370
     9
100
AcDbVertex
100
AcDb2dVertex
 10
103.2085150566631
 20
-97.13308916842507
 30
0.0
  0
VERTEX
  5
1EF
330
1ED
100
AcDbEntity
  8
Layer 1
 62
   250
370
     9
100
AcDbVertex
100
AcDb2dVertex
 10
103.2085150566631
 20
-105.1918565275214
 30
0.0
  0
VERTEX
  5
1F0
330
1ED
100
AcDbEntity
  8
Layer 1
 62
   250
370
     9
100
AcDbVertex
100
AcDb2dVertex
 10
111.2068209899934
 20
-105.1918565275214
 30
0.0
  0
VERTEX
  5
1F1
330
1ED
100
AcDbEntity
  8
Layer 1
 62
   250
370
     9
100
AcDbVertex
100
AcDb2dVertex
 10
111.2068209899934
 20
-97.13308916842507
 30
0.0
  0
SEQEND
  5
1F2
330
1ED
100
AcDbEntity
  8
Layer 1
370
     9
  0
POLYLINE
  5
1F3
330
1E9
100
AcDbEntity
  8
Layer 1
 62
   250
370
     9
100
AcDb2dPolyline
 66
     1
 10
0.0
 20
0.0
 30
0.0
  0
VERTEX
  5
1F4
330
1F3
100
AcDbEntity
  8
Layer 1
 62
   250
370
     9
100
AcDbVertex
100
AcDb2dVertex
 10
103.785913059991
 20
-97.8815361625956
 30
0.0
  0
VERTEX
  5
1F5
330
1F3
100
AcDbEntity
  8
Layer 1
 62
   250
370
     9
100
AcDbVertex
100
AcDb2dVertex
 10
103.785913059991
 20
-97.40008406853192
 30
0.0
  0
SEQEND
  5
1F6
330
1F3
100
AcDbEntity
  8
Layer 1
370
     9
  0
POLYLINE
  5
1F7
330
1E9
100
AcDbEntity
  8
Layer 1
 62
   250
370
     9
100
AcDb2dPolyline
 66
     1
 10
0.0
 20
0.0
 30
0.0
  0
VERTEX
  5
1F8
330
1F7
100
AcDbEntity
  8
Layer 1
 62
   250
370
     9
100
AcDbVertex
100
AcDb2dVertex
 10
110.6766207948135
 20
-97.8815361625956
 30
0.0
  0
VERTEX
  5
1F9
330
1F7
100
AcDbEntity
  8
Layer 1
 62
   250
370
     9
100
AcDbVertex
100
AcDb2dVertex
 10
110.6766207948135
 20
-97.40008406853192
 30
0.0
  0
SEQEND
  5
1FA
330
1F7
100
AcDbEntity
  8
Layer 1
370
     9
  0
POLYLINE
  5
1FB
330
1E9
100
AcDbEntity
  8
Layer 1
 62
   250
370
     9
100
AcDb2dPolyline
 66
     1
 10
0.0
 20
0.0
 30
0.0
  0
VERTEX
  5
1FC
330
1FB
100
AcDbEntity
  8
Layer 1
 62
   250
370
     9
100
AcDbVertex
100
AcDb2dVertex
 10
103.7902194293476
 20
-97.37631290968371
 30
0.0
  0
VERTEX
  5
1FD
330
1FB
100
AcDbEntity
  8
Layer 1
 62
   250
370
     9
100
AcDbVertex
100
AcDb2dVertex
 10
110.6747259922966
 20
-97.37631290968371
 30
0.0
  0
SEQEND
  5
1FE
330
1FB
100
AcDbEntity
  8
Layer 1
370
     9
  0
POLYLINE
  5
1FF
330
1E9
100
AcDbEntity
  8
Layer 1
 62
   250
370
     9
100
AcDb2dPolyline
 66
     1
 10
0.0
 20
0.0
 30
0.0
  0
VERTEX
  5
200
330
1FF
100
AcDbEntity
  8
Layer 1
 62
   250
370
     9
100
AcDbVertex
100
AcDb2dVertex
 10
110.6824774571384
 20
-97.90341251892693
 30
0.0
  0
VERTEX
  5
201
330
1FF
100
AcDbEntity
  8
Layer 1
 62
   250
370
     9
100
AcDbVertex
100
AcDb2dVertex
 10
111.2049261874765
 20
-97.90341251892693
 30
0.0
  0
SEQEND
  5
202
330
1FF
100
AcDbEntity
  8
Layer 1
370
     9
  0
POLYLINE
  5
203
330
1E9
100
AcDbEntity
  8
Layer 1
 62
   250
370
     9
100
AcDb2dPolyline
 66
     1
 10
0.0
 20
0.0
 30
0.0
  0
VERTEX
  5
204
330
203
100
AcDbEntity
  8
Layer 1
 62
   250
370
     9
100
AcDbVertex
100
AcDb2dVertex
 10
103.2269463175092
 20
-97.90341251892693
 30
0.0
  0
VERTEX
  5
205
330
203
100
AcDbEntity
  8
Layer 1
 62
   250
370
     9
100
AcDbVertex
100
AcDb2dVertex
 10
103.768170818242
 20
-97.90341251892693
 30
0.0
  0
SEQEND
  5
206
330
203
100
AcDbEntity
  8
Layer 1
370
     9
  0
SPLINE
  5
207
330
1E9
100
AcDbEntity
  8
Layer 1
 62
   250
370
     9
100
AcDbSpline
210
0.0
220
0.0
230
1.0
 70
     8
 71
     3
 72
     8
 73
     4
 74
     0
 42
0.000000001
 43
0.0000000001
 40
0.0
 40
0.0
 40
0.0
 40
0.0
 40
1.0
 40
1.0
 40
1.0
 40
1.0
 10
103.2612250175874
 20
-97.13860132120146
 30
0.0
 10
103.2612250175874
 20
-97.13860132120146
 30
0.0
 10
106.447593831895
 20
-96.43425154924214
 30
0.0
 10
111.1970024678605
 20
-97.11190183119079
 30
0.0
  0
SPLINE
  5
208
330
1E9
100
AcDbEntity
  8
Layer 1
 62
   250
370
     9
100
AcDbSpline
210
0.0
220
0.0
230
1.0
 70
     8
 71
     3
 72
    20
 73
    16
 74
     0
 42
0.000000001
 43
0.0000000001
 40
0.0
 40
0.0
 40
0.0
 40
0.0
 40
1.0
 40
1.0
 40
1.0
 40
2.0
 40
2.0
 40
2.0
 40
3.0
 40
3.0
 40
3.0
 40
4.0
 40
4.0
 40
4.0
 40
5.0
 40
5.0
 40
5.0
 40
5.0
 10
111.1997585442487
 20
-97.13033309203687
 30
0.0
 10
111.1997585442487
 20
-97.13033309203687
 30
0.0
 10
111.1997585442487
 20
-96.80012068977568
 30
0.0
 10
111.1997585442487
 20
-96.80012068977568
 30
0.0
 10
111.1997585442487
 20
-96.80012068977568
 30
0.0
 10
111.1970024678605
 20
-96.75946856304973
 30
0.0
 10
111.1970024678605
 20
-96.75946856304973
 30
0.0
 10
106.447593831895
 20
-96.08216279064961
 30
0.0
 10
103.2612250175874
 20
-96.7866848173832
 30
0.0
 10
103.2612250175874
 20
-96.7866848173832
 30
0.0
 10
103.2612250175874
 20
-96.7866848173832
 30
0.0
 10
103.2085150566631
 20
-96.80012068977568
 30
0.0
 10
103.2085150566631
 20
-96.80012068977568
 30
0.0
 10
103.2085150566631
 20
-96.80012068977568
 30
0.0
 10
103.2085150566631
 20
-97.1811482504443
 30
0.0
 10
103.2085150566631
 20
-97.1811482504443
 30
0.0
  0
ENDBLK
  5
1EC
330
1E9
100
AcDbEntity
  8
0
100
AcDbBlockEnd
  0
BLOCK
  5
20D
330
20B
100
AcDbEntity
  8
0
100
AcDbBlockBegin
  2
block 15
 70
     0
 10
0.0
 20
0.0
 30
0.0
  3
block 15
  1

  0
POLYLINE
  5
20F
330
20B
100
AcDbEntity
  8
Layer 1
 62
   250
370
     9
100
AcDb2dPolyline
 66
     1
 10
0.0
 20
0.0
 30
0.0
  0
VERTEX
  5
210
330
20F
100
AcDbEntity
  8
Layer 1
 62
   250
370
     9
100
AcDbVertex
100
AcDb2dVertex
 10
134.4515692480711
 20
-54.40391437441985
 30
0.0
  0
VERTEX
  5
211
330
20F
100
AcDbEntity
  8
Layer 1
 62
   250
370
     9
100
AcDbVertex
100
AcDb2dVertex
 10
134.4515692480711
 20
-60.53928492410129
 30
0.0
  0
SEQEND
  5
212
330
20F
100
AcDbEntity
  8
Layer 1
370
     9
  0
POLYLINE
  5
213
330
20B
100
AcDbEntity
  8
Layer 1
 62
   250
370
     9
100
AcDb2dPolyline
 66
     1
 10
0.0
 20
0.0
 30
0.0
  0
VERTEX
  5
214
330
213
100
AcDbEntity
  8
Layer 1
 62
   250
370
     9
100
AcDbVertex
100
AcDb2dVertex
 10
133.8769273211314
 20
-54.37945419647459
 30
0.0
  0
VERTEX
  5
215
330
213
100
AcDbEntity
  8
Layer 1
 62
   250
370
     9
100
AcDbVertex
100
AcDb2dVertex
 10
134.1704494564747
 20
-54.39151203067296
 30
0.0
  0
VERTEX
  5
216
330
213
100
AcDbEntity
  8
Layer 1
 62
   250
370
     9
100
AcDbVertex
100
AcDb2dVertex
 10
134.4515692480711
 20
-54.40391437441985
 30
0.0
  0
SEQEND
  5
217
330
213
100
AcDbEntity
  8
Layer 1
370
     9
  0
POLYLINE
  5
218
330
20B
100
AcDbEntity
  8
Layer 1
 62
   250
370
     9
100
AcDb2dPolyline
 66
     1
 10
0.0
 20
0.0
 30
0.0
  0
VERTEX
  5
219
330
218
100
AcDbEntity
  8
Layer 1
 62
   250
370
     9
100
AcDbVertex
100
AcDb2dVertex
 10
133.8769273211314
 20
-60.53928492410129
 30
0.0
  0
VERTEX
  5
21A
330
218
100
AcDbEntity
  8
Layer 1
 62
   250
370
     9
100
AcDbVertex
100
AcDb2dVertex
 10
133.8769273211314
 20
-54.37945419647459
 30
0.0
  0
SEQEND
  5
21B
330
218
100
AcDbEntity
  8
Layer 1
370
     9
  0
POLYLINE
  5
21C
330
20B
100
AcDbEntity
  8
Layer 1
 62
   250
370
     9
100
AcDb2dPolyline
 66
     1
 10
0.0
 20
0.0
 30
0.0
  0
VERTEX
  5
21D
330
21C
100
AcDbEntity
  8
Layer 1
 62
   250
370
     9
100
AcDbVertex
100
AcDb2dVertex
 10
134.4150512359275
 20
-69.18061792975345
 30
0.0
  0
VERTEX
  5
21E
330
21C
100
AcDbEntity
  8
Layer 1
 62
   250
370
     9
100
AcDbVertex
100
AcDb2dVertex
 10
133.8769273211314
 20
-69.18061792975345
 30
0.0
  0
SEQEND
  5
21F
330
21C
100
AcDbEntity
  8
Layer 1
370
     9
  0
POLYLINE
  5
220
330
20B
100
AcDbEntity
  8
Layer 1
 62
   250
370
     9
100
AcDb2dPolyline
 66
     1
 10
0.0
 20
0.0
 30
0.0
  0
VERTEX
  5
221
330
220
100
AcDbEntity
  8
Layer 1
 62
   250
370
     9
100
AcDbVertex
100
AcDb2dVertex
 10
134.4150512359275
 20
-69.18061792975345
 30
0.0
  0
VERTEX
  5
222
330
220
100
AcDbEntity
  8
Layer 1
 62
   250
370
     9
100
AcDbVertex
100
AcDb2dVertex
 10
134.6594807606059
 20
-61.40693222206146
 30
0.0
  0
SEQEND
  5
223
330
220
100
AcDbEntity
  8
Layer 1
370
     9
  0
POLYLINE
  5
224
330
20B
100
AcDbEntity
  8
Layer 1
 62
   250
370
     9
100
AcDb2dPolyline
 66
     1
 10
0.0
 20
0.0
 30
0.0
  0
VERTEX
  5
225
330
224
100
AcDbEntity
  8
Layer 1
 62
   250
370
     9
100
AcDbVertex
100
AcDb2dVertex
 10
133.8769273211314
 20
-69.18061792975345
 30
0.0
  0
VERTEX
  5
226
330
224
100
AcDbEntity
  8
Layer 1
 62
   250
370
     9
100
AcDbVertex
100
AcDb2dVertex
 10
133.8769273211314
 20
-60.60043536896447
 30
0.0
  0
SEQEND
  5
227
330
224
100
AcDbEntity
  8
Layer 1
370
     9
  0
POLYLINE
  5
228
330
20B
100
AcDbEntity
  8
Layer 1
 62
   250
370
     9
100
AcDb2dPolyline
 66
     1
 10
0.0
 20
0.0
 30
0.0
  0
VERTEX
  5
229
330
228
100
AcDbEntity
  8
Layer 1
 62
   250
370
     9
100
AcDbVertex
100
AcDb2dVertex
 10
134.6594807606059
 20
-61.40693222206146
 30
0.0
  0
VERTEX
  5
22A
330
228
100
AcDbEntity
  8
Layer 1
 62
   250
370
     9
100
AcDbVertex
100
AcDb2dVertex
 10
134.6594807606059
 20
-60.60043536896447
 30
0.0
  0
VERTEX
  5
22B
330
228
100
AcDbEntity
  8
Layer 1
 62
   250
370
     9
100
AcDbVertex
100
AcDb2dVertex
 10
133.8769273211314
 20
-60.60043536896447
 30
0.0
  0
SEQEND
  5
22C
330
228
100
AcDbEntity
  8
Layer 1
370
     9
  0
POLYLINE
  5
22D
330
20B
100
AcDbEntity
  8
Layer 1
 62
   250
370
     9
100
AcDb2dPolyline
 66
     1
 10
0.0
 20
0.0
 30
0.0
  0
VERTEX
  5
22E
330
22D
100
AcDbEntity
  8
Layer 1
 62
   250
370
     9
100
AcDbVertex
100
AcDb2dVertex
 10
142.3475558454895
 20
-69.18061792975345
 30
0.0
  0
VERTEX
  5
22F
330
22D
100
AcDbEntity
  8
Layer 1
 62
   250
370
     9
100
AcDbVertex
100
AcDb2dVertex
 10
141.8094319306935
 20
-69.18061792975345
 30
0.0
  0
SEQEND
  5
230
330
22D
100
AcDbEntity
  8
Layer 1
370
     9
  0
POLYLINE
  5
231
330
20B
100
AcDbEntity
  8
Layer 1
 62
   250
370
     9
100
AcDb2dPolyline
 66
     1
 10
0.0
 20
0.0
 30
0.0
  0
VERTEX
  5
232
330
231
100
AcDbEntity
  8
Layer 1
 62
   250
370
     9
100
AcDbVertex
100
AcDb2dVertex
 10
142.3475558454895
 20
-69.18061792975345
 30
0.0
  0
VERTEX
  5
233
330
231
100
AcDbEntity
  8
Layer 1
 62
   250
370
     9
100
AcDbVertex
100
AcDb2dVertex
 10
142.3475558454895
 20
-60.60043536896447
 30
0.0
  0
SEQEND
  5
234
330
231
100
AcDbEntity
  8
Layer 1
370
     9
  0
POLYLINE
  5
235
330
20B
100
AcDbEntity
  8
Layer 1
 62
   250
370
     9
100
AcDb2dPolyline
 66
     1
 10
0.0
 20
0.0
 30
0.0
  0
VERTEX
  5
236
330
235
100
AcDbEntity
  8
Layer 1
 62
   250
370
     9
100
AcDbVertex
100
AcDb2dVertex
 10
141.8094319306935
 20
-69.18061792975345
 30
0.0
  0
VERTEX
  5
237
330
235
100
AcDbEntity
  8
Layer 1
 62
   250
370
     9
100
AcDbVertex
100
AcDb2dVertex
 10
141.5531168265909
 20
-61.40693222206146
 30
0.0
  0
SEQEND
  5
238
330
235
100
AcDbEntity
  8
Layer 1
370
     9
  0
POLYLINE
  5
239
330
20B
100
AcDbEntity
  8
Layer 1
 62
   250
370
     9
100
AcDb2dPolyline
 66
     1
 10
0.0
 20
0.0
 30
0.0
  0
VERTEX
  5
23A
330
239
100
AcDbEntity
  8
Layer 1
 62
   250
370
     9
100
AcDbVertex
100
AcDb2dVertex
 10
142.3475558454895
 20
-60.60043536896447
 30
0.0
  0
VERTEX
  5
23B
330
239
100
AcDbEntity
  8
Layer 1
 62
   250
370
     9
100
AcDbVertex
100
AcDb2dVertex
 10
141.5531168265909
 20
-60.61266545793711
 30
0.0
  0
VERTEX
  5
23C
330
239
100
AcDbEntity
  8
Layer 1
 62
   250
370
     9
100
AcDbVertex
100
AcDb2dVertex
 10
141.5531168265909
 20
-61.40693222206146
 30
0.0
  0
SEQEND
  5
23D
330
239
100
AcDbEntity
  8
Layer 1
370
     9
  0
POLYLINE
  5
23E
330
20B
100
AcDbEntity
  8
Layer 1
 62
   250
370
     9
100
AcDb2dPolyline
 66
     1
 10
0.0
 20
0.0
 30
0.0
  0
VERTEX
  5
23F
330
23E
100
AcDbEntity
  8
Layer 1
 62
   250
370
     9
100
AcDbVertex
100
AcDb2dVertex
 10
141.7729139185498
 20
-54.40391437441985
 30
0.0
  0
VERTEX
  5
240
330
23E
100
AcDbEntity
  8
Layer 1
 62
   250
370
     9
100
AcDbVertex
100
AcDb2dVertex
 10
141.7729139185498
 20
-60.53928492410129
 30
0.0
  0
SEQEND
  5
241
330
23E
100
AcDbEntity
  8
Layer 1
370
     9
  0
POLYLINE
  5
242
330
20B
100
AcDbEntity
  8
Layer 1
 62
   250
370
     9
100
AcDb2dPolyline
 66
     1
 10
0.0
 20
0.0
 30
0.0
  0
VERTEX
  5
243
330
242
100
AcDbEntity
  8
Layer 1
 62
   250
370
     9
100
AcDbVertex
100
AcDb2dVertex
 10
142.3475558454895
 20
-60.53928492410129
 30
0.0
  0
VERTEX
  5
244
330
242
100
AcDbEntity
  8
Layer 1
 62
   250
370
     9
100
AcDbVertex
100
AcDb2dVertex
 10
142.3475558454895
 20
-54.37945419647459
 30
0.0
  0
SEQEND
  5
245
330
242
100
AcDbEntity
  8
Layer 1
370
     9
  0
POLYLINE
  5
246
330
20B
100
AcDbEntity
  8
Layer 1
 62
   250
370
     9
100
AcDb2dPolyline
 66
     1
 10
0.0
 20
0.0
 30
0.0
  0
VERTEX
  5
247
330
246
100
AcDbEntity
  8
Layer 1
 62
   250
370
     9
100
AcDbVertex
100
AcDb2dVertex
 10
142.3475558454895
 20
-54.37945419647459
 30
0.0
  0
VERTEX
  5
248
330
246
100
AcDbEntity
  8
Layer 1
 62
   250
370
     9
100
AcDbVertex
100
AcDb2dVertex
 10
142.0540337101462
 20
-54.39151203067296
 30
0.0
  0
VERTEX
  5
249
330
246
100
AcDbEntity
  8
Layer 1
 62
   250
370
     9
100
AcDbVertex
100
AcDb2dVertex
 10
141.7729139185498
 20
-54.40391437441985
 30
0.0
  0
SEQEND
  5
24A
330
246
100
AcDbEntity
  8
Layer 1
370
     9
  0
POLYLINE
  5
24B
330
20B
100
AcDbEntity
  8
Layer 1
 62
   250
370
     9
100
AcDb2dPolyline
 66
     1
 10
0.0
 20
0.0
 30
0.0
  0
VERTEX
  5
24C
330
24B
100
AcDbEntity
  8
Layer 1
 62
   250
370
     9
100
AcDbVertex
100
AcDb2dVertex
 10
134.6594807606059
 20
-61.48048501067155
 30
0.0
  0
VERTEX
  5
24D
330
24B
100
AcDbEntity
  8
Layer 1
 62
   250
370
     9
100
AcDbVertex
100
AcDb2dVertex
 10
141.5531168265909
 20
-61.48048501067155
 30
0.0
  0
SEQEND
  5
24E
330
24B
100
AcDbEntity
  8
Layer 1
370
     9
  0
POLYLINE
  5
24F
330
20B
100
AcDbEntity
  8
Layer 1
 62
   250
370
     9
100
AcDb2dPolyline
 66
     1
 10
0.0
 20
0.0
 30
0.0
  0
VERTEX
  5
250
330
24F
100
AcDbEntity
  8
Layer 1
 62
   250
370
     9
100
AcDbVertex
100
AcDb2dVertex
 10
142.3475558454895
 20
-60.53928492410129
 30
0.0
  0
VERTEX
  5
251
330
24F
100
AcDbEntity
  8
Layer 1
 62
   250
370
     9
100
AcDbVertex
100
AcDb2dVertex
 10
133.8769273211314
 20
-60.53928492410129
 30
0.0
  0
SEQEND
  5
252
330
24F
100
AcDbEntity
  8
Layer 1
370
     9
  0
POLYLINE
  5
253
330
20B
100
AcDbEntity
  8
Layer 1
 62
   250
370
     9
100
AcDb2dPolyline
 66
     1
 10
0.0
 20
0.0
 30
0.0
  0
VERTEX
  5
254
330
253
100
AcDbEntity
  8
Layer 1
 62
   250
370
     9
100
AcDbVertex
100
AcDb2dVertex
 10
133.8769273211314
 20
-60.53928492410129
 30
0.0
  0
VERTEX
  5
255
330
253
100
AcDbEntity
  8
Layer 1
 62
   250
370
     9
100
AcDbVertex
100
AcDb2dVertex
 10
133.8769273211314
 20
-60.60043536896447
 30
0.0
  0
VERTEX
  5
256
330
253
100
AcDbEntity
  8
Layer 1
 62
   250
370
     9
100
AcDbVertex
100
AcDb2dVertex
 10
142.3475558454895
 20
-60.60043536896447
 30
0.0
  0
VERTEX
  5
257
330
253
100
AcDbEntity
  8
Layer 1
 62
   250
370
     9
100
AcDbVertex
100
AcDb2dVertex
 10
142.3475558454895
 20
-60.53928492410129
 30
0.0
  0
SEQEND
  5
258
330
253
100
AcDbEntity
  8
Layer 1
370
     9
  0
POLYLINE
  5
259
330
20B
100
AcDbEntity
  8
Layer 1
 62
   250
370
     9
100
AcDb2dPolyline
 66
     1
 10
0.0
 20
0.0
 30
0.0
  0
VERTEX
  5
25A
330
259
100
AcDbEntity
  8
Layer 1
 62
   250
370
     9
100
AcDbVertex
100
AcDb2dVertex
 10
134.4515692480711
 20
-54.40391437441985
 30
0.0
  0
VERTEX
  5
25B
330
259
100
AcDbEntity
  8
Layer 1
 62
   250
370
     9
100
AcDbVertex
100
AcDb2dVertex
 10
134.7814371407838
 20
-54.41614446339249
 30
0.0
  0
VERTEX
  5
25C
330
259
100
AcDbEntity
  8
Layer 1
 62
   250
370
     9
100
AcDbVertex
100
AcDb2dVertex
 10
135.1114772882707
 20
-54.42820229759087
 30
0.0
  0
VERTEX
  5
25D
330
259
100
AcDbEntity
  8
Layer 1
 62
   250
370
     9
100
AcDbVertex
100
AcDb2dVertex
 10
135.4415174357576
 20
-54.42820229759087
 30
0.0
  0
VERTEX
  5
25E
330
259
100
AcDbEntity
  8
Layer 1
 62
   250
370
     9
100
AcDbVertex
100
AcDb2dVertex
 10
135.7715575832446
 20
-54.44043238656351
 30
0.0
  0
VERTEX
  5
25F
330
259
100
AcDbEntity
  8
Layer 1
 62
   250
370
     9
100
AcDbVertex
100
AcDb2dVertex
 10
136.1015977307315
 20
-54.4528347303104
 30
0.0
  0
VERTEX
  5
260
330
259
100
AcDbEntity
  8
Layer 1
 62
   250
370
     9
100
AcDbVertex
100
AcDb2dVertex
 10
136.4316378782185
 20
-54.4528347303104
 30
0.0
  0
VERTEX
  5
261
330
259
100
AcDbEntity
  8
Layer 1
 62
   250
370
     9
100
AcDbVertex
100
AcDb2dVertex
 10
136.7740803694523
 20
-54.46489256450878
 30
0.0
  0
VERTEX
  5
262
330
259
100
AcDbEntity
  8
Layer 1
 62
   250
370
     9
100
AcDbVertex
100
AcDb2dVertex
 10
137.1041205169392
 20
-54.46489256450878
 30
0.0
  0
VERTEX
  5
263
330
259
100
AcDbEntity
  8
Layer 1
 62
   250
370
     9
100
AcDbVertex
100
AcDb2dVertex
 10
137.445873989076
 20
-54.46489256450878
 30
0.0
  0
VERTEX
  5
264
330
259
100
AcDbEntity
  8
Layer 1
 62
   250
370
     9
100
AcDbVertex
100
AcDb2dVertex
 10
137.7759141365629
 20
-54.46489256450878
 30
0.0
  0
VERTEX
  5
265
330
259
100
AcDbEntity
  8
Layer 1
 62
   250
370
     9
100
AcDbVertex
100
AcDb2dVertex
 10
138.1059542840499
 20
-54.46489256450878
 30
0.0
  0
VERTEX
  5
266
330
259
100
AcDbEntity
  8
Layer 1
 62
   250
370
     9
100
AcDbVertex
100
AcDb2dVertex
 10
138.4483967752837
 20
-54.46489256450878
 30
0.0
  0
VERTEX
  5
267
330
259
100
AcDbEntity
  8
Layer 1
 62
   250
370
     9
100
AcDbVertex
100
AcDb2dVertex
 10
138.7784369227706
 20
-54.46489256450878
 30
0.0
  0
VERTEX
  5
268
330
259
100
AcDbEntity
  8
Layer 1
 62
   250
370
     9
100
AcDbVertex
100
AcDb2dVertex
 10
139.1208794140045
 20
-54.46489256450878
 30
0.0
  0
VERTEX
  5
269
330
259
100
AcDbEntity
  8
Layer 1
 62
   250
370
     9
100
AcDbVertex
100
AcDb2dVertex
 10
139.4502305423944
 20
-54.46489256450878
 30
0.0
  0
VERTEX
  5
26A
330
259
100
AcDbEntity
  8
Layer 1
 62
   250
370
     9
100
AcDbVertex
100
AcDb2dVertex
 10
139.7809597089783
 20
-54.4528347303104
 30
0.0
  0
VERTEX
  5
26B
330
259
100
AcDbEntity
  8
Layer 1
 62
   250
370
     9
100
AcDbVertex
100
AcDb2dVertex
 10
140.1227131811151
 20
-54.4528347303104
 30
0.0
  0
VERTEX
  5
26C
330
259
100
AcDbEntity
  8
Layer 1
 62
   250
370
     9
100
AcDbVertex
100
AcDb2dVertex
 10
140.4527533286021
 20
-54.44043238656351
 30
0.0
  0
VERTEX
  5
26D
330
259
100
AcDbEntity
  8
Layer 1
 62
   250
370
     9
100
AcDbVertex
100
AcDb2dVertex
 10
140.782793476089
 20
-54.42820229759087
 30
0.0
  0
VERTEX
  5
26E
330
259
100
AcDbEntity
  8
Layer 1
 62
   250
370
     9
100
AcDbVertex
100
AcDb2dVertex
 10
141.1128336235759
 20
-54.42820229759087
 30
0.0
  0
VERTEX
  5
26F
330
259
100
AcDbEntity
  8
Layer 1
 62
   250
370
     9
100
AcDbVertex
100
AcDb2dVertex
 10
141.4428737710629
 20
-54.41614446339249
 30
0.0
  0
VERTEX
  5
270
330
259
100
AcDbEntity
  8
Layer 1
 62
   250
370
     9
100
AcDbVertex
100
AcDb2dVertex
 10
141.7729139185498
 20
-54.40391437441985
 30
0.0
  0
SEQEND
  5
271
330
259
100
AcDbEntity
  8
Layer 1
370
     9
  0
POLYLINE
  5
272
330
20B
100
AcDbEntity
  8
Layer 1
 62
   250
370
     9
100
AcDb2dPolyline
 66
     1
 10
0.0
 20
0.0
 30
0.0
  0
VERTEX
  5
273
330
272
100
AcDbEntity
  8
Layer 1
 62
   250
370
     9
100
AcDbVertex
100
AcDb2dVertex
 10
141.7729139185498
 20
-56.06582843650437
 30
0.0
  0
VERTEX
  5
274
330
272
100
AcDbEntity
  8
Layer 1
 62
   250
370
     9
100
AcDbVertex
100
AcDb2dVertex
 10
141.430471427316
 20
-56.07823078025127
 30
0.0
  0
VERTEX
  5
275
330
272
100
AcDbEntity
  8
Layer 1
 62
   250
370
     9
100
AcDbVertex
100
AcDb2dVertex
 10
141.0763156114323
 20
-56.09028861444965
 30
0.0
  0
VERTEX
  5
276
330
272
100
AcDbEntity
  8
Layer 1
 62
   250
370
     9
100
AcDbVertex
100
AcDb2dVertex
 10
140.7338731201985
 20
-56.10269095819655
 30
0.0
  0
VERTEX
  5
277
330
272
100
AcDbEntity
  8
Layer 1
 62
   250
370
     9
100
AcDbVertex
100
AcDb2dVertex
 10
140.3914306289646
 20
-56.11492104716919
 30
0.0
  0
VERTEX
  5
278
330
272
100
AcDbEntity
  8
Layer 1
 62
   250
370
     9
100
AcDbVertex
100
AcDb2dVertex
 10
140.0372748130809
 20
-56.11492104716919
 30
0.0
  0
VERTEX
  5
279
330
272
100
AcDbEntity
  8
Layer 1
 62
   250
370
     9
100
AcDbVertex
100
AcDb2dVertex
 10
139.6948323218471
 20
-56.12715113614182
 30
0.0
  0
VERTEX
  5
27A
330
272
100
AcDbEntity
  8
Layer 1
 62
   250
370
     9
100
AcDbVertex
100
AcDb2dVertex
 10
139.3406765059634
 20
-56.12715113614182
 30
0.0
  0
VERTEX
  5
27B
330
272
100
AcDbEntity
  8
Layer 1
 62
   250
370
     9
100
AcDbVertex
100
AcDb2dVertex
 10
138.9858316709827
 20
-56.12715113614182
 30
0.0
  0
VERTEX
  5
27C
330
272
100
AcDbEntity
  8
Layer 1
 62
   250
370
     9
100
AcDbVertex
100
AcDb2dVertex
 10
138.631675855099
 20
-56.1392089703402
 30
0.0
  0
VERTEX
  5
27D
330
272
100
AcDbEntity
  8
Layer 1
 62
   250
370
     9
100
AcDbVertex
100
AcDb2dVertex
 10
138.2892333638652
 20
-56.1392089703402
 30
0.0
  0
VERTEX
  5
27E
330
272
100
AcDbEntity
  8
Layer 1
 62
   250
370
     9
100
AcDbVertex
100
AcDb2dVertex
 10
137.9350775479815
 20
-56.1392089703402
 30
0.0
  0
VERTEX
  5
27F
330
272
100
AcDbEntity
  8
Layer 1
 62
   250
370
     9
100
AcDbVertex
100
AcDb2dVertex
 10
137.5809217320978
 20
-56.1392089703402
 30
0.0
  0
VERTEX
  5
280
330
272
100
AcDbEntity
  8
Layer 1
 62
   250
370
     9
100
AcDbVertex
100
AcDb2dVertex
 10
137.238479240864
 20
-56.12715113614182
 30
0.0
  0
VERTEX
  5
281
330
272
100
AcDbEntity
  8
Layer 1
 62
   250
370
     9
100
AcDbVertex
100
AcDb2dVertex
 10
136.8836344058832
 20
-56.12715113614182
 30
0.0
  0
VERTEX
  5
282
330
272
100
AcDbEntity
  8
Layer 1
 62
   250
370
     9
100
AcDbVertex
100
AcDb2dVertex
 10
136.5294785899995
 20
-56.12715113614182
 30
0.0
  0
VERTEX
  5
283
330
272
100
AcDbEntity
  8
Layer 1
 62
   250
370
     9
100
AcDbVertex
100
AcDb2dVertex
 10
136.1870360987657
 20
-56.11492104716919
 30
0.0
  0
VERTEX
  5
284
330
272
100
AcDbEntity
  8
Layer 1
 62
   250
370
     9
100
AcDbVertex
100
AcDb2dVertex
 10
135.832880282882
 20
-56.11492104716919
 30
0.0
  0
VERTEX
  5
285
330
272
100
AcDbEntity
  8
Layer 1
 62
   250
370
     9
100
AcDbVertex
100
AcDb2dVertex
 10
135.4904377916482
 20
-56.10269095819655
 30
0.0
  0
VERTEX
  5
286
330
272
100
AcDbEntity
  8
Layer 1
 62
   250
370
     9
100
AcDbVertex
100
AcDb2dVertex
 10
135.1362819757645
 20
-56.09028861444965
 30
0.0
  0
VERTEX
  5
287
330
272
100
AcDbEntity
  8
Layer 1
 62
   250
370
     9
100
AcDbVertex
100
AcDb2dVertex
 10
134.7938394845307
 20
-56.07823078025127
 30
0.0
  0
VERTEX
  5
288
330
272
100
AcDbEntity
  8
Layer 1
 62
   250
370
     9
100
AcDbVertex
100
AcDb2dVertex
 10
134.4515692480711
 20
-56.06582843650437
 30
0.0
  0
SEQEND
  5
289
330
272
100
AcDbEntity
  8
Layer 1
370
     9
  0
POLYLINE
  5
28A
330
20B
100
AcDbEntity
  8
Layer 1
 62
   250
370
     9
100
AcDb2dPolyline
 66
     1
 10
0.0
 20
0.0
 30
0.0
  0
VERTEX
  5
28B
330
28A
100
AcDbEntity
  8
Layer 1
 62
   250
370
     9
100
AcDbVertex
100
AcDb2dVertex
 10
141.7729139185498
 20
-56.00467799164119
 30
0.0
  0
VERTEX
  5
28C
330
28A
100
AcDbEntity
  8
Layer 1
 62
   250
370
     9
100
AcDbVertex
100
AcDb2dVertex
 10
141.7729139185498
 20
-54.40391437441985
 30
0.0
  0
SEQEND
  5
28D
330
28A
100
AcDbEntity
  8
Layer 1
370
     9
  0
POLYLINE
  5
28E
330
20B
100
AcDbEntity
  8
Layer 1
 62
   250
370
     9
100
AcDb2dPolyline
 66
     1
 10
0.0
 20
0.0
 30
0.0
  0
VERTEX
  5
28F
330
28E
100
AcDbEntity
  8
Layer 1
 62
   250
370
     9
100
AcDbVertex
100
AcDb2dVertex
 10
134.4515692480711
 20
-56.00467799164119
 30
0.0
  0
VERTEX
  5
290
330
28E
100
AcDbEntity
  8
Layer 1
 62
   250
370
     9
100
AcDbVertex
100
AcDb2dVertex
 10
134.4515692480711
 20
-54.40391437441985
 30
0.0
  0
SEQEND
  5
291
330
28E
100
AcDbEntity
  8
Layer 1
370
     9
  0
ENDBLK
  5
20E
330
20B
100
AcDbEntity
  8
0
100
AcDbBlockEnd
  0
BLOCK
  5
294
330
292
100
AcDbEntity
  8
0
100
AcDbBlockBegin
  2
block 16
 70
     0
 10
0.0
 20
0.0
 30
0.0
  3
block 16
  1

  0
INSERT
  5
297
330
292
100
AcDbEntity
  8
Layer 1
100
AcDbBlockReference
  2
block 17
 10
0.0
 20
0.0
 30
0.0
  0
POLYLINE
  5
321
330
292
100
AcDbEntity
  8
Layer 1
 62
   250
370
     9
100
AcDb2dPolyline
 66
     1
 10
0.0
 20
0.0
 30
0.0
  0
VERTEX
  5
322
330
321
100
AcDbEntity
  8
Layer 1
 62
   250
370
     9
100
AcDbVertex
100
AcDb2dVertex
 10
141.568964265823
 20
-103.4619018296033
 30
0.0
  0
VERTEX
  5
323
330
321
100
AcDbEntity
  8
Layer 1
 62
   250
370
     9
100
AcDbVertex
100
AcDb2dVertex
 10
134.6539686078295
 20
-103.4619018296033
 30
0.0
  0
SEQEND
  5
324
330
321
100
AcDbEntity
  8
Layer 1
370
     9
  0
POLYLINE
  5
325
330
292
100
AcDbEntity
  8
Layer 1
 62
   250
370
     9
100
AcDb2dPolyline
 66
     1
 10
0.0
 20
0.0
 30
0.0
  0
VERTEX
  5
326
330
325
100
AcDbEntity
  8
Layer 1
 62
   250
370
     9
100
AcDbVertex
100
AcDb2dVertex
 10
134.6643038942853
 20
-102.8857096096952
 30
0.0
  0
VERTEX
  5
327
330
325
100
AcDbEntity
  8
Layer 1
 62
   250
370
     9
100
AcDbVertex
100
AcDb2dVertex
 10
141.5572509411731
 20
-102.8857096096952
 30
0.0
  0
SEQEND
  5
328
330
325
100
AcDbEntity
  8
Layer 1
370
     9
  0
ENDBLK
  5
295
330
292
100
AcDbEntity
  8
0
100
AcDbBlockEnd
  0
BLOCK
  5
298
330
296
100
AcDbEntity
  8
0
100
AcDbBlockBegin
  2
block 17
 70
     0
 10
0.0
 20
0.0
 30
0.0
  3
block 17
  1

  0
POLYLINE
  5
29A
330
296
100
AcDbEntity
  8
Layer 1
 62
   250
370
     9
100
AcDb2dPolyline
 66
     1
 10
0.0
 20
0.0
 30
0.0
  0
VERTEX
  5
29B
330
29A
100
AcDbEntity
  8
Layer 1
 62
   250
370
     9
100
AcDbVertex
100
AcDb2dVertex
 10
134.6553466460236
 20
-86.95489906680295
 30
0.0
  0
VERTEX
  5
29C
330
29A
100
AcDbEntity
  8
Layer 1
 62
   250
370
     9
100
AcDbVertex
100
AcDb2dVertex
 10
134.6553466460236
 20
-92.13063826906804
 30
0.0
  0
SEQEND
  5
29D
330
29A
100
AcDbEntity
  8
Layer 1
370
     9
  0
POLYLINE
  5
29E
330
296
100
AcDbEntity
  8
Layer 1
 62
   250
370
     9
100
AcDb2dPolyline
 66
     1
 10
0.0
 20
0.0
 30
0.0
  0
VERTEX
  5
29F
330
29E
100
AcDbEntity
  8
Layer 1
 62
   250
370
     9
100
AcDbVertex
100
AcDb2dVertex
 10
134.1129163618711
 20
-86.93061114363194
 30
0.0
  0
VERTEX
  5
2A0
330
29E
100
AcDbEntity
  8
Layer 1
 62
   250
370
     9
100
AcDbVertex
100
AcDb2dVertex
 10
134.3902465484337
 20
-86.9426689778303
 30
0.0
  0
VERTEX
  5
2A1
330
29E
100
AcDbEntity
  8
Layer 1
 62
   250
370
     9
100
AcDbVertex
100
AcDb2dVertex
 10
134.6553466460236
 20
-86.95489906680295
 30
0.0
  0
SEQEND
  5
2A2
330
29E
100
AcDbEntity
  8
Layer 1
370
     9
  0
POLYLINE
  5
2A3
330
296
100
AcDbEntity
  8
Layer 1
 62
   250
370
     9
100
AcDb2dPolyline
 66
     1
 10
0.0
 20
0.0
 30
0.0
  0
VERTEX
  5
2A4
330
2A3
100
AcDbEntity
  8
Layer 1
 62
   250
370
     9
100
AcDbVertex
100
AcDb2dVertex
 10
134.1129163618711
 20
-92.13063826906804
 30
0.0
  0
VERTEX
  5
2A5
330
2A3
100
AcDbEntity
  8
Layer 1
 62
   250
370
     9
100
AcDbVertex
100
AcDb2dVertex
 10
134.1129163618711
 20
-86.93061114363194
 30
0.0
  0
SEQEND
  5
2A6
330
2A3
100
AcDbEntity
  8
Layer 1
370
     9
  0
POLYLINE
  5
2A7
330
296
100
AcDbEntity
  8
Layer 1
 62
   250
370
     9
100
AcDb2dPolyline
 66
     1
 10
0.0
 20
0.0
 30
0.0
  0
VERTEX
  5
2A8
330
2A7
100
AcDbEntity
  8
Layer 1
 62
   250
370
     9
100
AcDbVertex
100
AcDb2dVertex
 10
134.6208956911711
 20
-105.1918565275214
 30
0.0
  0
VERTEX
  5
2A9
330
2A7
100
AcDbEntity
  8
Layer 1
 62
   250
370
     9
100
AcDbVertex
100
AcDb2dVertex
 10
134.1129163618711
 20
-105.1918565275214
 30
0.0
  0
SEQEND
  5
2AA
330
2A7
100
AcDbEntity
  8
Layer 1
370
     9
  0
POLYLINE
  5
2AB
330
296
100
AcDbEntity
  8
Layer 1
 62
   250
370
     9
100
AcDb2dPolyline
 66
     1
 10
0.0
 20
0.0
 30
0.0
  0
VERTEX
  5
2AC
330
2AB
100
AcDbEntity
  8
Layer 1
 62
   250
370
     9
100
AcDbVertex
100
AcDb2dVertex
 10
134.6208956911711
 20
-105.1918565275214
 30
0.0
  0
VERTEX
  5
2AD
330
2AB
100
AcDbEntity
  8
Layer 1
 62
   250
370
     9
100
AcDbVertex
100
AcDb2dVertex
 10
134.8517170886829
 20
-92.99845782180247
 30
0.0
  0
SEQEND
  5
2AE
330
2AB
100
AcDbEntity
  8
Layer 1
370
     9
  0
POLYLINE
  5
2AF
330
296
100
AcDbEntity
  8
Layer 1
 62
   250
370
     9
100
AcDb2dPolyline
 66
     1
 10
0.0
 20
0.0
 30
0.0
  0
VERTEX
  5
2B0
330
2AF
100
AcDbEntity
  8
Layer 1
 62
   250
370
     9
100
AcDbVertex
100
AcDb2dVertex
 10
134.1129163618711
 20
-105.1918565275214
 30
0.0
  0
VERTEX
  5
2B1
330
2AF
100
AcDbEntity
  8
Layer 1
 62
   250
370
     9
100
AcDbVertex
100
AcDb2dVertex
 10
134.1129163618711
 20
-92.19196096870549
 30
0.0
  0
SEQEND
  5
2B2
330
2AF
100
AcDbEntity
  8
Layer 1
370
     9
  0
POLYLINE
  5
2B3
330
296
100
AcDbEntity
  8
Layer 1
 62
   250
370
     9
100
AcDb2dPolyline
 66
     1
 10
0.0
 20
0.0
 30
0.0
  0
VERTEX
  5
2B4
330
2B3
100
AcDbEntity
  8
Layer 1
 62
   250
370
     9
100
AcDbVertex
100
AcDb2dVertex
 10
134.8517170886829
 20
-92.99845782180247
 30
0.0
  0
VERTEX
  5
2B5
330
2B3
100
AcDbEntity
  8
Layer 1
 62
   250
370
     9
100
AcDbVertex
100
AcDb2dVertex
 10
134.8517170886829
 20
-92.19196096870549
 30
0.0
  0
VERTEX
  5
2B6
330
2B3
100
AcDbEntity
  8
Layer 1
 62
   250
370
     9
100
AcDbVertex
100
AcDb2dVertex
 10
134.1129163618711
 20
-92.19196096870549
 30
0.0
  0
SEQEND
  5
2B7
330
2B3
100
AcDbEntity
  8
Layer 1
370
     9
  0
POLYLINE
  5
2B8
330
296
100
AcDbEntity
  8
Layer 1
 62
   250
370
     9
100
AcDb2dPolyline
 66
     1
 10
0.0
 20
0.0
 30
0.0
  0
VERTEX
  5
2B9
330
2B8
100
AcDbEntity
  8
Layer 1
 62
   250
370
     9
100
AcDbVertex
100
AcDb2dVertex
 10
142.1112222952013
 20
-105.1918565275214
 30
0.0
  0
VERTEX
  5
2BA
330
2B8
100
AcDbEntity
  8
Layer 1
 62
   250
370
     9
100
AcDbVertex
100
AcDb2dVertex
 10
142.1112222952013
 20
-92.19196096870549
 30
0.0
  0
SEQEND
  5
2BB
330
2B8
100
AcDbEntity
  8
Layer 1
370
     9
  0
POLYLINE
  5
2BC
330
296
100
AcDbEntity
  8
Layer 1
 62
   250
370
     9
100
AcDb2dPolyline
 66
     1
 10
0.0
 20
0.0
 30
0.0
  0
VERTEX
  5
2BD
330
2BC
100
AcDbEntity
  8
Layer 1
 62
   250
370
     9
100
AcDbVertex
100
AcDb2dVertex
 10
141.6034152206755
 20
-105.1918565275214
 30
0.0
  0
VERTEX
  5
2BE
330
2BC
100
AcDbEntity
  8
Layer 1
 62
   250
370
     9
100
AcDbVertex
100
AcDb2dVertex
 10
141.3608804985139
 20
-92.99845782180247
 30
0.0
  0
SEQEND
  5
2BF
330
2BC
100
AcDbEntity
  8
Layer 1
370
     9
  0
POLYLINE
  5
2C0
330
296
100
AcDbEntity
  8
Layer 1
 62
   250
370
     9
100
AcDb2dPolyline
 66
     1
 10
0.0
 20
0.0
 30
0.0
  0
VERTEX
  5
2C1
330
2C0
100
AcDbEntity
  8
Layer 1
 62
   250
370
     9
100
AcDbVertex
100
AcDb2dVertex
 10
142.1112222952013
 20
-92.19196096870549
 30
0.0
  0
VERTEX
  5
2C2
330
2C0
100
AcDbEntity
  8
Layer 1
 62
   250
370
     9
100
AcDbVertex
100
AcDb2dVertex
 10
141.3608804985139
 20
-92.20401880290387
 30
0.0
  0
VERTEX
  5
2C3
330
2C0
100
AcDbEntity
  8
Layer 1
 62
   250
370
     9
100
AcDbVertex
100
AcDb2dVertex
 10
141.3608804985139
 20
-92.99845782180247
 30
0.0
  0
SEQEND
  5
2C4
330
2C0
100
AcDbEntity
  8
Layer 1
370
     9
  0
POLYLINE
  5
2C5
330
296
100
AcDbEntity
  8
Layer 1
 62
   250
370
     9
100
AcDb2dPolyline
 66
     1
 10
0.0
 20
0.0
 30
0.0
  0
VERTEX
  5
2C6
330
2C5
100
AcDbEntity
  8
Layer 1
 62
   250
370
     9
100
AcDbVertex
100
AcDb2dVertex
 10
141.568964265823
 20
-86.95489906680295
 30
0.0
  0
VERTEX
  5
2C7
330
2C5
100
AcDbEntity
  8
Layer 1
 62
   250
370
     9
100
AcDbVertex
100
AcDb2dVertex
 10
141.568964265823
 20
-92.13063826906804
 30
0.0
  0
SEQEND
  5
2C8
330
2C5
100
AcDbEntity
  8
Layer 1
370
     9
  0
POLYLINE
  5
2C9
330
296
100
AcDbEntity
  8
Layer 1
 62
   250
370
     9
100
AcDb2dPolyline
 66
     1
 10
0.0
 20
0.0
 30
0.0
  0
VERTEX
  5
2CA
330
2C9
100
AcDbEntity
  8
Layer 1
 62
   250
370
     9
100
AcDbVertex
100
AcDb2dVertex
 10
142.1112222952013
 20
-92.13063826906804
 30
0.0
  0
VERTEX
  5
2CB
330
2C9
100
AcDbEntity
  8
Layer 1
 62
   250
370
     9
100
AcDbVertex
100
AcDb2dVertex
 10
142.1112222952013
 20
-86.93061114363194
 30
0.0
  0
SEQEND
  5
2CC
330
2C9
100
AcDbEntity
  8
Layer 1
370
     9
  0
POLYLINE
  5
2CD
330
296
100
AcDbEntity
  8
Layer 1
 62
   250
370
     9
100
AcDb2dPolyline
 66
     1
 10
0.0
 20
0.0
 30
0.0
  0
VERTEX
  5
2CE
330
2CD
100
AcDbEntity
  8
Layer 1
 62
   250
370
     9
100
AcDbVertex
100
AcDb2dVertex
 10
142.1112222952013
 20
-86.93061114363194
 30
0.0
  0
VERTEX
  5
2CF
330
2CD
100
AcDbEntity
  8
Layer 1
 62
   250
370
     9
100
AcDbVertex
100
AcDb2dVertex
 10
141.8342366181873
 20
-86.9426689778303
 30
0.0
  0
VERTEX
  5
2D0
330
2CD
100
AcDbEntity
  8
Layer 1
 62
   250
370
     9
100
AcDbVertex
100
AcDb2dVertex
 10
141.568964265823
 20
-86.95489906680295
 30
0.0
  0
SEQEND
  5
2D1
330
2CD
100
AcDbEntity
  8
Layer 1
370
     9
  0
POLYLINE
  5
2D2
330
296
100
AcDbEntity
  8
Layer 1
 62
   250
370
     9
100
AcDb2dPolyline
 66
     1
 10
0.0
 20
0.0
 30
0.0
  0
VERTEX
  5
2D3
330
2D2
100
AcDbEntity
  8
Layer 1
 62
   250
370
     9
100
AcDbVertex
100
AcDb2dVertex
 10
134.8517170886829
 20
-93.07183835563829
 30
0.0
  0
VERTEX
  5
2D4
330
2D2
100
AcDbEntity
  8
Layer 1
 62
   250
370
     9
100
AcDbVertex
100
AcDb2dVertex
 10
141.3608804985139
 20
-93.07183835563829
 30
0.0
  0
SEQEND
  5
2D5
330
2D2
100
AcDbEntity
  8
Layer 1
370
     9
  0
INSERT
  5
2D7
330
296
100
AcDbEntity
  8
Layer 1
100
AcDbBlockReference
  2
block 18
 10
0.0
 20
0.0
 30
0.0
  0
POLYLINE
  5
2E2
330
296
100
AcDbEntity
  8
Layer 1
 62
   250
370
     9
100
AcDb2dPolyline
 66
     1
 10
0.0
 20
0.0
 30
0.0
  0
VERTEX
  5
2E3
330
2E2
100
AcDbEntity
  8
Layer 1
 62
   250
370
     9
100
AcDbVertex
100
AcDb2dVertex
 10
134.1129163618711
 20
-92.13063826906804
 30
0.0
  0
VERTEX
  5
2E4
330
2E2
100
AcDbEntity
  8
Layer 1
 62
   250
370
     9
100
AcDbVertex
100
AcDb2dVertex
 10
134.1129163618711
 20
-92.19196096870549
 30
0.0
  0
VERTEX
  5
2E5
330
2E2
100
AcDbEntity
  8
Layer 1
 62
   250
370
     9
100
AcDbVertex
100
AcDb2dVertex
 10
142.1112222952013
 20
-92.19196096870549
 30
0.0
  0
VERTEX
  5
2E6
330
2E2
100
AcDbEntity
  8
Layer 1
 62
   250
370
     9
100
AcDbVertex
100
AcDb2dVertex
 10
142.1112222952013
 20
-92.13063826906804
 30
0.0
  0
SEQEND
  5
2E7
330
2E2
100
AcDbEntity
  8
Layer 1
370
     9
  0
POLYLINE
  5
2E8
330
296
100
AcDbEntity
  8
Layer 1
 62
   250
370
     9
100
AcDb2dPolyline
 66
     1
 10
0.0
 20
0.0
 30
0.0
  0
VERTEX
  5
2E9
330
2E8
100
AcDbEntity
  8
Layer 1
 62
   250
370
     9
100
AcDbVertex
100
AcDb2dVertex
 10
134.6553466460236
 20
-86.95489906680295
 30
0.0
  0
VERTEX
  5
2EA
330
2E8
100
AcDbEntity
  8
Layer 1
 62
   250
370
     9
100
AcDbVertex
100
AcDb2dVertex
 10
134.9674722969873
 20
-86.96695690100133
 30
0.0
  0
VERTEX
  5
2EB
330
2E8
100
AcDbEntity
  8
Layer 1
 62
   250
370
     9
100
AcDbVertex
100
AcDb2dVertex
 10
135.2789089288539
 20
-86.97935924474823
 30
0.0
  0
VERTEX
  5
2EC
330
2E8
100
AcDbEntity
  8
Layer 1
 62
   250
370
     9
100
AcDbVertex
100
AcDb2dVertex
 10
135.5903455607204
 20
-86.97935924474823
 30
0.0
  0
VERTEX
  5
2ED
330
2E8
100
AcDbEntity
  8
Layer 1
 62
   250
370
     9
100
AcDbVertex
100
AcDb2dVertex
 10
135.901782192587
 20
-86.99124482417232
 30
0.0
  0
VERTEX
  5
2EE
330
2E8
100
AcDbEntity
  8
Layer 1
 62
   250
370
     9
100
AcDbVertex
100
AcDb2dVertex
 10
136.2132188244536
 20
-87.00364716791922
 30
0.0
  0
VERTEX
  5
2EF
330
2E8
100
AcDbEntity
  8
Layer 1
 62
   250
370
     9
100
AcDbVertex
100
AcDb2dVertex
 10
136.5253444754173
 20
-87.00364716791922
 30
0.0
  0
VERTEX
  5
2F0
330
2E8
100
AcDbEntity
  8
Layer 1
 62
   250
370
     9
100
AcDbVertex
100
AcDb2dVertex
 10
136.8484944319337
 20
-87.01587725689186
 30
0.0
  0
VERTEX
  5
2F1
330
2E8
100
AcDbEntity
  8
Layer 1
 62
   250
370
     9
100
AcDbVertex
100
AcDb2dVertex
 10
137.1599310638003
 20
-87.01587725689186
 30
0.0
  0
VERTEX
  5
2F2
330
2E8
100
AcDbEntity
  8
Layer 1
 62
   250
370
     9
100
AcDbVertex
100
AcDb2dVertex
 10
137.4830810203167
 20
-87.01587725689186
 30
0.0
  0
VERTEX
  5
2F3
330
2E8
100
AcDbEntity
  8
Layer 1
 62
   250
370
     9
100
AcDbVertex
100
AcDb2dVertex
 10
137.7945176521833
 20
-87.01587725689186
 30
0.0
  0
VERTEX
  5
2F4
330
2E8
100
AcDbEntity
  8
Layer 1
 62
   250
370
     9
100
AcDbVertex
100
AcDb2dVertex
 10
138.1066433031469
 20
-87.01587725689186
 30
0.0
  0
VERTEX
  5
2F5
330
2E8
100
AcDbEntity
  8
Layer 1
 62
   250
370
     9
100
AcDbVertex
100
AcDb2dVertex
 10
138.4297932596634
 20
-87.01587725689186
 30
0.0
  0
VERTEX
  5
2F6
330
2E8
100
AcDbEntity
  8
Layer 1
 62
   250
370
     9
100
AcDbVertex
100
AcDb2dVertex
 10
138.7412298915299
 20
-87.01587725689186
 30
0.0
  0
VERTEX
  5
2F7
330
2E8
100
AcDbEntity
  8
Layer 1
 62
   250
370
     9
100
AcDbVertex
100
AcDb2dVertex
 10
139.0643798480464
 20
-87.01587725689186
 30
0.0
  0
VERTEX
  5
2F8
330
2E8
100
AcDbEntity
  8
Layer 1
 62
   250
370
     9
100
AcDbVertex
100
AcDb2dVertex
 10
139.375816479913
 20
-87.01587725689186
 30
0.0
  0
VERTEX
  5
2F9
330
2E8
100
AcDbEntity
  8
Layer 1
 62
   250
370
     9
100
AcDbVertex
100
AcDb2dVertex
 10
139.6872531117795
 20
-87.00364716791922
 30
0.0
  0
VERTEX
  5
2FA
330
2E8
100
AcDbEntity
  8
Layer 1
 62
   250
370
     9
100
AcDbVertex
100
AcDb2dVertex
 10
140.010403068296
 20
-87.00364716791922
 30
0.0
  0
VERTEX
  5
2FB
330
2E8
100
AcDbEntity
  8
Layer 1
 62
   250
370
     9
100
AcDbVertex
100
AcDb2dVertex
 10
140.3218397001626
 20
-86.99124482417232
 30
0.0
  0
VERTEX
  5
2FC
330
2E8
100
AcDbEntity
  8
Layer 1
 62
   250
370
     9
100
AcDbVertex
100
AcDb2dVertex
 10
140.6339653511262
 20
-86.97935924474823
 30
0.0
  0
VERTEX
  5
2FD
330
2E8
100
AcDbEntity
  8
Layer 1
 62
   250
370
     9
100
AcDbVertex
100
AcDb2dVertex
 10
140.9454019829928
 20
-86.97935924474823
 30
0.0
  0
VERTEX
  5
2FE
330
2E8
100
AcDbEntity
  8
Layer 1
 62
   250
370
     9
100
AcDbVertex
100
AcDb2dVertex
 10
141.2568386148594
 20
-86.96695690100133
 30
0.0
  0
VERTEX
  5
2FF
330
2E8
100
AcDbEntity
  8
Layer 1
 62
   250
370
     9
100
AcDbVertex
100
AcDb2dVertex
 10
141.568964265823
 20
-86.95489906680295
 30
0.0
  0
SEQEND
  5
300
330
2E8
100
AcDbEntity
  8
Layer 1
370
     9
  0
POLYLINE
  5
301
330
296
100
AcDbEntity
  8
Layer 1
 62
   250
370
     9
100
AcDb2dPolyline
 66
     1
 10
0.0
 20
0.0
 30
0.0
  0
VERTEX
  5
302
330
301
100
AcDbEntity
  8
Layer 1
 62
   250
370
     9
100
AcDbVertex
100
AcDb2dVertex
 10
141.568964265823
 20
-88.61681312888746
 30
0.0
  0
VERTEX
  5
303
330
301
100
AcDbEntity
  8
Layer 1
 62
   250
370
     9
100
AcDbVertex
100
AcDb2dVertex
 10
141.2458143093066
 20
-88.62938772740863
 30
0.0
  0
VERTEX
  5
304
330
301
100
AcDbEntity
  8
Layer 1
 62
   250
370
     9
100
AcDbVertex
100
AcDb2dVertex
 10
140.9109510281403
 20
-88.64144556160701
 30
0.0
  0
VERTEX
  5
305
330
301
100
AcDbEntity
  8
Layer 1
 62
   250
370
     9
100
AcDbVertex
100
AcDb2dVertex
 10
140.5878010716239
 20
-88.6538479053539
 30
0.0
  0
VERTEX
  5
306
330
301
100
AcDbEntity
  8
Layer 1
 62
   250
370
     9
100
AcDbVertex
100
AcDb2dVertex
 10
140.2646511151074
 20
-88.66590573955226
 30
0.0
  0
VERTEX
  5
307
330
301
100
AcDbEntity
  8
Layer 1
 62
   250
370
     9
100
AcDbVertex
100
AcDb2dVertex
 10
139.9297878339411
 20
-88.66590573955226
 30
0.0
  0
VERTEX
  5
308
330
301
100
AcDbEntity
  8
Layer 1
 62
   250
370
     9
100
AcDbVertex
100
AcDb2dVertex
 10
139.6066378774247
 20
-88.67830808329918
 30
0.0
  0
VERTEX
  5
309
330
301
100
AcDbEntity
  8
Layer 1
 62
   250
370
     9
100
AcDbVertex
100
AcDb2dVertex
 10
139.2717745962584
 20
-88.67830808329918
 30
0.0
  0
VERTEX
  5
30A
330
301
100
AcDbEntity
  8
Layer 1
 62
   250
370
     9
100
AcDbVertex
100
AcDb2dVertex
 10
138.9376003341892
 20
-88.67830808329918
 30
0.0
  0
VERTEX
  5
30B
330
301
100
AcDbEntity
  8
Layer 1
 62
   250
370
     9
100
AcDbVertex
100
AcDb2dVertex
 10
138.6027370530229
 20
-88.69071042704607
 30
0.0
  0
VERTEX
  5
30C
330
301
100
AcDbEntity
  8
Layer 1
 62
   250
370
     9
100
AcDbVertex
100
AcDb2dVertex
 10
138.2795870965065
 20
-88.69071042704607
 30
0.0
  0
VERTEX
  5
30D
330
301
100
AcDbEntity
  8
Layer 1
 62
   250
370
     9
100
AcDbVertex
100
AcDb2dVertex
 10
137.9447238153402
 20
-88.69071042704607
 30
0.0
  0
VERTEX
  5
30E
330
301
100
AcDbEntity
  8
Layer 1
 62
   250
370
     9
100
AcDbVertex
100
AcDb2dVertex
 10
137.6098605341739
 20
-88.69071042704607
 30
0.0
  0
VERTEX
  5
30F
330
301
100
AcDbEntity
  8
Layer 1
 62
   250
370
     9
100
AcDbVertex
100
AcDb2dVertex
 10
137.2867105776575
 20
-88.67830808329918
 30
0.0
  0
VERTEX
  5
310
330
301
100
AcDbEntity
  8
Layer 1
 62
   250
370
     9
100
AcDbVertex
100
AcDb2dVertex
 10
136.9518472964912
 20
-88.67830808329918
 30
0.0
  0
VERTEX
  5
311
330
301
100
AcDbEntity
  8
Layer 1
 62
   250
370
     9
100
AcDbVertex
100
AcDb2dVertex
 10
136.617673034422
 20
-88.67830808329918
 30
0.0
  0
VERTEX
  5
312
330
301
100
AcDbEntity
  8
Layer 1
 62
   250
370
     9
100
AcDbVertex
100
AcDb2dVertex
 10
136.2945230779055
 20
-88.66590573955226
 30
0.0
  0
VERTEX
  5
313
330
301
100
AcDbEntity
  8
Layer 1
 62
   250
370
     9
100
AcDbVertex
100
AcDb2dVertex
 10
135.9596597967392
 20
-88.66590573955226
 30
0.0
  0
VERTEX
  5
314
330
301
100
AcDbEntity
  8
Layer 1
 62
   250
370
     9
100
AcDbVertex
100
AcDb2dVertex
 10
135.6365098402228
 20
-88.6538479053539
 30
0.0
  0
VERTEX
  5
315
330
301
100
AcDbEntity
  8
Layer 1
 62
   250
370
     9
100
AcDbVertex
100
AcDb2dVertex
 10
135.3016465590565
 20
-88.64144556160701
 30
0.0
  0
VERTEX
  5
316
330
301
100
AcDbEntity
  8
Layer 1
 62
   250
370
     9
100
AcDbVertex
100
AcDb2dVertex
 10
134.9784966025401
 20
-88.62938772740863
 30
0.0
  0
VERTEX
  5
317
330
301
100
AcDbEntity
  8
Layer 1
 62
   250
370
     9
100
AcDbVertex
100
AcDb2dVertex
 10
134.6553466460236
 20
-88.61681312888746
 30
0.0
  0
SEQEND
  5
318
330
301
100
AcDbEntity
  8
Layer 1
370
     9
  0
POLYLINE
  5
319
330
296
100
AcDbEntity
  8
Layer 1
 62
   250
370
     9
100
AcDb2dPolyline
 66
     1
 10
0.0
 20
0.0
 30
0.0
  0
VERTEX
  5
31A
330
319
100
AcDbEntity
  8
Layer 1
 62
   250
370
     9
100
AcDbVertex
100
AcDb2dVertex
 10
141.568964265823
 20
-88.55600719357282
 30
0.0
  0
VERTEX
  5
31B
330
319
100
AcDbEntity
  8
Layer 1
 62
   250
370
     9
100
AcDbVertex
100
AcDb2dVertex
 10
141.568964265823
 20
-86.95489906680295
 30
0.0
  0
SEQEND
  5
31C
330
319
100
AcDbEntity
  8
Layer 1
370
     9
  0
POLYLINE
  5
31D
330
296
100
AcDbEntity
  8
Layer 1
 62
   250
370
     9
100
AcDb2dPolyline
 66
     1
 10
0.0
 20
0.0
 30
0.0
  0
VERTEX
  5
31E
330
31D
100
AcDbEntity
  8
Layer 1
 62
   250
370
     9
100
AcDbVertex
100
AcDb2dVertex
 10
134.6553466460236
 20
-88.55600719357282
 30
0.0
  0
VERTEX
  5
31F
330
31D
100
AcDbEntity
  8
Layer 1
 62
   250
370
     9
100
AcDbVertex
100
AcDb2dVertex
 10
134.6553466460236
 20
-86.95489906680295
 30
0.0
  0
SEQEND
  5
320
330
31D
100
AcDbEntity
  8
Layer 1
370
     9
  0
ENDBLK
  5
299
330
296
100
AcDbEntity
  8
0
100
AcDbBlockEnd
  0
BLOCK
  5
2D8
330
2D6
100
AcDbEntity
  8
0
100
AcDbBlockBegin
  2
block 18
 70
     0
 10
0.0
 20
0.0
 30
0.0
  3
block 18
  1

  0
POLYLINE
  5
2DA
330
2D6
100
AcDbEntity
  8
Layer 1
 62
   250
370
     9
100
AcDb2dPolyline
 66
     1
 10
0.0
 20
0.0
 30
0.0
  0
VERTEX
  5
2DB
330
2DA
100
AcDbEntity
  8
Layer 1
 62
   250
370
     9
100
AcDbVertex
100
AcDb2dVertex
 10
142.1112222952013
 20
-105.1918565275214
 30
0.0
  0
VERTEX
  5
2DC
330
2DA
100
AcDbEntity
  8
Layer 1
 62
   250
370
     9
100
AcDbVertex
100
AcDb2dVertex
 10
141.6034152206755
 20
-105.1918565275214
 30
0.0
  0
SEQEND
  5
2DD
330
2DA
100
AcDbEntity
  8
Layer 1
370
     9
  0
POLYLINE
  5
2DE
330
2D6
100
AcDbEntity
  8
Layer 1
 62
   250
370
     9
100
AcDb2dPolyline
 66
     1
 10
0.0
 20
0.0
 30
0.0
  0
VERTEX
  5
2DF
330
2DE
100
AcDbEntity
  8
Layer 1
 62
   250
370
     9
100
AcDbVertex
100
AcDb2dVertex
 10
142.1112222952013
 20
-92.13063826906804
 30
0.0
  0
VERTEX
  5
2E0
330
2DE
100
AcDbEntity
  8
Layer 1
 62
   250
370
     9
100
AcDbVertex
100
AcDb2dVertex
 10
134.1129163618711
 20
-92.13063826906804
 30
0.0
  0
SEQEND
  5
2E1
330
2DE
100
AcDbEntity
  8
Layer 1
370
     9
  0
ENDBLK
  5
2D9
330
2D6
100
AcDbEntity
  8
0
100
AcDbBlockEnd
  0
BLOCK
  5
32B
330
329
100
AcDbEntity
  8
0
100
AcDbBlockBegin
  2
block 19
 70
     0
 10
0.0
 20
0.0
 30
0.0
  3
block 19
  1

  0
INSERT
  5
32E
330
329
100
AcDbEntity
  8
Layer 1
100
AcDbBlockReference
  2
block 20
 10
0.0
 20
0.0
 30
0.0
  0
POLYLINE
  5
3B4
330
329
100
AcDbEntity
  8
Layer 1
 62
   250
370
     9
100
AcDb2dPolyline
 66
     1
 10
0.0
 20
0.0
 30
0.0
  0
VERTEX
  5
3B5
330
3B4
100
AcDbEntity
  8
Layer 1
 62
   250
370
     9
100
AcDbVertex
100
AcDb2dVertex
 10
141.568964265823
 20
-135.5348795234079
 30
0.0
  0
VERTEX
  5
3B6
330
3B4
100
AcDbEntity
  8
Layer 1
 62
   250
370
     9
100
AcDbVertex
100
AcDb2dVertex
 10
134.6539686078295
 20
-135.5348795234079
 30
0.0
  0
SEQEND
  5
3B7
330
3B4
100
AcDbEntity
  8
Layer 1
370
     9
  0
POLYLINE
  5
3B8
330
329
100
AcDbEntity
  8
Layer 1
 62
   250
370
     9
100
AcDb2dPolyline
 66
     1
 10
0.0
 20
0.0
 30
0.0
  0
VERTEX
  5
3B9
330
3B8
100
AcDbEntity
  8
Layer 1
 62
   250
370
     9
100
AcDbVertex
100
AcDb2dVertex
 10
134.6643038942853
 20
-134.9588595582742
 30
0.0
  0
VERTEX
  5
3BA
330
3B8
100
AcDbEntity
  8
Layer 1
 62
   250
370
     9
100
AcDbVertex
100
AcDb2dVertex
 10
141.5572509411731
 20
-134.9588595582742
 30
0.0
  0
SEQEND
  5
3BB
330
3B8
100
AcDbEntity
  8
Layer 1
370
     9
  0
ENDBLK
  5
32C
330
329
100
AcDbEntity
  8
0
100
AcDbBlockEnd
  0
BLOCK
  5
32F
330
32D
100
AcDbEntity
  8
0
100
AcDbBlockBegin
  2
block 20
 70
     0
 10
0.0
 20
0.0
 30
0.0
  3
block 20
  1

  0
POLYLINE
  5
331
330
32D
100
AcDbEntity
  8
Layer 1
 62
   250
370
     9
100
AcDb2dPolyline
 66
     1
 10
0.0
 20
0.0
 30
0.0
  0
VERTEX
  5
332
330
331
100
AcDbEntity
  8
Layer 1
 62
   250
370
     9
100
AcDbVertex
100
AcDb2dVertex
 10
134.6553466460236
 20
-117.4625976268843
 30
0.0
  0
VERTEX
  5
333
330
331
100
AcDbEntity
  8
Layer 1
 62
   250
370
     9
100
AcDbVertex
100
AcDb2dVertex
 10
134.6553466460236
 20
-122.1575737541828
 30
0.0
  0
SEQEND
  5
334
330
331
100
AcDbEntity
  8
Layer 1
370
     9
  0
POLYLINE
  5
335
330
32D
100
AcDbEntity
  8
Layer 1
 62
   250
370
     9
100
AcDb2dPolyline
 66
     1
 10
0.0
 20
0.0
 30
0.0
  0
VERTEX
  5
336
330
335
100
AcDbEntity
  8
Layer 1
 62
   250
370
     9
100
AcDbVertex
100
AcDb2dVertex
 10
134.1129163618711
 20
-117.4384819584876
 30
0.0
  0
VERTEX
  5
337
330
335
100
AcDbEntity
  8
Layer 1
 62
   250
370
     9
100
AcDbVertex
100
AcDb2dVertex
 10
134.3902465484337
 20
-117.4501952831374
 30
0.0
  0
VERTEX
  5
338
330
335
100
AcDbEntity
  8
Layer 1
 62
   250
370
     9
100
AcDbVertex
100
AcDb2dVertex
 10
134.6553466460236
 20
-117.4625976268843
 30
0.0
  0
SEQEND
  5
339
330
335
100
AcDbEntity
  8
Layer 1
370
     9
  0
POLYLINE
  5
33A
330
32D
100
AcDbEntity
  8
Layer 1
 62
   250
370
     9
100
AcDb2dPolyline
 66
     1
 10
0.0
 20
0.0
 30
0.0
  0
VERTEX
  5
33B
330
33A
100
AcDbEntity
  8
Layer 1
 62
   250
370
     9
100
AcDbVertex
100
AcDb2dVertex
 10
134.1129163618711
 20
-122.1575737541828
 30
0.0
  0
VERTEX
  5
33C
330
33A
100
AcDbEntity
  8
Layer 1
 62
   250
370
     9
100
AcDbVertex
100
AcDb2dVertex
 10
134.1129163618711
 20
-117.4384819584876
 30
0.0
  0
SEQEND
  5
33D
330
33A
100
AcDbEntity
  8
Layer 1
370
     9
  0
POLYLINE
  5
33E
330
32D
100
AcDbEntity
  8
Layer 1
 62
   250
370
     9
100
AcDb2dPolyline
 66
     1
 10
0.0
 20
0.0
 30
0.0
  0
VERTEX
  5
33F
330
33E
100
AcDbEntity
  8
Layer 1
 62
   250
370
     9
100
AcDbVertex
100
AcDb2dVertex
 10
134.6208956911711
 20
-137.2650064761004
 30
0.0
  0
VERTEX
  5
340
330
33E
100
AcDbEntity
  8
Layer 1
 62
   250
370
     9
100
AcDbVertex
100
AcDb2dVertex
 10
134.1129163618711
 20
-137.2650064761004
 30
0.0
  0
SEQEND
  5
341
330
33E
100
AcDbEntity
  8
Layer 1
370
     9
  0
POLYLINE
  5
342
330
32D
100
AcDbEntity
  8
Layer 1
 62
   250
370
     9
100
AcDb2dPolyline
 66
     1
 10
0.0
 20
0.0
 30
0.0
  0
VERTEX
  5
343
330
342
100
AcDbEntity
  8
Layer 1
 62
   250
370
     9
100
AcDbVertex
100
AcDb2dVertex
 10
134.6208956911711
 20
-137.2650064761004
 30
0.0
  0
VERTEX
  5
344
330
342
100
AcDbEntity
  8
Layer 1
 62
   250
370
     9
100
AcDbVertex
100
AcDb2dVertex
 10
134.8517170886829
 20
-123.0250487973687
 30
0.0
  0
SEQEND
  5
345
330
342
100
AcDbEntity
  8
Layer 1
370
     9
  0
POLYLINE
  5
346
330
32D
100
AcDbEntity
  8
Layer 1
 62
   250
370
     9
100
AcDb2dPolyline
 66
     1
 10
0.0
 20
0.0
 30
0.0
  0
VERTEX
  5
347
330
346
100
AcDbEntity
  8
Layer 1
 62
   250
370
     9
100
AcDbVertex
100
AcDb2dVertex
 10
134.1129163618711
 20
-137.2650064761004
 30
0.0
  0
VERTEX
  5
348
330
346
100
AcDbEntity
  8
Layer 1
 62
   250
370
     9
100
AcDbVertex
100
AcDb2dVertex
 10
134.1129163618711
 20
-122.2188964538203
 30
0.0
  0
SEQEND
  5
349
330
346
100
AcDbEntity
  8
Layer 1
370
     9
  0
POLYLINE
  5
34A
330
32D
100
AcDbEntity
  8
Layer 1
 62
   250
370
     9
100
AcDb2dPolyline
 66
     1
 10
0.0
 20
0.0
 30
0.0
  0
VERTEX
  5
34B
330
34A
100
AcDbEntity
  8
Layer 1
 62
   250
370
     9
100
AcDbVertex
100
AcDb2dVertex
 10
134.8517170886829
 20
-123.0250487973687
 30
0.0
  0
VERTEX
  5
34C
330
34A
100
AcDbEntity
  8
Layer 1
 62
   250
370
     9
100
AcDbVertex
100
AcDb2dVertex
 10
134.8517170886829
 20
-122.2188964538203
 30
0.0
  0
VERTEX
  5
34D
330
34A
100
AcDbEntity
  8
Layer 1
 62
   250
370
     9
100
AcDbVertex
100
AcDb2dVertex
 10
134.1129163618711
 20
-122.2188964538203
 30
0.0
  0
SEQEND
  5
34E
330
34A
100
AcDbEntity
  8
Layer 1
370
     9
  0
POLYLINE
  5
34F
330
32D
100
AcDbEntity
  8
Layer 1
 62
   250
370
     9
100
AcDb2dPolyline
 66
     1
 10
0.0
 20
0.0
 30
0.0
  0
VERTEX
  5
350
330
34F
100
AcDbEntity
  8
Layer 1
 62
   250
370
     9
100
AcDbVertex
100
AcDb2dVertex
 10
142.1112222952013
 20
-137.2650064761004
 30
0.0
  0
VERTEX
  5
351
330
34F
100
AcDbEntity
  8
Layer 1
 62
   250
370
     9
100
AcDbVertex
100
AcDb2dVertex
 10
141.6034152206755
 20
-137.2650064761004
 30
0.0
  0
SEQEND
  5
352
330
34F
100
AcDbEntity
  8
Layer 1
370
     9
  0
POLYLINE
  5
353
330
32D
100
AcDbEntity
  8
Layer 1
 62
   250
370
     9
100
AcDb2dPolyline
 66
     1
 10
0.0
 20
0.0
 30
0.0
  0
VERTEX
  5
354
330
353
100
AcDbEntity
  8
Layer 1
 62
   250
370
     9
100
AcDbVertex
100
AcDb2dVertex
 10
142.1112222952013
 20
-137.2650064761004
 30
0.0
  0
VERTEX
  5
355
330
353
100
AcDbEntity
  8
Layer 1
 62
   250
370
     9
100
AcDbVertex
100
AcDb2dVertex
 10
142.1112222952013
 20
-122.2188964538203
 30
0.0
  0
SEQEND
  5
356
330
353
100
AcDbEntity
  8
Layer 1
370
     9
  0
POLYLINE
  5
357
330
32D
100
AcDbEntity
  8
Layer 1
 62
   250
370
     9
100
AcDb2dPolyline
 66
     1
 10
0.0
 20
0.0
 30
0.0
  0
VERTEX
  5
358
330
357
100
AcDbEntity
  8
Layer 1
 62
   250
370
     9
100
AcDbVertex
100
AcDb2dVertex
 10
141.6034152206755
 20
-137.2650064761004
 30
0.0
  0
VERTEX
  5
359
330
357
100
AcDbEntity
  8
Layer 1
 62
   250
370
     9
100
AcDbVertex
100
AcDb2dVertex
 10
141.3608804985139
 20
-123.0250487973687
 30
0.0
  0
SEQEND
  5
35A
330
357
100
AcDbEntity
  8
Layer 1
370
     9
  0
POLYLINE
  5
35B
330
32D
100
AcDbEntity
  8
Layer 1
 62
   250
370
     9
100
AcDb2dPolyline
 66
     1
 10
0.0
 20
0.0
 30
0.0
  0
VERTEX
  5
35C
330
35B
100
AcDbEntity
  8
Layer 1
 62
   250
370
     9
100
AcDbVertex
100
AcDb2dVertex
 10
142.1112222952013
 20
-122.2188964538203
 30
0.0
  0
VERTEX
  5
35D
330
35B
100
AcDbEntity
  8
Layer 1
 62
   250
370
     9
100
AcDbVertex
100
AcDb2dVertex
 10
141.3608804985139
 20
-122.2306097784701
 30
0.0
  0
VERTEX
  5
35E
330
35B
100
AcDbEntity
  8
Layer 1
 62
   250
370
     9
100
AcDbVertex
100
AcDb2dVertex
 10
141.3608804985139
 20
-123.0250487973687
 30
0.0
  0
SEQEND
  5
35F
330
35B
100
AcDbEntity
  8
Layer 1
370
     9
  0
POLYLINE
  5
360
330
32D
100
AcDbEntity
  8
Layer 1
 62
   250
370
     9
100
AcDb2dPolyline
 66
     1
 10
0.0
 20
0.0
 30
0.0
  0
VERTEX
  5
361
330
360
100
AcDbEntity
  8
Layer 1
 62
   250
370
     9
100
AcDbVertex
100
AcDb2dVertex
 10
141.568964265823
 20
-117.4625976268843
 30
0.0
  0
VERTEX
  5
362
330
360
100
AcDbEntity
  8
Layer 1
 62
   250
370
     9
100
AcDbVertex
100
AcDb2dVertex
 10
141.568964265823
 20
-122.1575737541828
 30
0.0
  0
SEQEND
  5
363
330
360
100
AcDbEntity
  8
Layer 1
370
     9
  0
POLYLINE
  5
364
330
32D
100
AcDbEntity
  8
Layer 1
 62
   250
370
     9
100
AcDb2dPolyline
 66
     1
 10
0.0
 20
0.0
 30
0.0
  0
VERTEX
  5
365
330
364
100
AcDbEntity
  8
Layer 1
 62
   250
370
     9
100
AcDbVertex
100
AcDb2dVertex
 10
142.1112222952013
 20
-122.1575737541828
 30
0.0
  0
VERTEX
  5
366
330
364
100
AcDbEntity
  8
Layer 1
 62
   250
370
     9
100
AcDbVertex
100
AcDb2dVertex
 10
142.1112222952013
 20
-117.4384819584876
 30
0.0
  0
SEQEND
  5
367
330
364
100
AcDbEntity
  8
Layer 1
370
     9
  0
POLYLINE
  5
368
330
32D
100
AcDbEntity
  8
Layer 1
 62
   250
370
     9
100
AcDb2dPolyline
 66
     1
 10
0.0
 20
0.0
 30
0.0
  0
VERTEX
  5
369
330
368
100
AcDbEntity
  8
Layer 1
 62
   250
370
     9
100
AcDbVertex
100
AcDb2dVertex
 10
142.1112222952013
 20
-117.4384819584876
 30
0.0
  0
VERTEX
  5
36A
330
368
100
AcDbEntity
  8
Layer 1
 62
   250
370
     9
100
AcDbVertex
100
AcDb2dVertex
 10
141.8342366181873
 20
-117.4501952831374
 30
0.0
  0
VERTEX
  5
36B
330
368
100
AcDbEntity
  8
Layer 1
 62
   250
370
     9
100
AcDbVertex
100
AcDb2dVertex
 10
141.568964265823
 20
-117.4625976268843
 30
0.0
  0
SEQEND
  5
36C
330
368
100
AcDbEntity
  8
Layer 1
370
     9
  0
POLYLINE
  5
36D
330
32D
100
AcDbEntity
  8
Layer 1
 62
   250
370
     9
100
AcDb2dPolyline
 66
     1
 10
0.0
 20
0.0
 30
0.0
  0
VERTEX
  5
36E
330
36D
100
AcDbEntity
  8
Layer 1
 62
   250
370
     9
100
AcDbVertex
100
AcDb2dVertex
 10
134.8517170886829
 20
-123.0987738407531
 30
0.0
  0
VERTEX
  5
36F
330
36D
100
AcDbEntity
  8
Layer 1
 62
   250
370
     9
100
AcDbVertex
100
AcDb2dVertex
 10
141.3608804985139
 20
-123.0987738407531
 30
0.0
  0
SEQEND
  5
370
330
36D
100
AcDbEntity
  8
Layer 1
370
     9
  0
POLYLINE
  5
371
330
32D
100
AcDbEntity
  8
Layer 1
 62
   250
370
     9
100
AcDb2dPolyline
 66
     1
 10
0.0
 20
0.0
 30
0.0
  0
VERTEX
  5
372
330
371
100
AcDbEntity
  8
Layer 1
 62
   250
370
     9
100
AcDbVertex
100
AcDb2dVertex
 10
142.1112222952013
 20
-122.1575737541828
 30
0.0
  0
VERTEX
  5
373
330
371
100
AcDbEntity
  8
Layer 1
 62
   250
370
     9
100
AcDbVertex
100
AcDb2dVertex
 10
134.1129163618711
 20
-122.1575737541828
 30
0.0
  0
SEQEND
  5
374
330
371
100
AcDbEntity
  8
Layer 1
370
     9
  0
POLYLINE
  5
375
330
32D
100
AcDbEntity
  8
Layer 1
 62
   250
370
     9
100
AcDb2dPolyline
 66
     1
 10
0.0
 20
0.0
 30
0.0
  0
VERTEX
  5
376
330
375
100
AcDbEntity
  8
Layer 1
 62
   250
370
     9
100
AcDbVertex
100
AcDb2dVertex
 10
134.1129163618711
 20
-122.1575737541828
 30
0.0
  0
VERTEX
  5
377
330
375
100
AcDbEntity
  8
Layer 1
 62
   250
370
     9
100
AcDbVertex
100
AcDb2dVertex
 10
134.1129163618711
 20
-122.2188964538203
 30
0.0
  0
VERTEX
  5
378
330
375
100
AcDbEntity
  8
Layer 1
 62
   250
370
     9
100
AcDbVertex
100
AcDb2dVertex
 10
142.1112222952013
 20
-122.2188964538203
 30
0.0
  0
VERTEX
  5
379
330
375
100
AcDbEntity
  8
Layer 1
 62
   250
370
     9
100
AcDbVertex
100
AcDb2dVertex
 10
142.1112222952013
 20
-122.1575737541828
 30
0.0
  0
SEQEND
  5
37A
330
375
100
AcDbEntity
  8
Layer 1
370
     9
  0
POLYLINE
  5
37B
330
32D
100
AcDbEntity
  8
Layer 1
 62
   250
370
     9
100
AcDb2dPolyline
 66
     1
 10
0.0
 20
0.0
 30
0.0
  0
VERTEX
  5
37C
330
37B
100
AcDbEntity
  8
Layer 1
 62
   250
370
     9
100
AcDbVertex
100
AcDb2dVertex
 10
134.6553466460236
 20
-117.4625976268843
 30
0.0
  0
VERTEX
  5
37D
330
37B
100
AcDbEntity
  8
Layer 1
 62
   250
370
     9
100
AcDbVertex
100
AcDb2dVertex
 10
134.9674722969873
 20
-117.4746554610827
 30
0.0
  0
VERTEX
  5
37E
330
37B
100
AcDbEntity
  8
Layer 1
 62
   250
370
     9
100
AcDbVertex
100
AcDb2dVertex
 10
135.2789089288539
 20
-117.4870578048296
 30
0.0
  0
VERTEX
  5
37F
330
37B
100
AcDbEntity
  8
Layer 1
 62
   250
370
     9
100
AcDbVertex
100
AcDb2dVertex
 10
135.5903455607204
 20
-117.4870578048296
 30
0.0
  0
VERTEX
  5
380
330
37B
100
AcDbEntity
  8
Layer 1
 62
   250
370
     9
100
AcDbVertex
100
AcDb2dVertex
 10
135.901782192587
 20
-117.499115639028
 30
0.0
  0
VERTEX
  5
381
330
37B
100
AcDbEntity
  8
Layer 1
 62
   250
370
     9
100
AcDbVertex
100
AcDb2dVertex
 10
136.2132188244536
 20
-117.5115179827749
 30
0.0
  0
VERTEX
  5
382
330
37B
100
AcDbEntity
  8
Layer 1
 62
   250
370
     9
100
AcDbVertex
100
AcDb2dVertex
 10
136.5253444754173
 20
-117.5115179827749
 30
0.0
  0
VERTEX
  5
383
330
37B
100
AcDbEntity
  8
Layer 1
 62
   250
370
     9
100
AcDbVertex
100
AcDb2dVertex
 10
136.8484944319337
 20
-117.5235758169733
 30
0.0
  0
VERTEX
  5
384
330
37B
100
AcDbEntity
  8
Layer 1
 62
   250
370
     9
100
AcDbVertex
100
AcDb2dVertex
 10
137.1599310638003
 20
-117.5235758169733
 30
0.0
  0
VERTEX
  5
385
330
37B
100
AcDbEntity
  8
Layer 1
 62
   250
370
     9
100
AcDbVertex
100
AcDb2dVertex
 10
137.4830810203167
 20
-117.5235758169733
 30
0.0
  0
VERTEX
  5
386
330
37B
100
AcDbEntity
  8
Layer 1
 62
   250
370
     9
100
AcDbVertex
100
AcDb2dVertex
 10
137.7945176521833
 20
-117.5235758169733
 30
0.0
  0
VERTEX
  5
387
330
37B
100
AcDbEntity
  8
Layer 1
 62
   250
370
     9
100
AcDbVertex
100
AcDb2dVertex
 10
138.1066433031469
 20
-117.5235758169733
 30
0.0
  0
VERTEX
  5
388
330
37B
100
AcDbEntity
  8
Layer 1
 62
   250
370
     9
100
AcDbVertex
100
AcDb2dVertex
 10
138.4297932596634
 20
-117.5235758169733
 30
0.0
  0
VERTEX
  5
389
330
37B
100
AcDbEntity
  8
Layer 1
 62
   250
370
     9
100
AcDbVertex
100
AcDb2dVertex
 10
138.7412298915299
 20
-117.5235758169733
 30
0.0
  0
VERTEX
  5
38A
330
37B
100
AcDbEntity
  8
Layer 1
 62
   250
370
     9
100
AcDbVertex
100
AcDb2dVertex
 10
139.0643798480464
 20
-117.5235758169733
 30
0.0
  0
VERTEX
  5
38B
330
37B
100
AcDbEntity
  8
Layer 1
 62
   250
370
     9
100
AcDbVertex
100
AcDb2dVertex
 10
139.375816479913
 20
-117.5235758169733
 30
0.0
  0
VERTEX
  5
38C
330
37B
100
AcDbEntity
  8
Layer 1
 62
   250
370
     9
100
AcDbVertex
100
AcDb2dVertex
 10
139.6872531117795
 20
-117.5115179827749
 30
0.0
  0
VERTEX
  5
38D
330
37B
100
AcDbEntity
  8
Layer 1
 62
   250
370
     9
100
AcDbVertex
100
AcDb2dVertex
 10
140.010403068296
 20
-117.5115179827749
 30
0.0
  0
VERTEX
  5
38E
330
37B
100
AcDbEntity
  8
Layer 1
 62
   250
370
     9
100
AcDbVertex
100
AcDb2dVertex
 10
140.3218397001626
 20
-117.499115639028
 30
0.0
  0
VERTEX
  5
38F
330
37B
100
AcDbEntity
  8
Layer 1
 62
   250
370
     9
100
AcDbVertex
100
AcDb2dVertex
 10
140.6339653511262
 20
-117.4870578048296
 30
0.0
  0
VERTEX
  5
390
330
37B
100
AcDbEntity
  8
Layer 1
 62
   250
370
     9
100
AcDbVertex
100
AcDb2dVertex
 10
140.9454019829928
 20
-117.4870578048296
 30
0.0
  0
VERTEX
  5
391
330
37B
100
AcDbEntity
  8
Layer 1
 62
   250
370
     9
100
AcDbVertex
100
AcDb2dVertex
 10
141.2568386148594
 20
-117.4746554610827
 30
0.0
  0
VERTEX
  5
392
330
37B
100
AcDbEntity
  8
Layer 1
 62
   250
370
     9
100
AcDbVertex
100
AcDb2dVertex
 10
141.568964265823
 20
-117.4625976268843
 30
0.0
  0
SEQEND
  5
393
330
37B
100
AcDbEntity
  8
Layer 1
370
     9
  0
POLYLINE
  5
394
330
32D
100
AcDbEntity
  8
Layer 1
 62
   250
370
     9
100
AcDb2dPolyline
 66
     1
 10
0.0
 20
0.0
 30
0.0
  0
VERTEX
  5
395
330
394
100
AcDbEntity
  8
Layer 1
 62
   250
370
     9
100
AcDbVertex
100
AcDb2dVertex
 10
141.568964265823
 20
-119.1245116889689
 30
0.0
  0
VERTEX
  5
396
330
394
100
AcDbEntity
  8
Layer 1
 62
   250
370
     9
100
AcDbVertex
100
AcDb2dVertex
 10
141.2458143093066
 20
-119.1369140327158
 30
0.0
  0
VERTEX
  5
397
330
394
100
AcDbEntity
  8
Layer 1
 62
   250
370
     9
100
AcDbVertex
100
AcDb2dVertex
 10
140.9109510281403
 20
-119.1493163764627
 30
0.0
  0
VERTEX
  5
398
330
394
100
AcDbEntity
  8
Layer 1
 62
   250
370
     9
100
AcDbVertex
100
AcDb2dVertex
 10
140.5878010716239
 20
-119.1617187202095
 30
0.0
  0
VERTEX
  5
399
330
394
100
AcDbEntity
  8
Layer 1
 62
   250
370
     9
100
AcDbVertex
100
AcDb2dVertex
 10
140.2646511151074
 20
-119.1734320448594
 30
0.0
  0
VERTEX
  5
39A
330
394
100
AcDbEntity
  8
Layer 1
 62
   250
370
     9
100
AcDbVertex
100
AcDb2dVertex
 10
139.9297878339411
 20
-119.1734320448594
 30
0.0
  0
VERTEX
  5
39B
330
394
100
AcDbEntity
  8
Layer 1
 62
   250
370
     9
100
AcDbVertex
100
AcDb2dVertex
 10
139.6066378774247
 20
-119.1858343886063
 30
0.0
  0
VERTEX
  5
39C
330
394
100
AcDbEntity
  8
Layer 1
 62
   250
370
     9
100
AcDbVertex
100
AcDb2dVertex
 10
139.2717745962584
 20
-119.1858343886063
 30
0.0
  0
VERTEX
  5
39D
330
394
100
AcDbEntity
  8
Layer 1
 62
   250
370
     9
100
AcDbVertex
100
AcDb2dVertex
 10
138.9376003341892
 20
-119.1858343886063
 30
0.0
  0
VERTEX
  5
39E
330
394
100
AcDbEntity
  8
Layer 1
 62
   250
370
     9
100
AcDbVertex
100
AcDb2dVertex
 10
138.6027370530229
 20
-119.1982367323532
 30
0.0
  0
VERTEX
  5
39F
330
394
100
AcDbEntity
  8
Layer 1
 62
   250
370
     9
100
AcDbVertex
100
AcDb2dVertex
 10
138.2795870965065
 20
-119.1982367323532
 30
0.0
  0
VERTEX
  5
3A0
330
394
100
AcDbEntity
  8
Layer 1
 62
   250
370
     9
100
AcDbVertex
100
AcDb2dVertex
 10
137.9447238153402
 20
-119.1982367323532
 30
0.0
  0
VERTEX
  5
3A1
330
394
100
AcDbEntity
  8
Layer 1
 62
   250
370
     9
100
AcDbVertex
100
AcDb2dVertex
 10
137.6098605341739
 20
-119.1982367323532
 30
0.0
  0
VERTEX
  5
3A2
330
394
100
AcDbEntity
  8
Layer 1
 62
   250
370
     9
100
AcDbVertex
100
AcDb2dVertex
 10
137.2867105776575
 20
-119.1858343886063
 30
0.0
  0
VERTEX
  5
3A3
330
394
100
AcDbEntity
  8
Layer 1
 62
   250
370
     9
100
AcDbVertex
100
AcDb2dVertex
 10
136.9518472964912
 20
-119.1858343886063
 30
0.0
  0
VERTEX
  5
3A4
330
394
100
AcDbEntity
  8
Layer 1
 62
   250
370
     9
100
AcDbVertex
100
AcDb2dVertex
 10
136.617673034422
 20
-119.1858343886063
 30
0.0
  0
VERTEX
  5
3A5
330
394
100
AcDbEntity
  8
Layer 1
 62
   250
370
     9
100
AcDbVertex
100
AcDb2dVertex
 10
136.2945230779055
 20
-119.1734320448594
 30
0.0
  0
VERTEX
  5
3A6
330
394
100
AcDbEntity
  8
Layer 1
 62
   250
370
     9
100
AcDbVertex
100
AcDb2dVertex
 10
135.9596597967392
 20
-119.1734320448594
 30
0.0
  0
VERTEX
  5
3A7
330
394
100
AcDbEntity
  8
Layer 1
 62
   250
370
     9
100
AcDbVertex
100
AcDb2dVertex
 10
135.6365098402228
 20
-119.1617187202095
 30
0.0
  0
VERTEX
  5
3A8
330
394
100
AcDbEntity
  8
Layer 1
 62
   250
370
     9
100
AcDbVertex
100
AcDb2dVertex
 10
135.3016465590565
 20
-119.1493163764627
 30
0.0
  0
VERTEX
  5
3A9
330
394
100
AcDbEntity
  8
Layer 1
 62
   250
370
     9
100
AcDbVertex
100
AcDb2dVertex
 10
134.9784966025401
 20
-119.1369140327158
 30
0.0
  0
VERTEX
  5
3AA
330
394
100
AcDbEntity
  8
Layer 1
 62
   250
370
     9
100
AcDbVertex
100
AcDb2dVertex
 10
134.6553466460236
 20
-119.1245116889689
 30
0.0
  0
SEQEND
  5
3AB
330
394
100
AcDbEntity
  8
Layer 1
370
     9
  0
POLYLINE
  5
3AC
330
32D
100
AcDbEntity
  8
Layer 1
 62
   250
370
     9
100
AcDb2dPolyline
 66
     1
 10
0.0
 20
0.0
 30
0.0
  0
VERTEX
  5
3AD
330
3AC
100
AcDbEntity
  8
Layer 1
 62
   250
370
     9
100
AcDbVertex
100
AcDb2dVertex
 10
141.568964265823
 20
-119.0638780084285
 30
0.0
  0
VERTEX
  5
3AE
330
3AC
100
AcDbEntity
  8
Layer 1
 62
   250
370
     9
100
AcDbVertex
100
AcDb2dVertex
 10
141.568964265823
 20
-117.4625976268843
 30
0.0
  0
SEQEND
  5
3AF
330
3AC
100
AcDbEntity
  8
Layer 1
370
     9
  0
POLYLINE
  5
3B0
330
32D
100
AcDbEntity
  8
Layer 1
 62
   250
370
     9
100
AcDb2dPolyline
 66
     1
 10
0.0
 20
0.0
 30
0.0
  0
VERTEX
  5
3B1
330
3B0
100
AcDbEntity
  8
Layer 1
 62
   250
370
     9
100
AcDbVertex
100
AcDb2dVertex
 10
134.6553466460236
 20
-119.0638780084285
 30
0.0
  0
VERTEX
  5
3B2
330
3B0
100
AcDbEntity
  8
Layer 1
 62
   250
370
     9
100
AcDbVertex
100
AcDb2dVertex
 10
134.6553466460236
 20
-117.4625976268843
 30
0.0
  0
SEQEND
  5
3B3
330
3B0
100
AcDbEntity
  8
Layer 1
370
     9
  0
ENDBLK
  5
330
330
32D
100
AcDbEntity
  8
0
100
AcDbBlockEnd
  0
BLOCK
  5
3BF
330
3BD
100
AcDbEntity
  8
0
100
AcDbBlockBegin
  2
block 21
 70
     0
 10
0.0
 20
0.0
 30
0.0
  3
block 21
  1

  0
POLYLINE
  5
3C1
330
3BD
100
AcDbEntity
  8
Layer 1
 62
   250
370
     9
100
AcDb2dPolyline
 66
     1
 10
0.0
 20
0.0
 30
0.0
  0
VERTEX
  5
3C2
330
3C1
100
AcDbEntity
  8
Layer 1
 62
   250
370
     9
100
AcDbVertex
100
AcDb2dVertex
 10
103.2085150566631
 20
-129.206239117004
 30
0.0
  0
VERTEX
  5
3C3
330
3C1
100
AcDbEntity
  8
Layer 1
 62
   250
370
     9
100
AcDbVertex
100
AcDb2dVertex
 10
103.2085150566631
 20
-137.2650064761004
 30
0.0
  0
VERTEX
  5
3C4
330
3C1
100
AcDbEntity
  8
Layer 1
 62
   250
370
     9
100
AcDbVertex
100
AcDb2dVertex
 10
111.2068209899934
 20
-137.2650064761004
 30
0.0
  0
VERTEX
  5
3C5
330
3C1
100
AcDbEntity
  8
Layer 1
 62
   250
370
     9
100
AcDbVertex
100
AcDb2dVertex
 10
111.2068209899934
 20
-129.206239117004
 30
0.0
  0
SEQEND
  5
3C6
330
3C1
100
AcDbEntity
  8
Layer 1
370
     9
  0
POLYLINE
  5
3C7
330
3BD
100
AcDbEntity
  8
Layer 1
 62
   250
370
     9
100
AcDb2dPolyline
 66
     1
 10
0.0
 20
0.0
 30
0.0
  0
VERTEX
  5
3C8
330
3C7
100
AcDbEntity
  8
Layer 1
 62
   250
370
     9
100
AcDbVertex
100
AcDb2dVertex
 10
103.785913059991
 20
-129.9545138564002
 30
0.0
  0
VERTEX
  5
3C9
330
3C7
100
AcDbEntity
  8
Layer 1
 62
   250
370
     9
100
AcDbVertex
100
AcDb2dVertex
 10
103.785913059991
 20
-129.4728895075623
 30
0.0
  0
SEQEND
  5
3CA
330
3C7
100
AcDbEntity
  8
Layer 1
370
     9
  0
POLYLINE
  5
3CB
330
3BD
100
AcDbEntity
  8
Layer 1
 62
   250
370
     9
100
AcDb2dPolyline
 66
     1
 10
0.0
 20
0.0
 30
0.0
  0
VERTEX
  5
3CC
330
3CB
100
AcDbEntity
  8
Layer 1
 62
   250
370
     9
100
AcDbVertex
100
AcDb2dVertex
 10
110.6766207948135
 20
-129.9545138564002
 30
0.0
  0
VERTEX
  5
3CD
330
3CB
100
AcDbEntity
  8
Layer 1
 62
   250
370
     9
100
AcDbVertex
100
AcDb2dVertex
 10
110.6766207948135
 20
-129.4728895075623
 30
0.0
  0
SEQEND
  5
3CE
330
3CB
100
AcDbEntity
  8
Layer 1
370
     9
  0
POLYLINE
  5
3CF
330
3BD
100
AcDbEntity
  8
Layer 1
 62
   250
370
     9
100
AcDb2dPolyline
 66
     1
 10
0.0
 20
0.0
 30
0.0
  0
VERTEX
  5
3D0
330
3CF
100
AcDbEntity
  8
Layer 1
 62
   250
370
     9
100
AcDbVertex
100
AcDb2dVertex
 10
103.7902194293476
 20
-129.4494628582626
 30
0.0
  0
VERTEX
  5
3D1
330
3CF
100
AcDbEntity
  8
Layer 1
 62
   250
370
     9
100
AcDbVertex
100
AcDb2dVertex
 10
110.6747259922966
 20
-129.4494628582626
 30
0.0
  0
SEQEND
  5
3D2
330
3CF
100
AcDbEntity
  8
Layer 1
370
     9
  0
POLYLINE
  5
3D3
330
3BD
100
AcDbEntity
  8
Layer 1
 62
   250
370
     9
100
AcDb2dPolyline
 66
     1
 10
0.0
 20
0.0
 30
0.0
  0
VERTEX
  5
3D4
330
3D3
100
AcDbEntity
  8
Layer 1
 62
   250
370
     9
100
AcDbVertex
100
AcDb2dVertex
 10
110.6824774571384
 20
-129.9765624675058
 30
0.0
  0
VERTEX
  5
3D5
330
3D3
100
AcDbEntity
  8
Layer 1
 62
   250
370
     9
100
AcDbVertex
100
AcDb2dVertex
 10
111.2049261874765
 20
-129.9765624675058
 30
0.0
  0
SEQEND
  5
3D6
330
3D3
100
AcDbEntity
  8
Layer 1
370
     9
  0
POLYLINE
  5
3D7
330
3BD
100
AcDbEntity
  8
Layer 1
 62
   250
370
     9
100
AcDb2dPolyline
 66
     1
 10
0.0
 20
0.0
 30
0.0
  0
VERTEX
  5
3D8
330
3D7
100
AcDbEntity
  8
Layer 1
 62
   250
370
     9
100
AcDbVertex
100
AcDb2dVertex
 10
103.2269463175092
 20
-129.9765624675058
 30
0.0
  0
VERTEX
  5
3D9
330
3D7
100
AcDbEntity
  8
Layer 1
 62
   250
370
     9
100
AcDbVertex
100
AcDb2dVertex
 10
103.768170818242
 20
-129.9765624675058
 30
0.0
  0
SEQEND
  5
3DA
330
3D7
100
AcDbEntity
  8
Layer 1
370
     9
  0
SPLINE
  5
3DB
330
3BD
100
AcDbEntity
  8
Layer 1
 62
   250
370
     9
100
AcDbSpline
210
0.0
220
0.0
230
1.0
 70
     8
 71
     3
 72
     8
 73
     4
 74
     0
 42
0.000000001
 43
0.0000000001
 40
0.0
 40
0.0
 40
0.0
 40
0.0
 40
1.0
 40
1.0
 40
1.0
 40
1.0
 10
103.2612250175874
 20
-129.2117512697804
 30
0.0
 10
103.2612250175874
 20
-129.2117512697804
 30
0.0
 10
106.447593831895
 20
-128.5072292430468
 30
0.0
 10
111.1970024678605
 20
-129.1848795249954
 30
0.0
  0
SPLINE
  5
3DC
330
3BD
100
AcDbEntity
  8
Layer 1
 62
   250
370
     9
100
AcDbSpline
210
0.0
220
0.0
230
1.0
 70
     8
 71
     3
 72
    20
 73
    16
 74
     0
 42
0.000000001
 43
0.0000000001
 40
0.0
 40
0.0
 40
0.0
 40
0.0
 40
1.0
 40
1.0
 40
1.0
 40
2.0
 40
2.0
 40
2.0
 40
3.0
 40
3.0
 40
3.0
 40
4.0
 40
4.0
 40
4.0
 40
5.0
 40
5.0
 40
5.0
 40
5.0
 10
111.1997585442487
 20
-129.2034830406158
 30
0.0
 10
111.1997585442487
 20
-129.2034830406158
 30
0.0
 10
111.1997585442487
 20
-128.8730983835803
 30
0.0
 10
111.1997585442487
 20
-128.8730983835803
 30
0.0
 10
111.1997585442487
 20
-128.8730983835803
 30
0.0
 10
111.1970024678605
 20
-128.8324462568544
 30
0.0
 10
111.1970024678605
 20
-128.8324462568544
 30
0.0
 10
106.447593831895
 20
-128.1551404844543
 30
0.0
 10
103.2612250175874
 20
-128.8596625111878
 30
0.0
 10
103.2612250175874
 20
-128.8596625111878
 30
0.0
 10
103.2612250175874
 20
-128.8596625111878
 30
0.0
 10
103.2085150566631
 20
-128.8730983835803
 30
0.0
 10
103.2085150566631
 20
-128.8730983835803
 30
0.0
 10
103.2085150566631
 20
-128.8730983835803
 30
0.0
 10
103.2085150566631
 20
-129.254125944249
 30
0.0
 10
103.2085150566631
 20
-129.254125944249
 30
0.0
  0
ENDBLK
  5
3C0
330
3BD
100
AcDbEntity
  8
0
100
AcDbBlockEnd
  0
BLOCK
  5
3E0
330
3DE
100
AcDbEntity
  8
0
100
AcDbBlockBegin
  2
block 22
 70
     0
 10
0.0
 20
0.0
 30
0.0
  3
block 22
  1

  0
ENDBLK
  5
3E1
330
3DE
100
AcDbEntity
  8
0
100
AcDbBlockEnd
  0
BLOCK
  5
3E4
330
3E2
100
AcDbEntity
  8
0
100
AcDbBlockBegin
  2
block 23
 70
     0
 10
0.0
 20
0.0
 30
0.0
  3
block 23
  1

  0
INSERT
  5
3E7
330
3E2
100
AcDbEntity
  8
Layer 1
100
AcDbBlockReference
  2
block 24
 10
0.0
 20
0.0
 30
0.0
  0
INSERT
  5
3EB
330
3E2
100
AcDbEntity
  8
Layer 1
100
AcDbBlockReference
  2
block 25
 10
0.0
 20
0.0
 30
0.0
  0
ENDBLK
  5
3E5
330
3E2
100
AcDbEntity
  8
0
100
AcDbBlockEnd
  0
BLOCK
  5
3E8
330
3E6
100
AcDbEntity
  8
0
100
AcDbBlockBegin
  2
block 24
 70
     0
 10
0.0
 20
0.0
 30
0.0
  3
block 24
  1

  0
ENDBLK
  5
3E9
330
3E6
100
AcDbEntity
  8
0
100
AcDbBlockEnd
  0
BLOCK
  5
3EC
330
3EA
100
AcDbEntity
  8
0
100
AcDbBlockBegin
  2
block 25
 70
     0
 10
0.0
 20
0.0
 30
0.0
  3
block 25
  1

  0
ENDBLK
  5
3ED
330
3EA
100
AcDbEntity
  8
0
100
AcDbBlockEnd
  0
BLOCK
  5
938
330
82D
100
AcDbEntity
  8
0
100
AcDbBlockBegin
  2
A$C7D515EA7
 70
     0
 10
0.0
 20
0.0
 30
0.0
  3
A$C7D515EA7
  1

  0
MTEXT
  5
82E
330
82D
100
AcDbEntity
  8
Dimensions
100
AcDbMText
 10
517.9849990213212
 20
379.1108394807416
 30
0.0
 40
81.00202151674771
 41
0.0
 46
0.0
 71
     7
 72
     1
  1
\fApercu|b0|i0|c0|p34;\W1.0004;51
 73
     1
 44
1.0
  0
MTEXT
  5
82F
330
82D
100
AcDbEntity
  8
Text
100
AcDbMText
 10
2982.95227187681
 20
27.47633743824037
 30
0.0
 40
72.13366082675583
 41
0.0
 46
0.0
 71
     7
 72
     1
  1
\fApercu|b1|i0|c0|p34;\W1.0004;BR44
 73
     1
 44
1.0
  0
POLYLINE
  5
830
330
82D
100
AcDbEntity
  8
Furniture
370
     9
100
AcDb2dPolyline
 66
     1
 10
0.0
 20
0.0
 30
0.0
  0
VERTEX
  5
831
330
830
100
AcDbEntity
  8
Furniture
370
     9
100
AcDbVertex
100
AcDb2dVertex
 10
4410.332020128257
 20
218.660628320806
 30
0.0
  0
VERTEX
  5
832
330
830
100
AcDbEntity
  8
Furniture
370
     9
100
AcDbVertex
100
AcDb2dVertex
 10
4410.332020128257
 20
609.9381812932861
 30
0.0
  0
SEQEND
  5
833
330
830
100
AcDbEntity
  8
Furniture
370
     9
  0
POLYLINE
  5
834
330
82D
100
AcDbEntity
  8
Furniture
370
     9
100
AcDb2dPolyline
 66
     1
 10
0.0
 20
0.0
 30
0.0
  0
VERTEX
  5
835
330
834
100
AcDbEntity
  8
Furniture
370
     9
100
AcDbVertex
100
AcDb2dVertex
 10
4410.332020128257
 20
609.9381812932861
 30
0.0
  0
VERTEX
  5
836
330
834
100
AcDbEntity
  8
Furniture
370
     9
100
AcDbVertex
100
AcDb2dVertex
 10
4757.128466410735
 20
609.9381812932861
 30
0.0
  0
SEQEND
  5
837
330
834
100
AcDbEntity
  8
Furniture
370
     9
  0
POLYLINE
  5
838
330
82D
100
AcDbEntity
  8
Furniture
370
     9
100
AcDb2dPolyline
 66
     1
 10
0.0
 20
0.0
 30
0.0
  0
VERTEX
  5
839
330
838
100
AcDbEntity
  8
Furniture
370
     9
100
AcDbVertex
100
AcDb2dVertex
 10
4410.332020128257
 20
218.660628320806
 30
0.0
  0
VERTEX
  5
83A
330
838
100
AcDbEntity
  8
Furniture
370
     9
100
AcDbVertex
100
AcDb2dVertex
 10
4436.979247066873
 20
218.660628320806
 30
0.0
  0
SEQEND
  5
83B
330
838
100
AcDbEntity
  8
Furniture
370
     9
  0
POLYLINE
  5
83C
330
82D
100
AcDbEntity
  8
Furniture
370
     9
100
AcDb2dPolyline
 66
     1
 10
0.0
 20
0.0
 30
0.0
  0
VERTEX
  5
83D
330
83C
100
AcDbEntity
  8
Furniture
370
     9
100
AcDbVertex
100
AcDb2dVertex
 10
4449.410369681779
 20
569.919528875303
 30
0.0
  0
VERTEX
  5
83E
330
83C
100
AcDbEntity
  8
Furniture
370
     9
100
AcDbVertex
100
AcDb2dVertex
 10
4757.128466410735
 20
569.919528875303
 30
0.0
  0
SEQEND
  5
83F
330
83C
100
AcDbEntity
  8
Furniture
370
     9
  0
POLYLINE
  5
840
330
82D
100
AcDbEntity
  8
Furniture
370
     9
100
AcDb2dPolyline
 66
     1
 10
0.0
 20
0.0
 30
0.0
  0
VERTEX
  5
841
330
840
100
AcDbEntity
  8
Furniture
370
     9
100
AcDbVertex
100
AcDb2dVertex
 10
4449.410369681779
 20
569.919528875303
 30
0.0
  0
VERTEX
  5
842
330
840
100
AcDbEntity
  8
Furniture
370
     9
100
AcDbVertex
100
AcDb2dVertex
 10
4436.979247066873
 20
218.660628320806
 30
0.0
  0
SEQEND
  5
843
330
840
100
AcDbEntity
  8
Furniture
370
     9
  0
POLYLINE
  5
844
330
82D
100
AcDbEntity
  8
Furniture
370
     9
100
AcDb2dPolyline
 66
     1
 10
0.0
 20
0.0
 30
0.0
  0
VERTEX
  5
845
330
844
100
AcDbEntity
  8
Furniture
370
     9
100
AcDbVertex
100
AcDb2dVertex
 10
4792.700601893388
 20
609.9381812932861
 30
0.0
  0
VERTEX
  5
846
330
844
100
AcDbEntity
  8
Furniture
370
     9
100
AcDbVertex
100
AcDb2dVertex
 10
4792.700601893388
 20
569.919528875303
 30
0.0
  0
SEQEND
  5
847
330
844
100
AcDbEntity
  8
Furniture
370
     9
  0
POLYLINE
  5
848
330
82D
100
AcDbEntity
  8
Furniture
370
     9
100
AcDb2dPolyline
 66
     1
 10
0.0
 20
0.0
 30
0.0
  0
VERTEX
  5
849
330
848
100
AcDbEntity
  8
Furniture
370
     9
100
AcDbVertex
100
AcDb2dVertex
 10
4757.128466410735
 20
609.9381812932861
 30
0.0
  0
VERTEX
  5
84A
330
848
100
AcDbEntity
  8
Furniture
370
     9
100
AcDbVertex
100
AcDb2dVertex
 10
4797.131181492034
 20
903.3764243517884
 30
0.0
  0
SEQEND
  5
84B
330
848
100
AcDbEntity
  8
Furniture
370
     9
  0
POLYLINE
  5
84C
330
82D
100
AcDbEntity
  8
Furniture
370
     9
100
AcDb2dPolyline
 66
     1
 10
0.0
 20
0.0
 30
0.0
  0
VERTEX
  5
84D
330
84C
100
AcDbEntity
  8
Furniture
370
     9
100
AcDbVertex
100
AcDb2dVertex
 10
4797.131181492034
 20
903.3764243517884
 30
0.0
  0
VERTEX
  5
84E
330
84C
100
AcDbEntity
  8
Furniture
370
     9
100
AcDbVertex
100
AcDb2dVertex
 10
4814.885374559987
 20
903.3764243517884
 30
0.0
  0
SEQEND
  5
84F
330
84C
100
AcDbEntity
  8
Furniture
370
     9
  0
POLYLINE
  5
850
330
82D
100
AcDbEntity
  8
Furniture
370
     9
100
AcDb2dPolyline
 66
     1
 10
0.0
 20
0.0
 30
0.0
  0
VERTEX
  5
851
330
850
100
AcDbEntity
  8
Furniture
370
     9
100
AcDbVertex
100
AcDb2dVertex
 10
4814.885374559987
 20
903.3764243517884
 30
0.0
  0
VERTEX
  5
852
330
850
100
AcDbEntity
  8
Furniture
370
     9
100
AcDbVertex
100
AcDb2dVertex
 10
4792.700601893388
 20
609.9381812932861
 30
0.0
  0
SEQEND
  5
853
330
850
100
AcDbEntity
  8
Furniture
370
     9
  0
POLYLINE
  5
854
330
82D
100
AcDbEntity
  8
Furniture
370
     9
100
AcDb2dPolyline
 66
     1
 10
0.0
 20
0.0
 30
0.0
  0
VERTEX
  5
855
330
854
100
AcDbEntity
  8
Furniture
370
     9
100
AcDbVertex
100
AcDb2dVertex
 10
4757.128466410735
 20
569.919528875303
 30
0.0
  0
VERTEX
  5
856
330
854
100
AcDbEntity
  8
Furniture
370
     9
100
AcDbVertex
100
AcDb2dVertex
 10
4788.23814762137
 20
218.660628320806
 30
0.0
  0
SEQEND
  5
857
330
854
100
AcDbEntity
  8
Furniture
370
     9
  0
POLYLINE
  5
858
330
82D
100
AcDbEntity
  8
Furniture
370
     9
100
AcDb2dPolyline
 66
     1
 10
0.0
 20
0.0
 30
0.0
  0
VERTEX
  5
859
330
858
100
AcDbEntity
  8
Furniture
370
     9
100
AcDbVertex
100
AcDb2dVertex
 10
4788.23814762137
 20
218.660628320806
 30
0.0
  0
VERTEX
  5
85A
330
858
100
AcDbEntity
  8
Furniture
370
     9
100
AcDbVertex
100
AcDb2dVertex
 10
4814.885374559987
 20
218.660628320806
 30
0.0
  0
SEQEND
  5
85B
330
858
100
AcDbEntity
  8
Furniture
370
     9
  0
POLYLINE
  5
85C
330
82D
100
AcDbEntity
  8
Furniture
370
     9
100
AcDb2dPolyline
 66
     1
 10
0.0
 20
0.0
 30
0.0
  0
VERTEX
  5
85D
330
85C
100
AcDbEntity
  8
Furniture
370
     9
100
AcDbVertex
100
AcDb2dVertex
 10
4814.885374559987
 20
218.660628320806
 30
0.0
  0
VERTEX
  5
85E
330
85C
100
AcDbEntity
  8
Furniture
370
     9
100
AcDbVertex
100
AcDb2dVertex
 10
4792.700601893388
 20
569.919528875303
 30
0.0
  0
SEQEND
  5
85F
330
85C
100
AcDbEntity
  8
Furniture
370
     9
  0
MTEXT
  5
860
330
82D
100
AcDbEntity
  8
Dimensions
100
AcDbMText
 10
3348.554775448505
 20
495.5240412261016
 30
0.0
 40
72.13366082675583
 41
0.0
 46
0.0
 71
     7
 72
     1
  1
\fApercu|b0|i0|c0|p34;\W1.0004;77
 73
     1
 44
1.0
  0
MTEXT
  5
861
330
82D
100
AcDbEntity
  8
Dimensions
100
AcDbMText
 10
3045.283195654879
 20
972.7835256183416
 30
0.0
 40
72.13366082675583
 41
0.0
 46
0.0
 71
     7
 72
     1
  1
\fApercu|b0|i0|c0|p34;\W1.0004;51
 73
     1
 44
1.0
  0
MTEXT
  5
862
330
82D
100
AcDbEntity
  8
Text
100
AcDbMText
 10
4443.210745711009
 20
27.47633743824037
 30
0.0
 40
72.13366082675583
 41
0.0
 46
0.0
 71
     7
 72
     1
  1
\fApercu|b1|i0|c0|p34;\W1.0004;BR44U
 73
     1
 44
1.0
  0
POLYLINE
  5
863
330
82D
100
AcDbEntity
  8
Furniture
370
     9
100
AcDb2dPolyline
 66
     1
 10
0.0
 20
0.0
 30
0.0
  0
VERTEX
  5
864
330
863
100
AcDbEntity
  8
Furniture
370
     9
100
AcDbVertex
100
AcDb2dVertex
 10
2874.578382413535
 20
218.660628320806
 30
0.0
  0
VERTEX
  5
865
330
863
100
AcDbEntity
  8
Furniture
370
     9
100
AcDbVertex
100
AcDb2dVertex
 10
2874.578382413535
 20
609.9381812932861
 30
0.0
  0
SEQEND
  5
866
330
863
100
AcDbEntity
  8
Furniture
370
     9
  0
POLYLINE
  5
867
330
82D
100
AcDbEntity
  8
Furniture
370
     9
100
AcDb2dPolyline
 66
     1
 10
0.0
 20
0.0
 30
0.0
  0
VERTEX
  5
868
330
867
100
AcDbEntity
  8
Furniture
370
     9
100
AcDbVertex
100
AcDb2dVertex
 10
3221.406703369387
 20
609.9381812932861
 30
0.0
  0
VERTEX
  5
869
330
867
100
AcDbEntity
  8
Furniture
370
     9
100
AcDbVertex
100
AcDb2dVertex
 10
2874.578382413535
 20
609.9381812932861
 30
0.0
  0
VERTEX
  5
86A
330
867
100
AcDbEntity
  8
Furniture
370
     9
100
AcDbVertex
100
AcDb2dVertex
 10
2875.885244021769
 20
624.990995793001
 30
0.0
  0
VERTEX
  5
86B
330
867
100
AcDbEntity
  8
Furniture
370
     9
100
AcDbVertex
100
AcDb2dVertex
 10
3222.362943570534
 20
624.990995793001
 30
0.0
  0
VERTEX
  5
86C
330
867
100
AcDbEntity
  8
Furniture
370
     9
100
AcDbVertex
100
AcDb2dVertex
 10
3221.406703369387
 20
609.9381812932861
 30
0.0
  0
VERTEX
  5
86D
330
867
100
AcDbEntity
  8
Furniture
370
     9
100
AcDbVertex
100
AcDb2dVertex
 10
3261.377543777312
 20
903.3764243517884
 30
0.0
  0
SEQEND
  5
86E
330
867
100
AcDbEntity
  8
Furniture
370
     9
  0
POLYLINE
  5
86F
330
82D
100
AcDbEntity
  8
Furniture
370
     9
100
AcDb2dPolyline
 66
     1
 10
0.0
 20
0.0
 30
0.0
  0
VERTEX
  5
870
330
86F
100
AcDbEntity
  8
Furniture
370
     9
100
AcDbVertex
100
AcDb2dVertex
 10
2874.578382413535
 20
218.660628320806
 30
0.0
  0
VERTEX
  5
871
330
86F
100
AcDbEntity
  8
Furniture
370
     9
100
AcDbVertex
100
AcDb2dVertex
 10
2901.225609352153
 20
218.660628320806
 30
0.0
  0
SEQEND
  5
872
330
86F
100
AcDbEntity
  8
Furniture
370
     9
  0
POLYLINE
  5
873
330
82D
100
AcDbEntity
  8
Furniture
370
     9
100
AcDb2dPolyline
 66
     1
 10
0.0
 20
0.0
 30
0.0
  0
VERTEX
  5
874
330
873
100
AcDbEntity
  8
Furniture
370
     9
100
AcDbVertex
100
AcDb2dVertex
 10
2913.688606640429
 20
569.919528875303
 30
0.0
  0
VERTEX
  5
875
330
873
100
AcDbEntity
  8
Furniture
370
     9
100
AcDbVertex
100
AcDb2dVertex
 10
3221.406703369387
 20
569.919528875303
 30
0.0
  0
SEQEND
  5
876
330
873
100
AcDbEntity
  8
Furniture
370
     9
  0
POLYLINE
  5
877
330
82D
100
AcDbEntity
  8
Furniture
370
     9
100
AcDb2dPolyline
 66
     1
 10
0.0
 20
0.0
 30
0.0
  0
VERTEX
  5
878
330
877
100
AcDbEntity
  8
Furniture
370
     9
100
AcDbVertex
100
AcDb2dVertex
 10
2913.688606640429
 20
569.919528875303
 30
0.0
  0
VERTEX
  5
879
330
877
100
AcDbEntity
  8
Furniture
370
     9
100
AcDbVertex
100
AcDb2dVertex
 10
2901.225609352153
 20
218.660628320806
 30
0.0
  0
SEQEND
  5
87A
330
877
100
AcDbEntity
  8
Furniture
370
     9
  0
POLYLINE
  5
87B
330
82D
100
AcDbEntity
  8
Furniture
370
     9
100
AcDb2dPolyline
 66
     1
 10
0.0
 20
0.0
 30
0.0
  0
VERTEX
  5
87C
330
87B
100
AcDbEntity
  8
Furniture
370
     9
100
AcDbVertex
100
AcDb2dVertex
 10
3256.915089505296
 20
609.9381812932861
 30
0.0
  0
VERTEX
  5
87D
330
87B
100
AcDbEntity
  8
Furniture
370
     9
100
AcDbVertex
100
AcDb2dVertex
 10
3256.915089505296
 20
569.919528875303
 30
0.0
  0
SEQEND
  5
87E
330
87B
100
AcDbEntity
  8
Furniture
370
     9
  0
POLYLINE
  5
87F
330
82D
100
AcDbEntity
  8
Furniture
370
     9
100
AcDb2dPolyline
 66
     1
 10
0.0
 20
0.0
 30
0.0
  0
VERTEX
  5
880
330
87F
100
AcDbEntity
  8
Furniture
370
     9
100
AcDbVertex
100
AcDb2dVertex
 10
3261.377543777312
 20
903.3764243517884
 30
0.0
  0
VERTEX
  5
881
330
87F
100
AcDbEntity
  8
Furniture
370
     9
100
AcDbVertex
100
AcDb2dVertex
 10
3279.163611518639
 20
903.3764243517884
 30
0.0
  0
SEQEND
  5
882
330
87F
100
AcDbEntity
  8
Furniture
370
     9
  0
POLYLINE
  5
883
330
82D
100
AcDbEntity
  8
Furniture
370
     9
100
AcDb2dPolyline
 66
     1
 10
0.0
 20
0.0
 30
0.0
  0
VERTEX
  5
884
330
883
100
AcDbEntity
  8
Furniture
370
     9
100
AcDbVertex
100
AcDb2dVertex
 10
3279.163611518639
 20
903.3764243517884
 30
0.0
  0
VERTEX
  5
885
330
883
100
AcDbEntity
  8
Furniture
370
     9
100
AcDbVertex
100
AcDb2dVertex
 10
3256.915089505296
 20
609.9381812932861
 30
0.0
  0
SEQEND
  5
886
330
883
100
AcDbEntity
  8
Furniture
370
     9
  0
POLYLINE
  5
887
330
82D
100
AcDbEntity
  8
Furniture
370
     9
100
AcDb2dPolyline
 66
     1
 10
0.0
 20
0.0
 30
0.0
  0
VERTEX
  5
888
330
887
100
AcDbEntity
  8
Furniture
370
     9
100
AcDbVertex
100
AcDb2dVertex
 10
3221.406703369387
 20
569.919528875303
 30
0.0
  0
VERTEX
  5
889
330
887
100
AcDbEntity
  8
Furniture
370
     9
100
AcDbVertex
100
AcDb2dVertex
 10
3252.51638458002
 20
218.660628320806
 30
0.0
  0
SEQEND
  5
88A
330
887
100
AcDbEntity
  8
Furniture
370
     9
  0
POLYLINE
  5
88B
330
82D
100
AcDbEntity
  8
Furniture
370
     9
100
AcDb2dPolyline
 66
     1
 10
0.0
 20
0.0
 30
0.0
  0
VERTEX
  5
88C
330
88B
100
AcDbEntity
  8
Furniture
370
     9
100
AcDbVertex
100
AcDb2dVertex
 10
3252.51638458002
 20
218.660628320806
 30
0.0
  0
VERTEX
  5
88D
330
88B
100
AcDbEntity
  8
Furniture
370
     9
100
AcDbVertex
100
AcDb2dVertex
 10
3279.163611518639
 20
218.660628320806
 30
0.0
  0
SEQEND
  5
88E
330
88B
100
AcDbEntity
  8
Furniture
370
     9
  0
POLYLINE
  5
88F
330
82D
100
AcDbEntity
  8
Furniture
370
     9
100
AcDb2dPolyline
 66
     1
 10
0.0
 20
0.0
 30
0.0
  0
VERTEX
  5
890
330
88F
100
AcDbEntity
  8
Furniture
370
     9
100
AcDbVertex
100
AcDb2dVertex
 10
3279.163611518639
 20
218.660628320806
 30
0.0
  0
VERTEX
  5
891
330
88F
100
AcDbEntity
  8
Furniture
370
     9
100
AcDbVertex
100
AcDb2dVertex
 10
3256.915089505296
 20
569.919528875303
 30
0.0
  0
SEQEND
  5
892
330
88F
100
AcDbEntity
  8
Furniture
370
     9
  0
MTEXT
  5
893
330
82D
100
AcDbEntity
  8
Dimensions
100
AcDbMText
 10
1922.266734760036
 20
385.9150081696792
 30
0.0
 40
72.13366082675583
 41
0.0
 46
0.0
 71
     7
 72
     1
  1
\fApercu|b0|i0|c0|p34;\W1.0004;45
 73
     1
 44
1.0
  0
MTEXT
  5
894
330
82D
100
AcDbEntity
  8
Dimensions
100
AcDbMText
 10
4883.782481052595
 20
562.3094506078447
 30
0.0
 40
72.13366082675583
 41
0.0
 46
0.0
 71
     7
 72
     1
  1
\fApercu|b0|i0|c0|p34;\W1.0004;77 
 73
     1
 44
1.0
  0
MTEXT
  5
895
330
82D
100
AcDbEntity
  8
Dimensions
100
AcDbMText
 10
4580.622462615768
 20
972.7835256183416
 30
0.0
 40
72.13366082675583
 41
0.0
 46
0.0
 71
     7
 72
     1
  1
\fApercu|b0|i0|c0|p34;\W1.0004;51
 73
     1
 44
1.0
  0
POLYLINE
  5
896
330
82D
100
AcDbEntity
  8
Furniture
370
     9
100
AcDb2dPolyline
 66
     1
 10
0.0
 20
0.0
 30
0.0
  0
VERTEX
  5
897
330
896
100
AcDbEntity
  8
Furniture
370
     9
100
AcDbVertex
100
AcDb2dVertex
 10
0.0000078679983631
 20
589.8269119624892
 30
0.0
  0
VERTEX
  5
898
330
896
100
AcDbEntity
  8
Furniture
370
     9
100
AcDbVertex
100
AcDb2dVertex
 10
0.0000078679983631
 20
168.3858186351215
 30
0.0
  0
VERTEX
  5
899
330
896
100
AcDbEntity
  8
Furniture
370
     9
100
AcDbVertex
100
AcDb2dVertex
 10
440.0000078679983
 20
168.3858186351215
 30
0.0
  0
VERTEX
  5
89A
330
896
100
AcDbEntity
  8
Furniture
370
     9
100
AcDbVertex
100
AcDb2dVertex
 10
440.0000078679983
 20
589.8269119624892
 30
0.0
  0
SEQEND
  5
89B
330
896
100
AcDbEntity
  8
Furniture
370
     9
  0
POLYLINE
  5
89C
330
82D
100
AcDbEntity
  8
Furniture
370
     9
100
AcDb2dPolyline
 66
     1
 10
0.0
 20
0.0
 30
0.0
  0
VERTEX
  5
89D
330
89C
100
AcDbEntity
  8
Furniture
370
     9
100
AcDbVertex
100
AcDb2dVertex
 10
30.14704575618451
 20
554.2840106588752
 30
0.0
  0
VERTEX
  5
89E
330
89C
100
AcDbEntity
  8
Furniture
370
     9
100
AcDbVertex
100
AcDb2dVertex
 10
30.14704575618451
 20
577.5139632732209
 30
0.0
  0
SEQEND
  5
89F
330
89C
100
AcDbEntity
  8
Furniture
370
     9
  0
POLYLINE
  5
8A0
330
82D
100
AcDbEntity
  8
Furniture
370
     9
100
AcDb2dPolyline
 66
     1
 10
0.0
 20
0.0
 30
0.0
  0
VERTEX
  5
8A1
330
8A0
100
AcDbEntity
  8
Furniture
370
     9
100
AcDbVertex
100
AcDb2dVertex
 10
412.027422400955
 20
554.2840106588752
 30
0.0
  0
VERTEX
  5
8A2
330
8A0
100
AcDbEntity
  8
Furniture
370
     9
100
AcDbVertex
100
AcDb2dVertex
 10
412.027422400955
 20
577.5139632732209
 30
0.0
  0
SEQEND
  5
8A3
330
8A0
100
AcDbEntity
  8
Furniture
370
     9
  0
POLYLINE
  5
8A4
330
82D
100
AcDbEntity
  8
Furniture
370
     9
100
AcDb2dPolyline
 66
     1
 10
0.0
 20
0.0
 30
0.0
  0
VERTEX
  5
8A5
330
8A4
100
AcDbEntity
  8
Furniture
370
     9
100
AcDbVertex
100
AcDb2dVertex
 10
30.37970321688288
 20
578.6951473044589
 30
0.0
  0
VERTEX
  5
8A6
330
8A4
100
AcDbEntity
  8
Furniture
370
     9
100
AcDbVertex
100
AcDb2dVertex
 10
411.9647838538445
 20
578.6951473044589
 30
0.0
  0
SEQEND
  5
8A7
330
8A4
100
AcDbEntity
  8
Furniture
370
     9
  0
POLYLINE
  5
8A8
330
82D
100
AcDbEntity
  8
Furniture
370
     9
100
AcDb2dPolyline
 66
     1
 10
0.0
 20
0.0
 30
0.0
  0
VERTEX
  5
8A9
330
8A8
100
AcDbEntity
  8
Furniture
370
     9
100
AcDbVertex
100
AcDb2dVertex
 10
412.3853569558752
 20
553.2102069941136
 30
0.0
  0
VERTEX
  5
8AA
330
8A8
100
AcDbEntity
  8
Furniture
370
     9
100
AcDbVertex
100
AcDb2dVertex
 10
439.6778667685706
 20
553.2102069941136
 30
0.0
  0
SEQEND
  5
8AB
330
8A8
100
AcDbEntity
  8
Furniture
370
     9
  0
POLYLINE
  5
8AC
330
82D
100
AcDbEntity
  8
Furniture
370
     9
100
AcDb2dPolyline
 66
     1
 10
0.0
 20
0.0
 30
0.0
  0
VERTEX
  5
8AD
330
8AC
100
AcDbEntity
  8
Furniture
370
     9
100
AcDbVertex
100
AcDb2dVertex
 10
0.9574828024107375
 20
553.2102069941136
 30
0.0
  0
VERTEX
  5
8AE
330
8AC
100
AcDbEntity
  8
Furniture
370
     9
100
AcDbVertex
100
AcDb2dVertex
 10
29.23431264113727
 20
553.2102069941136
 30
0.0
  0
SEQEND
  5
8AF
330
8AC
100
AcDbEntity
  8
Furniture
370
     9
  0
SPLINE
  5
8B0
330
82D
100
AcDbEntity
  8
Furniture
370
     9
100
AcDbSpline
210
0.0
220
0.0
230
1.0
 70
     8
 71
     3
 72
     8
 73
     4
 74
     0
 42
0.000000001
 43
0.0000000001
 40
0.0
 40
0.0
 40
0.0
 40
0.0
 40
1.0
 40
1.0
 40
1.0
 40
1.0
 10
2.729258849268205
 20
590.1669497896636
 30
0.0
 10
2.729258849268205
 20
590.1669497896636
 30
0.0
 10
190.9759896458752
 20
624.1886292348649
 30
0.0
 10
439.2393969387919
 20
591.4555141873778
 30
0.0
  0
SPLINE
  5
8B1
330
82D
100
AcDbEntity
  8
Furniture
370
     9
100
AcDbSpline
210
0.0
220
0.0
230
1.0
 70
     8
 71
     3
 72
    20
 73
    16
 74
     0
 42
0.000000001
 43
0.0000000001
 40
0.0
 40
0.0
 40
0.0
 40
0.0
 40
1.0
 40
1.0
 40
1.0
 40
2.0
 40
2.0
 40
2.0
 40
3.0
 40
3.0
 40
3.0
 40
4.0
 40
4.0
 40
4.0
 40
5.0
 40
5.0
 40
5.0
 40
5.0
 10
439.4273125801259
 20
590.5606778000763
 30
0.0
 10
439.4273125801259
 20
590.5606778000763
 30
0.0
 10
439.4273125801259
 20
606.5156105856614
 30
0.0
 10
439.4273125801259
 20
606.5156105856614
 30
0.0
 10
439.4273125801259
 20
606.5156105856614
 30
0.0
 10
439.2393969387919
 20
608.4753022738513
 30
0.0
 10
439.2393969387919
 20
608.4753022738513
 30
0.0
 10
190.9759896458752
 20
641.2263140490851
 30
0.0
 10
2.729258849268205
 20
607.1598927845183
 30
0.0
 10
2.729258849268205
 20
607.1598927845183
 30
0.0
 10
2.729258849268205
 20
607.1598927845183
 30
0.0
 10
0.0000078679983631
 20
606.5156105856614
 30
0.0
 10
0.0000078679983631
 20
606.5156105856614
 30
0.0
 10
0.0000078679983631
 20
606.5156105856614
 30
0.0
 10
0.0000078679983631
 20
588.1088260988705
 30
0.0
 10
0.0000078679983631
 20
588.1088260988705
 30
0.0
  0
MTEXT
  5
8B2
330
82D
100
AcDbEntity
  8
Dimensions
100
AcDbMText
 10
135.5945656357882
 20
701.2071970899016
 30
0.0
 40
81.00202151674771
 41
0.0
 46
0.0
 71
     7
 72
     1
  1
\fApercu|b0|i0|c0|p34;\W1.0004;44
 73
     1
 44
1.0
  0
POLYLINE
  5
8B3
330
82D
100
AcDbEntity
  8
Furniture
370
     9
100
AcDb2dPolyline
 66
     1
 10
0.0
 20
0.0
 30
0.0
  0
VERTEX
  5
8B4
330
8B3
100
AcDbEntity
  8
Furniture
370
     9
100
AcDbVertex
100
AcDb2dVertex
 10
1487.20931791173
 20
902.2448734470982
 30
0.0
  0
VERTEX
  5
8B5
330
8B3
100
AcDbEntity
  8
Furniture
370
     9
100
AcDbVertex
100
AcDb2dVertex
 10
1487.20931791173
 20
618.4168444101183
 30
0.0
  0
SEQEND
  5
8B6
330
8B3
100
AcDbEntity
  8
Furniture
370
     9
  0
POLYLINE
  5
8B7
330
82D
100
AcDbEntity
  8
Furniture
370
     9
100
AcDb2dPolyline
 66
     1
 10
0.0
 20
0.0
 30
0.0
  0
VERTEX
  5
8B8
330
8B7
100
AcDbEntity
  8
Furniture
370
     9
100
AcDbVertex
100
AcDb2dVertex
 10
1460.625840319855
 20
903.3764243517884
 30
0.0
  0
VERTEX
  5
8B9
330
8B7
100
AcDbEntity
  8
Furniture
370
     9
100
AcDbVertex
100
AcDb2dVertex
 10
1474.204451176136
 20
902.8186175677864
 30
0.0
  0
VERTEX
  5
8BA
330
8B7
100
AcDbEntity
  8
Furniture
370
     9
100
AcDbVertex
100
AcDb2dVertex
 10
1487.20931791173
 20
902.2448734470982
 30
0.0
  0
SEQEND
  5
8BB
330
8B7
100
AcDbEntity
  8
Furniture
370
     9
  0
POLYLINE
  5
8BC
330
82D
100
AcDbEntity
  8
Furniture
370
     9
100
AcDb2dPolyline
 66
     1
 10
0.0
 20
0.0
 30
0.0
  0
VERTEX
  5
8BD
330
8BC
100
AcDbEntity
  8
Furniture
370
     9
100
AcDbVertex
100
AcDb2dVertex
 10
1460.625840319855
 20
618.4168444101183
 30
0.0
  0
VERTEX
  5
8BE
330
8BC
100
AcDbEntity
  8
Furniture
370
     9
100
AcDbVertex
100
AcDb2dVertex
 10
1460.625840319855
 20
903.3764243517884
 30
0.0
  0
SEQEND
  5
8BF
330
8BC
100
AcDbEntity
  8
Furniture
370
     9
  0
POLYLINE
  5
8C0
330
82D
100
AcDbEntity
  8
Furniture
370
     9
100
AcDb2dPolyline
 66
     1
 10
0.0
 20
0.0
 30
0.0
  0
VERTEX
  5
8C1
330
8C0
100
AcDbEntity
  8
Furniture
370
     9
100
AcDbVertex
100
AcDb2dVertex
 10
1485.519960223038
 20
218.660628320806
 30
0.0
  0
VERTEX
  5
8C2
330
8C0
100
AcDbEntity
  8
Furniture
370
     9
100
AcDbVertex
100
AcDb2dVertex
 10
1460.625840319855
 20
218.660628320806
 30
0.0
  0
SEQEND
  5
8C3
330
8C0
100
AcDbEntity
  8
Furniture
370
     9
  0
POLYLINE
  5
8C4
330
82D
100
AcDbEntity
  8
Furniture
370
     9
100
AcDb2dPolyline
 66
     1
 10
0.0
 20
0.0
 30
0.0
  0
VERTEX
  5
8C5
330
8C4
100
AcDbEntity
  8
Furniture
370
     9
100
AcDbVertex
100
AcDb2dVertex
 10
1485.519960223038
 20
218.660628320806
 30
0.0
  0
VERTEX
  5
8C6
330
8C4
100
AcDbEntity
  8
Furniture
370
     9
100
AcDbVertex
100
AcDb2dVertex
 10
1496.827500601595
 20
578.2786619669922
 30
0.0
  0
SEQEND
  5
8C7
330
8C4
100
AcDbEntity
  8
Furniture
370
     9
  0
POLYLINE
  5
8C8
330
82D
100
AcDbEntity
  8
Furniture
370
     9
100
AcDb2dPolyline
 66
     1
 10
0.0
 20
0.0
 30
0.0
  0
VERTEX
  5
8C9
330
8C8
100
AcDbEntity
  8
Furniture
370
     9
100
AcDbVertex
100
AcDb2dVertex
 10
1460.625840319855
 20
218.660628320806
 30
0.0
  0
VERTEX
  5
8CA
330
8C8
100
AcDbEntity
  8
Furniture
370
     9
100
AcDbVertex
100
AcDb2dVertex
 10
1460.625840319855
 20
615.5879671483932
 30
0.0
  0
SEQEND
  5
8CB
330
8C8
100
AcDbEntity
  8
Furniture
370
     9
  0
POLYLINE
  5
8CC
330
82D
100
AcDbEntity
  8
Furniture
370
     9
100
AcDb2dPolyline
 66
     1
 10
0.0
 20
0.0
 30
0.0
  0
VERTEX
  5
8CD
330
8CC
100
AcDbEntity
  8
Furniture
370
     9
100
AcDbVertex
100
AcDb2dVertex
 10
1496.827500601595
 20
578.2786619669922
 30
0.0
  0
VERTEX
  5
8CE
330
8CC
100
AcDbEntity
  8
Furniture
370
     9
100
AcDbVertex
100
AcDb2dVertex
 10
1496.827500601595
 20
615.5879671483932
 30
0.0
  0
VERTEX
  5
8CF
330
8CC
100
AcDbEntity
  8
Furniture
370
     9
100
AcDbVertex
100
AcDb2dVertex
 10
1460.625840319855
 20
615.5879671483932
 30
0.0
  0
SEQEND
  5
8D0
330
8CC
100
AcDbEntity
  8
Furniture
370
     9
  0
POLYLINE
  5
8D1
330
82D
100
AcDbEntity
  8
Furniture
370
     9
100
AcDb2dPolyline
 66
     1
 10
0.0
 20
0.0
 30
0.0
  0
VERTEX
  5
8D2
330
8D1
100
AcDbEntity
  8
Furniture
370
     9
100
AcDbVertex
100
AcDb2dVertex
 10
1852.485106081365
 20
218.660628320806
 30
0.0
  0
VERTEX
  5
8D3
330
8D1
100
AcDbEntity
  8
Furniture
370
     9
100
AcDbVertex
100
AcDb2dVertex
 10
1827.590986178184
 20
218.660628320806
 30
0.0
  0
SEQEND
  5
8D4
330
8D1
100
AcDbEntity
  8
Furniture
370
     9
  0
POLYLINE
  5
8D5
330
82D
100
AcDbEntity
  8
Furniture
370
     9
100
AcDb2dPolyline
 66
     1
 10
0.0
 20
0.0
 30
0.0
  0
VERTEX
  5
8D6
330
8D5
100
AcDbEntity
  8
Furniture
370
     9
100
AcDbVertex
100
AcDb2dVertex
 10
1852.485106081365
 20
218.660628320806
 30
0.0
  0
VERTEX
  5
8D7
330
8D5
100
AcDbEntity
  8
Furniture
370
     9
100
AcDbVertex
100
AcDb2dVertex
 10
1852.485106081365
 20
615.5879671483932
 30
0.0
  0
SEQEND
  5
8D8
330
8D5
100
AcDbEntity
  8
Furniture
370
     9
  0
POLYLINE
  5
8D9
330
82D
100
AcDbEntity
  8
Furniture
370
     9
100
AcDb2dPolyline
 66
     1
 10
0.0
 20
0.0
 30
0.0
  0
VERTEX
  5
8DA
330
8D9
100
AcDbEntity
  8
Furniture
370
     9
100
AcDbVertex
100
AcDb2dVertex
 10
1827.590986178184
 20
218.660628320806
 30
0.0
  0
VERTEX
  5
8DB
330
8D9
100
AcDbEntity
  8
Furniture
370
     9
100
AcDbVertex
100
AcDb2dVertex
 10
1815.733607683967
 20
578.2786619669922
 30
0.0
  0
SEQEND
  5
8DC
330
8D9
100
AcDbEntity
  8
Furniture
370
     9
  0
POLYLINE
  5
8DD
330
82D
100
AcDbEntity
  8
Furniture
370
     9
100
AcDb2dPolyline
 66
     1
 10
0.0
 20
0.0
 30
0.0
  0
VERTEX
  5
8DE
330
8DD
100
AcDbEntity
  8
Furniture
370
     9
100
AcDbVertex
100
AcDb2dVertex
 10
1852.485106081365
 20
615.5879671483932
 30
0.0
  0
VERTEX
  5
8DF
330
8DD
100
AcDbEntity
  8
Furniture
370
     9
100
AcDbVertex
100
AcDb2dVertex
 10
1815.733607683967
 20
615.0221916960482
 30
0.0
  0
VERTEX
  5
8E0
330
8DD
100
AcDbEntity
  8
Furniture
370
     9
100
AcDbVertex
100
AcDb2dVertex
 10
1815.733607683967
 20
578.2786619669922
 30
0.0
  0
SEQEND
  5
8E1
330
8DD
100
AcDbEntity
  8
Furniture
370
     9
  0
POLYLINE
  5
8E2
330
82D
100
AcDbEntity
  8
Furniture
370
     9
100
AcDb2dPolyline
 66
     1
 10
0.0
 20
0.0
 30
0.0
  0
VERTEX
  5
8E3
330
8E2
100
AcDbEntity
  8
Furniture
370
     9
100
AcDbVertex
100
AcDb2dVertex
 10
1825.901628489493
 20
902.2448734470982
 30
0.0
  0
VERTEX
  5
8E4
330
8E2
100
AcDbEntity
  8
Furniture
370
     9
100
AcDbVertex
100
AcDb2dVertex
 10
1825.901628489493
 20
618.4168444101183
 30
0.0
  0
SEQEND
  5
8E5
330
8E2
100
AcDbEntity
  8
Furniture
370
     9
  0
POLYLINE
  5
8E6
330
82D
100
AcDbEntity
  8
Furniture
370
     9
100
AcDb2dPolyline
 66
     1
 10
0.0
 20
0.0
 30
0.0
  0
VERTEX
  5
8E7
330
8E6
100
AcDbEntity
  8
Furniture
370
     9
100
AcDbVertex
100
AcDb2dVertex
 10
1852.485106081365
 20
618.4168444101183
 30
0.0
  0
VERTEX
  5
8E8
330
8E6
100
AcDbEntity
  8
Furniture
370
     9
100
AcDbVertex
100
AcDb2dVertex
 10
1852.485106081365
 20
903.3764243517884
 30
0.0
  0
SEQEND
  5
8E9
330
8E6
100
AcDbEntity
  8
Furniture
370
     9
  0
POLYLINE
  5
8EA
330
82D
100
AcDbEntity
  8
Furniture
370
     9
100
AcDb2dPolyline
 66
     1
 10
0.0
 20
0.0
 30
0.0
  0
VERTEX
  5
8EB
330
8EA
100
AcDbEntity
  8
Furniture
370
     9
100
AcDbVertex
100
AcDb2dVertex
 10
1852.485106081365
 20
903.3764243517884
 30
0.0
  0
VERTEX
  5
8EC
330
8EA
100
AcDbEntity
  8
Furniture
370
     9
100
AcDbVertex
100
AcDb2dVertex
 10
1838.906495225086
 20
902.8186175677864
 30
0.0
  0
VERTEX
  5
8ED
330
8EA
100
AcDbEntity
  8
Furniture
370
     9
100
AcDbVertex
100
AcDb2dVertex
 10
1825.901628489493
 20
902.2448734470982
 30
0.0
  0
SEQEND
  5
8EE
330
8EA
100
AcDbEntity
  8
Furniture
370
     9
  0
POLYLINE
  5
8EF
330
82D
100
AcDbEntity
  8
Furniture
370
     9
100
AcDb2dPolyline
 66
     1
 10
0.0
 20
0.0
 30
0.0
  0
VERTEX
  5
8F0
330
8EF
100
AcDbEntity
  8
Furniture
370
     9
100
AcDbVertex
100
AcDb2dVertex
 10
1496.827500601595
 20
574.8760405845792
 30
0.0
  0
VERTEX
  5
8F1
330
8EF
100
AcDbEntity
  8
Furniture
370
     9
100
AcDbVertex
100
AcDb2dVertex
 10
1815.733607683967
 20
574.8760405845792
 30
0.0
  0
SEQEND
  5
8F2
330
8EF
100
AcDbEntity
  8
Furniture
370
     9
  0
POLYLINE
  5
8F3
330
82D
100
AcDbEntity
  8
Furniture
370
     9
100
AcDb2dPolyline
 66
     1
 10
0.0
 20
0.0
 30
0.0
  0
VERTEX
  5
8F4
330
8F3
100
AcDbEntity
  8
Furniture
370
     9
100
AcDbVertex
100
AcDb2dVertex
 10
1852.485106081365
 20
618.4168444101183
 30
0.0
  0
VERTEX
  5
8F5
330
8F3
100
AcDbEntity
  8
Furniture
370
     9
100
AcDbVertex
100
AcDb2dVertex
 10
1460.625840319855
 20
618.4168444101183
 30
0.0
  0
SEQEND
  5
8F6
330
8F3
100
AcDbEntity
  8
Furniture
370
     9
  0
POLYLINE
  5
8F7
330
82D
100
AcDbEntity
  8
Furniture
370
     9
100
AcDb2dPolyline
 66
     1
 10
0.0
 20
0.0
 30
0.0
  0
VERTEX
  5
8F8
330
8F7
100
AcDbEntity
  8
Furniture
370
     9
100
AcDbVertex
100
AcDb2dVertex
 10
1460.625840319855
 20
618.4168444101183
 30
0.0
  0
VERTEX
  5
8F9
330
8F7
100
AcDbEntity
  8
Furniture
370
     9
100
AcDbVertex
100
AcDb2dVertex
 10
1460.625840319855
 20
615.5879671483932
 30
0.0
  0
VERTEX
  5
8FA
330
8F7
100
AcDbEntity
  8
Furniture
370
     9
100
AcDbVertex
100
AcDb2dVertex
 10
1852.485106081365
 20
615.5879671483932
 30
0.0
  0
VERTEX
  5
8FB
330
8F7
100
AcDbEntity
  8
Furniture
370
     9
100
AcDbVertex
100
AcDb2dVertex
 10
1852.485106081365
 20
618.4168444101183
 30
0.0
  0
SEQEND
  5
8FC
330
8F7
100
AcDbEntity
  8
Furniture
370
     9
  0
POLYLINE
  5
8FD
330
82D
100
AcDbEntity
  8
Furniture
370
     9
100
AcDb2dPolyline
 66
     1
 10
0.0
 20
0.0
 30
0.0
  0
VERTEX
  5
8FE
330
8FD
100
AcDbEntity
  8
Furniture
370
     9
100
AcDbVertex
100
AcDb2dVertex
 10
1487.20931791173
 20
902.2448734470982
 30
0.0
  0
VERTEX
  5
8FF
330
8FD
100
AcDbEntity
  8
Furniture
370
     9
100
AcDbVertex
100
AcDb2dVertex
 10
1502.46931778836
 20
901.6790979947534
 30
0.0
  0
VERTEX
  5
900
330
8FD
100
AcDbEntity
  8
Furniture
370
     9
100
AcDbVertex
100
AcDb2dVertex
 10
1517.737286333333
 20
901.1212912107509
 30
0.0
  0
VERTEX
  5
901
330
8FD
100
AcDbEntity
  8
Furniture
370
     9
100
AcDbVertex
100
AcDb2dVertex
 10
1533.005254878305
 20
901.1212912107509
 30
0.0
  0
VERTEX
  5
902
330
8FD
100
AcDbEntity
  8
Furniture
370
     9
100
AcDbVertex
100
AcDb2dVertex
 10
1548.27322342328
 20
900.5555157584062
 30
0.0
  0
VERTEX
  5
903
330
8FD
100
AcDbEntity
  8
Furniture
370
     9
100
AcDbVertex
100
AcDb2dVertex
 10
1563.541191968253
 20
899.9817716377179
 30
0.0
  0
VERTEX
  5
904
330
8FD
100
AcDbEntity
  8
Furniture
370
     9
100
AcDbVertex
100
AcDb2dVertex
 10
1578.809160513225
 20
899.9817716377179
 30
0.0
  0
VERTEX
  5
905
330
8FD
100
AcDbEntity
  8
Furniture
370
     9
100
AcDbVertex
100
AcDb2dVertex
 10
1594.650873178886
 20
899.423964853716
 30
0.0
  0
VERTEX
  5
906
330
8FD
100
AcDbEntity
  8
Furniture
370
     9
100
AcDbVertex
100
AcDb2dVertex
 10
1609.918841723859
 20
899.423964853716
 30
0.0
  0
VERTEX
  5
907
330
8FD
100
AcDbEntity
  8
Furniture
370
     9
100
AcDbVertex
100
AcDb2dVertex
 10
1625.728679716149
 20
899.423964853716
 30
0.0
  0
VERTEX
  5
908
330
8FD
100
AcDbEntity
  8
Furniture
370
     9
100
AcDbVertex
100
AcDb2dVertex
 10
1640.996648261122
 20
899.423964853716
 30
0.0
  0
VERTEX
  5
909
330
8FD
100
AcDbEntity
  8
Furniture
370
     9
100
AcDbVertex
100
AcDb2dVertex
 10
1656.264616806096
 20
899.423964853716
 30
0.0
  0
VERTEX
  5
90A
330
8FD
100
AcDbEntity
  8
Furniture
370
     9
100
AcDbVertex
100
AcDb2dVertex
 10
1672.106329471757
 20
899.423964853716
 30
0.0
  0
VERTEX
  5
90B
330
8FD
100
AcDbEntity
  8
Furniture
370
     9
100
AcDbVertex
100
AcDb2dVertex
 10
1687.37429801673
 20
899.423964853716
 30
0.0
  0
VERTEX
  5
90C
330
8FD
100
AcDbEntity
  8
Furniture
370
     9
100
AcDbVertex
100
AcDb2dVertex
 10
1703.216010682391
 20
899.423964853716
 30
0.0
  0
VERTEX
  5
90D
330
8FD
100
AcDbEntity
  8
Furniture
370
     9
100
AcDbVertex
100
AcDb2dVertex
 10
1718.452104553993
 20
899.423964853716
 30
0.0
  0
VERTEX
  5
90E
330
8FD
100
AcDbEntity
  8
Furniture
370
     9
100
AcDbVertex
100
AcDb2dVertex
 10
1733.751947772337
 20
899.9817716377179
 30
0.0
  0
VERTEX
  5
90F
330
8FD
100
AcDbEntity
  8
Furniture
370
     9
100
AcDbVertex
100
AcDb2dVertex
 10
1749.561785764626
 20
899.9817716377179
 30
0.0
  0
VERTEX
  5
910
330
8FD
100
AcDbEntity
  8
Furniture
370
     9
100
AcDbVertex
100
AcDb2dVertex
 10
1764.829754309599
 20
900.5555157584062
 30
0.0
  0
VERTEX
  5
911
330
8FD
100
AcDbEntity
  8
Furniture
370
     9
100
AcDbVertex
100
AcDb2dVertex
 10
1780.097722854574
 20
901.1212912107509
 30
0.0
  0
VERTEX
  5
912
330
8FD
100
AcDbEntity
  8
Furniture
370
     9
100
AcDbVertex
100
AcDb2dVertex
 10
1795.365691399546
 20
901.1212912107509
 30
0.0
  0
VERTEX
  5
913
330
8FD
100
AcDbEntity
  8
Furniture
370
     9
100
AcDbVertex
100
AcDb2dVertex
 10
1810.633659944519
 20
901.6790979947534
 30
0.0
  0
VERTEX
  5
914
330
8FD
100
AcDbEntity
  8
Furniture
370
     9
100
AcDbVertex
100
AcDb2dVertex
 10
1825.901628489493
 20
902.2448734470982
 30
0.0
  0
SEQEND
  5
915
330
8FD
100
AcDbEntity
  8
Furniture
370
     9
  0
POLYLINE
  5
916
330
82D
100
AcDbEntity
  8
Furniture
370
     9
100
AcDb2dPolyline
 66
     1
 10
0.0
 20
0.0
 30
0.0
  0
VERTEX
  5
917
330
916
100
AcDbEntity
  8
Furniture
370
     9
100
AcDbVertex
100
AcDb2dVertex
 10
1825.901628489493
 20
825.3631612749165
 30
0.0
  0
VERTEX
  5
918
330
916
100
AcDbEntity
  8
Furniture
370
     9
100
AcDbVertex
100
AcDb2dVertex
 10
1810.059915823831
 20
824.7894171542283
 30
0.0
  0
VERTEX
  5
919
330
916
100
AcDbEntity
  8
Furniture
370
     9
100
AcDbVertex
100
AcDb2dVertex
 10
1793.676333710853
 20
824.2316103702259
 30
0.0
  0
VERTEX
  5
91A
330
916
100
AcDbEntity
  8
Furniture
370
     9
100
AcDbVertex
100
AcDb2dVertex
 10
1777.834621045193
 20
823.657866249538
 30
0.0
  0
VERTEX
  5
91B
330
916
100
AcDbEntity
  8
Furniture
370
     9
100
AcDbVertex
100
AcDb2dVertex
 10
1761.992908379532
 20
823.0920907971931
 30
0.0
  0
VERTEX
  5
91C
330
916
100
AcDbEntity
  8
Furniture
370
     9
100
AcDbVertex
100
AcDb2dVertex
 10
1745.609326266554
 20
823.0920907971931
 30
0.0
  0
VERTEX
  5
91D
330
916
100
AcDbEntity
  8
Furniture
370
     9
100
AcDbVertex
100
AcDb2dVertex
 10
1729.767613600893
 20
822.5263153448478
 30
0.0
  0
VERTEX
  5
91E
330
916
100
AcDbEntity
  8
Furniture
370
     9
100
AcDbVertex
100
AcDb2dVertex
 10
1713.384031487915
 20
822.5263153448478
 30
0.0
  0
VERTEX
  5
91F
330
916
100
AcDbEntity
  8
Furniture
370
     9
100
AcDbVertex
100
AcDb2dVertex
 10
1696.968574701567
 20
822.5263153448478
 30
0.0
  0
VERTEX
  5
920
330
916
100
AcDbEntity
  8
Furniture
370
     9
100
AcDbVertex
100
AcDb2dVertex
 10
1680.584992588589
 20
821.9685085608459
 30
0.0
  0
VERTEX
  5
921
330
916
100
AcDbEntity
  8
Furniture
370
     9
100
AcDbVertex
100
AcDb2dVertex
 10
1664.743279922928
 20
821.9685085608459
 30
0.0
  0
VERTEX
  5
922
330
916
100
AcDbEntity
  8
Furniture
370
     9
100
AcDbVertex
100
AcDb2dVertex
 10
1648.359697809951
 20
821.9685085608459
 30
0.0
  0
VERTEX
  5
923
330
916
100
AcDbEntity
  8
Furniture
370
     9
100
AcDbVertex
100
AcDb2dVertex
 10
1631.976115696973
 20
821.9685085608459
 30
0.0
  0
VERTEX
  5
924
330
916
100
AcDbEntity
  8
Furniture
370
     9
100
AcDbVertex
100
AcDb2dVertex
 10
1616.134403031312
 20
822.5263153448478
 30
0.0
  0
VERTEX
  5
925
330
916
100
AcDbEntity
  8
Furniture
370
     9
100
AcDbVertex
100
AcDb2dVertex
 10
1599.718946244964
 20
822.5263153448478
 30
0.0
  0
VERTEX
  5
926
330
916
100
AcDbEntity
  8
Furniture
370
     9
100
AcDbVertex
100
AcDb2dVertex
 10
1583.335364131986
 20
822.5263153448478
 30
0.0
  0
VERTEX
  5
927
330
916
100
AcDbEntity
  8
Furniture
370
     9
100
AcDbVertex
100
AcDb2dVertex
 10
1567.493651466326
 20
823.0920907971931
 30
0.0
  0
VERTEX
  5
928
330
916
100
AcDbEntity
  8
Furniture
370
     9
100
AcDbVertex
100
AcDb2dVertex
 10
1551.110069353347
 20
823.0920907971931
 30
0.0
  0
VERTEX
  5
929
330
916
100
AcDbEntity
  8
Furniture
370
     9
100
AcDbVertex
100
AcDb2dVertex
 10
1535.268356687686
 20
823.657866249538
 30
0.0
  0
VERTEX
  5
92A
330
916
100
AcDbEntity
  8
Furniture
370
     9
100
AcDbVertex
100
AcDb2dVertex
 10
1518.884774574709
 20
824.2316103702259
 30
0.0
  0
VERTEX
  5
92B
330
916
100
AcDbEntity
  8
Furniture
370
     9
100
AcDbVertex
100
AcDb2dVertex
 10
1503.043061909047
 20
824.7894171542283
 30
0.0
  0
VERTEX
  5
92C
330
916
100
AcDbEntity
  8
Furniture
370
     9
100
AcDbVertex
100
AcDb2dVertex
 10
1487.20931791173
 20
825.3631612749165
 30
0.0
  0
SEQEND
  5
92D
330
916
100
AcDbEntity
  8
Furniture
370
     9
  0
POLYLINE
  5
92E
330
82D
100
AcDbEntity
  8
Furniture
370
     9
100
AcDb2dPolyline
 66
     1
 10
0.0
 20
0.0
 30
0.0
  0
VERTEX
  5
92F
330
92E
100
AcDbEntity
  8
Furniture
370
     9
100
AcDbVertex
100
AcDb2dVertex
 10
1825.901628489493
 20
828.1920385366413
 30
0.0
  0
VERTEX
  5
930
330
92E
100
AcDbEntity
  8
Furniture
370
     9
100
AcDbVertex
100
AcDb2dVertex
 10
1825.901628489493
 20
902.2448734470982
 30
0.0
  0
SEQEND
  5
931
330
92E
100
AcDbEntity
  8
Furniture
370
     9
  0
POLYLINE
  5
932
330
82D
100
AcDbEntity
  8
Furniture
370
     9
100
AcDb2dPolyline
 66
     1
 10
0.0
 20
0.0
 30
0.0
  0
VERTEX
  5
933
330
932
100
AcDbEntity
  8
Furniture
370
     9
100
AcDbVertex
100
AcDb2dVertex
 10
1487.20931791173
 20
828.1920385366413
 30
0.0
  0
VERTEX
  5
934
330
932
100
AcDbEntity
  8
Furniture
370
     9
100
AcDbVertex
100
AcDb2dVertex
 10
1487.20931791173
 20
902.2448734470982
 30
0.0
  0
SEQEND
  5
935
330
932
100
AcDbEntity
  8
Furniture
370
     9
  0
ENDBLK
  5
939
330
82D
100
AcDbEntity
  8
0
100
AcDbBlockEnd
  0
BLOCK
  5
93F
330
93A
100
AcDbEntity
  8
0
100
AcDbBlockBegin
  2
A$C05CE5150
 70
     0
 10
0.0
 20
0.0
 30
0.0
  3
A$C05CE5150
  1

  0
TEXT
  5
93B
330
93A
100
AcDbEntity
  8
Text
100
AcDbText
 10
15.0909887852971
 20
671.6834009230137
 30
0.0
 40
192.6907499518273
  1
BARRI
 41
1.000399999999999
100
AcDbText
  0
TEXT
  5
93C
330
93A
100
AcDbEntity
  8
Text
100
AcDbText
 10
15.0909887852971
 20
69.06043256781003
 30
0.0
 40
192.6907499518273
  1
—
 41
1.000399999999999
100
AcDbText
  0
ENDBLK
  5
940
330
93A
100
AcDbEntity
  8
0
100
AcDbBlockEnd
  0
ENDSEC
  0
SECTION
  2
ENTITIES
  0
INSERT
  5
3D
330
1F
100
AcDbEntity
  8
Layer 1
100
AcDbBlockReference
  2
block 2
 10
0.0
 20
0.0
 30
0.0
  0
INSERT
  5
41
330
1F
100
AcDbEntity
  8
Layer 1
100
AcDbBlockReference
  2
block 3
 10
0.0
 20
0.0
 30
0.0
  0
INSERT
  5
45
330
1F
100
AcDbEntity
  8
Layer 1
100
AcDbBlockReference
  2
block 4
 10
0.0
 20
0.0
 30
0.0
  0
MTEXT
  5
50
330
1F
100
AcDbEntity
  8
Text
100
AcDbMText
 10
-1416.331950927351
 20
680.3643093173291
 30
0.0
 40
94.51672264621786
 41
0.0
 46
0.0
 71
     7
 72
     1
  1
{\W1.0004;Dining Chairs}
 73
     1
 44
1.0
  0
MTEXT
  5
51
330
1F
100
AcDbEntity
  8
Dimensions
100
AcDbMText
 10
592.3765157848702
 20
86.5528290593177
 30
0.0
 40
81.00202151674771
 41
0.0
 46
0.0
 71
     7
 72
     1
  1
\fApercu|b0|i0|c0|p34;\W1.0004;51
 73
     1
 44
1.0
  0
MTEXT
  5
52
330
1F
100
AcDbEntity
  8
Text
100
AcDbMText
 10
-1416.331950927351
 20
-827.6950717343559
 30
0.0
 40
94.51672264621786
 41
0.0
 46
0.0
 71
     7
 72
     1
  1
\fApercu|b0|i0|c0|p34;\W1.0004;Bar stools
 73
     1
 44
1.0
  0
MTEXT
  5
53
330
1F
100
AcDbEntity
  8
Text
100
AcDbMText
 10
3006.197625753188
 20
-265.0816729831835
 30
0.0
 40
72.13366082675583
 41
0.0
 46
0.0
 71
     7
 72
     1
  1
\fApercu|b1|i0|c0|p34;\W1.0004;BR44
 73
     1
 44
1.0
  0
MTEXT
  5
88
330
1F
100
AcDbEntity
  8
Text
100
AcDbMText
 10
2936.021332460364
 20
-1903.964164906529
 30
0.0
 40
70.02242854400964
 41
0.0
 46
0.0
 71
     7
 72
     1
  1
\fApercu|b1|i0|c0|p34;\W1.0004;BR40L
 73
     1
 44
1.0
  0
MTEXT
  5
C5
330
1F
100
AcDbEntity
  8
Dimensions
100
AcDbMText
 10
3371.800129324884
 20
202.9660308046778
 30
0.0
 40
72.13366082675583
 41
0.0
 46
0.0
 71
     7
 72
     1
  1
\fApercu|b0|i0|c0|p34;\W1.0004;77
 73
     1
 44
1.0
  0
MTEXT
  5
C6
330
1F
100
AcDbEntity
  8
Dimensions
100
AcDbMText
 10
1961.16267361443
 20
-1456.530921145636
 30
0.0
 40
70.02242854400964
 41
0.0
 46
0.0
 71
     7
 72
     1
  1
\fApercu|b0|i0|c0|p34;\W1.0004;65
 73
     1
 44
1.0
  0
MTEXT
  5
C7
330
1F
100
AcDbEntity
  8
Dimensions
100
AcDbMText
 10
3351.569098008499
 20
-1339.77220980566
 30
0.0
 40
70.02242854400964
 41
0.0
 46
0.0
 71
     7
 72
     1
  1
\fApercu|b0|i0|c0|p34;\W1.0004;92
 73
     1
 44
1.0
  0
MTEXT
  5
C8
330
1F
100
AcDbEntity
  8
Dimensions
100
AcDbMText
 10
3038.252889971238
 20
-829.921711387136
 30
0.0
 40
70.02242854400964
 41
0.0
 46
0.0
 71
     7
 72
     1
  1
\fApercu|b0|i0|c0|p34;\W1.0004;47
 73
     1
 44
1.0
  0
MTEXT
  5
10A
330
1F
100
AcDbEntity
  8
Text
100
AcDbMText
 10
2927.389493648359
 20
-3385.67723776583
 30
0.0
 40
72.76616806140143
 41
0.0
 46
0.0
 71
     7
 72
     1
  1
\fApercu|b1|i0|c0|p34;\W1.0004;BR40H
 73
     1
 44
1.0
  0
MTEXT
  5
147
330
1F
100
AcDbEntity
  8
Dimensions
100
AcDbMText
 10
1978.375100788611
 20
-2873.686422737506
 30
0.0
 40
72.76616806140143
 41
0.0
 46
0.0
 71
     7
 72
     1
  1
\fApercu|b0|i0|c0|p34;\W1.0004;76
 73
     1
 44
1.0
  0
MTEXT
  5
148
330
1F
100
AcDbEntity
  8
Dimensions
100
AcDbMText
 10
3376.06875213641
 20
-2763.590551943249
 30
0.0
 40
72.76616806140143
 41
0.0
 46
0.0
 71
     7
 72
     1
  1
\fApercu|b0|i0|c0|p34;\W1.0004;104
 73
     1
 44
1.0
  0
MTEXT
  5
149
330
1F
100
AcDbEntity
  8
Dimensions
100
AcDbMText
 10
2970.442446029218
 20
-2198.030893239918
 30
0.0
 40
72.76616806140143
 41
0.0
 46
0.0
 71
     7
 72
     1
  1
\fApercu|b0|i0|c0|p34;\W1.0004;47
 73
     1
 44
1.0
  0
MTEXT
  5
18F
330
1F
100
AcDbEntity
  8
Dimensions
100
AcDbMText
 10
3068.528549531257
 20
680.2255151969177
 30
0.0
 40
72.13366082675583
 41
0.0
 46
0.0
 71
     7
 72
     1
  1
\fApercu|b0|i0|c0|p34;\W1.0004;51
 73
     1
 44
1.0
  0
MTEXT
  5
1C5
330
1F
100
AcDbEntity
  8
Dimensions
100
AcDbMText
 10
1996.658251523584
 20
93.35699774825526
 30
0.0
 40
72.13366082675583
 41
0.0
 46
0.0
 71
     7
 72
     1
  1
\fApercu|b0|i0|c0|p34;\W1.0004;45
 73
     1
 44
1.0
  0
MTEXT
  5
1C8
330
1F
100
AcDbEntity
  8
Dimensions
100
AcDbMText
 10
558.9359471800949
 20
-1534.638258052568
 30
0.0
 40
74.60476609853095
 41
0.0
 46
0.0
 71
     7
 72
     1
  1
\fApercu|b0|i0|c0|p34;\W1.0004;47
 73
     1
 44
1.0
  0
MTEXT
  5
209
330
1F
100
AcDbEntity
  8
Dimensions
100
AcDbMText
 10
209.9860823993372
 20
408.6491866684777
 30
0.0
 40
81.00202151674771
 41
0.0
 46
0.0
 71
     7
 72
     1
  1
\fApercu|b0|i0|c0|p34;\W1.0004;44
 73
     1
 44
1.0
  0
MTEXT
  5
20A
330
1F
100
AcDbEntity
  8
Dimensions
100
AcDbMText
 10
228.0830092890912
 20
-1220.392251953373
 30
0.0
 40
74.60476609853095
 41
0.0
 46
0.0
 71
     7
 72
     1
  1
\fApercu|b0|i0|c0|p34;\W1.0004;40
 73
     1
 44
1.0
  0
MTEXT
  5
3BC
330
1F
100
AcDbEntity
  8
Dimensions
100
AcDbMText
 10
557.8892571862685
 20
-3069.184688843658
 30
0.0
 40
74.60476609853095
 41
0.0
 46
0.0
 71
     7
 72
     1
  1
\fApercu|b0|i0|c0|p34;\W1.0004;47
 73
     1
 44
1.0
  0
MTEXT
  5
3DD
330
1F
100
AcDbEntity
  8
Dimensions
100
AcDbMText
 10
228.0830092890912
 20
-2753.743642987732
 30
0.0
 40
74.60476609853095
 41
0.0
 46
0.0
 71
     7
 72
     1
  1
\fApercu|b0|i0|c0|p34;\W1.0004;40
 73
     1
 44
1.0
  0
INSERT
  5
3DF
330
1F
100
AcDbEntity
  8
Layer 1
100
AcDbBlockReference
  2
block 22
 10
0.0
 20
0.0
 30
0.0
  0
INSERT
  5
3E3
330
1F
100
AcDbEntity
  8
Layer 1
100
AcDbBlockReference
  2
block 23
 10
0.0
 20
0.0
 30
0.0
  0
POLYLINE
  5
3EE
330
1F
100
AcDbEntity
  8
Text
370
     9
100
AcDb2dPolyline
 66
     1
 10
0.0
 20
0.0
 30
0.0
  0
VERTEX
  5
3EF
330
3EE
100
AcDbEntity
  8
Text
370
     9
100
AcDbVertex
100
AcDb2dVertex
 10
-1416.331950927351
 20
1011.483916946906
 30
0.0
  0
VERTEX
  5
3F0
330
3EE
100
AcDbEntity
  8
Text
370
     9
100
AcDbVertex
100
AcDb2dVertex
 10
3842.729066784471
 20
1011.483916946906
 30
0.0
  0
SEQEND
  5
3F1
330
3EE
100
AcDbEntity
  8
Text
370
     9
  0
MTEXT
  5
3F2
330
1F
100
AcDbEntity
  8
Text
100
AcDbMText
 10
-1416.331950927351
 20
1258.358456331976
 30
0.0
 40
94.51672264621786
 41
0.0
 46
0.0
 71
     7
 72
     1
  1
{\W1.0004;DIMENSIONS}
 73
     1
 44
1.0
  0
POLYLINE
  5
476
330
1F
100
AcDbEntity
  8
Furniture
370
     9
100
AcDb2dPolyline
 66
     1
 10
0.0
 20
0.0
 30
0.0
  0
VERTEX
  5
477
330
476
100
AcDbEntity
  8
Furniture
370
     9
100
AcDbVertex
100
AcDb2dVertex
 10
74.39152463154733
 20
297.2689015410654
 30
0.0
  0
VERTEX
  5
478
330
476
100
AcDbEntity
  8
Furniture
370
     9
100
AcDbVertex
100
AcDb2dVertex
 10
74.39152463154733
 20
-124.1721917863024
 30
0.0
  0
VERTEX
  5
479
330
476
100
AcDbEntity
  8
Furniture
370
     9
100
AcDbVertex
100
AcDb2dVertex
 10
514.3915246315473
 20
-124.1721917863024
 30
0.0
  0
VERTEX
  5
47A
330
476
100
AcDbEntity
  8
Furniture
370
     9
100
AcDbVertex
100
AcDb2dVertex
 10
514.3915246315473
 20
297.2689015410654
 30
0.0
  0
SEQEND
  5
47B
330
476
100
AcDbEntity
  8
Furniture
370
     9
  0
POLYLINE
  5
47C
330
1F
100
AcDbEntity
  8
Furniture
370
     9
100
AcDb2dPolyline
 66
     1
 10
0.0
 20
0.0
 30
0.0
  0
VERTEX
  5
47D
330
47C
100
AcDbEntity
  8
Furniture
370
     9
100
AcDbVertex
100
AcDb2dVertex
 10
104.5385625197335
 20
261.7260002374513
 30
0.0
  0
VERTEX
  5
47E
330
47C
100
AcDbEntity
  8
Furniture
370
     9
100
AcDbVertex
100
AcDb2dVertex
 10
104.5385625197335
 20
284.9559528517971
 30
0.0
  0
SEQEND
  5
47F
330
47C
100
AcDbEntity
  8
Furniture
370
     9
  0
POLYLINE
  5
480
330
1F
100
AcDbEntity
  8
Furniture
370
     9
100
AcDb2dPolyline
 66
     1
 10
0.0
 20
0.0
 30
0.0
  0
VERTEX
  5
481
330
480
100
AcDbEntity
  8
Furniture
370
     9
100
AcDbVertex
100
AcDb2dVertex
 10
486.418939164504
 20
261.7260002374513
 30
0.0
  0
VERTEX
  5
482
330
480
100
AcDbEntity
  8
Furniture
370
     9
100
AcDbVertex
100
AcDb2dVertex
 10
486.418939164504
 20
284.9559528517971
 30
0.0
  0
SEQEND
  5
483
330
480
100
AcDbEntity
  8
Furniture
370
     9
  0
POLYLINE
  5
484
330
1F
100
AcDbEntity
  8
Furniture
370
     9
100
AcDb2dPolyline
 66
     1
 10
0.0
 20
0.0
 30
0.0
  0
VERTEX
  5
485
330
484
100
AcDbEntity
  8
Furniture
370
     9
100
AcDbVertex
100
AcDb2dVertex
 10
104.7712199804318
 20
286.1371368830351
 30
0.0
  0
VERTEX
  5
486
330
484
100
AcDbEntity
  8
Furniture
370
     9
100
AcDbVertex
100
AcDb2dVertex
 10
486.3563006173934
 20
286.1371368830351
 30
0.0
  0
SEQEND
  5
487
330
484
100
AcDbEntity
  8
Furniture
370
     9
  0
POLYLINE
  5
488
330
1F
100
AcDbEntity
  8
Furniture
370
     9
100
AcDb2dPolyline
 66
     1
 10
0.0
 20
0.0
 30
0.0
  0
VERTEX
  5
489
330
488
100
AcDbEntity
  8
Furniture
370
     9
100
AcDbVertex
100
AcDb2dVertex
 10
486.7768737194242
 20
260.6521965726897
 30
0.0
  0
VERTEX
  5
48A
330
488
100
AcDbEntity
  8
Furniture
370
     9
100
AcDbVertex
100
AcDb2dVertex
 10
514.0693835321195
 20
260.6521965726897
 30
0.0
  0
SEQEND
  5
48B
330
488
100
AcDbEntity
  8
Furniture
370
     9
  0
POLYLINE
  5
48C
330
1F
100
AcDbEntity
  8
Furniture
370
     9
100
AcDb2dPolyline
 66
     1
 10
0.0
 20
0.0
 30
0.0
  0
VERTEX
  5
48D
330
48C
100
AcDbEntity
  8
Furniture
370
     9
100
AcDbVertex
100
AcDb2dVertex
 10
75.3489995659597
 20
260.6521965726897
 30
0.0
  0
VERTEX
  5
48E
330
48C
100
AcDbEntity
  8
Furniture
370
     9
100
AcDbVertex
100
AcDb2dVertex
 10
103.6258294046862
 20
260.6521965726897
 30
0.0
  0
SEQEND
  5
48F
330
48C
100
AcDbEntity
  8
Furniture
370
     9
  0
SPLINE
  5
490
330
1F
100
AcDbEntity
  8
Furniture
370
     9
100
AcDbSpline
210
0.0
220
0.0
230
1.0
 70
     8
 71
     3
 72
     8
 73
     4
 74
     0
 42
0.000000001
 43
0.0000000001
 40
0.0
 40
0.0
 40
0.0
 40
0.0
 40
1.0
 40
1.0
 40
1.0
 40
1.0
 10
77.12077561281716
 20
297.6089393682398
 30
0.0
 10
77.12077561281716
 20
297.6089393682398
 30
0.0
 10
265.3675064094242
 20
331.6306188134411
 30
0.0
 10
513.6309137023409
 20
298.8975037659539
 30
0.0
  0
SPLINE
  5
491
330
1F
100
AcDbEntity
  8
Furniture
370
     9
100
AcDbSpline
210
0.0
220
0.0
230
1.0
 70
     8
 71
     3
 72
    20
 73
    16
 74
     0
 42
0.000000001
 43
0.0000000001
 40
0.0
 40
0.0
 40
0.0
 40
0.0
 40
1.0
 40
1.0
 40
1.0
 40
2.0
 40
2.0
 40
2.0
 40
3.0
 40
3.0
 40
3.0
 40
4.0
 40
4.0
 40
4.0
 40
5.0
 40
5.0
 40
5.0
 40
5.0
 10
513.8188293436749
 20
298.0026673786525
 30
0.0
 10
513.8188293436749
 20
298.0026673786525
 30
0.0
 10
513.8188293436749
 20
313.9576001642375
 30
0.0
 10
513.8188293436749
 20
313.9576001642375
 30
0.0
 10
513.8188293436749
 20
313.9576001642375
 30
0.0
 10
513.6309137023409
 20
315.9172918524274
 30
0.0
 10
513.6309137023409
 20
315.9172918524274
 30
0.0
 10
265.3675064094242
 20
348.6683036276612
 30
0.0
 10
77.12077561281716
 20
314.6018823630944
 30
0.0
 10
77.12077561281716
 20
314.6018823630944
 30
0.0
 10
77.12077561281716
 20
314.6018823630944
 30
0.0
 10
74.39152463154733
 20
313.9576001642375
 30
0.0
 10
74.39152463154733
 20
313.9576001642375
 30
0.0
 10
74.39152463154733
 20
313.9576001642375
 30
0.0
 10
74.39152463154733
 20
295.5508156774466
 30
0.0
 10
74.39152463154733
 20
295.5508156774466
 30
0.0
  0
POLYLINE
  5
494
330
1F
100
AcDbEntity
  8
Furniture
370
     9
100
AcDb2dPolyline
 66
     1
 10
0.0
 20
0.0
 30
0.0
  0
VERTEX
  5
495
330
494
100
AcDbEntity
  8
Furniture
370
     9
100
AcDbVertex
100
AcDb2dVertex
 10
1561.600834675278
 20
609.6868630256743
 30
0.0
  0
VERTEX
  5
496
330
494
100
AcDbEntity
  8
Furniture
370
     9
100
AcDbVertex
100
AcDb2dVertex
 10
1561.600834675278
 20
325.8588339886945
 30
0.0
  0
SEQEND
  5
497
330
494
100
AcDbEntity
  8
Furniture
370
     9
  0
POLYLINE
  5
498
330
1F
100
AcDbEntity
  8
Furniture
370
     9
100
AcDb2dPolyline
 66
     1
 10
0.0
 20
0.0
 30
0.0
  0
VERTEX
  5
499
330
498
100
AcDbEntity
  8
Furniture
370
     9
100
AcDbVertex
100
AcDb2dVertex
 10
1535.017357083404
 20
610.8184139303646
 30
0.0
  0
VERTEX
  5
49A
330
498
100
AcDbEntity
  8
Furniture
370
     9
100
AcDbVertex
100
AcDb2dVertex
 10
1548.595967939685
 20
610.2606071463626
 30
0.0
  0
VERTEX
  5
49B
330
498
100
AcDbEntity
  8
Furniture
370
     9
100
AcDbVertex
100
AcDb2dVertex
 10
1561.600834675278
 20
609.6868630256743
 30
0.0
  0
SEQEND
  5
49C
330
498
100
AcDbEntity
  8
Furniture
370
     9
  0
POLYLINE
  5
49D
330
1F
100
AcDbEntity
  8
Furniture
370
     9
100
AcDb2dPolyline
 66
     1
 10
0.0
 20
0.0
 30
0.0
  0
VERTEX
  5
49E
330
49D
100
AcDbEntity
  8
Furniture
370
     9
100
AcDbVertex
100
AcDb2dVertex
 10
1535.017357083404
 20
325.8588339886945
 30
0.0
  0
VERTEX
  5
49F
330
49D
100
AcDbEntity
  8
Furniture
370
     9
100
AcDbVertex
100
AcDb2dVertex
 10
1535.017357083404
 20
610.8184139303646
 30
0.0
  0
SEQEND
  5
4A0
330
49D
100
AcDbEntity
  8
Furniture
370
     9
  0
POLYLINE
  5
4A1
330
1F
100
AcDbEntity
  8
Furniture
370
     9
100
AcDb2dPolyline
 66
     1
 10
0.0
 20
0.0
 30
0.0
  0
VERTEX
  5
4A2
330
4A1
100
AcDbEntity
  8
Furniture
370
     9
100
AcDbVertex
100
AcDb2dVertex
 10
1559.911476986587
 20
-73.89738210061787
 30
0.0
  0
VERTEX
  5
4A3
330
4A1
100
AcDbEntity
  8
Furniture
370
     9
100
AcDbVertex
100
AcDb2dVertex
 10
1535.017357083404
 20
-73.89738210061787
 30
0.0
  0
SEQEND
  5
4A4
330
4A1
100
AcDbEntity
  8
Furniture
370
     9
  0
POLYLINE
  5
4A5
330
1F
100
AcDbEntity
  8
Furniture
370
     9
100
AcDb2dPolyline
 66
     1
 10
0.0
 20
0.0
 30
0.0
  0
VERTEX
  5
4A6
330
4A5
100
AcDbEntity
  8
Furniture
370
     9
100
AcDbVertex
100
AcDb2dVertex
 10
1559.911476986587
 20
-73.89738210061787
 30
0.0
  0
VERTEX
  5
4A7
330
4A5
100
AcDbEntity
  8
Furniture
370
     9
100
AcDbVertex
100
AcDb2dVertex
 10
1571.219017365144
 20
285.7206515455683
 30
0.0
  0
SEQEND
  5
4A8
330
4A5
100
AcDbEntity
  8
Furniture
370
     9
  0
POLYLINE
  5
4A9
330
1F
100
AcDbEntity
  8
Furniture
370
     9
100
AcDb2dPolyline
 66
     1
 10
0.0
 20
0.0
 30
0.0
  0
VERTEX
  5
4AA
330
4A9
100
AcDbEntity
  8
Furniture
370
     9
100
AcDbVertex
100
AcDb2dVertex
 10
1535.017357083404
 20
-73.89738210061787
 30
0.0
  0
VERTEX
  5
4AB
330
4A9
100
AcDbEntity
  8
Furniture
370
     9
100
AcDbVertex
100
AcDb2dVertex
 10
1535.017357083404
 20
323.0299567269693
 30
0.0
  0
SEQEND
  5
4AC
330
4A9
100
AcDbEntity
  8
Furniture
370
     9
  0
POLYLINE
  5
4AD
330
1F
100
AcDbEntity
  8
Furniture
370
     9
100
AcDb2dPolyline
 66
     1
 10
0.0
 20
0.0
 30
0.0
  0
VERTEX
  5
4AE
330
4AD
100
AcDbEntity
  8
Furniture
370
     9
100
AcDbVertex
100
AcDb2dVertex
 10
1571.219017365144
 20
285.7206515455683
 30
0.0
  0
VERTEX
  5
4AF
330
4AD
100
AcDbEntity
  8
Furniture
370
     9
100
AcDbVertex
100
AcDb2dVertex
 10
1571.219017365144
 20
323.0299567269693
 30
0.0
  0
VERTEX
  5
4B0
330
4AD
100
AcDbEntity
  8
Furniture
370
     9
100
AcDbVertex
100
AcDb2dVertex
 10
1535.017357083404
 20
323.0299567269693
 30
0.0
  0
SEQEND
  5
4B1
330
4AD
100
AcDbEntity
  8
Furniture
370
     9
  0
POLYLINE
  5
4B2
330
1F
100
AcDbEntity
  8
Furniture
370
     9
100
AcDb2dPolyline
 66
     1
 10
0.0
 20
0.0
 30
0.0
  0
VERTEX
  5
4B3
330
4B2
100
AcDbEntity
  8
Furniture
370
     9
100
AcDbVertex
100
AcDb2dVertex
 10
1926.876622844914
 20
-73.89738210061787
 30
0.0
  0
VERTEX
  5
4B4
330
4B2
100
AcDbEntity
  8
Furniture
370
     9
100
AcDbVertex
100
AcDb2dVertex
 10
1901.982502941733
 20
-73.89738210061787
 30
0.0
  0
SEQEND
  5
4B5
330
4B2
100
AcDbEntity
  8
Furniture
370
     9
  0
POLYLINE
  5
4B6
330
1F
100
AcDbEntity
  8
Furniture
370
     9
100
AcDb2dPolyline
 66
     1
 10
0.0
 20
0.0
 30
0.0
  0
VERTEX
  5
4B7
330
4B6
100
AcDbEntity
  8
Furniture
370
     9
100
AcDbVertex
100
AcDb2dVertex
 10
1926.876622844914
 20
-73.89738210061787
 30
0.0
  0
VERTEX
  5
4B8
330
4B6
100
AcDbEntity
  8
Furniture
370
     9
100
AcDbVertex
100
AcDb2dVertex
 10
1926.876622844914
 20
323.0299567269693
 30
0.0
  0
SEQEND
  5
4B9
330
4B6
100
AcDbEntity
  8
Furniture
370
     9
  0
POLYLINE
  5
4BA
330
1F
100
AcDbEntity
  8
Furniture
370
     9
100
AcDb2dPolyline
 66
     1
 10
0.0
 20
0.0
 30
0.0
  0
VERTEX
  5
4BB
330
4BA
100
AcDbEntity
  8
Furniture
370
     9
100
AcDbVertex
100
AcDb2dVertex
 10
1901.982502941733
 20
-73.89738210061787
 30
0.0
  0
VERTEX
  5
4BC
330
4BA
100
AcDbEntity
  8
Furniture
370
     9
100
AcDbVertex
100
AcDb2dVertex
 10
1890.125124447516
 20
285.7206515455683
 30
0.0
  0
SEQEND
  5
4BD
330
4BA
100
AcDbEntity
  8
Furniture
370
     9
  0
POLYLINE
  5
4BE
330
1F
100
AcDbEntity
  8
Furniture
370
     9
100
AcDb2dPolyline
 66
     1
 10
0.0
 20
0.0
 30
0.0
  0
VERTEX
  5
4BF
330
4BE
100
AcDbEntity
  8
Furniture
370
     9
100
AcDbVertex
100
AcDb2dVertex
 10
1926.876622844914
 20
323.0299567269693
 30
0.0
  0
VERTEX
  5
4C0
330
4BE
100
AcDbEntity
  8
Furniture
370
     9
100
AcDbVertex
100
AcDb2dVertex
 10
1890.125124447516
 20
322.4641812746244
 30
0.0
  0
VERTEX
  5
4C1
330
4BE
100
AcDbEntity
  8
Furniture
370
     9
100
AcDbVertex
100
AcDb2dVertex
 10
1890.125124447516
 20
285.7206515455683
 30
0.0
  0
SEQEND
  5
4C2
330
4BE
100
AcDbEntity
  8
Furniture
370
     9
  0
POLYLINE
  5
4C3
330
1F
100
AcDbEntity
  8
Furniture
370
     9
100
AcDb2dPolyline
 66
     1
 10
0.0
 20
0.0
 30
0.0
  0
VERTEX
  5
4C4
330
4C3
100
AcDbEntity
  8
Furniture
370
     9
100
AcDbVertex
100
AcDb2dVertex
 10
1900.293145253042
 20
609.6868630256743
 30
0.0
  0
VERTEX
  5
4C5
330
4C3
100
AcDbEntity
  8
Furniture
370
     9
100
AcDbVertex
100
AcDb2dVertex
 10
1900.293145253042
 20
325.8588339886945
 30
0.0
  0
SEQEND
  5
4C6
330
4C3
100
AcDbEntity
  8
Furniture
370
     9
  0
POLYLINE
  5
4C7
330
1F
100
AcDbEntity
  8
Furniture
370
     9
100
AcDb2dPolyline
 66
     1
 10
0.0
 20
0.0
 30
0.0
  0
VERTEX
  5
4C8
330
4C7
100
AcDbEntity
  8
Furniture
370
     9
100
AcDbVertex
100
AcDb2dVertex
 10
1926.876622844914
 20
325.8588339886945
 30
0.0
  0
VERTEX
  5
4C9
330
4C7
100
AcDbEntity
  8
Furniture
370
     9
100
AcDbVertex
100
AcDb2dVertex
 10
1926.876622844914
 20
610.8184139303646
 30
0.0
  0
SEQEND
  5
4CA
330
4C7
100
AcDbEntity
  8
Furniture
370
     9
  0
POLYLINE
  5
4CB
330
1F
100
AcDbEntity
  8
Furniture
370
     9
100
AcDb2dPolyline
 66
     1
 10
0.0
 20
0.0
 30
0.0
  0
VERTEX
  5
4CC
330
4CB
100
AcDbEntity
  8
Furniture
370
     9
100
AcDbVertex
100
AcDb2dVertex
 10
1926.876622844914
 20
610.8184139303646
 30
0.0
  0
VERTEX
  5
4CD
330
4CB
100
AcDbEntity
  8
Furniture
370
     9
100
AcDbVertex
100
AcDb2dVertex
 10
1913.298011988635
 20
610.2606071463626
 30
0.0
  0
VERTEX
  5
4CE
330
4CB
100
AcDbEntity
  8
Furniture
370
     9
100
AcDbVertex
100
AcDb2dVertex
 10
1900.293145253042
 20
609.6868630256743
 30
0.0
  0
SEQEND
  5
4CF
330
4CB
100
AcDbEntity
  8
Furniture
370
     9
  0
POLYLINE
  5
4D0
330
1F
100
AcDbEntity
  8
Furniture
370
     9
100
AcDb2dPolyline
 66
     1
 10
0.0
 20
0.0
 30
0.0
  0
VERTEX
  5
4D1
330
4D0
100
AcDbEntity
  8
Furniture
370
     9
100
AcDbVertex
100
AcDb2dVertex
 10
1571.219017365144
 20
282.3180301631553
 30
0.0
  0
VERTEX
  5
4D2
330
4D0
100
AcDbEntity
  8
Furniture
370
     9
100
AcDbVertex
100
AcDb2dVertex
 10
1890.125124447516
 20
282.3180301631553
 30
0.0
  0
SEQEND
  5
4D3
330
4D0
100
AcDbEntity
  8
Furniture
370
     9
  0
POLYLINE
  5
4D4
330
1F
100
AcDbEntity
  8
Furniture
370
     9
100
AcDb2dPolyline
 66
     1
 10
0.0
 20
0.0
 30
0.0
  0
VERTEX
  5
4D5
330
4D4
100
AcDbEntity
  8
Furniture
370
     9
100
AcDbVertex
100
AcDb2dVertex
 10
1926.876622844914
 20
325.8588339886945
 30
0.0
  0
VERTEX
  5
4D6
330
4D4
100
AcDbEntity
  8
Furniture
370
     9
100
AcDbVertex
100
AcDb2dVertex
 10
1535.017357083404
 20
325.8588339886945
 30
0.0
  0
SEQEND
  5
4D7
330
4D4
100
AcDbEntity
  8
Furniture
370
     9
  0
POLYLINE
  5
4D8
330
1F
100
AcDbEntity
  8
Furniture
370
     9
100
AcDb2dPolyline
 66
     1
 10
0.0
 20
0.0
 30
0.0
  0
VERTEX
  5
4D9
330
4D8
100
AcDbEntity
  8
Furniture
370
     9
100
AcDbVertex
100
AcDb2dVertex
 10
1535.017357083404
 20
325.8588339886945
 30
0.0
  0
VERTEX
  5
4DA
330
4D8
100
AcDbEntity
  8
Furniture
370
     9
100
AcDbVertex
100
AcDb2dVertex
 10
1535.017357083404
 20
323.0299567269693
 30
0.0
  0
VERTEX
  5
4DB
330
4D8
100
AcDbEntity
  8
Furniture
370
     9
100
AcDbVertex
100
AcDb2dVertex
 10
1926.876622844914
 20
323.0299567269693
 30
0.0
  0
VERTEX
  5
4DC
330
4D8
100
AcDbEntity
  8
Furniture
370
     9
100
AcDbVertex
100
AcDb2dVertex
 10
1926.876622844914
 20
325.8588339886945
 30
0.0
  0
SEQEND
  5
4DD
330
4D8
100
AcDbEntity
  8
Furniture
370
     9
  0
POLYLINE
  5
4DE
330
1F
100
AcDbEntity
  8
Furniture
370
     9
100
AcDb2dPolyline
 66
     1
 10
0.0
 20
0.0
 30
0.0
  0
VERTEX
  5
4DF
330
4DE
100
AcDbEntity
  8
Furniture
370
     9
100
AcDbVertex
100
AcDb2dVertex
 10
1561.600834675278
 20
609.6868630256743
 30
0.0
  0
VERTEX
  5
4E0
330
4DE
100
AcDbEntity
  8
Furniture
370
     9
100
AcDbVertex
100
AcDb2dVertex
 10
1576.860834551909
 20
609.1210875733295
 30
0.0
  0
VERTEX
  5
4E1
330
4DE
100
AcDbEntity
  8
Furniture
370
     9
100
AcDbVertex
100
AcDb2dVertex
 10
1592.128803096882
 20
608.563280789327
 30
0.0
  0
VERTEX
  5
4E2
330
4DE
100
AcDbEntity
  8
Furniture
370
     9
100
AcDbVertex
100
AcDb2dVertex
 10
1607.396771641854
 20
608.563280789327
 30
0.0
  0
VERTEX
  5
4E3
330
4DE
100
AcDbEntity
  8
Furniture
370
     9
100
AcDbVertex
100
AcDb2dVertex
 10
1622.664740186829
 20
607.9975053369822
 30
0.0
  0
VERTEX
  5
4E4
330
4DE
100
AcDbEntity
  8
Furniture
370
     9
100
AcDbVertex
100
AcDb2dVertex
 10
1637.932708731802
 20
607.423761216294
 30
0.0
  0
VERTEX
  5
4E5
330
4DE
100
AcDbEntity
  8
Furniture
370
     9
100
AcDbVertex
100
AcDb2dVertex
 10
1653.200677276774
 20
607.423761216294
 30
0.0
  0
VERTEX
  5
4E6
330
4DE
100
AcDbEntity
  8
Furniture
370
     9
100
AcDbVertex
100
AcDb2dVertex
 10
1669.042389942435
 20
606.8659544322921
 30
0.0
  0
VERTEX
  5
4E7
330
4DE
100
AcDbEntity
  8
Furniture
370
     9
100
AcDbVertex
100
AcDb2dVertex
 10
1684.310358487408
 20
606.8659544322921
 30
0.0
  0
VERTEX
  5
4E8
330
4DE
100
AcDbEntity
  8
Furniture
370
     9
100
AcDbVertex
100
AcDb2dVertex
 10
1700.120196479698
 20
606.8659544322921
 30
0.0
  0
VERTEX
  5
4E9
330
4DE
100
AcDbEntity
  8
Furniture
370
     9
100
AcDbVertex
100
AcDb2dVertex
 10
1715.388165024671
 20
606.8659544322921
 30
0.0
  0
VERTEX
  5
4EA
330
4DE
100
AcDbEntity
  8
Furniture
370
     9
100
AcDbVertex
100
AcDb2dVertex
 10
1730.656133569645
 20
606.8659544322921
 30
0.0
  0
VERTEX
  5
4EB
330
4DE
100
AcDbEntity
  8
Furniture
370
     9
100
AcDbVertex
100
AcDb2dVertex
 10
1746.497846235306
 20
606.8659544322921
 30
0.0
  0
VERTEX
  5
4EC
330
4DE
100
AcDbEntity
  8
Furniture
370
     9
100
AcDbVertex
100
AcDb2dVertex
 10
1761.765814780279
 20
606.8659544322921
 30
0.0
  0
VERTEX
  5
4ED
330
4DE
100
AcDbEntity
  8
Furniture
370
     9
100
AcDbVertex
100
AcDb2dVertex
 10
1777.60752744594
 20
606.8659544322921
 30
0.0
  0
VERTEX
  5
4EE
330
4DE
100
AcDbEntity
  8
Furniture
370
     9
100
AcDbVertex
100
AcDb2dVertex
 10
1792.843621317542
 20
606.8659544322921
 30
0.0
  0
VERTEX
  5
4EF
330
4DE
100
AcDbEntity
  8
Furniture
370
     9
100
AcDbVertex
100
AcDb2dVertex
 10
1808.143464535886
 20
607.423761216294
 30
0.0
  0
VERTEX
  5
4F0
330
4DE
100
AcDbEntity
  8
Furniture
370
     9
100
AcDbVertex
100
AcDb2dVertex
 10
1823.953302528175
 20
607.423761216294
 30
0.0
  0
VERTEX
  5
4F1
330
4DE
100
AcDbEntity
  8
Furniture
370
     9
100
AcDbVertex
100
AcDb2dVertex
 10
1839.221271073148
 20
607.9975053369822
 30
0.0
  0
VERTEX
  5
4F2
330
4DE
100
AcDbEntity
  8
Furniture
370
     9
100
AcDbVertex
100
AcDb2dVertex
 10
1854.489239618123
 20
608.563280789327
 30
0.0
  0
VERTEX
  5
4F3
330
4DE
100
AcDbEntity
  8
Furniture
370
     9
100
AcDbVertex
100
AcDb2dVertex
 10
1869.757208163095
 20
608.563280789327
 30
0.0
  0
VERTEX
  5
4F4
330
4DE
100
AcDbEntity
  8
Furniture
370
     9
100
AcDbVertex
100
AcDb2dVertex
 10
1885.025176708068
 20
609.1210875733295
 30
0.0
  0
VERTEX
  5
4F5
330
4DE
100
AcDbEntity
  8
Furniture
370
     9
100
AcDbVertex
100
AcDb2dVertex
 10
1900.293145253042
 20
609.6868630256743
 30
0.0
  0
SEQEND
  5
4F6
330
4DE
100
AcDbEntity
  8
Furniture
370
     9
  0
POLYLINE
  5
4F7
330
1F
100
AcDbEntity
  8
Furniture
370
     9
100
AcDb2dPolyline
 66
     1
 10
0.0
 20
0.0
 30
0.0
  0
VERTEX
  5
4F8
330
4F7
100
AcDbEntity
  8
Furniture
370
     9
100
AcDbVertex
100
AcDb2dVertex
 10
1900.293145253042
 20
532.8051508534925
 30
0.0
  0
VERTEX
  5
4F9
330
4F7
100
AcDbEntity
  8
Furniture
370
     9
100
AcDbVertex
100
AcDb2dVertex
 10
1884.45143258738
 20
532.2314067328044
 30
0.0
  0
VERTEX
  5
4FA
330
4F7
100
AcDbEntity
  8
Furniture
370
     9
100
AcDbVertex
100
AcDb2dVertex
 10
1868.067850474402
 20
531.6735999488019
 30
0.0
  0
VERTEX
  5
4FB
330
4F7
100
AcDbEntity
  8
Furniture
370
     9
100
AcDbVertex
100
AcDb2dVertex
 10
1852.226137808742
 20
531.0998558281141
 30
0.0
  0
VERTEX
  5
4FC
330
4F7
100
AcDbEntity
  8
Furniture
370
     9
100
AcDbVertex
100
AcDb2dVertex
 10
1836.384425143081
 20
530.5340803757693
 30
0.0
  0
VERTEX
  5
4FD
330
4F7
100
AcDbEntity
  8
Furniture
370
     9
100
AcDbVertex
100
AcDb2dVertex
 10
1820.000843030102
 20
530.5340803757693
 30
0.0
  0
VERTEX
  5
4FE
330
4F7
100
AcDbEntity
  8
Furniture
370
     9
100
AcDbVertex
100
AcDb2dVertex
 10
1804.159130364442
 20
529.968304923424
 30
0.0
  0
VERTEX
  5
4FF
330
4F7
100
AcDbEntity
  8
Furniture
370
     9
100
AcDbVertex
100
AcDb2dVertex
 10
1787.775548251464
 20
529.968304923424
 30
0.0
  0
VERTEX
  5
500
330
4F7
100
AcDbEntity
  8
Furniture
370
     9
100
AcDbVertex
100
AcDb2dVertex
 10
1771.360091465115
 20
529.968304923424
 30
0.0
  0
VERTEX
  5
501
330
4F7
100
AcDbEntity
  8
Furniture
370
     9
100
AcDbVertex
100
AcDb2dVertex
 10
1754.976509352138
 20
529.410498139422
 30
0.0
  0
VERTEX
  5
502
330
4F7
100
AcDbEntity
  8
Furniture
370
     9
100
AcDbVertex
100
AcDb2dVertex
 10
1739.134796686477
 20
529.410498139422
 30
0.0
  0
VERTEX
  5
503
330
4F7
100
AcDbEntity
  8
Furniture
370
     9
100
AcDbVertex
100
AcDb2dVertex
 10
1722.7512145735
 20
529.410498139422
 30
0.0
  0
VERTEX
  5
504
330
4F7
100
AcDbEntity
  8
Furniture
370
     9
100
AcDbVertex
100
AcDb2dVertex
 10
1706.367632460522
 20
529.410498139422
 30
0.0
  0
VERTEX
  5
505
330
4F7
100
AcDbEntity
  8
Furniture
370
     9
100
AcDbVertex
100
AcDb2dVertex
 10
1690.525919794861
 20
529.968304923424
 30
0.0
  0
VERTEX
  5
506
330
4F7
100
AcDbEntity
  8
Furniture
370
     9
100
AcDbVertex
100
AcDb2dVertex
 10
1674.110463008513
 20
529.968304923424
 30
0.0
  0
VERTEX
  5
507
330
4F7
100
AcDbEntity
  8
Furniture
370
     9
100
AcDbVertex
100
AcDb2dVertex
 10
1657.726880895534
 20
529.968304923424
 30
0.0
  0
VERTEX
  5
508
330
4F7
100
AcDbEntity
  8
Furniture
370
     9
100
AcDbVertex
100
AcDb2dVertex
 10
1641.885168229874
 20
530.5340803757693
 30
0.0
  0
VERTEX
  5
509
330
4F7
100
AcDbEntity
  8
Furniture
370
     9
100
AcDbVertex
100
AcDb2dVertex
 10
1625.501586116896
 20
530.5340803757693
 30
0.0
  0
VERTEX
  5
50A
330
4F7
100
AcDbEntity
  8
Furniture
370
     9
100
AcDbVertex
100
AcDb2dVertex
 10
1609.659873451235
 20
531.0998558281141
 30
0.0
  0
VERTEX
  5
50B
330
4F7
100
AcDbEntity
  8
Furniture
370
     9
100
AcDbVertex
100
AcDb2dVertex
 10
1593.276291338258
 20
531.6735999488019
 30
0.0
  0
VERTEX
  5
50C
330
4F7
100
AcDbEntity
  8
Furniture
370
     9
100
AcDbVertex
100
AcDb2dVertex
 10
1577.434578672596
 20
532.2314067328044
 30
0.0
  0
VERTEX
  5
50D
330
4F7
100
AcDbEntity
  8
Furniture
370
     9
100
AcDbVertex
100
AcDb2dVertex
 10
1561.600834675278
 20
532.8051508534925
 30
0.0
  0
SEQEND
  5
50E
330
4F7
100
AcDbEntity
  8
Furniture
370
     9
  0
POLYLINE
  5
50F
330
1F
100
AcDbEntity
  8
Furniture
370
     9
100
AcDb2dPolyline
 66
     1
 10
0.0
 20
0.0
 30
0.0
  0
VERTEX
  5
510
330
50F
100
AcDbEntity
  8
Furniture
370
     9
100
AcDbVertex
100
AcDb2dVertex
 10
1900.293145253042
 20
535.6340281152174
 30
0.0
  0
VERTEX
  5
511
330
50F
100
AcDbEntity
  8
Furniture
370
     9
100
AcDbVertex
100
AcDb2dVertex
 10
1900.293145253042
 20
609.6868630256743
 30
0.0
  0
SEQEND
  5
512
330
50F
100
AcDbEntity
  8
Furniture
370
     9
  0
POLYLINE
  5
513
330
1F
100
AcDbEntity
  8
Furniture
370
     9
100
AcDb2dPolyline
 66
     1
 10
0.0
 20
0.0
 30
0.0
  0
VERTEX
  5
514
330
513
100
AcDbEntity
  8
Furniture
370
     9
100
AcDbVertex
100
AcDb2dVertex
 10
1561.600834675278
 20
535.6340281152174
 30
0.0
  0
VERTEX
  5
515
330
513
100
AcDbEntity
  8
Furniture
370
     9
100
AcDbVertex
100
AcDb2dVertex
 10
1561.600834675278
 20
609.6868630256743
 30
0.0
  0
SEQEND
  5
516
330
513
100
AcDbEntity
  8
Furniture
370
     9
  0
POLYLINE
  5
517
330
1F
100
AcDbEntity
  8
Furniture
370
     9
100
AcDb2dPolyline
 66
     1
 10
0.0
 20
0.0
 30
0.0
  0
VERTEX
  5
518
330
517
100
AcDbEntity
  8
Furniture
370
     9
100
AcDbVertex
100
AcDb2dVertex
 10
2897.823736289913
 20
-73.89738210061786
 30
0.0
  0
VERTEX
  5
519
330
517
100
AcDbEntity
  8
Furniture
370
     9
100
AcDbVertex
100
AcDb2dVertex
 10
2897.823736289913
 20
317.3801708718622
 30
0.0
  0
SEQEND
  5
51A
330
517
100
AcDbEntity
  8
Furniture
370
     9
  0
POLYLINE
  5
51B
330
1F
100
AcDbEntity
  8
Furniture
370
     9
100
AcDb2dPolyline
 66
     1
 10
0.0
 20
0.0
 30
0.0
  0
VERTEX
  5
51C
330
51B
100
AcDbEntity
  8
Furniture
370
     9
100
AcDbVertex
100
AcDb2dVertex
 10
3244.652057245765
 20
317.3801708718622
 30
0.0
  0
VERTEX
  5
51D
330
51B
100
AcDbEntity
  8
Furniture
370
     9
100
AcDbVertex
100
AcDb2dVertex
 10
2897.823736289913
 20
317.3801708718622
 30
0.0
  0
VERTEX
  5
51E
330
51B
100
AcDbEntity
  8
Furniture
370
     9
100
AcDbVertex
100
AcDb2dVertex
 10
2899.130597898147
 20
332.4329853715771
 30
0.0
  0
VERTEX
  5
51F
330
51B
100
AcDbEntity
  8
Furniture
370
     9
100
AcDbVertex
100
AcDb2dVertex
 10
3245.608297446911
 20
332.4329853715771
 30
0.0
  0
VERTEX
  5
520
330
51B
100
AcDbEntity
  8
Furniture
370
     9
100
AcDbVertex
100
AcDb2dVertex
 10
3244.652057245765
 20
317.3801708718622
 30
0.0
  0
VERTEX
  5
521
330
51B
100
AcDbEntity
  8
Furniture
370
     9
100
AcDbVertex
100
AcDb2dVertex
 10
3284.622897653689
 20
610.8184139303646
 30
0.0
  0
SEQEND
  5
522
330
51B
100
AcDbEntity
  8
Furniture
370
     9
  0
POLYLINE
  5
523
330
1F
100
AcDbEntity
  8
Furniture
370
     9
100
AcDb2dPolyline
 66
     1
 10
0.0
 20
0.0
 30
0.0
  0
VERTEX
  5
524
330
523
100
AcDbEntity
  8
Furniture
370
     9
100
AcDbVertex
100
AcDb2dVertex
 10
2897.823736289913
 20
-73.89738210061786
 30
0.0
  0
VERTEX
  5
525
330
523
100
AcDbEntity
  8
Furniture
370
     9
100
AcDbVertex
100
AcDb2dVertex
 10
2924.470963228531
 20
-73.89738210061786
 30
0.0
  0
SEQEND
  5
526
330
523
100
AcDbEntity
  8
Furniture
370
     9
  0
POLYLINE
  5
527
330
1F
100
AcDbEntity
  8
Furniture
370
     9
100
AcDb2dPolyline
 66
     1
 10
0.0
 20
0.0
 30
0.0
  0
VERTEX
  5
528
330
527
100
AcDbEntity
  8
Furniture
370
     9
100
AcDbVertex
100
AcDb2dVertex
 10
2936.933960516807
 20
277.3615184538792
 30
0.0
  0
VERTEX
  5
529
330
527
100
AcDbEntity
  8
Furniture
370
     9
100
AcDbVertex
100
AcDb2dVertex
 10
3244.652057245765
 20
277.3615184538792
 30
0.0
  0
SEQEND
  5
52A
330
527
100
AcDbEntity
  8
Furniture
370
     9
  0
POLYLINE
  5
52B
330
1F
100
AcDbEntity
  8
Furniture
370
     9
100
AcDb2dPolyline
 66
     1
 10
0.0
 20
0.0
 30
0.0
  0
VERTEX
  5
52C
330
52B
100
AcDbEntity
  8
Furniture
370
     9
100
AcDbVertex
100
AcDb2dVertex
 10
2936.933960516807
 20
277.3615184538792
 30
0.0
  0
VERTEX
  5
52D
330
52B
100
AcDbEntity
  8
Furniture
370
     9
100
AcDbVertex
100
AcDb2dVertex
 10
2924.470963228531
 20
-73.89738210061786
 30
0.0
  0
SEQEND
  5
52E
330
52B
100
AcDbEntity
  8
Furniture
370
     9
  0
POLYLINE
  5
52F
330
1F
100
AcDbEntity
  8
Furniture
370
     9
100
AcDb2dPolyline
 66
     1
 10
0.0
 20
0.0
 30
0.0
  0
VERTEX
  5
530
330
52F
100
AcDbEntity
  8
Furniture
370
     9
100
AcDbVertex
100
AcDb2dVertex
 10
3280.160443381674
 20
317.3801708718622
 30
0.0
  0
VERTEX
  5
531
330
52F
100
AcDbEntity
  8
Furniture
370
     9
100
AcDbVertex
100
AcDb2dVertex
 10
3280.160443381674
 20
277.3615184538792
 30
0.0
  0
SEQEND
  5
532
330
52F
100
AcDbEntity
  8
Furniture
370
     9
  0
POLYLINE
  5
533
330
1F
100
AcDbEntity
  8
Furniture
370
     9
100
AcDb2dPolyline
 66
     1
 10
0.0
 20
0.0
 30
0.0
  0
VERTEX
  5
534
330
533
100
AcDbEntity
  8
Furniture
370
     9
100
AcDbVertex
100
AcDb2dVertex
 10
3284.622897653689
 20
610.8184139303646
 30
0.0
  0
VERTEX
  5
535
330
533
100
AcDbEntity
  8
Furniture
370
     9
100
AcDbVertex
100
AcDb2dVertex
 10
3302.408965395017
 20
610.8184139303646
 30
0.0
  0
SEQEND
  5
536
330
533
100
AcDbEntity
  8
Furniture
370
     9
  0
POLYLINE
  5
537
330
1F
100
AcDbEntity
  8
Furniture
370
     9
100
AcDb2dPolyline
 66
     1
 10
0.0
 20
0.0
 30
0.0
  0
VERTEX
  5
538
330
537
100
AcDbEntity
  8
Furniture
370
     9
100
AcDbVertex
100
AcDb2dVertex
 10
3302.408965395017
 20
610.8184139303646
 30
0.0
  0
VERTEX
  5
539
330
537
100
AcDbEntity
  8
Furniture
370
     9
100
AcDbVertex
100
AcDb2dVertex
 10
3280.160443381674
 20
317.3801708718622
 30
0.0
  0
SEQEND
  5
53A
330
537
100
AcDbEntity
  8
Furniture
370
     9
  0
POLYLINE
  5
53B
330
1F
100
AcDbEntity
  8
Furniture
370
     9
100
AcDb2dPolyline
 66
     1
 10
0.0
 20
0.0
 30
0.0
  0
VERTEX
  5
53C
330
53B
100
AcDbEntity
  8
Furniture
370
     9
100
AcDbVertex
100
AcDb2dVertex
 10
3244.652057245765
 20
277.3615184538792
 30
0.0
  0
VERTEX
  5
53D
330
53B
100
AcDbEntity
  8
Furniture
370
     9
100
AcDbVertex
100
AcDb2dVertex
 10
3275.761738456399
 20
-73.89738210061786
 30
0.0
  0
SEQEND
  5
53E
330
53B
100
AcDbEntity
  8
Furniture
370
     9
  0
POLYLINE
  5
53F
330
1F
100
AcDbEntity
  8
Furniture
370
     9
100
AcDb2dPolyline
 66
     1
 10
0.0
 20
0.0
 30
0.0
  0
VERTEX
  5
540
330
53F
100
AcDbEntity
  8
Furniture
370
     9
100
AcDbVertex
100
AcDb2dVertex
 10
3275.761738456399
 20
-73.89738210061786
 30
0.0
  0
VERTEX
  5
541
330
53F
100
AcDbEntity
  8
Furniture
370
     9
100
AcDbVertex
100
AcDb2dVertex
 10
3302.408965395017
 20
-73.89738210061786
 30
0.0
  0
SEQEND
  5
542
330
53F
100
AcDbEntity
  8
Furniture
370
     9
  0
POLYLINE
  5
543
330
1F
100
AcDbEntity
  8
Furniture
370
     9
100
AcDb2dPolyline
 66
     1
 10
0.0
 20
0.0
 30
0.0
  0
VERTEX
  5
544
330
543
100
AcDbEntity
  8
Furniture
370
     9
100
AcDbVertex
100
AcDb2dVertex
 10
3302.408965395017
 20
-73.89738210061786
 30
0.0
  0
VERTEX
  5
545
330
543
100
AcDbEntity
  8
Furniture
370
     9
100
AcDbVertex
100
AcDb2dVertex
 10
3280.160443381674
 20
277.3615184538792
 30
0.0
  0
SEQEND
  5
546
330
543
100
AcDbEntity
  8
Furniture
370
     9
  0
POLYLINE
  5
577
330
1F
100
AcDbEntity
  8
Furniture
370
     9
100
AcDb2dPolyline
 66
     1
 10
0.0
 20
0.0
 30
0.0
  0
VERTEX
  5
578
330
577
100
AcDbEntity
  8
Furniture
370
     9
100
AcDbVertex
100
AcDb2dVertex
 10
103.691733093673
 20
-1324.080494570121
 30
0.0
  0
VERTEX
  5
579
330
577
100
AcDbEntity
  8
Furniture
370
     9
100
AcDbVertex
100
AcDb2dVertex
 10
103.691733093673
 20
-1709.658011665894
 30
0.0
  0
VERTEX
  5
57A
330
577
100
AcDbEntity
  8
Furniture
370
     9
100
AcDbVertex
100
AcDb2dVertex
 10
486.3764298128079
 20
-1709.658011665894
 30
0.0
  0
VERTEX
  5
57B
330
577
100
AcDbEntity
  8
Furniture
370
     9
100
AcDbVertex
100
AcDb2dVertex
 10
486.3764298128079
 20
-1324.080494570121
 30
0.0
  0
SEQEND
  5
57C
330
577
100
AcDbEntity
  8
Furniture
370
     9
  0
POLYLINE
  5
57D
330
1F
100
AcDbEntity
  8
Furniture
370
     9
100
AcDb2dPolyline
 66
     1
 10
0.0
 20
0.0
 30
0.0
  0
VERTEX
  5
57E
330
57D
100
AcDbEntity
  8
Furniture
370
     9
100
AcDbVertex
100
AcDb2dVertex
 10
131.3177556078878
 20
-1359.890479004568
 30
0.0
  0
VERTEX
  5
57F
330
57D
100
AcDbEntity
  8
Furniture
370
     9
100
AcDbVertex
100
AcDb2dVertex
 10
131.3177556078878
 20
-1336.855057486897
 30
0.0
  0
SEQEND
  5
580
330
57D
100
AcDbEntity
  8
Furniture
370
     9
  0
POLYLINE
  5
581
330
1F
100
AcDbEntity
  8
Furniture
370
     9
100
AcDb2dPolyline
 66
     1
 10
0.0
 20
0.0
 30
0.0
  0
VERTEX
  5
582
330
581
100
AcDbEntity
  8
Furniture
370
     9
100
AcDbVertex
100
AcDb2dVertex
 10
461.0086203561391
 20
-1359.890479004568
 30
0.0
  0
VERTEX
  5
583
330
581
100
AcDbEntity
  8
Furniture
370
     9
100
AcDbVertex
100
AcDb2dVertex
 10
461.0086203561391
 20
-1336.855057486897
 30
0.0
  0
SEQEND
  5
584
330
581
100
AcDbEntity
  8
Furniture
370
     9
  0
POLYLINE
  5
585
330
1F
100
AcDbEntity
  8
Furniture
370
     9
100
AcDb2dPolyline
 66
     1
 10
0.0
 20
0.0
 30
0.0
  0
VERTEX
  5
586
330
585
100
AcDbEntity
  8
Furniture
370
     9
100
AcDbVertex
100
AcDb2dVertex
 10
131.5237969452547
 20
-1335.71770930463
 30
0.0
  0
VERTEX
  5
587
330
585
100
AcDbEntity
  8
Furniture
370
     9
100
AcDbVertex
100
AcDb2dVertex
 10
460.9179621676977
 20
-1335.71770930463
 30
0.0
  0
SEQEND
  5
588
330
585
100
AcDbEntity
  8
Furniture
370
     9
  0
POLYLINE
  5
589
330
1F
100
AcDbEntity
  8
Furniture
370
     9
100
AcDb2dPolyline
 66
     1
 10
0.0
 20
0.0
 30
0.0
  0
VERTEX
  5
58A
330
589
100
AcDbEntity
  8
Furniture
370
     9
100
AcDbVertex
100
AcDb2dVertex
 10
461.288836574959
 20
-1360.937168998394
 30
0.0
  0
VERTEX
  5
58B
330
589
100
AcDbEntity
  8
Furniture
370
     9
100
AcDbVertex
100
AcDb2dVertex
 10
486.2857716243657
 20
-1360.937168998394
 30
0.0
  0
SEQEND
  5
58C
330
589
100
AcDbEntity
  8
Furniture
370
     9
  0
POLYLINE
  5
58D
330
1F
100
AcDbEntity
  8
Furniture
370
     9
100
AcDb2dPolyline
 66
     1
 10
0.0
 20
0.0
 30
0.0
  0
VERTEX
  5
58E
330
58D
100
AcDbEntity
  8
Furniture
370
     9
100
AcDbVertex
100
AcDb2dVertex
 10
104.5735900176052
 20
-1360.937168998394
 30
0.0
  0
VERTEX
  5
58F
330
58D
100
AcDbEntity
  8
Furniture
370
     9
100
AcDbVertex
100
AcDb2dVertex
 10
130.4688652979339
 20
-1360.937168998394
 30
0.0
  0
SEQEND
  5
590
330
58D
100
AcDbEntity
  8
Furniture
370
     9
  0
SPLINE
  5
591
330
1F
100
AcDbEntity
  8
Furniture
370
     9
100
AcDbSpline
210
0.0
220
0.0
230
1.0
 70
     8
 71
     3
 72
     8
 73
     4
 74
     0
 42
0.000000001
 43
0.0000000001
 40
0.0
 40
0.0
 40
0.0
 40
0.0
 40
1.0
 40
1.0
 40
1.0
 40
1.0
 10
106.2136790630491
 20
-1324.344227481951
 30
0.0
 10
106.2136790630491
 20
-1324.344227481951
 30
0.0
 10
258.6677854079024
 20
-1290.644106342147
 30
0.0
 10
485.9066555636102
 20
-1323.066771190274
 30
0.0
  0
SPLINE
  5
592
330
1F
100
AcDbEntity
  8
Furniture
370
     9
100
AcDbSpline
210
0.0
220
0.0
230
1.0
 70
     8
 71
     3
 72
    20
 73
    16
 74
     0
 42
0.000000001
 43
0.0000000001
 40
0.0
 40
0.0
 40
0.0
 40
0.0
 40
1.0
 40
1.0
 40
1.0
 40
2.0
 40
2.0
 40
2.0
 40
3.0
 40
3.0
 40
3.0
 40
4.0
 40
4.0
 40
4.0
 40
5.0
 40
5.0
 40
5.0
 40
5.0
 10
486.0385220195255
 20
-1323.948628114206
 30
0.0
 10
486.0385220195255
 20
-1323.948628114206
 30
0.0
 10
486.0385220195255
 20
-1308.149378364877
 30
0.0
 10
486.0385220195255
 20
-1308.149378364877
 30
0.0
 10
486.0385220195255
 20
-1308.149378364877
 30
0.0
 10
485.9066555636102
 20
-1306.20434814013
 30
0.0
 10
485.9066555636102
 20
-1306.20434814013
 30
0.0
 10
258.6677854079024
 20
-1273.798166598992
 30
0.0
 10
106.2136790630491
 20
-1307.506529392291
 30
0.0
 10
106.2136790630491
 20
-1307.506529392291
 30
0.0
 10
106.2136790630491
 20
-1307.506529392291
 30
0.0
 10
103.691733093673
 20
-1308.149378364877
 30
0.0
 10
103.691733093673
 20
-1308.149378364877
 30
0.0
 10
103.691733093673
 20
-1308.149378364877
 30
0.0
 10
103.691733093673
 20
-1326.37991589514
 30
0.0
 10
103.691733093673
 20
-1326.37991589514
 30
0.0
  0
POLYLINE
  5
594
330
1F
100
AcDbEntity
  8
Furniture
370
     9
100
AcDb2dPolyline
 66
     1
 10
0.0
 20
0.0
 30
0.0
  0
VERTEX
  5
595
330
594
100
AcDbEntity
  8
Furniture
370
     9
100
AcDbVertex
100
AcDb2dVertex
 10
1869.845820072067
 20
-1640.440975611512
 30
0.0
  0
VERTEX
  5
596
330
594
100
AcDbEntity
  8
Furniture
370
     9
100
AcDbVertex
100
AcDb2dVertex
 10
1559.314369957319
 20
-1640.440975611512
 30
0.0
  0
SEQEND
  5
597
330
594
100
AcDbEntity
  8
Furniture
370
     9
  0
POLYLINE
  5
598
330
1F
100
AcDbEntity
  8
Furniture
370
     9
100
AcDb2dPolyline
 66
     1
 10
0.0
 20
0.0
 30
0.0
  0
VERTEX
  5
599
330
598
100
AcDbEntity
  8
Furniture
370
     9
100
AcDbVertex
100
AcDb2dVertex
 10
1559.778496277737
 20
-1614.565933248174
 30
0.0
  0
VERTEX
  5
59A
330
598
100
AcDbEntity
  8
Furniture
370
     9
100
AcDbVertex
100
AcDb2dVertex
 10
1869.319810242259
 20
-1614.565933248174
 30
0.0
  0
SEQEND
  5
59B
330
598
100
AcDbEntity
  8
Furniture
370
     9
  0
POLYLINE
  5
59C
330
1F
100
AcDbEntity
  8
Furniture
370
     9
100
AcDb2dPolyline
 66
     1
 10
0.0
 20
0.0
 30
0.0
  0
VERTEX
  5
59D
330
59C
100
AcDbEntity
  8
Furniture
370
     9
100
AcDbVertex
100
AcDb2dVertex
 10
2897.823736289913
 20
-1718.127986210914
 30
0.0
  0
VERTEX
  5
59E
330
59C
100
AcDbEntity
  8
Furniture
370
     9
100
AcDbVertex
100
AcDb2dVertex
 10
2897.823736289913
 20
-1131.147428777491
 30
0.0
  0
SEQEND
  5
59F
330
59C
100
AcDbEntity
  8
Furniture
370
     9
  0
POLYLINE
  5
5A0
330
1F
100
AcDbEntity
  8
Furniture
370
     9
100
AcDb2dPolyline
 66
     1
 10
0.0
 20
0.0
 30
0.0
  0
VERTEX
  5
5A1
330
5A0
100
AcDbEntity
  8
Furniture
370
     9
100
AcDbVertex
100
AcDb2dVertex
 10
3227.570016069992
 20
-1131.147428777491
 30
0.0
  0
VERTEX
  5
5A2
330
5A0
100
AcDbEntity
  8
Furniture
370
     9
100
AcDbVertex
100
AcDb2dVertex
 10
2897.823736289913
 20
-1131.147428777491
 30
0.0
  0
VERTEX
  5
5A3
330
5A0
100
AcDbEntity
  8
Furniture
370
     9
100
AcDbVertex
100
AcDb2dVertex
 10
2899.370824024641
 20
-1115.204689671111
 30
0.0
  0
VERTEX
  5
5A4
330
5A0
100
AcDbEntity
  8
Furniture
370
     9
100
AcDbVertex
100
AcDb2dVertex
 10
3228.931453276553
 20
-1115.204689671111
 30
0.0
  0
SEQEND
  5
5A5
330
5A0
100
AcDbEntity
  8
Furniture
370
     9
  0
POLYLINE
  5
5A6
330
1F
100
AcDbEntity
  8
Furniture
370
     9
100
AcDb2dPolyline
 66
     1
 10
0.0
 20
0.0
 30
0.0
  0
VERTEX
  5
5A7
330
5A6
100
AcDbEntity
  8
Furniture
370
     9
100
AcDbVertex
100
AcDb2dVertex
 10
2897.823736289913
 20
-1718.127986210914
 30
0.0
  0
VERTEX
  5
5A8
330
5A6
100
AcDbEntity
  8
Furniture
370
     9
100
AcDbVertex
100
AcDb2dVertex
 10
2923.721984969271
 20
-1718.127986210914
 30
0.0
  0
SEQEND
  5
5A9
330
5A6
100
AcDbEntity
  8
Furniture
370
     9
  0
POLYLINE
  5
5AA
330
1F
100
AcDbEntity
  8
Furniture
370
     9
100
AcDb2dPolyline
 66
     1
 10
0.0
 20
0.0
 30
0.0
  0
VERTEX
  5
5AB
330
5AA
100
AcDbEntity
  8
Furniture
370
     9
100
AcDbVertex
100
AcDb2dVertex
 10
2934.953841923402
 20
-1174.295705699075
 30
0.0
  0
VERTEX
  5
5AC
330
5AA
100
AcDbEntity
  8
Furniture
370
     9
100
AcDbVertex
100
AcDb2dVertex
 10
3227.570016069992
 20
-1174.295705699075
 30
0.0
  0
SEQEND
  5
5AD
330
5AA
100
AcDbEntity
  8
Furniture
370
     9
  0
POLYLINE
  5
5AE
330
1F
100
AcDbEntity
  8
Furniture
370
     9
100
AcDb2dPolyline
 66
     1
 10
0.0
 20
0.0
 30
0.0
  0
VERTEX
  5
5AF
330
5AE
100
AcDbEntity
  8
Furniture
370
     9
100
AcDbVertex
100
AcDb2dVertex
 10
2934.953841923402
 20
-1174.295705699075
 30
0.0
  0
VERTEX
  5
5B0
330
5AE
100
AcDbEntity
  8
Furniture
370
     9
100
AcDbVertex
100
AcDb2dVertex
 10
2923.721984969271
 20
-1718.127986210914
 30
0.0
  0
SEQEND
  5
5B1
330
5AE
100
AcDbEntity
  8
Furniture
370
     9
  0
POLYLINE
  5
5B2
330
1F
100
AcDbEntity
  8
Furniture
370
     9
100
AcDb2dPolyline
 66
     1
 10
0.0
 20
0.0
 30
0.0
  0
VERTEX
  5
5B3
330
5B2
100
AcDbEntity
  8
Furniture
370
     9
100
AcDbVertex
100
AcDb2dVertex
 10
3227.570016069992
 20
-1131.147428777491
 30
0.0
  0
VERTEX
  5
5B4
330
5B2
100
AcDbEntity
  8
Furniture
370
     9
100
AcDbVertex
100
AcDb2dVertex
 10
3266.432859966377
 20
-898.0709261019359
 30
0.0
  0
SEQEND
  5
5B5
330
5B2
100
AcDbEntity
  8
Furniture
370
     9
  0
POLYLINE
  5
5B6
330
1F
100
AcDbEntity
  8
Furniture
370
     9
100
AcDb2dPolyline
 66
     1
 10
0.0
 20
0.0
 30
0.0
  0
VERTEX
  5
5B7
330
5B6
100
AcDbEntity
  8
Furniture
370
     9
100
AcDbVertex
100
AcDb2dVertex
 10
3266.432859966377
 20
-898.0709261019359
 30
0.0
  0
VERTEX
  5
5B8
330
5B6
100
AcDbEntity
  8
Furniture
370
     9
100
AcDbVertex
100
AcDb2dVertex
 10
3283.698359085949
 20
-898.0709261019359
 30
0.0
  0
SEQEND
  5
5B9
330
5B6
100
AcDbEntity
  8
Furniture
370
     9
  0
POLYLINE
  5
5BA
330
1F
100
AcDbEntity
  8
Furniture
370
     9
100
AcDb2dPolyline
 66
     1
 10
0.0
 20
0.0
 30
0.0
  0
VERTEX
  5
5BB
330
5BA
100
AcDbEntity
  8
Furniture
370
     9
100
AcDbVertex
100
AcDb2dVertex
 10
3283.698359085949
 20
-898.0709261019359
 30
0.0
  0
VERTEX
  5
5BC
330
5BA
100
AcDbEntity
  8
Furniture
370
     9
100
AcDbVertex
100
AcDb2dVertex
 10
3263.833752572033
 20
-1131.147428777491
 30
0.0
  0
SEQEND
  5
5BD
330
5BA
100
AcDbEntity
  8
Furniture
370
     9
  0
POLYLINE
  5
5BE
330
1F
100
AcDbEntity
  8
Furniture
370
     9
100
AcDb2dPolyline
 66
     1
 10
0.0
 20
0.0
 30
0.0
  0
VERTEX
  5
5BF
330
5BE
100
AcDbEntity
  8
Furniture
370
     9
100
AcDbVertex
100
AcDb2dVertex
 10
3263.833752572033
 20
-1131.147428777491
 30
0.0
  0
VERTEX
  5
5C0
330
5BE
100
AcDbEntity
  8
Furniture
370
     9
100
AcDbVertex
100
AcDb2dVertex
 10
3263.833752572033
 20
-1174.295705699075
 30
0.0
  0
SEQEND
  5
5C1
330
5BE
100
AcDbEntity
  8
Furniture
370
     9
  0
POLYLINE
  5
5C2
330
1F
100
AcDbEntity
  8
Furniture
370
     9
100
AcDb2dPolyline
 66
     1
 10
0.0
 20
0.0
 30
0.0
  0
VERTEX
  5
5C3
330
5C2
100
AcDbEntity
  8
Furniture
370
     9
100
AcDbVertex
100
AcDb2dVertex
 10
3227.570016069992
 20
-1174.295705699075
 30
0.0
  0
VERTEX
  5
5C4
330
5C2
100
AcDbEntity
  8
Furniture
370
     9
100
AcDbVertex
100
AcDb2dVertex
 10
3263.833752572033
 20
-1718.127986210914
 30
0.0
  0
SEQEND
  5
5C5
330
5C2
100
AcDbEntity
  8
Furniture
370
     9
  0
POLYLINE
  5
5C6
330
1F
100
AcDbEntity
  8
Furniture
370
     9
100
AcDb2dPolyline
 66
     1
 10
0.0
 20
0.0
 30
0.0
  0
VERTEX
  5
5C7
330
5C6
100
AcDbEntity
  8
Furniture
370
     9
100
AcDbVertex
100
AcDb2dVertex
 10
3263.833752572033
 20
-1718.127986210914
 30
0.0
  0
VERTEX
  5
5C8
330
5C6
100
AcDbEntity
  8
Furniture
370
     9
100
AcDbVertex
100
AcDb2dVertex
 10
3289.732001251393
 20
-1718.127986210914
 30
0.0
  0
SEQEND
  5
5C9
330
5C6
100
AcDbEntity
  8
Furniture
370
     9
  0
POLYLINE
  5
5CA
330
1F
100
AcDbEntity
  8
Furniture
370
     9
100
AcDb2dPolyline
 66
     1
 10
0.0
 20
0.0
 30
0.0
  0
VERTEX
  5
5CB
330
5CA
100
AcDbEntity
  8
Furniture
370
     9
100
AcDbVertex
100
AcDb2dVertex
 10
3289.732001251393
 20
-1718.127986210914
 30
0.0
  0
VERTEX
  5
5CC
330
5CA
100
AcDbEntity
  8
Furniture
370
     9
100
AcDbVertex
100
AcDb2dVertex
 10
3263.833752572033
 20
-1174.295705699075
 30
0.0
  0
SEQEND
  5
5CD
330
5CA
100
AcDbEntity
  8
Furniture
370
     9
  0
POLYLINE
  5
5CE
330
1F
100
AcDbEntity
  8
Furniture
370
     9
100
AcDb2dPolyline
 66
     1
 10
0.0
 20
0.0
 30
0.0
  0
VERTEX
  5
5CF
330
5CE
100
AcDbEntity
  8
Furniture
370
     9
100
AcDbVertex
100
AcDb2dVertex
 10
2925.361897968083
 20
-1640.440975611512
 30
0.0
  0
VERTEX
  5
5D0
330
5CE
100
AcDbEntity
  8
Furniture
370
     9
100
AcDbVertex
100
AcDb2dVertex
 10
3258.635537783344
 20
-1640.440975611512
 30
0.0
  0
SEQEND
  5
5D1
330
5CE
100
AcDbEntity
  8
Furniture
370
     9
  0
POLYLINE
  5
5D2
330
1F
100
AcDbEntity
  8
Furniture
370
     9
100
AcDb2dPolyline
 66
     1
 10
0.0
 20
0.0
 30
0.0
  0
VERTEX
  5
5D3
330
5D2
100
AcDbEntity
  8
Furniture
370
     9
100
AcDbVertex
100
AcDb2dVertex
 10
3256.933741275143
 20
-1614.565933248174
 30
0.0
  0
VERTEX
  5
5D4
330
5D2
100
AcDbEntity
  8
Furniture
370
     9
100
AcDbVertex
100
AcDb2dVertex
 10
2925.856966043196
 20
-1614.565933248174
 30
0.0
  0
SEQEND
  5
5D5
330
5D2
100
AcDbEntity
  8
Furniture
370
     9
  0
POLYLINE
  5
60F
330
1F
100
AcDbEntity
  8
Furniture
370
     9
100
AcDb2dPolyline
 66
     1
 10
0.0
 20
0.0
 30
0.0
  0
VERTEX
  5
610
330
60F
100
AcDbEntity
  8
Furniture
370
     9
100
AcDbVertex
100
AcDb2dVertex
 10
1882.96564616996
 20
-3112.559735859747
 30
0.0
  0
VERTEX
  5
611
330
60F
100
AcDbEntity
  8
Furniture
370
     9
100
AcDbVertex
100
AcDb2dVertex
 10
1560.266417405013
 20
-3112.559735859747
 30
0.0
  0
SEQEND
  5
612
330
60F
100
AcDbEntity
  8
Furniture
370
     9
  0
POLYLINE
  5
613
330
1F
100
AcDbEntity
  8
Furniture
370
     9
100
AcDb2dPolyline
 66
     1
 10
0.0
 20
0.0
 30
0.0
  0
VERTEX
  5
614
330
613
100
AcDbEntity
  8
Furniture
370
     9
100
AcDbVertex
100
AcDb2dVertex
 10
1560.748729923096
 20
-3085.678851518626
 30
0.0
  0
VERTEX
  5
615
330
613
100
AcDbEntity
  8
Furniture
370
     9
100
AcDbVertex
100
AcDb2dVertex
 10
1882.419025316133
 20
-3085.678851518626
 30
0.0
  0
SEQEND
  5
616
330
613
100
AcDbEntity
  8
Furniture
370
     9
  0
POLYLINE
  5
617
330
1F
100
AcDbEntity
  8
Furniture
370
     9
100
AcDb2dPolyline
 66
     1
 10
0.0
 20
0.0
 30
0.0
  0
VERTEX
  5
618
330
617
100
AcDbEntity
  8
Furniture
370
     9
100
AcDbVertex
100
AcDb2dVertex
 10
2899.334982179906
 20
-2510.280017446413
 30
0.0
  0
VERTEX
  5
619
330
617
100
AcDbEntity
  8
Furniture
370
     9
100
AcDbVertex
100
AcDb2dVertex
 10
2898.177432136508
 20
-2510.280017446413
 30
0.0
  0
VERTEX
  5
61A
330
617
100
AcDbEntity
  8
Furniture
370
     9
100
AcDbVertex
100
AcDb2dVertex
 10
2899.785140530116
 20
-2493.720620992253
 30
0.0
  0
VERTEX
  5
61B
330
617
100
AcDbEntity
  8
Furniture
370
     9
100
AcDbVertex
100
AcDb2dVertex
 10
3242.259182536437
 20
-2493.720620992253
 30
0.0
  0
SEQEND
  5
61C
330
617
100
AcDbEntity
  8
Furniture
370
     9
  0
POLYLINE
  5
61D
330
1F
100
AcDbEntity
  8
Furniture
370
     9
100
AcDb2dPolyline
 66
     1
 10
0.0
 20
0.0
 30
0.0
  0
VERTEX
  5
61E
330
61D
100
AcDbEntity
  8
Furniture
370
     9
100
AcDbVertex
100
AcDb2dVertex
 10
2897.823736289913
 20
-3193.298851386727
 30
0.0
  0
VERTEX
  5
61F
330
61D
100
AcDbEntity
  8
Furniture
370
     9
100
AcDbVertex
100
AcDb2dVertex
 10
2897.823736289913
 20
-2510.247863278541
 30
0.0
  0
SEQEND
  5
620
330
61D
100
AcDbEntity
  8
Furniture
370
     9
  0
POLYLINE
  5
621
330
1F
100
AcDbEntity
  8
Furniture
370
     9
100
AcDb2dPolyline
 66
     1
 10
0.0
 20
0.0
 30
0.0
  0
VERTEX
  5
622
330
621
100
AcDbEntity
  8
Furniture
370
     9
100
AcDbVertex
100
AcDb2dVertex
 10
2897.823736289913
 20
-2510.247863278541
 30
0.0
  0
VERTEX
  5
623
330
621
100
AcDbEntity
  8
Furniture
370
     9
100
AcDbVertex
100
AcDb2dVertex
 10
3240.49070330347
 20
-2510.247863278541
 30
0.0
  0
SEQEND
  5
624
330
621
100
AcDbEntity
  8
Furniture
370
     9
  0
POLYLINE
  5
625
330
1F
100
AcDbEntity
  8
Furniture
370
     9
100
AcDb2dPolyline
 66
     1
 10
0.0
 20
0.0
 30
0.0
  0
VERTEX
  5
626
330
625
100
AcDbEntity
  8
Furniture
370
     9
100
AcDbVertex
100
AcDb2dVertex
 10
2897.823736289913
 20
-3193.298851386727
 30
0.0
  0
VERTEX
  5
627
330
625
100
AcDbEntity
  8
Furniture
370
     9
100
AcDbVertex
100
AcDb2dVertex
 10
2924.736774798907
 20
-3193.298851386727
 30
0.0
  0
SEQEND
  5
628
330
625
100
AcDbEntity
  8
Furniture
370
     9
  0
POLYLINE
  5
629
330
1F
100
AcDbEntity
  8
Furniture
370
     9
100
AcDb2dPolyline
 66
     1
 10
0.0
 20
0.0
 30
0.0
  0
VERTEX
  5
62A
330
629
100
AcDbEntity
  8
Furniture
370
     9
100
AcDbVertex
100
AcDb2dVertex
 10
2936.4087377365
 20
-2555.070773292325
 30
0.0
  0
VERTEX
  5
62B
330
629
100
AcDbEntity
  8
Furniture
370
     9
100
AcDbVertex
100
AcDb2dVertex
 10
3240.49070330347
 20
-2555.070773292325
 30
0.0
  0
SEQEND
  5
62C
330
629
100
AcDbEntity
  8
Furniture
370
     9
  0
POLYLINE
  5
62D
330
1F
100
AcDbEntity
  8
Furniture
370
     9
100
AcDb2dPolyline
 66
     1
 10
0.0
 20
0.0
 30
0.0
  0
VERTEX
  5
62E
330
62D
100
AcDbEntity
  8
Furniture
370
     9
100
AcDbVertex
100
AcDb2dVertex
 10
2936.4087377365
 20
-2555.070773292325
 30
0.0
  0
VERTEX
  5
62F
330
62D
100
AcDbEntity
  8
Furniture
370
     9
100
AcDbVertex
100
AcDb2dVertex
 10
2924.736774798907
 20
-3192.060915923649
 30
0.0
  0
SEQEND
  5
630
330
62D
100
AcDbEntity
  8
Furniture
370
     9
  0
POLYLINE
  5
631
330
1F
100
AcDbEntity
  8
Furniture
370
     9
100
AcDb2dPolyline
 66
     1
 10
0.0
 20
0.0
 30
0.0
  0
VERTEX
  5
632
330
631
100
AcDbEntity
  8
Furniture
370
     9
100
AcDbVertex
100
AcDb2dVertex
 10
3280.876338150895
 20
-2268.062670865471
 30
0.0
  0
VERTEX
  5
633
330
631
100
AcDbEntity
  8
Furniture
370
     9
100
AcDbVertex
100
AcDb2dVertex
 10
3240.49070330347
 20
-2510.247863278541
 30
0.0
  0
SEQEND
  5
634
330
631
100
AcDbEntity
  8
Furniture
370
     9
  0
POLYLINE
  5
635
330
1F
100
AcDbEntity
  8
Furniture
370
     9
100
AcDb2dPolyline
 66
     1
 10
0.0
 20
0.0
 30
0.0
  0
VERTEX
  5
636
330
635
100
AcDbEntity
  8
Furniture
370
     9
100
AcDbVertex
100
AcDb2dVertex
 10
3207.563357002424
 20
-2268.062670865471
 30
0.0
  0
VERTEX
  5
637
330
635
100
AcDbEntity
  8
Furniture
370
     9
100
AcDbVertex
100
AcDb2dVertex
 10
3225.505382675088
 20
-2268.062670865471
 30
0.0
  0
SEQEND
  5
638
330
635
100
AcDbEntity
  8
Furniture
370
     9
  0
POLYLINE
  5
639
330
1F
100
AcDbEntity
  8
Furniture
370
     9
100
AcDb2dPolyline
 66
     1
 10
0.0
 20
0.0
 30
0.0
  0
VERTEX
  5
63A
330
639
100
AcDbEntity
  8
Furniture
370
     9
100
AcDbVertex
100
AcDb2dVertex
 10
3298.818363823558
 20
-2268.062670865471
 30
0.0
  0
VERTEX
  5
63B
330
639
100
AcDbEntity
  8
Furniture
370
     9
100
AcDbVertex
100
AcDb2dVertex
 10
3278.207542217505
 20
-2510.247863278541
 30
0.0
  0
SEQEND
  5
63C
330
639
100
AcDbEntity
  8
Furniture
370
     9
  0
POLYLINE
  5
63D
330
1F
100
AcDbEntity
  8
Furniture
370
     9
100
AcDb2dPolyline
 66
     1
 10
0.0
 20
0.0
 30
0.0
  0
VERTEX
  5
63E
330
63D
100
AcDbEntity
  8
Furniture
370
     9
100
AcDbVertex
100
AcDb2dVertex
 10
3278.207542217505
 20
-2510.247863278541
 30
0.0
  0
VERTEX
  5
63F
330
63D
100
AcDbEntity
  8
Furniture
370
     9
100
AcDbVertex
100
AcDb2dVertex
 10
3278.207542217505
 20
-2555.070773292325
 30
0.0
  0
SEQEND
  5
640
330
63D
100
AcDbEntity
  8
Furniture
370
     9
  0
POLYLINE
  5
641
330
1F
100
AcDbEntity
  8
Furniture
370
     9
100
AcDb2dPolyline
 66
     1
 10
0.0
 20
0.0
 30
0.0
  0
VERTEX
  5
642
330
641
100
AcDbEntity
  8
Furniture
370
     9
100
AcDbVertex
100
AcDb2dVertex
 10
3240.49070330347
 20
-2555.070773292325
 30
0.0
  0
VERTEX
  5
643
330
641
100
AcDbEntity
  8
Furniture
370
     9
100
AcDbVertex
100
AcDb2dVertex
 10
3278.207542217505
 20
-3190.115588767384
 30
0.0
  0
SEQEND
  5
644
330
641
100
AcDbEntity
  8
Furniture
370
     9
  0
POLYLINE
  5
645
330
1F
100
AcDbEntity
  8
Furniture
370
     9
100
AcDb2dPolyline
 66
     1
 10
0.0
 20
0.0
 30
0.0
  0
VERTEX
  5
646
330
645
100
AcDbEntity
  8
Furniture
370
     9
100
AcDbVertex
100
AcDb2dVertex
 10
3278.207542217505
 20
-3193.298851386727
 30
0.0
  0
VERTEX
  5
647
330
645
100
AcDbEntity
  8
Furniture
370
     9
100
AcDbVertex
100
AcDb2dVertex
 10
3305.088426558626
 20
-3193.298851386727
 30
0.0
  0
SEQEND
  5
648
330
645
100
AcDbEntity
  8
Furniture
370
     9
  0
POLYLINE
  5
649
330
1F
100
AcDbEntity
  8
Furniture
370
     9
100
AcDb2dPolyline
 66
     1
 10
0.0
 20
0.0
 30
0.0
  0
VERTEX
  5
64A
330
649
100
AcDbEntity
  8
Furniture
370
     9
100
AcDbVertex
100
AcDb2dVertex
 10
3305.088426558626
 20
-3193.298851386727
 30
0.0
  0
VERTEX
  5
64B
330
649
100
AcDbEntity
  8
Furniture
370
     9
100
AcDbVertex
100
AcDb2dVertex
 10
3278.207542217505
 20
-2555.070773292325
 30
0.0
  0
SEQEND
  5
64C
330
649
100
AcDbEntity
  8
Furniture
370
     9
  0
POLYLINE
  5
64D
330
1F
100
AcDbEntity
  8
Furniture
370
     9
100
AcDb2dPolyline
 66
     1
 10
0.0
 20
0.0
 30
0.0
  0
VERTEX
  5
64E
330
64D
100
AcDbEntity
  8
Furniture
370
     9
100
AcDbVertex
100
AcDb2dVertex
 10
2926.440945696132
 20
-3112.559735859747
 30
0.0
  0
VERTEX
  5
64F
330
64D
100
AcDbEntity
  8
Furniture
370
     9
100
AcDbVertex
100
AcDb2dVertex
 10
3272.773487847111
 20
-3112.559735859747
 30
0.0
  0
SEQEND
  5
650
330
64D
100
AcDbEntity
  8
Furniture
370
     9
  0
POLYLINE
  5
651
330
1F
100
AcDbEntity
  8
Furniture
370
     9
100
AcDb2dPolyline
 66
     1
 10
0.0
 20
0.0
 30
0.0
  0
VERTEX
  5
652
330
651
100
AcDbEntity
  8
Furniture
370
     9
100
AcDbVertex
100
AcDb2dVertex
 10
3271.005008614143
 20
-3085.678851518626
 30
0.0
  0
VERTEX
  5
653
330
651
100
AcDbEntity
  8
Furniture
370
     9
100
AcDbVertex
100
AcDb2dVertex
 10
2926.955412382085
 20
-3085.678851518626
 30
0.0
  0
SEQEND
  5
654
330
651
100
AcDbEntity
  8
Furniture
370
     9
  0
POLYLINE
  5
68D
330
1F
100
AcDbEntity
  8
Furniture
370
     9
100
AcDb2dPolyline
 66
     1
 10
0.0
 20
0.0
 30
0.0
  0
VERTEX
  5
68E
330
68D
100
AcDbEntity
  8
Furniture
370
     9
100
AcDbVertex
100
AcDb2dVertex
 10
103.691733093673
 20
-2858.643408668201
 30
0.0
  0
VERTEX
  5
68F
330
68D
100
AcDbEntity
  8
Furniture
370
     9
100
AcDbVertex
100
AcDb2dVertex
 10
103.691733093673
 20
-3244.220925763973
 30
0.0
  0
VERTEX
  5
690
330
68D
100
AcDbEntity
  8
Furniture
370
     9
100
AcDbVertex
100
AcDb2dVertex
 10
486.3764298128079
 20
-3244.220925763973
 30
0.0
  0
VERTEX
  5
691
330
68D
100
AcDbEntity
  8
Furniture
370
     9
100
AcDbVertex
100
AcDb2dVertex
 10
486.3764298128079
 20
-2858.643408668201
 30
0.0
  0
SEQEND
  5
692
330
68D
100
AcDbEntity
  8
Furniture
370
     9
  0
POLYLINE
  5
693
330
1F
100
AcDbEntity
  8
Furniture
370
     9
100
AcDb2dPolyline
 66
     1
 10
0.0
 20
0.0
 30
0.0
  0
VERTEX
  5
694
330
693
100
AcDbEntity
  8
Furniture
370
     9
100
AcDbVertex
100
AcDb2dVertex
 10
131.3177556078878
 20
-2894.445151449153
 30
0.0
  0
VERTEX
  5
695
330
693
100
AcDbEntity
  8
Furniture
370
     9
100
AcDbVertex
100
AcDb2dVertex
 10
131.3177556078878
 20
-2871.401488277988
 30
0.0
  0
SEQEND
  5
696
330
693
100
AcDbEntity
  8
Furniture
370
     9
  0
POLYLINE
  5
697
330
1F
100
AcDbEntity
  8
Furniture
370
     9
100
AcDb2dPolyline
 66
     1
 10
0.0
 20
0.0
 30
0.0
  0
VERTEX
  5
698
330
697
100
AcDbEntity
  8
Furniture
370
     9
100
AcDbVertex
100
AcDb2dVertex
 10
461.0086203561391
 20
-2894.445151449153
 30
0.0
  0
VERTEX
  5
699
330
697
100
AcDbEntity
  8
Furniture
370
     9
100
AcDbVertex
100
AcDb2dVertex
 10
461.0086203561391
 20
-2871.401488277988
 30
0.0
  0
SEQEND
  5
69A
330
697
100
AcDbEntity
  8
Furniture
370
     9
  0
POLYLINE
  5
69B
330
1F
100
AcDbEntity
  8
Furniture
370
     9
100
AcDb2dPolyline
 66
     1
 10
0.0
 20
0.0
 30
0.0
  0
VERTEX
  5
69C
330
69B
100
AcDbEntity
  8
Furniture
370
     9
100
AcDbVertex
100
AcDb2dVertex
 10
131.5237969452547
 20
-2870.28062340271
 30
0.0
  0
VERTEX
  5
69D
330
69B
100
AcDbEntity
  8
Furniture
370
     9
100
AcDbVertex
100
AcDb2dVertex
 10
460.9179621676977
 20
-2870.28062340271
 30
0.0
  0
SEQEND
  5
69E
330
69B
100
AcDbEntity
  8
Furniture
370
     9
  0
POLYLINE
  5
69F
330
1F
100
AcDbEntity
  8
Furniture
370
     9
100
AcDb2dPolyline
 66
     1
 10
0.0
 20
0.0
 30
0.0
  0
VERTEX
  5
6A0
330
69F
100
AcDbEntity
  8
Furniture
370
     9
100
AcDbVertex
100
AcDb2dVertex
 10
461.288836574959
 20
-2895.500083096473
 30
0.0
  0
VERTEX
  5
6A1
330
69F
100
AcDbEntity
  8
Furniture
370
     9
100
AcDbVertex
100
AcDb2dVertex
 10
486.2857716243657
 20
-2895.500083096473
 30
0.0
  0
SEQEND
  5
6A2
330
69F
100
AcDbEntity
  8
Furniture
370
     9
  0
POLYLINE
  5
6A3
330
1F
100
AcDbEntity
  8
Furniture
370
     9
100
AcDb2dPolyline
 66
     1
 10
0.0
 20
0.0
 30
0.0
  0
VERTEX
  5
6A4
330
6A3
100
AcDbEntity
  8
Furniture
370
     9
100
AcDbVertex
100
AcDb2dVertex
 10
104.5735900176052
 20
-2895.500083096473
 30
0.0
  0
VERTEX
  5
6A5
330
6A3
100
AcDbEntity
  8
Furniture
370
     9
100
AcDbVertex
100
AcDb2dVertex
 10
130.4688652979339
 20
-2895.500083096473
 30
0.0
  0
SEQEND
  5
6A6
330
6A3
100
AcDbEntity
  8
Furniture
370
     9
  0
SPLINE
  5
6A7
330
1F
100
AcDbEntity
  8
Furniture
370
     9
100
AcDbSpline
210
0.0
220
0.0
230
1.0
 70
     8
 71
     3
 72
     8
 73
     4
 74
     0
 42
0.000000001
 43
0.0000000001
 40
0.0
 40
0.0
 40
0.0
 40
0.0
 40
1.0
 40
1.0
 40
1.0
 40
1.0
 10
106.2136790630491
 20
-2858.907141580031
 30
0.0
 10
106.2136790630491
 20
-2858.907141580031
 30
0.0
 10
258.6677854079024
 20
-2825.198778786733
 30
0.0
 10
485.9066555636102
 20
-2857.62144363486
 30
0.0
  0
SPLINE
  5
6A8
330
1F
100
AcDbEntity
  8
Furniture
370
     9
100
AcDbSpline
210
0.0
220
0.0
230
1.0
 70
     8
 71
     3
 72
    20
 73
    16
 74
     0
 42
0.000000001
 43
0.0000000001
 40
0.0
 40
0.0
 40
0.0
 40
0.0
 40
1.0
 40
1.0
 40
1.0
 40
2.0
 40
2.0
 40
2.0
 40
3.0
 40
3.0
 40
3.0
 40
4.0
 40
4.0
 40
4.0
 40
5.0
 40
5.0
 40
5.0
 40
5.0
 10
486.0385220195255
 20
-2858.511542212285
 30
0.0
 10
486.0385220195255
 20
-2858.511542212285
 30
0.0
 10
486.0385220195255
 20
-2842.704050809464
 30
0.0
 10
486.0385220195255
 20
-2842.704050809464
 30
0.0
 10
486.0385220195255
 20
-2842.704050809464
 30
0.0
 10
485.9066555636102
 20
-2840.759020584714
 30
0.0
 10
485.9066555636102
 20
-2840.759020584714
 30
0.0
 10
258.6677854079024
 20
-2808.352839043577
 30
0.0
 10
106.2136790630491
 20
-2842.061201836877
 30
0.0
 10
106.2136790630491
 20
-2842.061201836877
 30
0.0
 10
106.2136790630491
 20
-2842.061201836877
 30
0.0
 10
103.691733093673
 20
-2842.704050809464
 30
0.0
 10
103.691733093673
 20
-2842.704050809464
 30
0.0
 10
103.691733093673
 20
-2842.704050809464
 30
0.0
 10
103.691733093673
 20
-2860.934588339727
 30
0.0
 10
103.691733093673
 20
-2860.934588339727
 30
0.0
  0
POLYLINE
  5
6A9
330
1F
100
AcDbEntity
  8
Furniture
370
     9
100
AcDb2dPolyline
 66
     1
 10
0.0
 20
0.0
 30
0.0
  0
VERTEX
  5
6AA
330
6A9
100
AcDbEntity
  8
Furniture
370
     9
100
AcDbVertex
100
AcDb2dVertex
 10
1559.376253466708
 20
-899.1616229549201
 30
0.0
  0
VERTEX
  5
6AB
330
6A9
100
AcDbEntity
  8
Furniture
370
     9
100
AcDbVertex
100
AcDb2dVertex
 10
1559.376253466708
 20
-1131.588348781889
 30
0.0
  0
SEQEND
  5
6AC
330
6A9
100
AcDbEntity
  8
Furniture
370
     9
  0
POLYLINE
  5
6AD
330
1F
100
AcDbEntity
  8
Furniture
370
     9
100
AcDb2dPolyline
 66
     1
 10
0.0
 20
0.0
 30
0.0
  0
VERTEX
  5
6AE
330
6AD
100
AcDbEntity
  8
Furniture
370
     9
100
AcDbVertex
100
AcDb2dVertex
 10
1535.017357083403
 20
-898.0709261019359
 30
0.0
  0
VERTEX
  5
6AF
330
6AD
100
AcDbEntity
  8
Furniture
370
     9
100
AcDbVertex
100
AcDb2dVertex
 10
1547.471413347971
 20
-898.6124068090914
 30
0.0
  0
VERTEX
  5
6B0
330
6AD
100
AcDbEntity
  8
Furniture
370
     9
100
AcDbVertex
100
AcDb2dVertex
 10
1559.376253466708
 20
-899.1616229549201
 30
0.0
  0
SEQEND
  5
6B1
330
6AD
100
AcDbEntity
  8
Furniture
370
     9
  0
POLYLINE
  5
6B2
330
1F
100
AcDbEntity
  8
Furniture
370
     9
100
AcDb2dPolyline
 66
     1
 10
0.0
 20
0.0
 30
0.0
  0
VERTEX
  5
6B3
330
6B2
100
AcDbEntity
  8
Furniture
370
     9
100
AcDbVertex
100
AcDb2dVertex
 10
1535.017357083403
 20
-1131.588348781889
 30
0.0
  0
VERTEX
  5
6B4
330
6B2
100
AcDbEntity
  8
Furniture
370
     9
100
AcDbVertex
100
AcDb2dVertex
 10
1535.017357083403
 20
-898.0709261019359
 30
0.0
  0
SEQEND
  5
6B5
330
6B2
100
AcDbEntity
  8
Furniture
370
     9
  0
POLYLINE
  5
6B6
330
1F
100
AcDbEntity
  8
Furniture
370
     9
100
AcDb2dPolyline
 66
     1
 10
0.0
 20
0.0
 30
0.0
  0
VERTEX
  5
6B7
330
6B6
100
AcDbEntity
  8
Furniture
370
     9
100
AcDbVertex
100
AcDb2dVertex
 10
1557.829165731979
 20
-1718.127986210914
 30
0.0
  0
VERTEX
  5
6B8
330
6B6
100
AcDbEntity
  8
Furniture
370
     9
100
AcDbVertex
100
AcDb2dVertex
 10
1535.017357083403
 20
-1718.127986210914
 30
0.0
  0
SEQEND
  5
6B9
330
6B6
100
AcDbEntity
  8
Furniture
370
     9
  0
POLYLINE
  5
6BA
330
1F
100
AcDbEntity
  8
Furniture
370
     9
100
AcDb2dPolyline
 66
     1
 10
0.0
 20
0.0
 30
0.0
  0
VERTEX
  5
6BB
330
6BA
100
AcDbEntity
  8
Furniture
370
     9
100
AcDbVertex
100
AcDb2dVertex
 10
1557.829165731979
 20
-1718.127986210914
 30
0.0
  0
VERTEX
  5
6BC
330
6BA
100
AcDbEntity
  8
Furniture
370
     9
100
AcDbVertex
100
AcDb2dVertex
 10
1568.194653554661
 20
-1170.559488819705
 30
0.0
  0
SEQEND
  5
6BD
330
6BA
100
AcDbEntity
  8
Furniture
370
     9
  0
POLYLINE
  5
6BE
330
1F
100
AcDbEntity
  8
Furniture
370
     9
100
AcDb2dPolyline
 66
     1
 10
0.0
 20
0.0
 30
0.0
  0
VERTEX
  5
6BF
330
6BE
100
AcDbEntity
  8
Furniture
370
     9
100
AcDbVertex
100
AcDb2dVertex
 10
1535.017357083403
 20
-1718.127986210914
 30
0.0
  0
VERTEX
  5
6C0
330
6BE
100
AcDbEntity
  8
Furniture
370
     9
100
AcDbVertex
100
AcDb2dVertex
 10
1535.017357083403
 20
-1134.342164949706
 30
0.0
  0
SEQEND
  5
6C1
330
6BE
100
AcDbEntity
  8
Furniture
370
     9
  0
POLYLINE
  5
6C2
330
1F
100
AcDbEntity
  8
Furniture
370
     9
100
AcDb2dPolyline
 66
     1
 10
0.0
 20
0.0
 30
0.0
  0
VERTEX
  5
6C3
330
6C2
100
AcDbEntity
  8
Furniture
370
     9
100
AcDbVertex
100
AcDb2dVertex
 10
1568.194653554661
 20
-1170.559488819705
 30
0.0
  0
VERTEX
  5
6C4
330
6C2
100
AcDbEntity
  8
Furniture
370
     9
100
AcDbVertex
100
AcDb2dVertex
 10
1568.194653554661
 20
-1134.342164949706
 30
0.0
  0
VERTEX
  5
6C5
330
6C2
100
AcDbEntity
  8
Furniture
370
     9
100
AcDbVertex
100
AcDb2dVertex
 10
1535.017357083403
 20
-1134.342164949706
 30
0.0
  0
SEQEND
  5
6C6
330
6C2
100
AcDbEntity
  8
Furniture
370
     9
  0
POLYLINE
  5
6C7
330
1F
100
AcDbEntity
  8
Furniture
370
     9
100
AcDb2dPolyline
 66
     1
 10
0.0
 20
0.0
 30
0.0
  0
VERTEX
  5
6C8
330
6C7
100
AcDbEntity
  8
Furniture
370
     9
100
AcDbVertex
100
AcDb2dVertex
 10
1894.196981016697
 20
-1718.127986210914
 30
0.0
  0
VERTEX
  5
6C9
330
6C7
100
AcDbEntity
  8
Furniture
370
     9
100
AcDbVertex
100
AcDb2dVertex
 10
1894.196981016697
 20
-1134.342164949706
 30
0.0
  0
SEQEND
  5
6CA
330
6C7
100
AcDbEntity
  8
Furniture
370
     9
  0
POLYLINE
  5
6CB
330
1F
100
AcDbEntity
  8
Furniture
370
     9
100
AcDb2dPolyline
 66
     1
 10
0.0
 20
0.0
 30
0.0
  0
VERTEX
  5
6CC
330
6CB
100
AcDbEntity
  8
Furniture
370
     9
100
AcDbVertex
100
AcDb2dVertex
 10
1871.392907806795
 20
-1718.127986210914
 30
0.0
  0
VERTEX
  5
6CD
330
6CB
100
AcDbEntity
  8
Furniture
370
     9
100
AcDbVertex
100
AcDb2dVertex
 10
1860.501410154305
 20
-1170.559488819705
 30
0.0
  0
SEQEND
  5
6CE
330
6CB
100
AcDbEntity
  8
Furniture
370
     9
  0
POLYLINE
  5
6CF
330
1F
100
AcDbEntity
  8
Furniture
370
     9
100
AcDb2dPolyline
 66
     1
 10
0.0
 20
0.0
 30
0.0
  0
VERTEX
  5
6D0
330
6CF
100
AcDbEntity
  8
Furniture
370
     9
100
AcDbVertex
100
AcDb2dVertex
 10
1894.196981016697
 20
-1134.342164949706
 30
0.0
  0
VERTEX
  5
6D1
330
6CF
100
AcDbEntity
  8
Furniture
370
     9
100
AcDbVertex
100
AcDb2dVertex
 10
1860.501410154305
 20
-1134.883645656861
 30
0.0
  0
VERTEX
  5
6D2
330
6CF
100
AcDbEntity
  8
Furniture
370
     9
100
AcDbVertex
100
AcDb2dVertex
 10
1860.501410154305
 20
-1170.559488819705
 30
0.0
  0
SEQEND
  5
6D3
330
6CF
100
AcDbEntity
  8
Furniture
370
     9
  0
POLYLINE
  5
6D4
330
1F
100
AcDbEntity
  8
Furniture
370
     9
100
AcDb2dPolyline
 66
     1
 10
0.0
 20
0.0
 30
0.0
  0
VERTEX
  5
6D5
330
6D4
100
AcDbEntity
  8
Furniture
370
     9
100
AcDbVertex
100
AcDb2dVertex
 10
1869.845820072067
 20
-899.1616229549201
 30
0.0
  0
VERTEX
  5
6D6
330
6D4
100
AcDbEntity
  8
Furniture
370
     9
100
AcDbVertex
100
AcDb2dVertex
 10
1869.845820072067
 20
-1131.588348781889
 30
0.0
  0
SEQEND
  5
6D7
330
6D4
100
AcDbEntity
  8
Furniture
370
     9
  0
POLYLINE
  5
6D8
330
1F
100
AcDbEntity
  8
Furniture
370
     9
100
AcDb2dPolyline
 66
     1
 10
0.0
 20
0.0
 30
0.0
  0
VERTEX
  5
6D9
330
6D8
100
AcDbEntity
  8
Furniture
370
     9
100
AcDbVertex
100
AcDb2dVertex
 10
1894.196981016697
 20
-1131.588348781889
 30
0.0
  0
VERTEX
  5
6DA
330
6D8
100
AcDbEntity
  8
Furniture
370
     9
100
AcDbVertex
100
AcDb2dVertex
 10
1894.196981016697
 20
-898.0709261019359
 30
0.0
  0
SEQEND
  5
6DB
330
6D8
100
AcDbEntity
  8
Furniture
370
     9
  0
POLYLINE
  5
6DC
330
1F
100
AcDbEntity
  8
Furniture
370
     9
100
AcDb2dPolyline
 66
     1
 10
0.0
 20
0.0
 30
0.0
  0
VERTEX
  5
6DD
330
6DC
100
AcDbEntity
  8
Furniture
370
     9
100
AcDbVertex
100
AcDb2dVertex
 10
1894.196981016697
 20
-898.0709261019359
 30
0.0
  0
VERTEX
  5
6DE
330
6DC
100
AcDbEntity
  8
Furniture
370
     9
100
AcDbVertex
100
AcDb2dVertex
 10
1881.758395629478
 20
-898.6124068090914
 30
0.0
  0
VERTEX
  5
6DF
330
6DC
100
AcDbEntity
  8
Furniture
370
     9
100
AcDbVertex
100
AcDb2dVertex
 10
1869.845820072067
 20
-899.1616229549201
 30
0.0
  0
SEQEND
  5
6E0
330
6DC
100
AcDbEntity
  8
Furniture
370
     9
  0
POLYLINE
  5
6E1
330
1F
100
AcDbEntity
  8
Furniture
370
     9
100
AcDb2dPolyline
 66
     1
 10
0.0
 20
0.0
 30
0.0
  0
VERTEX
  5
6E2
330
6E1
100
AcDbEntity
  8
Furniture
370
     9
100
AcDbVertex
100
AcDb2dVertex
 10
1568.194653554661
 20
-1173.854785694677
 30
0.0
  0
VERTEX
  5
6E3
330
6E1
100
AcDbEntity
  8
Furniture
370
     9
100
AcDbVertex
100
AcDb2dVertex
 10
1860.501410154305
 20
-1173.854785694677
 30
0.0
  0
SEQEND
  5
6E4
330
6E1
100
AcDbEntity
  8
Furniture
370
     9
  0
INSERT
  5
6E5
330
1F
100
AcDbEntity
  8
Furniture
100
AcDbBlockReference
  2
block 18
 10
-4487.586337371311
 20
3005.718761255062
 30
0.0
 41
44.90696241519485
 42
44.90696241519485
 43
44.90696241519485
  0
POLYLINE
  5
6E6
330
1F
100
AcDbEntity
  8
Furniture
370
     9
100
AcDb2dPolyline
 66
     1
 10
0.0
 20
0.0
 30
0.0
  0
VERTEX
  5
6E7
330
6E6
100
AcDbEntity
  8
Furniture
370
     9
100
AcDbVertex
100
AcDb2dVertex
 10
1535.017357083403
 20
-1131.588348781889
 30
0.0
  0
VERTEX
  5
6E8
330
6E6
100
AcDbEntity
  8
Furniture
370
     9
100
AcDbVertex
100
AcDb2dVertex
 10
1535.017357083403
 20
-1134.342164949706
 30
0.0
  0
VERTEX
  5
6E9
330
6E6
100
AcDbEntity
  8
Furniture
370
     9
100
AcDbVertex
100
AcDb2dVertex
 10
1894.196981016697
 20
-1134.342164949706
 30
0.0
  0
VERTEX
  5
6EA
330
6E6
100
AcDbEntity
  8
Furniture
370
     9
100
AcDbVertex
100
AcDb2dVertex
 10
1894.196981016697
 20
-1131.588348781889
 30
0.0
  0
SEQEND
  5
6EB
330
6E6
100
AcDbEntity
  8
Furniture
370
     9
  0
POLYLINE
  5
6EC
330
1F
100
AcDbEntity
  8
Furniture
370
     9
100
AcDb2dPolyline
 66
     1
 10
0.0
 20
0.0
 30
0.0
  0
VERTEX
  5
6ED
330
6EC
100
AcDbEntity
  8
Furniture
370
     9
100
AcDbVertex
100
AcDb2dVertex
 10
1559.376253466708
 20
-899.1616229549201
 30
0.0
  0
VERTEX
  5
6EE
330
6EC
100
AcDbEntity
  8
Furniture
370
     9
100
AcDbVertex
100
AcDb2dVertex
 10
1573.39286834335
 20
-899.7031036620748
 30
0.0
  0
VERTEX
  5
6EF
330
6EC
100
AcDbEntity
  8
Furniture
370
     9
100
AcDbVertex
100
AcDb2dVertex
 10
1587.378541465298
 20
-900.2600552465773
 30
0.0
  0
VERTEX
  5
6F0
330
6EC
100
AcDbEntity
  8
Furniture
370
     9
100
AcDbVertex
100
AcDb2dVertex
 10
1601.364214587245
 20
-900.2600552465773
 30
0.0
  0
VERTEX
  5
6F1
330
6EC
100
AcDbEntity
  8
Furniture
370
     9
100
AcDbVertex
100
AcDb2dVertex
 10
1615.349887709193
 20
-900.7938005150583
 30
0.0
  0
VERTEX
  5
6F2
330
6EC
100
AcDbEntity
  8
Furniture
370
     9
100
AcDbVertex
100
AcDb2dVertex
 10
1629.33556083114
 20
-901.3507520995608
 30
0.0
  0
VERTEX
  5
6F3
330
6EC
100
AcDbEntity
  8
Furniture
370
     9
100
AcDbVertex
100
AcDb2dVertex
 10
1643.352175707782
 20
-901.3507520995608
 30
0.0
  0
VERTEX
  5
6F4
330
6EC
100
AcDbEntity
  8
Furniture
370
     9
100
AcDbVertex
100
AcDb2dVertex
 10
1657.863858659538
 20
-901.8999682453893
 30
0.0
  0
VERTEX
  5
6F5
330
6EC
100
AcDbEntity
  8
Furniture
370
     9
100
AcDbVertex
100
AcDb2dVertex
 10
1671.849531781486
 20
-901.8999682453893
 30
0.0
  0
VERTEX
  5
6F6
330
6EC
100
AcDbEntity
  8
Furniture
370
     9
100
AcDbVertex
100
AcDb2dVertex
 10
1686.361214733242
 20
-901.8999682453893
 30
0.0
  0
VERTEX
  5
6F7
330
6EC
100
AcDbEntity
  8
Furniture
370
     9
100
AcDbVertex
100
AcDb2dVertex
 10
1700.346887855189
 20
-901.8999682453893
 30
0.0
  0
VERTEX
  5
6F8
330
6EC
100
AcDbEntity
  8
Furniture
370
     9
100
AcDbVertex
100
AcDb2dVertex
 10
1714.363502731831
 20
-901.8999682453893
 30
0.0
  0
VERTEX
  5
6F9
330
6EC
100
AcDbEntity
  8
Furniture
370
     9
100
AcDbVertex
100
AcDb2dVertex
 10
1728.875185683586
 20
-901.8999682453893
 30
0.0
  0
VERTEX
  5
6FA
330
6EC
100
AcDbEntity
  8
Furniture
370
     9
100
AcDbVertex
100
AcDb2dVertex
 10
1742.860858805533
 20
-901.8999682453893
 30
0.0
  0
VERTEX
  5
6FB
330
6EC
100
AcDbEntity
  8
Furniture
370
     9
100
AcDbVertex
100
AcDb2dVertex
 10
1757.372541757289
 20
-901.8999682453893
 30
0.0
  0
VERTEX
  5
6FC
330
6EC
100
AcDbEntity
  8
Furniture
370
     9
100
AcDbVertex
100
AcDb2dVertex
 10
1771.358214879237
 20
-901.8999682453893
 30
0.0
  0
VERTEX
  5
6FD
330
6EC
100
AcDbEntity
  8
Furniture
370
     9
100
AcDbVertex
100
AcDb2dVertex
 10
1785.343888001184
 20
-901.3507520995608
 30
0.0
  0
VERTEX
  5
6FE
330
6EC
100
AcDbEntity
  8
Furniture
370
     9
100
AcDbVertex
100
AcDb2dVertex
 10
1799.85557095294
 20
-901.3507520995608
 30
0.0
  0
VERTEX
  5
6FF
330
6EC
100
AcDbEntity
  8
Furniture
370
     9
100
AcDbVertex
100
AcDb2dVertex
 10
1813.841244074887
 20
-900.7938005150583
 30
0.0
  0
VERTEX
  5
700
330
6EC
100
AcDbEntity
  8
Furniture
370
     9
100
AcDbVertex
100
AcDb2dVertex
 10
1827.85785895153
 20
-900.2600552465773
 30
0.0
  0
VERTEX
  5
701
330
6EC
100
AcDbEntity
  8
Furniture
370
     9
100
AcDbVertex
100
AcDb2dVertex
 10
1841.843532073477
 20
-900.2600552465773
 30
0.0
  0
VERTEX
  5
702
330
6EC
100
AcDbEntity
  8
Furniture
370
     9
100
AcDbVertex
100
AcDb2dVertex
 10
1855.829205195425
 20
-899.7031036620748
 30
0.0
  0
VERTEX
  5
703
330
6EC
100
AcDbEntity
  8
Furniture
370
     9
100
AcDbVertex
100
AcDb2dVertex
 10
1869.845820072067
 20
-899.1616229549201
 30
0.0
  0
SEQEND
  5
704
330
6EC
100
AcDbEntity
  8
Furniture
370
     9
  0
POLYLINE
  5
705
330
1F
100
AcDbEntity
  8
Furniture
370
     9
100
AcDb2dPolyline
 66
     1
 10
0.0
 20
0.0
 30
0.0
  0
VERTEX
  5
706
330
705
100
AcDbEntity
  8
Furniture
370
     9
100
AcDbVertex
100
AcDb2dVertex
 10
1869.845820072067
 20
-973.7931352782332
 30
0.0
  0
VERTEX
  5
707
330
705
100
AcDbEntity
  8
Furniture
370
     9
100
AcDbVertex
100
AcDb2dVertex
 10
1855.334137120312
 20
-974.3578223014095
 30
0.0
  0
VERTEX
  5
708
330
705
100
AcDbEntity
  8
Furniture
370
     9
100
AcDbVertex
100
AcDb2dVertex
 10
1840.296444338748
 20
-974.8993030085642
 30
0.0
  0
VERTEX
  5
709
330
705
100
AcDbEntity
  8
Furniture
370
     9
100
AcDbVertex
100
AcDb2dVertex
 10
1825.784761386993
 20
-975.4562545930667
 30
0.0
  0
VERTEX
  5
70A
330
705
100
AcDbEntity
  8
Furniture
370
     9
100
AcDbVertex
100
AcDb2dVertex
 10
1811.273078435238
 20
-975.9977353002215
 30
0.0
  0
VERTEX
  5
70B
330
705
100
AcDbEntity
  8
Furniture
370
     9
100
AcDbVertex
100
AcDb2dVertex
 10
1796.235385653674
 20
-975.9977353002215
 30
0.0
  0
VERTEX
  5
70C
330
705
100
AcDbEntity
  8
Furniture
370
     9
100
AcDbVertex
100
AcDb2dVertex
 10
1781.723702701919
 20
-976.5546868847239
 30
0.0
  0
VERTEX
  5
70D
330
705
100
AcDbEntity
  8
Furniture
370
     9
100
AcDbVertex
100
AcDb2dVertex
 10
1766.686009920355
 20
-976.5546868847239
 30
0.0
  0
VERTEX
  5
70E
330
705
100
AcDbEntity
  8
Furniture
370
     9
100
AcDbVertex
100
AcDb2dVertex
 10
1751.679258893488
 20
-976.5546868847239
 30
0.0
  0
VERTEX
  5
70F
330
705
100
AcDbEntity
  8
Furniture
370
     9
100
AcDbVertex
100
AcDb2dVertex
 10
1736.641566111924
 20
-977.1116384692264
 30
0.0
  0
VERTEX
  5
710
330
705
100
AcDbEntity
  8
Furniture
370
     9
100
AcDbVertex
100
AcDb2dVertex
 10
1722.129883160169
 20
-977.1116384692264
 30
0.0
  0
VERTEX
  5
711
330
705
100
AcDbEntity
  8
Furniture
370
     9
100
AcDbVertex
100
AcDb2dVertex
 10
1707.092190378605
 20
-977.1116384692264
 30
0.0
  0
VERTEX
  5
712
330
705
100
AcDbEntity
  8
Furniture
370
     9
100
AcDbVertex
100
AcDb2dVertex
 10
1692.054497597042
 20
-977.1116384692264
 30
0.0
  0
VERTEX
  5
713
330
705
100
AcDbEntity
  8
Furniture
370
     9
100
AcDbVertex
100
AcDb2dVertex
 10
1677.542814645287
 20
-976.5546868847239
 30
0.0
  0
VERTEX
  5
714
330
705
100
AcDbEntity
  8
Furniture
370
     9
100
AcDbVertex
100
AcDb2dVertex
 10
1662.505121863725
 20
-976.5546868847239
 30
0.0
  0
VERTEX
  5
715
330
705
100
AcDbEntity
  8
Furniture
370
     9
100
AcDbVertex
100
AcDb2dVertex
 10
1647.498370836856
 20
-976.5546868847239
 30
0.0
  0
VERTEX
  5
716
330
705
100
AcDbEntity
  8
Furniture
370
     9
100
AcDbVertex
100
AcDb2dVertex
 10
1632.986687885101
 20
-975.9977353002215
 30
0.0
  0
VERTEX
  5
717
330
705
100
AcDbEntity
  8
Furniture
370
     9
100
AcDbVertex
100
AcDb2dVertex
 10
1617.948995103537
 20
-975.9977353002215
 30
0.0
  0
VERTEX
  5
718
330
705
100
AcDbEntity
  8
Furniture
370
     9
100
AcDbVertex
100
AcDb2dVertex
 10
1603.437312151782
 20
-975.4562545930667
 30
0.0
  0
VERTEX
  5
719
330
705
100
AcDbEntity
  8
Furniture
370
     9
100
AcDbVertex
100
AcDb2dVertex
 10
1588.399619370218
 20
-974.8993030085642
 30
0.0
  0
VERTEX
  5
71A
330
705
100
AcDbEntity
  8
Furniture
370
     9
100
AcDbVertex
100
AcDb2dVertex
 10
1573.887936418463
 20
-974.3578223014095
 30
0.0
  0
VERTEX
  5
71B
330
705
100
AcDbEntity
  8
Furniture
370
     9
100
AcDbVertex
100
AcDb2dVertex
 10
1559.376253466708
 20
-973.7931352782332
 30
0.0
  0
SEQEND
  5
71C
330
705
100
AcDbEntity
  8
Furniture
370
     9
  0
POLYLINE
  5
71D
330
1F
100
AcDbEntity
  8
Furniture
370
     9
100
AcDb2dPolyline
 66
     1
 10
0.0
 20
0.0
 30
0.0
  0
VERTEX
  5
71E
330
71D
100
AcDbEntity
  8
Furniture
370
     9
100
AcDbVertex
100
AcDb2dVertex
 10
1869.845820072067
 20
-971.0625254264369
 30
0.0
  0
VERTEX
  5
71F
330
71D
100
AcDbEntity
  8
Furniture
370
     9
100
AcDbVertex
100
AcDb2dVertex
 10
1869.845820072067
 20
-899.1616229549201
 30
0.0
  0
SEQEND
  5
720
330
71D
100
AcDbEntity
  8
Furniture
370
     9
  0
POLYLINE
  5
721
330
1F
100
AcDbEntity
  8
Furniture
370
     9
100
AcDb2dPolyline
 66
     1
 10
0.0
 20
0.0
 30
0.0
  0
VERTEX
  5
722
330
721
100
AcDbEntity
  8
Furniture
370
     9
100
AcDbVertex
100
AcDb2dVertex
 10
1559.376253466708
 20
-971.0625254264369
 30
0.0
  0
VERTEX
  5
723
330
721
100
AcDbEntity
  8
Furniture
370
     9
100
AcDbVertex
100
AcDb2dVertex
 10
1559.376253466708
 20
-899.1616229549201
 30
0.0
  0
SEQEND
  5
724
330
721
100
AcDbEntity
  8
Furniture
370
     9
  0
POLYLINE
  5
725
330
1F
100
AcDbEntity
  8
Furniture
370
     9
100
AcDb2dPolyline
 66
     1
 10
0.0
 20
0.0
 30
0.0
  0
VERTEX
  5
726
330
725
100
AcDbEntity
  8
Furniture
370
     9
100
AcDbVertex
100
AcDb2dVertex
 10
1560.330725740758
 20
-2269.188066740996
 30
0.0
  0
VERTEX
  5
727
330
725
100
AcDbEntity
  8
Furniture
370
     9
100
AcDbVertex
100
AcDb2dVertex
 10
1560.330725740758
 20
-2488.286566621859
 30
0.0
  0
SEQEND
  5
728
330
725
100
AcDbEntity
  8
Furniture
370
     9
  0
POLYLINE
  5
729
330
1F
100
AcDbEntity
  8
Furniture
370
     9
100
AcDb2dPolyline
 66
     1
 10
0.0
 20
0.0
 30
0.0
  0
VERTEX
  5
72A
330
729
100
AcDbEntity
  8
Furniture
370
     9
100
AcDbVertex
100
AcDb2dVertex
 10
1535.017357083403
 20
-2268.062670865471
 30
0.0
  0
VERTEX
  5
72B
330
729
100
AcDbEntity
  8
Furniture
370
     9
100
AcDbVertex
100
AcDb2dVertex
 10
1547.959409651947
 20
-2268.609291719297
 30
0.0
  0
VERTEX
  5
72C
330
729
100
AcDbEntity
  8
Furniture
370
     9
100
AcDbVertex
100
AcDb2dVertex
 10
1560.330725740758
 20
-2269.188066740996
 30
0.0
  0
SEQEND
  5
72D
330
729
100
AcDbEntity
  8
Furniture
370
     9
  0
POLYLINE
  5
72E
330
1F
100
AcDbEntity
  8
Furniture
370
     9
100
AcDb2dPolyline
 66
     1
 10
0.0
 20
0.0
 30
0.0
  0
VERTEX
  5
72F
330
72E
100
AcDbEntity
  8
Furniture
370
     9
100
AcDbVertex
100
AcDb2dVertex
 10
1535.017357083403
 20
-2488.286566621859
 30
0.0
  0
VERTEX
  5
730
330
72E
100
AcDbEntity
  8
Furniture
370
     9
100
AcDbVertex
100
AcDb2dVertex
 10
1535.017357083403
 20
-2268.062670865471
 30
0.0
  0
SEQEND
  5
731
330
72E
100
AcDbEntity
  8
Furniture
370
     9
  0
POLYLINE
  5
732
330
1F
100
AcDbEntity
  8
Furniture
 62
   250
370
     9
100
AcDb2dPolyline
 66
     1
 10
0.0
 20
0.0
 30
0.0
  0
VERTEX
  5
733
330
732
100
AcDbEntity
  8
Furniture
 62
   250
370
     9
100
AcDbVertex
100
AcDb2dVertex
 10
1558.72301734715
 20
-3193.298851386727
 30
0.0
  0
VERTEX
  5
734
330
732
100
AcDbEntity
  8
Furniture
 62
   250
370
     9
100
AcDbVertex
100
AcDb2dVertex
 10
1535.017357083403
 20
-3193.298851386727
 30
0.0
  0
SEQEND
  5
735
330
732
100
AcDbEntity
  8
Furniture
370
     9
  0
POLYLINE
  5
736
330
1F
100
AcDbEntity
  8
Furniture
370
     9
100
AcDb2dPolyline
 66
     1
 10
0.0
 20
0.0
 30
0.0
  0
VERTEX
  5
737
330
736
100
AcDbEntity
  8
Furniture
370
     9
100
AcDbVertex
100
AcDb2dVertex
 10
1558.72301734715
 20
-3193.298851386727
 30
0.0
  0
VERTEX
  5
738
330
736
100
AcDbEntity
  8
Furniture
370
     9
100
AcDbVertex
100
AcDb2dVertex
 10
1569.494663584322
 20
-2528.768663972902
 30
0.0
  0
SEQEND
  5
739
330
736
100
AcDbEntity
  8
Furniture
370
     9
  0
POLYLINE
  5
73A
330
1F
100
AcDbEntity
  8
Furniture
370
     9
100
AcDb2dPolyline
 66
     1
 10
0.0
 20
0.0
 30
0.0
  0
VERTEX
  5
73B
330
73A
100
AcDbEntity
  8
Furniture
370
     9
100
AcDbVertex
100
AcDb2dVertex
 10
1535.017357083403
 20
-3193.298851386727
 30
0.0
  0
VERTEX
  5
73C
330
73A
100
AcDbEntity
  8
Furniture
370
     9
100
AcDbVertex
100
AcDb2dVertex
 10
1535.017357083403
 20
-2491.148287562481
 30
0.0
  0
SEQEND
  5
73D
330
73A
100
AcDbEntity
  8
Furniture
370
     9
  0
POLYLINE
  5
73E
330
1F
100
AcDbEntity
  8
Furniture
370
     9
100
AcDb2dPolyline
 66
     1
 10
0.0
 20
0.0
 30
0.0
  0
VERTEX
  5
73F
330
73E
100
AcDbEntity
  8
Furniture
370
     9
100
AcDbVertex
100
AcDb2dVertex
 10
1569.494663584322
 20
-2528.768663972902
 30
0.0
  0
VERTEX
  5
740
330
73E
100
AcDbEntity
  8
Furniture
370
     9
100
AcDbVertex
100
AcDb2dVertex
 10
1569.494663584322
 20
-2491.148287562481
 30
0.0
  0
VERTEX
  5
741
330
73E
100
AcDbEntity
  8
Furniture
370
     9
100
AcDbVertex
100
AcDb2dVertex
 10
1535.017357083403
 20
-2491.148287562481
 30
0.0
  0
SEQEND
  5
742
330
73E
100
AcDbEntity
  8
Furniture
370
     9
  0
POLYLINE
  5
743
330
1F
100
AcDbEntity
  8
Furniture
 62
   250
370
     9
100
AcDb2dPolyline
 66
     1
 10
0.0
 20
0.0
 30
0.0
  0
VERTEX
  5
744
330
743
100
AcDbEntity
  8
Furniture
 62
   250
370
     9
100
AcDbVertex
100
AcDb2dVertex
 10
1908.270976285346
 20
-3193.298851386727
 30
0.0
  0
VERTEX
  5
745
330
743
100
AcDbEntity
  8
Furniture
 62
   250
370
     9
100
AcDbVertex
100
AcDb2dVertex
 10
1884.573354563568
 20
-3193.298851386727
 30
0.0
  0
SEQEND
  5
746
330
743
100
AcDbEntity
  8
Furniture
370
     9
  0
POLYLINE
  5
747
330
1F
100
AcDbEntity
  8
Furniture
370
     9
100
AcDb2dPolyline
 66
     1
 10
0.0
 20
0.0
 30
0.0
  0
VERTEX
  5
748
330
747
100
AcDbEntity
  8
Furniture
370
     9
100
AcDbVertex
100
AcDb2dVertex
 10
1908.270976285346
 20
-3193.298851386727
 30
0.0
  0
VERTEX
  5
749
330
747
100
AcDbEntity
  8
Furniture
370
     9
100
AcDbVertex
100
AcDb2dVertex
 10
1908.270976285346
 20
-2491.148287562481
 30
0.0
  0
SEQEND
  5
74A
330
747
100
AcDbEntity
  8
Furniture
370
     9
  0
POLYLINE
  5
74B
330
1F
100
AcDbEntity
  8
Furniture
370
     9
100
AcDb2dPolyline
 66
     1
 10
0.0
 20
0.0
 30
0.0
  0
VERTEX
  5
74C
330
74B
100
AcDbEntity
  8
Furniture
370
     9
100
AcDbVertex
100
AcDb2dVertex
 10
1884.573354563568
 20
-3193.298851386727
 30
0.0
  0
VERTEX
  5
74D
330
74B
100
AcDbEntity
  8
Furniture
370
     9
100
AcDbVertex
100
AcDb2dVertex
 10
1873.255087472569
 20
-2528.768663972902
 30
0.0
  0
SEQEND
  5
74E
330
74B
100
AcDbEntity
  8
Furniture
370
     9
  0
POLYLINE
  5
74F
330
1F
100
AcDbEntity
  8
Furniture
370
     9
100
AcDb2dPolyline
 66
     1
 10
0.0
 20
0.0
 30
0.0
  0
VERTEX
  5
750
330
74F
100
AcDbEntity
  8
Furniture
370
     9
100
AcDbVertex
100
AcDb2dVertex
 10
1908.270976285346
 20
-2491.148287562481
 30
0.0
  0
VERTEX
  5
751
330
74F
100
AcDbEntity
  8
Furniture
370
     9
100
AcDbVertex
100
AcDb2dVertex
 10
1873.255087472569
 20
-2491.694908416307
 30
0.0
  0
VERTEX
  5
752
330
74F
100
AcDbEntity
  8
Furniture
370
     9
100
AcDbVertex
100
AcDb2dVertex
 10
1873.255087472569
 20
-2528.768663972902
 30
0.0
  0
SEQEND
  5
753
330
74F
100
AcDbEntity
  8
Furniture
370
     9
  0
POLYLINE
  5
754
330
1F
100
AcDbEntity
  8
Furniture
370
     9
100
AcDb2dPolyline
 66
     1
 10
0.0
 20
0.0
 30
0.0
  0
VERTEX
  5
755
330
754
100
AcDbEntity
  8
Furniture
370
     9
100
AcDbVertex
100
AcDb2dVertex
 10
1882.96564616996
 20
-2269.188066740996
 30
0.0
  0
VERTEX
  5
756
330
754
100
AcDbEntity
  8
Furniture
370
     9
100
AcDbVertex
100
AcDb2dVertex
 10
1882.96564616996
 20
-2488.286566621859
 30
0.0
  0
SEQEND
  5
757
330
754
100
AcDbEntity
  8
Furniture
370
     9
  0
POLYLINE
  5
758
330
1F
100
AcDbEntity
  8
Furniture
370
     9
100
AcDb2dPolyline
 66
     1
 10
0.0
 20
0.0
 30
0.0
  0
VERTEX
  5
759
330
758
100
AcDbEntity
  8
Furniture
370
     9
100
AcDbVertex
100
AcDb2dVertex
 10
1908.270976285346
 20
-2488.286566621859
 30
0.0
  0
VERTEX
  5
75A
330
758
100
AcDbEntity
  8
Furniture
370
     9
100
AcDbVertex
100
AcDb2dVertex
 10
1908.270976285346
 20
-2268.062670865471
 30
0.0
  0
SEQEND
  5
75B
330
758
100
AcDbEntity
  8
Furniture
370
     9
  0
POLYLINE
  5
75C
330
1F
100
AcDbEntity
  8
Furniture
370
     9
100
AcDb2dPolyline
 66
     1
 10
0.0
 20
0.0
 30
0.0
  0
VERTEX
  5
75D
330
75C
100
AcDbEntity
  8
Furniture
370
     9
100
AcDbVertex
100
AcDb2dVertex
 10
1908.270976285346
 20
-2268.062670865471
 30
0.0
  0
VERTEX
  5
75E
330
75C
100
AcDbEntity
  8
Furniture
370
     9
100
AcDbVertex
100
AcDb2dVertex
 10
1895.345000800739
 20
-2268.609291719297
 30
0.0
  0
VERTEX
  5
75F
330
75C
100
AcDbEntity
  8
Furniture
370
     9
100
AcDbVertex
100
AcDb2dVertex
 10
1882.96564616996
 20
-2269.188066740996
 30
0.0
  0
SEQEND
  5
760
330
75C
100
AcDbEntity
  8
Furniture
370
     9
  0
POLYLINE
  5
761
330
1F
100
AcDbEntity
  8
Furniture
370
     9
100
AcDb2dPolyline
 66
     1
 10
0.0
 20
0.0
 30
0.0
  0
VERTEX
  5
762
330
761
100
AcDbEntity
  8
Furniture
370
     9
100
AcDbVertex
100
AcDb2dVertex
 10
1569.494663584322
 20
-2532.209159935223
 30
0.0
  0
VERTEX
  5
763
330
761
100
AcDbEntity
  8
Furniture
370
     9
100
AcDbVertex
100
AcDb2dVertex
 10
1873.255087472569
 20
-2532.209159935223
 30
0.0
  0
SEQEND
  5
764
330
761
100
AcDbEntity
  8
Furniture
370
     9
  0
POLYLINE
  5
765
330
1F
100
AcDbEntity
  8
Furniture
370
     9
100
AcDb2dPolyline
 66
     1
 10
0.0
 20
0.0
 30
0.0
  0
VERTEX
  5
766
330
765
100
AcDbEntity
  8
Furniture
370
     9
100
AcDbVertex
100
AcDb2dVertex
 10
1908.270976285346
 20
-2488.286566621859
 30
0.0
  0
VERTEX
  5
767
330
765
100
AcDbEntity
  8
Furniture
370
     9
100
AcDbVertex
100
AcDb2dVertex
 10
1535.017357083403
 20
-2488.286566621859
 30
0.0
  0
SEQEND
  5
768
330
765
100
AcDbEntity
  8
Furniture
370
     9
  0
POLYLINE
  5
769
330
1F
100
AcDbEntity
  8
Furniture
370
     9
100
AcDb2dPolyline
 66
     1
 10
0.0
 20
0.0
 30
0.0
  0
VERTEX
  5
76A
330
769
100
AcDbEntity
  8
Furniture
370
     9
100
AcDbVertex
100
AcDb2dVertex
 10
1535.017357083403
 20
-2488.286566621859
 30
0.0
  0
VERTEX
  5
76B
330
769
100
AcDbEntity
  8
Furniture
370
     9
100
AcDbVertex
100
AcDb2dVertex
 10
1535.017357083403
 20
-2491.148287562481
 30
0.0
  0
VERTEX
  5
76C
330
769
100
AcDbEntity
  8
Furniture
370
     9
100
AcDbVertex
100
AcDb2dVertex
 10
1908.270976285346
 20
-2491.148287562481
 30
0.0
  0
VERTEX
  5
76D
330
769
100
AcDbEntity
  8
Furniture
370
     9
100
AcDbVertex
100
AcDb2dVertex
 10
1908.270976285346
 20
-2488.286566621859
 30
0.0
  0
SEQEND
  5
76E
330
769
100
AcDbEntity
  8
Furniture
370
     9
  0
POLYLINE
  5
76F
330
1F
100
AcDbEntity
  8
Furniture
370
     9
100
AcDb2dPolyline
 66
     1
 10
0.0
 20
0.0
 30
0.0
  0
VERTEX
  5
770
330
76F
100
AcDbEntity
  8
Furniture
370
     9
100
AcDbVertex
100
AcDb2dVertex
 10
1560.330725740758
 20
-2269.188066740996
 30
0.0
  0
VERTEX
  5
771
330
76F
100
AcDbEntity
  8
Furniture
370
     9
100
AcDbVertex
100
AcDb2dVertex
 10
1574.896563786844
 20
-2269.750764678759
 30
0.0
  0
VERTEX
  5
772
330
76F
100
AcDbEntity
  8
Furniture
370
     9
100
AcDbVertex
100
AcDb2dVertex
 10
1589.430247665058
 20
-2270.329539700457
 30
0.0
  0
VERTEX
  5
773
330
76F
100
AcDbEntity
  8
Furniture
370
     9
100
AcDbVertex
100
AcDb2dVertex
 10
1603.963931543271
 20
-2270.329539700457
 30
0.0
  0
VERTEX
  5
774
330
76F
100
AcDbEntity
  8
Furniture
370
     9
100
AcDbVertex
100
AcDb2dVertex
 10
1618.497615421486
 20
-2270.89223763822
 30
0.0
  0
VERTEX
  5
775
330
76F
100
AcDbEntity
  8
Furniture
370
     9
100
AcDbVertex
100
AcDb2dVertex
 10
1633.0312992997
 20
-2271.471012659918
 30
0.0
  0
VERTEX
  5
776
330
76F
100
AcDbEntity
  8
Furniture
370
     9
100
AcDbVertex
100
AcDb2dVertex
 10
1647.597137345786
 20
-2271.471012659918
 30
0.0
  0
VERTEX
  5
777
330
76F
100
AcDbEntity
  8
Furniture
370
     9
100
AcDbVertex
100
AcDb2dVertex
 10
1662.677442077827
 20
-2272.033710597681
 30
0.0
  0
VERTEX
  5
778
330
76F
100
AcDbEntity
  8
Furniture
370
     9
100
AcDbVertex
100
AcDb2dVertex
 10
1677.211125956041
 20
-2272.033710597681
 30
0.0
  0
VERTEX
  5
779
330
76F
100
AcDbEntity
  8
Furniture
370
     9
100
AcDbVertex
100
AcDb2dVertex
 10
1692.291430688082
 20
-2272.033710597681
 30
0.0
  0
VERTEX
  5
77A
330
76F
100
AcDbEntity
  8
Furniture
370
     9
100
AcDbVertex
100
AcDb2dVertex
 10
1706.825114566295
 20
-2272.033710597681
 30
0.0
  0
VERTEX
  5
77B
330
76F
100
AcDbEntity
  8
Furniture
370
     9
100
AcDbVertex
100
AcDb2dVertex
 10
1721.390952612382
 20
-2272.033710597681
 30
0.0
  0
VERTEX
  5
77C
330
76F
100
AcDbEntity
  8
Furniture
370
     9
100
AcDbVertex
100
AcDb2dVertex
 10
1736.471257344423
 20
-2272.033710597681
 30
0.0
  0
VERTEX
  5
77D
330
76F
100
AcDbEntity
  8
Furniture
370
     9
100
AcDbVertex
100
AcDb2dVertex
 10
1751.004941222636
 20
-2272.033710597681
 30
0.0
  0
VERTEX
  5
77E
330
76F
100
AcDbEntity
  8
Furniture
370
     9
100
AcDbVertex
100
AcDb2dVertex
 10
1766.085245954676
 20
-2272.033710597681
 30
0.0
  0
VERTEX
  5
77F
330
76F
100
AcDbEntity
  8
Furniture
370
     9
100
AcDbVertex
100
AcDb2dVertex
 10
1780.618929832891
 20
-2272.033710597681
 30
0.0
  0
VERTEX
  5
780
330
76F
100
AcDbEntity
  8
Furniture
370
     9
100
AcDbVertex
100
AcDb2dVertex
 10
1795.152613711104
 20
-2271.471012659918
 30
0.0
  0
VERTEX
  5
781
330
76F
100
AcDbEntity
  8
Furniture
370
     9
100
AcDbVertex
100
AcDb2dVertex
 10
1810.232918443146
 20
-2271.471012659918
 30
0.0
  0
VERTEX
  5
782
330
76F
100
AcDbEntity
  8
Furniture
370
     9
100
AcDbVertex
100
AcDb2dVertex
 10
1824.76660232136
 20
-2270.89223763822
 30
0.0
  0
VERTEX
  5
783
330
76F
100
AcDbEntity
  8
Furniture
370
     9
100
AcDbVertex
100
AcDb2dVertex
 10
1839.332440367446
 20
-2270.329539700457
 30
0.0
  0
VERTEX
  5
784
330
76F
100
AcDbEntity
  8
Furniture
370
     9
100
AcDbVertex
100
AcDb2dVertex
 10
1853.86612424566
 20
-2270.329539700457
 30
0.0
  0
VERTEX
  5
785
330
76F
100
AcDbEntity
  8
Furniture
370
     9
100
AcDbVertex
100
AcDb2dVertex
 10
1868.399808123874
 20
-2269.750764678759
 30
0.0
  0
VERTEX
  5
786
330
76F
100
AcDbEntity
  8
Furniture
370
     9
100
AcDbVertex
100
AcDb2dVertex
 10
1882.96564616996
 20
-2269.188066740996
 30
0.0
  0
SEQEND
  5
787
330
76F
100
AcDbEntity
  8
Furniture
370
     9
  0
POLYLINE
  5
788
330
1F
100
AcDbEntity
  8
Furniture
370
     9
100
AcDb2dPolyline
 66
     1
 10
0.0
 20
0.0
 30
0.0
  0
VERTEX
  5
789
330
788
100
AcDbEntity
  8
Furniture
370
     9
100
AcDbVertex
100
AcDb2dVertex
 10
1882.96564616996
 20
-2346.743919648633
 30
0.0
  0
VERTEX
  5
78A
330
788
100
AcDbEntity
  8
Furniture
370
     9
100
AcDbVertex
100
AcDb2dVertex
 10
1867.885341437919
 20
-2347.322694670333
 30
0.0
  0
VERTEX
  5
78B
330
788
100
AcDbEntity
  8
Furniture
370
     9
100
AcDbVertex
100
AcDb2dVertex
 10
1852.258415852052
 20
-2347.90146969203
 30
0.0
  0
VERTEX
  5
78C
330
788
100
AcDbEntity
  8
Furniture
370
     9
100
AcDbVertex
100
AcDb2dVertex
 10
1837.178111120012
 20
-2348.48024471373
 30
0.0
  0
VERTEX
  5
78D
330
788
100
AcDbEntity
  8
Furniture
370
     9
100
AcDbVertex
100
AcDb2dVertex
 10
1822.097806387971
 20
-2349.026865567555
 30
0.0
  0
VERTEX
  5
78E
330
788
100
AcDbEntity
  8
Furniture
370
     9
100
AcDbVertex
100
AcDb2dVertex
 10
1806.470880802103
 20
-2349.026865567555
 30
0.0
  0
VERTEX
  5
78F
330
788
100
AcDbEntity
  8
Furniture
370
     9
100
AcDbVertex
100
AcDb2dVertex
 10
1791.390576070062
 20
-2349.605640589255
 30
0.0
  0
VERTEX
  5
790
330
788
100
AcDbEntity
  8
Furniture
370
     9
100
AcDbVertex
100
AcDb2dVertex
 10
1775.763650484195
 20
-2349.605640589255
 30
0.0
  0
VERTEX
  5
791
330
788
100
AcDbEntity
  8
Furniture
370
     9
100
AcDbVertex
100
AcDb2dVertex
 10
1760.168879066202
 20
-2349.605640589255
 30
0.0
  0
VERTEX
  5
792
330
788
100
AcDbEntity
  8
Furniture
370
     9
100
AcDbVertex
100
AcDb2dVertex
 10
1744.541953480333
 20
-2350.184415610954
 30
0.0
  0
VERTEX
  5
793
330
788
100
AcDbEntity
  8
Furniture
370
     9
100
AcDbVertex
100
AcDb2dVertex
 10
1729.461648748293
 20
-2350.184415610954
 30
0.0
  0
VERTEX
  5
794
330
788
100
AcDbEntity
  8
Furniture
370
     9
100
AcDbVertex
100
AcDb2dVertex
 10
1713.834723162425
 20
-2350.184415610954
 30
0.0
  0
VERTEX
  5
795
330
788
100
AcDbEntity
  8
Furniture
370
     9
100
AcDbVertex
100
AcDb2dVertex
 10
1698.207797576558
 20
-2350.184415610954
 30
0.0
  0
VERTEX
  5
796
330
788
100
AcDbEntity
  8
Furniture
370
     9
100
AcDbVertex
100
AcDb2dVertex
 10
1683.127492844517
 20
-2349.605640589255
 30
0.0
  0
VERTEX
  5
797
330
788
100
AcDbEntity
  8
Furniture
370
     9
100
AcDbVertex
100
AcDb2dVertex
 10
1667.500567258651
 20
-2349.605640589255
 30
0.0
  0
VERTEX
  5
798
330
788
100
AcDbEntity
  8
Furniture
370
     9
100
AcDbVertex
100
AcDb2dVertex
 10
1651.905795840655
 20
-2349.605640589255
 30
0.0
  0
VERTEX
  5
799
330
788
100
AcDbEntity
  8
Furniture
370
     9
100
AcDbVertex
100
AcDb2dVertex
 10
1636.825491108615
 20
-2349.026865567555
 30
0.0
  0
VERTEX
  5
79A
330
788
100
AcDbEntity
  8
Furniture
370
     9
100
AcDbVertex
100
AcDb2dVertex
 10
1621.198565522747
 20
-2349.026865567555
 30
0.0
  0
VERTEX
  5
79B
330
788
100
AcDbEntity
  8
Furniture
370
     9
100
AcDbVertex
100
AcDb2dVertex
 10
1606.118260790706
 20
-2348.48024471373
 30
0.0
  0
VERTEX
  5
79C
330
788
100
AcDbEntity
  8
Furniture
370
     9
100
AcDbVertex
100
AcDb2dVertex
 10
1590.491335204839
 20
-2347.90146969203
 30
0.0
  0
VERTEX
  5
79D
330
788
100
AcDbEntity
  8
Furniture
370
     9
100
AcDbVertex
100
AcDb2dVertex
 10
1575.411030472799
 20
-2347.322694670333
 30
0.0
  0
VERTEX
  5
79E
330
788
100
AcDbEntity
  8
Furniture
370
     9
100
AcDbVertex
100
AcDb2dVertex
 10
1560.330725740758
 20
-2346.743919648633
 30
0.0
  0
SEQEND
  5
79F
330
788
100
AcDbEntity
  8
Furniture
370
     9
  0
POLYLINE
  5
7A0
330
1F
100
AcDbEntity
  8
Furniture
370
     9
100
AcDb2dPolyline
 66
     1
 10
0.0
 20
0.0
 30
0.0
  0
VERTEX
  5
7A1
330
7A0
100
AcDbEntity
  8
Furniture
370
     9
100
AcDbVertex
100
AcDb2dVertex
 10
1882.96564616996
 20
-2343.914352875883
 30
0.0
  0
VERTEX
  5
7A2
330
7A0
100
AcDbEntity
  8
Furniture
370
     9
100
AcDbVertex
100
AcDb2dVertex
 10
1882.96564616996
 20
-2269.188066740996
 30
0.0
  0
SEQEND
  5
7A3
330
7A0
100
AcDbEntity
  8
Furniture
370
     9
  0
POLYLINE
  5
7A4
330
1F
100
AcDbEntity
  8
Furniture
370
     9
100
AcDb2dPolyline
 66
     1
 10
0.0
 20
0.0
 30
0.0
  0
VERTEX
  5
7A5
330
7A4
100
AcDbEntity
  8
Furniture
370
     9
100
AcDbVertex
100
AcDb2dVertex
 10
1560.330725740758
 20
-2343.914352875883
 30
0.0
  0
VERTEX
  5
7A6
330
7A4
100
AcDbEntity
  8
Furniture
370
     9
100
AcDbVertex
100
AcDb2dVertex
 10
1560.330725740758
 20
-2269.188066740996
 30
0.0
  0
SEQEND
  5
7A7
330
7A4
100
AcDbEntity
  8
Furniture
370
     9
  0
TEXT
  5
942
330
1F
100
AcDbEntity
  8
Text
100
AcDbText
 10
-1441.619798980291
 20
2348.003327779736
 30
0.0
 40
192.6907499518273
  1
BARRI
 41
1.000399999999999
100
AcDbText
  0
TEXT
  5
943
330
1F
100
AcDbEntity
  8
Text
100
AcDbText
 10
-1441.619798980291
 20
1745.380359424532
 30
0.0
 40
192.6907499518273
  1
—
 41
1.000399999999999
100
AcDbText
  0
POLYLINE
  5
963
330
1F
100
AcDbEntity
  8
Text
370
     9
100
AcDb2dPolyline
 66
     1
 10
0.0
 20
0.0
 30
0.0
  0
VERTEX
  5
965
330
963
100
AcDbEntity
  8
Text
370
     9
100
AcDbVertex
100
AcDb2dVertex
 10
-1416.331950927351
 20
-498.3640050285562
 30
0.0
  0
VERTEX
  5
966
330
963
100
AcDbEntity
  8
Text
370
     9
100
AcDbVertex
100
AcDb2dVertex
 10
3842.729066784471
 20
-498.3640050285562
 30
0.0
  0
SEQEND
  5
964
330
963
100
AcDbEntity
  8
Text
370
     9
  0
ENDSEC
  0
SECTION
  2
OBJECTS
  0
DICTIONARY
  5
C
330
0
100
AcDbDictionary
281
     1
  3
ACAD_CIP_PREVIOUS_PRODUCT_INFO
350
7BE
  3
ACAD_COLOR
350
41B
  3
ACAD_DETAILVIEWSTYLE
350
7B9
  3
ACAD_GROUP
350
D
  3
ACAD_LAYOUT
350
1A
  3
ACAD_MATERIAL
350
3FF
  3
ACAD_MLEADERSTYLE
350
43F
  3
ACAD_MLINESTYLE
350
17
  3
ACAD_PLOTSETTINGS
350
19
  3
ACAD_PLOTSTYLENAME
350
E
  3
ACAD_SCALELIST
350
41D
  3
ACAD_SECTIONVIEWSTYLE
350
7B7
  3
ACAD_TABLESTYLE
350
3FD
  3
ACAD_VISUALSTYLE
350
2A
  3
ACDB_RECOMPOSE_DATA
350
987
  3
AcDbVariableDictionary
350
453
  0
DICTIONARY
  5
44B
330
2
100
AcDbDictionary
280
     1
281
     1
  3
ACAD_LAYERSTATES
360
44C
  0
DICTIONARY
  5
444
330
10
100
AcDbDictionary
280
     1
281
     1
  3
ADSK_XREC_LAYER_RECONCILED
360
445
  0
DICTIONARY
  5
446
330
3B
100
AcDbDictionary
280
     1
281
     1
  3
ADSK_XREC_LAYER_RECONCILED
360
447
  0
DICTIONARY
  5
492
330
1F
100
AcDbDictionary
280
     1
281
     1
  3
ACAD_SORTENTS
360
493
  0
DICTIONARY
  5
936
330
82D
100
AcDbDictionary
280
     1
281
     1
  3
ACAD_SORTENTS
360
937
  0
DICTIONARY
  5
93D
330
93A
100
AcDbDictionary
280
     1
281
     1
  3
ACAD_SORTENTS
360
93E
  0
XRECORD
  5
7BE
102
{ACAD_REACTORS
330
C
102
}
330
C
100
AcDbXrecord
280
     1
300
AMECH_PP
300
2018
300
PDSP_F_S
  0
DICTIONARY
  5
41B
102
{ACAD_REACTORS
330
C
102
}
330
C
100
AcDbDictionary
281
     1
  0
DICTIONARY
  5
7B9
102
{ACAD_REACTORS
330
C
102
}
330
C
100
AcDbDictionary
281
     1
  3
Imperial24
350
7BA
  0
DICTIONARY
  5
D
102
{ACAD_REACTORS
330
C
102
}
330
C
100
AcDbDictionary
281
     1
  0
DICTIONARY
  5
1A
102
{ACAD_REACTORS
330
C
102
}
330
C
100
AcDbDictionary
281
     1
  3
Layout1
350
1E
  3
Layout2
350
26
  3
Model
350
22
  0
DICTIONARY
  5
3FF
102
{ACAD_REACTORS
330
C
102
}
330
C
100
AcDbDictionary
281
     1
  3
ByBlock
350
408
  3
ByLayer
350
400
  3
Global
350
410
  0
DICTIONARY
  5
43F
102
{ACAD_REACTORS
330
C
102
}
330
C
100
AcDbDictionary
281
     1
  3
Standard
350
440
  0
DICTIONARY
  5
17
102
{ACAD_REACTORS
330
C
102
}
330
C
100
AcDbDictionary
281
     1
  3
Standard
350
18
  0
DICTIONARY
  5
19
102
{ACAD_REACTORS
330
C
102
}
330
C
100
AcDbDictionary
281
     1
  0
ACDBDICTIONARYWDFLT
  5
E
102
{ACAD_REACTORS
330
C
102
}
330
C
100
AcDbDictionary
281
     1
  3
Normal
350
F
100
AcDbDictionaryWithDefault
340
F
  0
DICTIONARY
  5
41D
102
{ACAD_REACTORS
330
C
102
}
330
C
100
AcDbDictionary
281
     1
  3
A0
350
41E
  3
A1
350
41F
  3
A2
350
420
  3
A3
350
421
  3
A4
350
422
  3
A5
350
423
  3
A6
350
424
  3
A7
350
425
  3
A8
350
426
  3
A9
350
427
  3
B0
350
428
  3
B1
350
429
  3
B2
350
42A
  3
B3
350
42B
  3
B4
350
42C
  3
B5
350
42D
  3
B6
350
42E
  3
B7
350
42F
  3
B8
350
430
  3
B9
350
431
  3
C0
350
432
  3
C1
350
433
  3
C2
350
434
  3
C3
350
435
  3
C4
350
436
  3
C5
350
437
  3
C6
350
438
  3
C7
350
439
  3
C8
350
43A
  3
C9
350
43B
  3
D0
350
43C
  3
D1
350
43D
  3
D2
350
43E
  0
DICTIONARY
  5
7B7
102
{ACAD_REACTORS
330
C
102
}
330
C
100
AcDbDictionary
281
     1
  3
Imperial24
350
7B8
  0
DICTIONARY
  5
3FD
102
{ACAD_REACTORS
330
C
102
}
330
C
100
AcDbDictionary
281
     1
  3
Standard
350
41C
  0
DICTIONARY
  5
2A
102
{ACAD_REACTORS
330
C
102
}
330
C
100
AcDbDictionary
281
     1
  3
2dWireframe
350
2F
  3
3D Hidden
350
31
  3
3dWireframe
350
30
  3
Basic
350
32
  3
Brighten
350
36
  3
ColorChange
350
3A
  3
Conceptual
350
34
  3
Dim
350
35
  3
EdgeColorOff
350
41A
  3
Facepattern
350
39
  3
Flat
350
2B
  3
FlatWithEdges
350
2C
  3
Gouraud
350
2D
  3
GouraudWithEdges
350
2E
  3
Hidden
350
7B1
  3
JitterOff
350
418
  3
Linepattern
350
38
  3
OverhangOff
350
419
  3
Realistic
350
33
  3
Shaded
350
7B6
  3
Shaded with edges
350
7B5
  3
Shades of Gray
350
7B2
  3
Sketchy
350
7B3
  3
Thicken
350
37
  3
Wireframe
350
7B0
  3
X-Ray
350
7B4
  0
XRECORD
  5
987
102
{ACAD_REACTORS
330
C
102
}
330
C
100
AcDbXrecord
280
     1
 90
        1
330
41C
  0
DICTIONARY
  5
453
102
{ACAD_REACTORS
330
C
102
}
330
C
100
AcDbDictionary
281
     1
  3
CANNOSCALE
350
457
  3
CMLEADERSTYLE
350
455
  3
CTABLESTYLE
350
454
  3
CVIEWDETAILSTYLE
350
80E
  3
CVIEWSECTIONSTYLE
350
80F
  3
LAYEREVAL
350
459
  3
LAYERNOTIFY
350
45A
  3
LIGHTINGUNITS
350
458
  3
MSLTSCALE
350
456
  0
DICTIONARY
  5
44C
102
{ACAD_REACTORS
330
44B
102
}
330
44B
100
AcDbDictionary
281
     1
  0
XRECORD
  5
445
102
{ACAD_REACTORS
330
444
102
}
330
444
100
AcDbXrecord
280
     1
290
     1
  0
XRECORD
  5
447
102
{ACAD_REACTORS
330
446
102
}
330
446
100
AcDbXrecord
280
     1
290
     1
  0
SORTENTSTABLE
  5
493
102
{ACAD_REACTORS
330
492
102
}
330
492
100
AcDbSortentsTable
330
1F
331
47C
  5
5AE
331
480
  5
5B2
331
484
  5
5B6
331
533
  5
58D
331
537
  5
591
331
594
  5
6A3
331
598
  5
6A7
331
59C
  5
3DF
331
758
  5
6DC
331
75C
  5
6E1
331
6EC
  5
693
331
C6
  5
32A
331
488
  5
5BA
331
48C
  5
5BE
331
490
  5
5C2
331
494
  5
5F6
331
5A0
  5
3E3
331
729
  5
6AD
331
52
  5
52
331
148
  5
513
331
498
  5
5FA
331
61D
  5
527
331
621
  5
52B
331
57D
  5
5CE
331
625
  5
52F
331
1C8
  5
5A6
331
209
  5
5EE
331
581
  5
5D2
331
629
  5
533
331
585
  5
5D6
331
62D
  5
537
331
589
  5
5DA
331
631
  5
53B
331
58D
  5
5E2
331
788
  5
71D
331
635
  5
53F
331
591
  5
5E6
331
639
  5
543
331
6A8
  5
754
331
63D
  5
547
331
641
  5
54B
331
6E1
  5
685
331
645
  5
54F
331
6E5
  5
689
331
761
  5
6E5
331
765
  5
6E6
331
C7
  5
3BC
331
491
  5
5C6
331
649
  5
553
331
64D
  5
557
331
651
  5
55B
331
6B2
  5
655
331
769
  5
6EC
331
6B6
  5
659
331
72E
  5
6B2
331
6BA
  5
65D
331
732
  5
6B6
331
6BE
  5
661
331
736
  5
6BA
331
88
  5
147
331
53
  5
53
331
149
  5
517
331
10A
  5
498
331
1C5
  5
598
331
49D
  5
5FE
331
4A1
  5
602
331
4A5
  5
606
331
3DD
  5
758
331
68D
  5
736
331
4DE
  5
639
331
6C2
  5
669
331
73A
  5
6BE
331
705
  5
697
331
73E
  5
6C2
331
20A
  5
5F2
331
942
  5
943
331
4A9
  5
60A
331
4AD
  5
60E
331
476
  5
5AA
331
71D
  5
69B
331
3BC
  5
732
331
592
  5
5EA
331
6A9
  5
64D
331
6AD
  5
651
331
721
  5
69F
331
6E6
  5
68D
331
725
  5
6A9
331
4C3
  5
621
331
4C7
  5
625
331
53B
  5
592
331
4CB
  5
629
331
53F
  5
593
331
5A6
  5
3F2
331
60F
  5
729
331
5AA
  5
3F3
331
543
  5
594
331
613
  5
72E
331
5AE
  5
3F7
331
617
  5
523
331
50
  5
50
331
C8
  5
3BE
331
5B2
  5
3F8
331
577
  5
5CA
331
5B6
  5
3F9
331
5BA
  5
476
331
5BE
  5
47C
331
6C7
  5
66D
331
6CB
  5
671
331
743
  5
6C7
331
6CF
  5
675
331
747
  5
6CB
331
18F
  5
56B
331
943
  5
962
331
963
  5
942
331
4B2
  5
60F
331
4B6
  5
613
331
5C2
  5
480
331
5C6
  5
484
331
3EE
  5
765
331
5CA
  5
488
331
5CE
  5
48C
331
74B
  5
6CF
331
74F
  5
6D4
331
3D
  5
3D
331
4BA
  5
617
331
4BE
  5
61D
331
3F2
  5
769
331
4F7
  5
63D
331
5D2
  5
490
331
41
  5
41
331
45
  5
45
331
C5
  5
293
331
50F
  5
641
331
7A0
  5
721
331
7A4
  5
725
331
76F
  5
705
331
51
  5
51
331
147
  5
50F
331
4D0
  5
62D
331
513
  5
645
331
4D4
  5
631
331
517
  5
573
331
4D8
  5
635
331
51B
  5
577
331
3DF
  5
75C
331
693
  5
73A
331
697
  5
73E
331
3E3
  5
761
331
523
  5
57D
331
527
  5
581
331
52B
  5
585
331
69B
  5
743
331
52F
  5
589
331
69F
  5
747
331
6A3
  5
74B
331
6D4
  5
679
331
6A7
  5
74F
331
6D8
  5
67D
331
6DC
  5
681
331
754
  5
6D8
  0
SORTENTSTABLE
  5
937
102
{ACAD_REACTORS
330
936
102
}
330
936
100
AcDbSortentsTable
330
82D
  0
SORTENTSTABLE
  5
93E
102
{ACAD_REACTORS
330
93D
102
}
330
93D
100
AcDbSortentsTable
330
93A
  0
ACDBDETAILVIEWSTYLE
  5
7BA
102
{ACAD_REACTORS
330
7B9
102
}
330
7B9
100
AcDbModelDocViewStyle
 70
     0
  3
Imperial24
290
     0
300
Imperial24
 90
        0
100
AcDbDetailViewStyle
 70
     0
 71
     0
 90
        3
 71
     1
340
11
 62
   256
 40
0.24
340
0
 62
   256
 40
0.24
300

 40
0.36
280
     3
 71
     2
340
16
 90
       25
 62
   256
 71
     3
340
11
 62
   256
 40
0.24
 90
        1
 40
0.75
 90
        1
300
%<\AcVar ViewType \f "%tc1">% %<\AcVar ViewDetailId>%\PSCALE %<\AcVar ViewScale \f "%sn">%
 71
     4
340
16
 90
       25
 62
   256
340
16
 90
       25
 62
   256
280
     0
  0
LAYOUT
  5
1E
102
{ACAD_REACTORS
330
1A
102
}
330
1A
100
AcDbPlotSettings
  1

  2
none_device
  4

  6

 40
0.0
 41
0.0
 42
0.0
 43
0.0
 44
0.0
 45
0.0
 46
0.0
 47
0.0
 48
0.0
 49
0.0
140
0.0
141
0.0
142
1.0
143
1.0
 70
   688
 72
     0
 73
     0
 74
     5
  7

 75
    16
147
1.0
 76
     0
 77
     2
 78
   300
148
0.0
149
0.0
100
AcDbLayout
  1
Layout1
 70
     1
 71
     1
 10
0.0
 20
0.0
 11
12.0
 21
9.0
 12
0.0
 22
0.0
 32
0.0
 14
1.000000000000000E+20
 24
1.000000000000000E+20
 34
1.000000000000000E+20
 15
-1.000000000000000E+20
 25
-1.000000000000000E+20
 35
-1.000000000000000E+20
146
0.0
 13
0.0
 23
0.0
 33
0.0
 16
1.0
 26
0.0
 36
0.0
 17
0.0
 27
1.0
 37
0.0
 76
     0
330
1B
  0
LAYOUT
  5
26
102
{ACAD_REACTORS
330
1A
102
}
330
1A
100
AcDbPlotSettings
  1

  2
none_device
  4

  6

 40
0.0
 41
0.0
 42
0.0
 43
0.0
 44
0.0
 45
0.0
 46
0.0
 47
0.0
 48
0.0
 49
0.0
140
0.0
141
0.0
142
1.0
143
1.0
 70
   688
 72
     0
 73
     0
 74
     5
  7

 75
    16
147
1.0
 76
     0
 77
     2
 78
   300
148
0.0
149
0.0
100
AcDbLayout
  1
Layout2
 70
     1
 71
     2
 10
0.0
 20
0.0
 11
0.0
 21
0.0
 12
0.0
 22
0.0
 32
0.0
 14
0.0
 24
0.0
 34
0.0
 15
0.0
 25
0.0
 35
0.0
146
0.0
 13
0.0
 23
0.0
 33
0.0
 16
1.0
 26
0.0
 36
0.0
 17
0.0
 27
1.0
 37
0.0
 76
     0
330
23
  0
LAYOUT
  5
22
102
{ACAD_XDICTIONARY
360
451
102
}
102
{ACAD_REACTORS
330
1A
102
}
330
1A
100
AcDbPlotSettings
  1

  2
none_device
  4

  6

 40
0.0
 41
0.0
 42
0.0
 43
0.0
 44
0.0
 45
0.0
 46
0.0
 47
0.0
 48
0.0
 49
0.0
140
0.0
141
0.0
142
1.0
143
1.0
 70
  1712
 72
     0
 73
     0
 74
     0
  7

 75
     0
147
1.0
 76
     0
 77
     2
 78
   300
148
0.0
149
0.0
100
AcDbLayout
  1
Model
 70
     1
 71
     0
 10
0.0
 20
0.0
 11
12.0
 21
9.0
 12
0.0
 22
0.0
 32
0.0
 14
1.000000000000000E+20
 24
1.000000000000000E+20
 34
1.000000000000000E+20
 15
-1.000000000000000E+20
 25
-1.000000000000000E+20
 35
-1.000000000000000E+20
146
0.0
 13
0.0
 23
0.0
 33
0.0
 16
1.0
 26
0.0
 36
0.0
 17
0.0
 27
1.0
 37
0.0
 76
     0
330
1F
331
29
  0
MATERIAL
  5
408
102
{ACAD_XDICTIONARY
360
409
102
}
102
{ACAD_REACTORS
330
3FF
102
}
330
3FF
100
AcDbMaterial
  1
ByBlock
 72
     0
 43
0.0208333333333333
 43
0.0
 43
0.0
 43
0.0
 43
0.0
 43
0.0208333333333333
 43
0.0
 43
0.0
 43
0.0
 43
0.0
 43
1.0
 43
0.0
 43
0.0
 43
0.0
 43
0.0
 43
1.0
 77
     0
 47
0.0208333333333333
 47
0.0
 47
0.0
 47
0.0
 47
0.0
 47
0.0208333333333333
 47
0.0
 47
0.0
 47
0.0
 47
0.0
 47
1.0
 47
0.0
 47
0.0
 47
0.0
 47
0.0
 47
1.0
171
     0
 49
0.0208333333333333
 49
0.0
 49
0.0
 49
0.0
 49
0.0
 49
0.0208333333333333
 49
0.0
 49
0.0
 49
0.0
 49
0.0
 49
1.0
 49
0.0
 49
0.0
 49
0.0
 49
0.0
 49
1.0
175
     0
142
0.0208333333333333
142
0.0
142
0.0
142
0.0
142
0.0
142
0.0208333333333333
142
0.0
142
0.0
142
0.0
142
0.0
142
1.0
142
0.0
142
0.0
142
0.0
142
0.0
142
1.0
179
     0
144
0.0208333333333333
144
0.0
144
0.0
144
0.0
144
0.0
144
0.0208333333333333
144
0.0
144
0.0
144
0.0
144
0.0
144
1.0
144
0.0
144
0.0
144
0.0
144
0.0
144
1.0
147
0.0208333333333333
147
0.0
147
0.0
147
0.0
147
0.0
147
0.0208333333333333
147
0.0
147
0.0
147
0.0
147
0.0
147
1.0
147
0.0
147
0.0
147
0.0
147
0.0
147
1.0
  0
MATERIAL
  5
400
102
{ACAD_XDICTIONARY
360
401
102
}
102
{ACAD_REACTORS
330
3FF
102
}
330
3FF
100
AcDbMaterial
  1
ByLayer
 72
     0
 43
0.0208333333333333
 43
0.0
 43
0.0
 43
0.0
 43
0.0
 43
0.0208333333333333
 43
0.0
 43
0.0
 43
0.0
 43
0.0
 43
1.0
 43
0.0
 43
0.0
 43
0.0
 43
0.0
 43
1.0
 77
     0
 47
0.0208333333333333
 47
0.0
 47
0.0
 47
0.0
 47
0.0
 47
0.0208333333333333
 47
0.0
 47
0.0
 47
0.0
 47
0.0
 47
1.0
 47
0.0
 47
0.0
 47
0.0
 47
0.0
 47
1.0
171
     0
 49
0.0208333333333333
 49
0.0
 49
0.0
 49
0.0
 49
0.0
 49
0.0208333333333333
 49
0.0
 49
0.0
 49
0.0
 49
0.0
 49
1.0
 49
0.0
 49
0.0
 49
0.0
 49
0.0
 49
1.0
175
     0
142
0.0208333333333333
142
0.0
142
0.0
142
0.0
142
0.0
142
0.0208333333333333
142
0.0
142
0.0
142
0.0
142
0.0
142
1.0
142
0.0
142
0.0
142
0.0
142
0.0
142
1.0
179
     0
144
0.0208333333333333
144
0.0
144
0.0
144
0.0
144
0.0
144
0.0208333333333333
144
0.0
144
0.0
144
0.0
144
0.0
144
1.0
144
0.0
144
0.0
144
0.0
144
0.0
144
1.0
147
0.0208333333333333
147
0.0
147
0.0
147
0.0
147
0.0
147
0.0208333333333333
147
0.0
147
0.0
147
0.0
147
0.0
147
1.0
147
0.0
147
0.0
147
0.0
147
0.0
147
1.0
  0
MATERIAL
  5
410
102
{ACAD_XDICTIONARY
360
411
102
}
102
{ACAD_REACTORS
330
3FF
102
}
330
3FF
100
AcDbMaterial
  1
Global
 72
     0
 43
0.0208333333333333
 43
0.0
 43
0.0
 43
0.0
 43
0.0
 43
0.0208333333333333
 43
0.0
 43
0.0
 43
0.0
 43
0.0
 43
1.0
 43
0.0
 43
0.0
 43
0.0
 43
0.0
 43
1.0
 77
     0
 47
0.0208333333333333
 47
0.0
 47
0.0
 47
0.0
 47
0.0
 47
0.0208333333333333
 47
0.0
 47
0.0
 47
0.0
 47
0.0
 47
1.0
 47
0.0
 47
0.0
 47
0.0
 47
0.0
 47
1.0
171
     0
 49
0.0208333333333333
 49
0.0
 49
0.0
 49
0.0
 49
0.0
 49
0.0208333333333333
 49
0.0
 49
0.0
 49
0.0
 49
0.0
 49
1.0
 49
0.0
 49
0.0
 49
0.0
 49
0.0
 49
1.0
175
     0
142
0.0208333333333333
142
0.0
142
0.0
142
0.0
142
0.0
142
0.0208333333333333
142
0.0
142
0.0
142
0.0
142
0.0
142
1.0
142
0.0
142
0.0
142
0.0
142
0.0
142
1.0
179
     0
144
0.0208333333333333
144
0.0
144
0.0
144
0.0
144
0.0
144
0.0208333333333333
144
0.0
144
0.0
144
0.0
144
0.0
144
1.0
144
0.0
144
0.0
144
0.0
144
0.0
144
1.0
147
0.0208333333333333
147
0.0
147
0.0
147
0.0
147
0.0
147
0.0208333333333333
147
0.0
147
0.0
147
0.0
147
0.0
147
1.0
147
0.0
147
0.0
147
0.0
147
0.0
147
1.0
  0
MLEADERSTYLE
  5
440
102
{ACAD_REACTORS
330
43F
102
}
330
43F
100
AcDbMLeaderStyle
179
     2
170
     2
171
     1
172
     0
 90
        2
 40
0.0
 41
0.0
173
     1
 91
-1056964608
340
14
 92
       -2
290
     1
 42
0.09
291
     1
 43
0.36
  3
Standard
 44
0.18
300

342
11
174
     1
178
     6
175
     1
176
     0
 93
-1056964608
 45
0.18
292
     0
297
     0
 46
0.18
 94
-1056964608
 47
1.0
 49
1.0
140
1.0
293
     1
141
0.0
294
     1
177
     0
142
1.0
295
     0
296
     0
143
0.125
271
     0
272
     9
273
     9
298
     0
  0
MLINESTYLE
  5
18
102
{ACAD_REACTORS
330
17
102
}
330
17
100
AcDbMlineStyle
  2
STANDARD
 70
     0
  3

 62
   256
 51
90.0
 52
90.0
 71
     2
 49
0.5
 62
   256
  6
BYLAYER
 49
-0.5
 62
   256
  6
BYLAYER
  0
ACDBPLACEHOLDER
  5
F
102
{ACAD_REACTORS
330
E
102
}
330
E
  0
SCALE
  5
41E
102
{ACAD_REACTORS
330
41D
102
}
330
41D
100
AcDbScale
 70
     0
300
1:1
140
1.0
141
1.0
290
     1
  0
SCALE
  5
41F
102
{ACAD_REACTORS
330
41D
102
}
330
41D
100
AcDbScale
 70
     0
300
1:2
140
1.0
141
2.0
290
     0
  0
SCALE
  5
420
102
{ACAD_REACTORS
330
41D
102
}
330
41D
100
AcDbScale
 70
     0
300
1:4
140
1.0
141
4.0
290
     0
  0
SCALE
  5
421
102
{ACAD_REACTORS
330
41D
102
}
330
41D
100
AcDbScale
 70
     0
300
1:5
140
1.0
141
5.0
290
     0
  0
SCALE
  5
422
102
{ACAD_REACTORS
330
41D
102
}
330
41D
100
AcDbScale
 70
     0
300
1:8
140
1.0
141
8.0
290
     0
  0
SCALE
  5
423
102
{ACAD_REACTORS
330
41D
102
}
330
41D
100
AcDbScale
 70
     0
300
1:10
140
1.0
141
10.0
290
     0
  0
SCALE
  5
424
102
{ACAD_REACTORS
330
41D
102
}
330
41D
100
AcDbScale
 70
     0
300
1:16
140
1.0
141
16.0
290
     0
  0
SCALE
  5
425
102
{ACAD_REACTORS
330
41D
102
}
330
41D
100
AcDbScale
 70
     0
300
1:20
140
1.0
141
20.0
290
     0
  0
SCALE
  5
426
102
{ACAD_REACTORS
330
41D
102
}
330
41D
100
AcDbScale
 70
     0
300
1:30
140
1.0
141
30.0
290
     0
  0
SCALE
  5
427
102
{ACAD_REACTORS
330
41D
102
}
330
41D
100
AcDbScale
 70
     0
300
1:40
140
1.0
141
40.0
290
     0
  0
SCALE
  5
428
102
{ACAD_REACTORS
330
41D
102
}
330
41D
100
AcDbScale
 70
     0
300
1:50
140
1.0
141
50.0
290
     0
  0
SCALE
  5
429
102
{ACAD_REACTORS
330
41D
102
}
330
41D
100
AcDbScale
 70
     0
300
1:100
140
1.0
141
100.0
290
     0
  0
SCALE
  5
42A
102
{ACAD_REACTORS
330
41D
102
}
330
41D
100
AcDbScale
 70
     0
300
2:1
140
2.0
141
1.0
290
     0
  0
SCALE
  5
42B
102
{ACAD_REACTORS
330
41D
102
}
330
41D
100
AcDbScale
 70
     0
300
4:1
140
4.0
141
1.0
290
     0
  0
SCALE
  5
42C
102
{ACAD_REACTORS
330
41D
102
}
330
41D
100
AcDbScale
 70
     0
300
8:1
140
8.0
141
1.0
290
     0
  0
SCALE
  5
42D
102
{ACAD_REACTORS
330
41D
102
}
330
41D
100
AcDbScale
 70
     0
300
10:1
140
10.0
141
1.0
290
     0
  0
SCALE
  5
42E
102
{ACAD_REACTORS
330
41D
102
}
330
41D
100
AcDbScale
 70
     0
300
100:1
140
100.0
141
1.0
290
     0
  0
SCALE
  5
42F
102
{ACAD_REACTORS
330
41D
102
}
330
41D
100
AcDbScale
 70
     0
300
1/128" = 1'-0"
140
0.0078125
141
12.0
290
     0
  0
SCALE
  5
430
102
{ACAD_REACTORS
330
41D
102
}
330
41D
100
AcDbScale
 70
     0
300
1/64" = 1'-0"
140
0.015625
141
12.0
290
     0
  0
SCALE
  5
431
102
{ACAD_REACTORS
330
41D
102
}
330
41D
100
AcDbScale
 70
     0
300
1/32" = 1'-0"
140
0.03125
141
12.0
290
     0
  0
SCALE
  5
432
102
{ACAD_REACTORS
330
41D
102
}
330
41D
100
AcDbScale
 70
     0
300
1/16" = 1'-0"
140
0.0625
141
12.0
290
     0
  0
SCALE
  5
433
102
{ACAD_REACTORS
330
41D
102
}
330
41D
100
AcDbScale
 70
     0
300
3/32" = 1'-0"
140
0.09375
141
12.0
290
     0
  0
SCALE
  5
434
102
{ACAD_REACTORS
330
41D
102
}
330
41D
100
AcDbScale
 70
     0
300
1/8" = 1'-0"
140
0.125
141
12.0
290
     0
  0
SCALE
  5
435
102
{ACAD_REACTORS
330
41D
102
}
330
41D
100
AcDbScale
 70
     0
300
3/16" = 1'-0"
140
0.1875
141
12.0
290
     0
  0
SCALE
  5
436
102
{ACAD_REACTORS
330
41D
102
}
330
41D
100
AcDbScale
 70
     0
300
1/4" = 1'-0"
140
0.25
141
12.0
290
     0
  0
SCALE
  5
437
102
{ACAD_REACTORS
330
41D
102
}
330
41D
100
AcDbScale
 70
     0
300
3/8" = 1'-0"
140
0.375
141
12.0
290
     0
  0
SCALE
  5
438
102
{ACAD_REACTORS
330
41D
102
}
330
41D
100
AcDbScale
 70
     0
300
1/2" = 1'-0"
140
0.5
141
12.0
290
     0
  0
SCALE
  5
439
102
{ACAD_REACTORS
330
41D
102
}
330
41D
100
AcDbScale
 70
     0
300
3/4" = 1'-0"
140
0.75
141
12.0
290
     0
  0
SCALE
  5
43A
102
{ACAD_REACTORS
330
41D
102
}
330
41D
100
AcDbScale
 70
     0
300
1" = 1'-0"
140
1.0
141
12.0
290
     0
  0
SCALE
  5
43B
102
{ACAD_REACTORS
330
41D
102
}
330
41D
100
AcDbScale
 70
     0
300
1-1/2" = 1'-0"
140
1.5
141
12.0
290
     0
  0
SCALE
  5
43C
102
{ACAD_REACTORS
330
41D
102
}
330
41D
100
AcDbScale
 70
     0
300
3" = 1'-0"
140
3.0
141
12.0
290
     0
  0
SCALE
  5
43D
102
{ACAD_REACTORS
330
41D
102
}
330
41D
100
AcDbScale
 70
     0
300
6" = 1'-0"
140
6.0
141
12.0
290
     0
  0
SCALE
  5
43E
102
{ACAD_REACTORS
330
41D
102
}
330
41D
100
AcDbScale
 70
     0
300
1'-0" = 1'-0"
140
12.0
141
12.0
290
     0
  0
ACDBSECTIONVIEWSTYLE
  5
7B8
102
{ACAD_REACTORS
330
7B7
102
}
330
7B7
100
AcDbModelDocViewStyle
 70
     0
  3
Imperial24
290
     0
300
Imperial24
 90
        0
100
AcDbSectionViewStyle
 70
     0
 71
     0
 90
       78
 71
     1
340
11
 62
   256
 40
0.24
340
0
340
0
 62
   256
 40
0.24
300
I, O, Q, S, X, Z
 40
0.48
 90
        3
 40
0.18
 90
        1
 71
     2
340
16
 90
       25
 62
   256
340
16
 90
       50
 62
   256
 40
0.24
 40
0.0
 40
0.24
 71
     3
340
11
 62
   256
 40
0.24
 90
        1
 40
0.75
 90
        1
300
%<\AcVar ViewType \f "%tc1">% %<\AcVar ViewSectionStartId>%-%<\AcVar ViewSectionEndId>%\PSCALE %<\AcVar ViewScale \f "%sn">%
 71
     4
 62
   256
 62
   257
300
ANSI31
 40
1.0
 90
        0
290
     0
290
     0
 90
        6
 40
0.0
 40
1.570796326794896
 40
0.2617993877991494
 40
1.308996938995747
 40
-0.2617993877991494
 40
1.832595714594046
  0
TABLESTYLE
  5
41C
102
{ACAD_XDICTIONARY
360
985
102
}
102
{ACAD_REACTORS
330
3FD
102
}
330
3FD
100
AcDbTableStyle
280
     0
  3
Standard
 70
     0
 71
     0
 40
0.06
 41
0.06
280
     0
281
     0
  7
Standard
140
0.18
170
     2
 62
     0
 63
     7
283
     0
 90
      512
 91
        0
  1

274
    -2
284
     1
 64
     0
275
    -2
285
     1
 65
     0
276
    -2
286
     1
 66
     0
277
    -2
287
     1
 67
     0
278
    -2
288
     1
 68
     0
279
    -2
289
     1
 69
     0
  7
Standard
140
0.25
170
     5
 62
     0
 63
     7
283
     0
 90
      512
 91
        0
  1

274
    -2
284
     1
 64
     0
275
    -2
285
     1
 65
     0
276
    -2
286
     1
 66
     0
277
    -2
287
     1
 67
     0
278
    -2
288
     1
 68
     0
279
    -2
289
     1
 69
     0
  7
Standard
140
0.18
170
     5
 62
     0
 63
     7
283
     0
 90
      512
 91
        0
  1

274
    -2
284
     1
 64
     0
275
    -2
285
     1
 65
     0
276
    -2
286
     1
 66
     0
277
    -2
287
     1
 67
     0
278
    -2
288
     1
 68
     0
279
    -2
289
     1
 69
     0
  0
VISUALSTYLE
  5
2F
102
{ACAD_REACTORS
330
2A
102
}
330
2A
100
AcDbVisualStyle
  2
2dWireframe
 70
     4
177
     3
291
     0
 70
    58
 90
        0
176
     1
 90
        2
176
     1
 90
        0
176
     1
 90
        0
176
     1
 40
0.6
176
     1
 40
30.0
176
     1
 62
     7
420
 16777215
176
     1
 90
        1
176
     1
 90
        4
176
     1
 62
     7
176
     1
 62
   257
176
     1
 90
        1
176
     1
 90
        1
176
     1
 40
1.0
176
     1
 90
        0
176
     1
 62
   257
176
     1
 40
1.0
176
     1
 90
        1
176
     1
 90
        6
176
     1
 90
        2
176
     1
 62
     7
176
     1
 90
        5
176
     1
 90
        0
176
     1
 90
        0
176
     1
290
     0
176
     1
 90
        1
176
     1
 40
0.0
176
     1
 90
        0
176
     1
290
     1
176
     1
290
     1
176
     1
290
     0
176
     1
290
     0
176
     1
290
     0
176
     1
290
     0
176
     1
290
     0
176
     1
290
     0
176
     1
290
     0
176
     1
 90
       50
176
     1
 40
0.0
176
     1
 40
1.0
176
     1
 90
        0
176
     1
 62
    18
420
        0
176
     1
 90
       50
176
     1
 90
        3
176
     1
 62
     5
420
      255
176
     1
290
     0
176
     1
 90
       50
176
     1
 90
       50
176
     1
 90
       50
176
     1
290
     0
176
     1
 90
       50
176
     1
 62
   256
176
     0
 40
1.0
176
     0
 90
        2
176
     1
  1
strokes_ogs.tif
176
     1
290
     0
176
     1
 40
1.0
176
     1
 40
1.0
176
     1
  0
VISUALSTYLE
  5
31
102
{ACAD_REACTORS
330
2A
102
}
330
2A
100
AcDbVisualStyle
  2
3D Hidden
 70
     6
177
     3
291
     0
 70
    58
 90
        1
176
     1
 90
        2
176
     1
 90
        2
176
     1
 90
        0
176
     1
 40
0.6
176
     1
 40
30.0
176
     1
 62
     7
420
 16777215
176
     1
 90
        2
176
     1
 90
        2
176
     1
 62
     7
176
     1
 62
   257
176
     1
 90
        2
176
     1
 90
        1
176
     1
 40
40.0
176
     1
 90
        0
176
     1
 62
   257
176
     1
 40
1.0
176
     1
 90
        1
176
     1
 90
        6
176
     1
 90
        2
176
     1
 62
     7
176
     1
 90
        3
176
     1
 90
        0
176
     1
 90
        0
176
     1
290
     0
176
     1
 90
        1
176
     1
 40
0.0
176
     1
 90
        0
176
     1
290
     0
176
     1
290
     1
176
     1
290
     1
176
     1
290
     0
176
     1
290
     0
176
     1
290
     0
176
     1
290
     0
176
     1
290
     0
176
     1
290
     0
176
     1
 90
       50
176
     1
 40
0.0
176
     1
 40
1.0
176
     1
 90
        0
176
     1
 62
    18
420
        0
176
     1
 90
       50
176
     1
 90
        3
176
     1
 62
     5
420
      255
176
     1
290
     0
176
     1
 90
       50
176
     1
 90
       50
176
     1
 90
       50
176
     1
290
     0
176
     1
 90
       50
176
     1
 62
   256
176
     0
 40
1.0
176
     0
 90
        2
176
     1
  1
strokes_ogs.tif
176
     1
290
     0
176
     1
 40
1.0
176
     1
 40
1.0
176
     1
  0
VISUALSTYLE
  5
30
102
{ACAD_REACTORS
330
2A
102
}
330
2A
100
AcDbVisualStyle
  2
3dWireframe
 70
     5
177
     3
291
     0
 70
    58
 90
        0
176
     1
 90
        2
176
     1
 90
        0
176
     1
 90
        0
176
     1
 40
0.6
176
     1
 40
30.0
176
     1
 62
     7
420
 16777215
176
     1
 90
        1
176
     1
 90
        4
176
     1
 62
     7
176
     1
 62
   257
176
     1
 90
        1
176
     1
 90
        1
176
     1
 40
1.0
176
     1
 90
        0
176
     1
 62
   257
176
     1
 40
1.0
176
     1
 90
        1
176
     1
 90
        6
176
     1
 90
        2
176
     1
 62
     7
176
     1
 90
        5
176
     1
 90
        0
176
     1
 90
        0
176
     1
290
     0
176
     1
 90
        1
176
     1
 40
0.0
176
     1
 90
        0
176
     1
290
     0
176
     1
290
     1
176
     1
290
     1
176
     1
290
     0
176
     1
290
     0
176
     1
290
     0
176
     1
290
     0
176
     1
290
     0
176
     1
290
     0
176
     1
 90
       50
176
     1
 40
0.0
176
     1
 40
1.0
176
     1
 90
        0
176
     1
 62
    18
420
        0
176
     1
 90
       50
176
     1
 90
        3
176
     1
 62
     5
420
      255
176
     1
290
     0
176
     1
 90
       50
176
     1
 90
       50
176
     1
 90
       50
176
     1
290
     0
176
     1
 90
       50
176
     1
 62
   256
176
     0
 40
1.0
176
     0
 90
        2
176
     1
  1
strokes_ogs.tif
176
     1
290
     0
176
     1
 40
1.0
176
     1
 40
1.0
176
     1
  0
VISUALSTYLE
  5
32
102
{ACAD_REACTORS
330
2A
102
}
330
2A
100
AcDbVisualStyle
  2
Basic
 70
     7
177
     3
291
     1
 70
    58
 90
        1
176
     1
 90
        0
176
     1
 90
        1
176
     1
 90
        0
176
     1
 40
0.6
176
     1
 40
30.0
176
     1
 62
     7
420
 16777215
176
     1
 90
        0
176
     1
 90
        4
176
     1
 62
     7
176
     1
 62
   257
176
     1
 90
        1
176
     1
 90
        1
176
     1
 40
1.0
176
     1
 90
        8
176
     1
 62
     7
176
     1
 40
1.0
176
     1
 90
        1
176
     1
 90
        6
176
     1
 90
        2
176
     1
 62
     7
176
     1
 90
        5
176
     1
 90
        0
176
     1
 90
        0
176
     1
290
     0
176
     1
 90
        1
176
     1
 40
0.0
176
     1
 90
        0
176
     1
290
     0
176
     1
290
     1
176
     1
290
     1
176
     1
290
     0
176
     1
290
     0
176
     1
290
     0
176
     1
290
     0
176
     1
290
     0
176
     1
290
     0
176
     1
 90
       50
176
     1
 40
0.0
176
     1
 40
1.0
176
     1
 90
        0
176
     1
 62
    18
420
        0
176
     1
 90
       50
176
     1
 90
        3
176
     1
 62
     5
420
      255
176
     1
290
     0
176
     1
 90
       50
176
     1
 90
       50
176
     1
 90
       50
176
     1
290
     0
176
     1
 90
       50
176
     1
 62
   256
176
     0
 40
1.0
176
     0
 90
        2
176
     1
  1
strokes_ogs.tif
176
     1
290
     0
176
     1
 40
1.0
176
     1
 40
1.0
176
     1
  0
VISUALSTYLE
  5
36
102
{ACAD_REACTORS
330
2A
102
}
330
2A
100
AcDbVisualStyle
  2
Brighten
 70
    12
177
     3
291
     1
 70
    58
 90
        2
176
     1
 90
        2
176
     1
 90
        0
176
     1
 90
        0
176
     1
 40
0.6
176
     1
 40
30.0
176
     1
 62
     7
420
 16777215
176
     1
 90
        1
176
     1
 90
        4
176
     1
 62
     7
176
     1
 62
   257
176
     1
 90
        1
176
     1
 90
        1
176
     1
 40
1.0
176
     1
 90
        8
176
     1
 62
     7
176
     1
 40
1.0
176
     1
 90
        1
176
     1
 90
        6
176
     1
 90
        2
176
     1
 62
     7
176
     1
 90
        5
176
     1
 90
        0
176
     1
 90
        0
176
     1
290
     0
176
     1
 90
        1
176
     1
 40
50.0
176
     1
 90
        0
176
     1
290
     0
176
     1
290
     1
176
     1
290
     1
176
     1
290
     0
176
     1
290
     0
176
     1
290
     0
176
     1
290
     0
176
     1
290
     0
176
     1
290
     0
176
     1
 90
       50
176
     1
 40
0.0
176
     1
 40
1.0
176
     1
 90
        0
176
     1
 62
    18
420
        0
176
     1
 90
       50
176
     1
 90
        3
176
     1
 62
     5
420
      255
176
     1
290
     0
176
     1
 90
       50
176
     1
 90
       50
176
     1
 90
       50
176
     1
290
     0
176
     1
 90
       50
176
     1
 62
   256
176
     0
 40
1.0
176
     0
 90
        2
176
     1
  1
strokes_ogs.tif
176
     1
290
     0
176
     1
 40
1.0
176
     1
 40
1.0
176
     1
  0
VISUALSTYLE
  5
3A
102
{ACAD_REACTORS
330
2A
102
}
330
2A
100
AcDbVisualStyle
  2
ColorChange
 70
    16
177
     3
291
     1
 70
    58
 90
        2
176
     1
 90
        2
176
     1
 90
        3
176
     1
 90
        0
176
     1
 40
0.6
176
     1
 40
30.0
176
     1
 62
     8
420
  8421504
176
     1
 90
        1
176
     1
 90
        4
176
     1
 62
     7
176
     1
 62
   257
176
     1
 90
        1
176
     1
 90
        1
176
     1
 40
1.0
176
     1
 90
        8
176
     1
 62
     8
420
  8421504
176
     1
 40
1.0
176
     1
 90
        1
176
     1
 90
        6
176
     1
 90
        2
176
     1
 62
     7
176
     1
 90
        5
176
     1
 90
        0
176
     1
 90
        0
176
     1
290
     0
176
     1
 90
        1
176
     1
 40
0.0
176
     1
 90
        0
176
     1
290
     0
176
     1
290
     1
176
     1
290
     1
176
     1
290
     0
176
     1
290
     0
176
     1
290
     0
176
     1
290
     0
176
     1
290
     0
176
     1
290
     0
176
     1
 90
       50
176
     1
 40
0.0
176
     1
 40
1.0
176
     1
 90
        0
176
     1
 62
    18
420
        0
176
     1
 90
       50
176
     1
 90
        3
176
     1
 62
     5
420
      255
176
     1
290
     0
176
     1
 90
       50
176
     1
 90
       50
176
     1
 90
       50
176
     1
290
     0
176
     1
 90
       50
176
     1
 62
   256
176
     0
 40
1.0
176
     0
 90
        2
176
     1
  1
strokes_ogs.tif
176
     1
290
     0
176
     1
 40
1.0
176
     1
 40
1.0
176
     1
  0
VISUALSTYLE
  5
34
102
{ACAD_REACTORS
330
2A
102
}
330
2A
100
AcDbVisualStyle
  2
Conceptual
 70
     9
177
     3
291
     0
 70
    58
 90
        3
176
     1
 90
        2
176
     1
 90
        0
176
     1
 90
        0
176
     1
 40
0.6
176
     1
 40
30.0
176
     1
 62
     7
420
 16777215
176
     1
 90
        2
176
     1
 90
        2
176
     1
 62
     7
176
     1
 62
   257
176
     1
 90
        1
176
     1
 90
        1
176
     1
 40
40.0
176
     1
 90
        8
176
     1
 62
     7
176
     1
 40
1.0
176
     1
 90
        1
176
     1
 90
        6
176
     1
 90
        2
176
     1
 62
     7
176
     1
 90
        3
176
     1
 90
        0
176
     1
 90
        0
176
     1
290
     0
176
     1
 90
        1
176
     1
 40
0.0
176
     1
 90
        0
176
     1
290
     0
176
     1
290
     1
176
     1
290
     1
176
     1
290
     0
176
     1
290
     0
176
     1
290
     0
176
     1
290
     0
176
     1
290
     0
176
     1
290
     0
176
     1
 90
       50
176
     1
 40
0.0
176
     1
 40
1.0
176
     1
 90
        0
176
     1
 62
    18
420
        0
176
     1
 90
       50
176
     1
 90
        3
176
     1
 62
     5
420
      255
176
     1
290
     0
176
     1
 90
       50
176
     1
 90
       50
176
     1
 90
       50
176
     1
290
     0
176
     1
 90
       50
176
     1
 62
   256
176
     0
 40
1.0
176
     0
 90
        2
176
     1
  1
strokes_ogs.tif
176
     1
290
     0
176
     1
 40
1.0
176
     1
 40
1.0
176
     1
  0
VISUALSTYLE
  5
35
102
{ACAD_REACTORS
330
2A
102
}
330
2A
100
AcDbVisualStyle
  2
Dim
 70
    11
177
     3
291
     1
 70
    58
 90
        2
176
     1
 90
        2
176
     1
 90
        0
176
     1
 90
        0
176
     1
 40
0.6
176
     1
 40
30.0
176
     1
 62
     7
420
 16777215
176
     1
 90
        1
176
     1
 90
        4
176
     1
 62
     7
176
     1
 62
   257
176
     1
 90
        1
176
     1
 90
        1
176
     1
 40
1.0
176
     1
 90
        8
176
     1
 62
     7
176
     1
 40
1.0
176
     1
 90
        1
176
     1
 90
        6
176
     1
 90
        2
176
     1
 62
     7
176
     1
 90
        5
176
     1
 90
        0
176
     1
 90
        0
176
     1
290
     0
176
     1
 90
        1
176
     1
 40
-50.0
176
     1
 90
        0
176
     1
290
     0
176
     1
290
     1
176
     1
290
     1
176
     1
290
     0
176
     1
290
     0
176
     1
290
     0
176
     1
290
     0
176
     1
290
     0
176
     1
290
     0
176
     1
 90
       50
176
     1
 40
0.0
176
     1
 40
1.0
176
     1
 90
        0
176
     1
 62
    18
420
        0
176
     1
 90
       50
176
     1
 90
        3
176
     1
 62
     5
420
      255
176
     1
290
     0
176
     1
 90
       50
176
     1
 90
       50
176
     1
 90
       50
176
     1
290
     0
176
     1
 90
       50
176
     1
 62
   256
176
     0
 40
1.0
176
     0
 90
        2
176
     1
  1
strokes_ogs.tif
176
     1
290
     0
176
     1
 40
1.0
176
     1
 40
1.0
176
     1
  0
VISUALSTYLE
  5
41A
102
{ACAD_REACTORS
330
2A
102
}
330
2A
100
AcDbVisualStyle
  2
EdgeColorOff
 70
    22
177
     3
291
     1
 70
    58
 90
        2
176
     0
 90
        2
176
     0
 90
        0
176
     0
 90
        0
176
     0
 40
0.6
176
     0
 40
30.0
176
     0
 62
     7
420
 16777215
176
     0
 90
        1
176
     0
 90
        4
176
     0
 62
     7
176
     0
 62
   257
176
     0
 90
        1
176
     0
 90
        1
176
     0
 40
1.0
176
     0
 90
        8
176
     2
 62
     7
176
     0
 40
1.0
176
     0
 90
        1
176
     0
 90
        6
176
     0
 90
        2
176
     0
 62
     7
176
     0
 90
        5
176
     0
 90
        0
176
     0
 90
        0
176
     0
290
     0
176
     0
 90
        1
176
     0
 40
0.0
176
     0
 90
        0
176
     0
290
     0
176
     1
290
     1
176
     1
290
     1
176
     1
290
     0
176
     1
290
     0
176
     1
290
     0
176
     1
290
     0
176
     1
290
     0
176
     1
290
     0
176
     1
 90
       50
176
     1
 40
0.0
176
     1
 40
1.0
176
     1
 90
        0
176
     1
 62
    18
420
        0
176
     1
 90
       50
176
     1
 90
        3
176
     1
 62
     5
420
      255
176
     1
290
     0
176
     1
 90
       50
176
     1
 90
       50
176
     1
 90
       50
176
     1
290
     0
176
     1
 90
       50
176
     1
 62
   256
176
     0
 40
1.0
176
     0
 90
        2
176
     1
  1
strokes_ogs.tif
176
     1
290
     0
176
     1
 40
1.0
176
     1
 40
1.0
176
     1
  0
VISUALSTYLE
  5
39
102
{ACAD_REACTORS
330
2A
102
}
330
2A
100
AcDbVisualStyle
  2
Facepattern
 70
    15
177
     3
291
     1
 70
    58
 90
        2
176
     1
 90
        2
176
     1
 90
        0
176
     1
 90
        0
176
     1
 40
0.6
176
     1
 40
30.0
176
     1
 62
     7
420
 16777215
176
     1
 90
        1
176
     1
 90
        4
176
     1
 62
     7
176
     1
 62
   257
176
     1
 90
        1
176
     1
 90
        1
176
     1
 40
1.0
176
     1
 90
        8
176
     1
 62
     7
176
     1
 40
1.0
176
     1
 90
        1
176
     1
 90
        6
176
     1
 90
        2
176
     1
 62
     7
176
     1
 90
        5
176
     1
 90
        0
176
     1
 90
        0
176
     1
290
     0
176
     1
 90
        1
176
     1
 40
0.0
176
     1
 90
        0
176
     1
290
     0
176
     1
290
     1
176
     1
290
     1
176
     1
290
     0
176
     1
290
     0
176
     1
290
     0
176
     1
290
     0
176
     1
290
     0
176
     1
290
     0
176
     1
 90
       50
176
     1
 40
0.0
176
     1
 40
1.0
176
     1
 90
        0
176
     1
 62
    18
420
        0
176
     1
 90
       50
176
     1
 90
        3
176
     1
 62
     5
420
      255
176
     1
290
     0
176
     1
 90
       50
176
     1
 90
       50
176
     1
 90
       50
176
     1
290
     0
176
     1
 90
       50
176
     1
 62
   256
176
     0
 40
1.0
176
     0
 90
        2
176
     1
  1
strokes_ogs.tif
176
     1
290
     0
176
     1
 40
1.0
176
     1
 40
1.0
176
     1
  0
VISUALSTYLE
  5
2B
102
{ACAD_REACTORS
330
2A
102
}
330
2A
100
AcDbVisualStyle
  2
Flat
 70
     0
177
     3
291
     1
 70
    58
 90
        2
176
     1
 90
        1
176
     1
 90
        1
176
     1
 90
        2
176
     1
 40
0.6
176
     1
 40
30.0
176
     1
 62
     7
420
 16777215
176
     1
 90
        0
176
     1
 90
        4
176
     1
 62
     7
176
     1
 62
   257
176
     1
 90
        1
176
     1
 90
        1
176
     1
 40
1.0
176
     1
 90
        8
176
     1
 62
     7
176
     1
 40
1.0
176
     1
 90
        1
176
     1
 90
        6
176
     1
 90
        2
176
     1
 62
     7
176
     1
 90
        5
176
     1
 90
        0
176
     1
 90
        0
176
     1
290
     0
176
     1
 90
       13
176
     1
 40
0.0
176
     1
 90
        0
176
     1
290
     0
176
     1
290
     1
176
     1
290
     1
176
     1
290
     0
176
     1
290
     0
176
     1
290
     0
176
     1
290
     0
176
     1
290
     0
176
     1
290
     0
176
     1
 90
       50
176
     1
 40
0.0
176
     1
 40
1.0
176
     1
 90
        0
176
     1
 62
    18
420
        0
176
     1
 90
       50
176
     1
 90
        3
176
     1
 62
     5
420
      255
176
     1
290
     0
176
     1
 90
       50
176
     1
 90
       50
176
     1
 90
       50
176
     1
290
     0
176
     1
 90
       50
176
     1
 62
   256
176
     0
 40
1.0
176
     0
 90
        2
176
     1
  1
strokes_ogs.tif
176
     1
290
     0
176
     1
 40
1.0
176
     1
 40
1.0
176
     1
  0
VISUALSTYLE
  5
2C
102
{ACAD_REACTORS
330
2A
102
}
330
2A
100
AcDbVisualStyle
  2
FlatWithEdges
 70
     1
177
     3
291
     1
 70
    58
 90
        2
176
     1
 90
        1
176
     1
 90
        1
176
     1
 90
        2
176
     1
 40
0.6
176
     1
 40
30.0
176
     1
 62
     7
420
 16777215
176
     1
 90
        1
176
     1
 90
        4
176
     1
 62
     7
176
     1
 62
   257
176
     1
 90
        1
176
     1
 90
        1
176
     1
 40
1.0
176
     1
 90
        0
176
     1
 62
   257
176
     1
 40
1.0
176
     1
 90
        1
176
     1
 90
        6
176
     1
 90
        2
176
     1
 62
     7
176
     1
 90
        5
176
     1
 90
        0
176
     1
 90
        0
176
     1
290
     0
176
     1
 90
       13
176
     1
 40
0.0
176
     1
 90
        0
176
     1
290
     0
176
     1
290
     1
176
     1
290
     1
176
     1
290
     0
176
     1
290
     0
176
     1
290
     0
176
     1
290
     0
176
     1
290
     0
176
     1
290
     0
176
     1
 90
       50
176
     1
 40
0.0
176
     1
 40
1.0
176
     1
 90
        0
176
     1
 62
    18
420
        0
176
     1
 90
       50
176
     1
 90
        3
176
     1
 62
     5
420
      255
176
     1
290
     0
176
     1
 90
       50
176
     1
 90
       50
176
     1
 90
       50
176
     1
290
     0
176
     1
 90
       50
176
     1
 62
   256
176
     0
 40
1.0
176
     0
 90
        2
176
     1
  1
strokes_ogs.tif
176
     1
290
     0
176
     1
 40
1.0
176
     1
 40
1.0
176
     1
  0
VISUALSTYLE
  5
2D
102
{ACAD_REACTORS
330
2A
102
}
330
2A
100
AcDbVisualStyle
  2
Gouraud
 70
     2
177
     3
291
     1
 70
    58
 90
        2
176
     1
 90
        2
176
     1
 90
        1
176
     1
 90
        2
176
     1
 40
0.6
176
     1
 40
30.0
176
     1
 62
     7
420
 16777215
176
     1
 90
        0
176
     1
 90
        4
176
     1
 62
     7
176
     1
 62
   257
176
     1
 90
        1
176
     1
 90
        1
176
     1
 40
1.0
176
     1
 90
        0
176
     1
 62
     7
176
     1
 40
1.0
176
     1
 90
        1
176
     1
 90
        6
176
     1
 90
        2
176
     1
 62
     7
176
     1
 90
        5
176
     1
 90
        0
176
     1
 90
        0
176
     1
290
     0
176
     1
 90
       13
176
     1
 40
0.0
176
     1
 90
        0
176
     1
290
     0
176
     1
290
     1
176
     1
290
     1
176
     1
290
     0
176
     1
290
     0
176
     1
290
     0
176
     1
290
     0
176
     1
290
     0
176
     1
290
     0
176
     1
 90
       50
176
     1
 40
0.0
176
     1
 40
1.0
176
     1
 90
        0
176
     1
 62
    18
420
        0
176
     1
 90
       50
176
     1
 90
        3
176
     1
 62
     5
420
      255
176
     1
290
     0
176
     1
 90
       50
176
     1
 90
       50
176
     1
 90
       50
176
     1
290
     0
176
     1
 90
       50
176
     1
 62
   256
176
     0
 40
1.0
176
     0
 90
        2
176
     1
  1
strokes_ogs.tif
176
     1
290
     0
176
     1
 40
1.0
176
     1
 40
1.0
176
     1
  0
VISUALSTYLE
  5
2E
102
{ACAD_REACTORS
330
2A
102
}
330
2A
100
AcDbVisualStyle
  2
GouraudWithEdges
 70
     3
177
     3
291
     1
 70
    58
 90
        2
176
     1
 90
        2
176
     1
 90
        1
176
     1
 90
        2
176
     1
 40
0.6
176
     1
 40
30.0
176
     1
 62
     7
420
 16777215
176
     1
 90
        1
176
     1
 90
        4
176
     1
 62
     7
176
     1
 62
   257
176
     1
 90
        1
176
     1
 90
        1
176
     1
 40
1.0
176
     1
 90
        0
176
     1
 62
   257
176
     1
 40
1.0
176
     1
 90
        1
176
     1
 90
        6
176
     1
 90
        2
176
     1
 62
     7
176
     1
 90
        5
176
     1
 90
        0
176
     1
 90
        0
176
     1
290
     0
176
     1
 90
       13
176
     1
 40
0.0
176
     1
 90
        0
176
     1
290
     0
176
     1
290
     1
176
     1
290
     1
176
     1
290
     0
176
     1
290
     0
176
     1
290
     0
176
     1
290
     0
176
     1
290
     0
176
     1
290
     0
176
     1
 90
       50
176
     1
 40
0.0
176
     1
 40
1.0
176
     1
 90
        0
176
     1
 62
    18
420
        0
176
     1
 90
       50
176
     1
 90
        3
176
     1
 62
     5
420
      255
176
     1
290
     0
176
     1
 90
       50
176
     1
 90
       50
176
     1
 90
       50
176
     1
290
     0
176
     1
 90
       50
176
     1
 62
   256
176
     0
 40
1.0
176
     0
 90
        2
176
     1
  1
strokes_ogs.tif
176
     1
290
     0
176
     1
 40
1.0
176
     1
 40
1.0
176
     1
  0
VISUALSTYLE
  5
7B1
102
{ACAD_REACTORS
330
2A
102
}
330
2A
100
AcDbVisualStyle
  2
Hidden
 70
     6
177
     3
291
     0
 70
    58
 90
        1
176
     1
 90
        2
176
     1
 90
        2
176
     1
 90
        0
176
     1
 40
0.6
176
     1
 40
30.0
176
     1
 62
     7
420
 16777215
176
     1
 90
        2
176
     1
 90
        2
176
     1
 62
     7
176
     1
 62
   257
176
     1
 90
        2
176
     1
 90
        1
176
     1
 40
40.0
176
     1
 90
        0
176
     1
 62
   257
176
     1
 40
1.0
176
     1
 90
        1
176
     1
 90
        6
176
     1
 90
        2
176
     1
 62
     7
176
     1
 90
        3
176
     1
 90
        0
176
     1
 90
        0
176
     1
290
     0
176
     1
 90
        1
176
     1
 40
0.0
176
     1
 90
        0
176
     1
290
     0
176
     1
290
     1
176
     1
290
     1
176
     1
290
     0
176
     1
290
     0
176
     1
290
     0
176
     1
290
     0
176
     1
290
     0
176
     1
290
     0
176
     1
 90
       50
176
     1
 40
0.0
176
     1
 40
1.0
176
     1
 90
        0
176
     1
 62
    18
420
        0
176
     1
 90
       50
176
     1
 90
        3
176
     1
 62
     5
420
      255
176
     1
290
     0
176
     1
 90
       50
176
     1
 90
       50
176
     1
 90
       50
176
     1
290
     0
176
     1
 90
       50
176
     1
 62
   256
176
     0
 40
1.0
176
     0
 90
        2
176
     1
  1
strokes_ogs.tif
176
     1
290
     0
176
     1
 40
1.0
176
     1
 40
1.0
176
     1
  0
VISUALSTYLE
  5
418
102
{ACAD_REACTORS
330
2A
102
}
330
2A
100
AcDbVisualStyle
  2
JitterOff
 70
    20
177
     3
291
     1
 70
    58
 90
        2
176
     0
 90
        2
176
     0
 90
        0
176
     0
 90
        0
176
     0
 40
0.6
176
     0
 40
30.0
176
     0
 62
     7
420
 16777215
176
     0
 90
        1
176
     0
 90
        4
176
     0
 62
     7
176
     0
 62
   257
176
     0
 90
        1
176
     0
 90
        1
176
     0
 40
1.0
176
     0
 90
       10
176
     2
 62
     7
176
     0
 40
1.0
176
     0
 90
        1
176
     0
 90
        6
176
     0
 90
        2
176
     0
 62
     7
176
     0
 90
        5
176
     0
 90
        0
176
     0
 90
        0
176
     0
290
     0
176
     0
 90
        1
176
     0
 40
0.0
176
     0
 90
        0
176
     0
290
     0
176
     1
290
     1
176
     1
290
     1
176
     1
290
     0
176
     1
290
     0
176
     1
290
     0
176
     1
290
     0
176
     1
290
     0
176
     1
290
     0
176
     1
 90
       50
176
     1
 40
0.0
176
     1
 40
1.0
176
     1
 90
        0
176
     1
 62
    18
420
        0
176
     1
 90
       50
176
     1
 90
        3
176
     1
 62
     5
420
      255
176
     1
290
     0
176
     1
 90
       50
176
     1
 90
       50
176
     1
 90
       50
176
     1
290
     0
176
     1
 90
       50
176
     1
 62
   256
176
     0
 40
1.0
176
     0
 90
        2
176
     1
  1
strokes_ogs.tif
176
     1
290
     0
176
     1
 40
1.0
176
     1
 40
1.0
176
     1
  0
VISUALSTYLE
  5
38
102
{ACAD_REACTORS
330
2A
102
}
330
2A
100
AcDbVisualStyle
  2
Linepattern
 70
    14
177
     3
291
     1
 70
    58
 90
        2
176
     1
 90
        2
176
     1
 90
        0
176
     1
 90
        0
176
     1
 40
0.6
176
     1
 40
30.0
176
     1
 62
     7
420
 16777215
176
     1
 90
        1
176
     1
 90
        4
176
     1
 62
     7
176
     1
 62
   257
176
     1
 90
        7
176
     1
 90
        7
176
     1
 40
1.0
176
     1
 90
        8
176
     1
 62
     7
176
     1
 40
1.0
176
     1
 90
        1
176
     1
 90
        6
176
     1
 90
        2
176
     1
 62
     7
176
     1
 90
        5
176
     1
 90
        0
176
     1
 90
        0
176
     1
290
     0
176
     1
 90
        1
176
     1
 40
0.0
176
     1
 90
        0
176
     1
290
     0
176
     1
290
     1
176
     1
290
     1
176
     1
290
     0
176
     1
290
     0
176
     1
290
     0
176
     1
290
     0
176
     1
290
     0
176
     1
290
     0
176
     1
 90
       50
176
     1
 40
0.0
176
     1
 40
1.0
176
     1
 90
        0
176
     1
 62
    18
420
        0
176
     1
 90
       50
176
     1
 90
        3
176
     1
 62
     5
420
      255
176
     1
290
     0
176
     1
 90
       50
176
     1
 90
       50
176
     1
 90
       50
176
     1
290
     0
176
     1
 90
       50
176
     1
 62
   256
176
     0
 40
1.0
176
     0
 90
        2
176
     1
  1
strokes_ogs.tif
176
     1
290
     0
176
     1
 40
1.0
176
     1
 40
1.0
176
     1
  0
VISUALSTYLE
  5
419
102
{ACAD_REACTORS
330
2A
102
}
330
2A
100
AcDbVisualStyle
  2
OverhangOff
 70
    21
177
     3
291
     1
 70
    58
 90
        2
176
     0
 90
        2
176
     0
 90
        0
176
     0
 90
        0
176
     0
 40
0.6
176
     0
 40
30.0
176
     0
 62
     7
420
 16777215
176
     0
 90
        1
176
     0
 90
        4
176
     0
 62
     7
176
     0
 62
   257
176
     0
 90
        1
176
     0
 90
        1
176
     0
 40
1.0
176
     0
 90
        9
176
     2
 62
     7
176
     0
 40
1.0
176
     0
 90
        1
176
     0
 90
        6
176
     0
 90
        2
176
     0
 62
     7
176
     0
 90
        5
176
     0
 90
        0
176
     0
 90
        0
176
     0
290
     0
176
     0
 90
        1
176
     0
 40
0.0
176
     0
 90
        0
176
     0
290
     0
176
     1
290
     1
176
     1
290
     1
176
     1
290
     0
176
     1
290
     0
176
     1
290
     0
176
     1
290
     0
176
     1
290
     0
176
     1
290
     0
176
     1
 90
       50
176
     1
 40
0.0
176
     1
 40
1.0
176
     1
 90
        0
176
     1
 62
    18
420
        0
176
     1
 90
       50
176
     1
 90
        3
176
     1
 62
     5
420
      255
176
     1
290
     0
176
     1
 90
       50
176
     1
 90
       50
176
     1
 90
       50
176
     1
290
     0
176
     1
 90
       50
176
     1
 62
   256
176
     0
 40
1.0
176
     0
 90
        2
176
     1
  1
strokes_ogs.tif
176
     1
290
     0
176
     1
 40
1.0
176
     1
 40
1.0
176
     1
  0
VISUALSTYLE
  5
33
102
{ACAD_REACTORS
330
2A
102
}
330
2A
100
AcDbVisualStyle
  2
Realistic
 70
     8
177
     3
291
     0
 70
    58
 90
        2
176
     1
 90
        2
176
     1
 90
        0
176
     1
 90
        0
176
     1
 40
0.6
176
     1
 40
30.0
176
     1
 62
     7
420
 16777215
176
     1
 90
        1
176
     1
 90
        0
176
     1
 62
     7
176
     1
 62
   257
176
     1
 90
        1
176
     1
 90
        1
176
     1
 40
1.0
176
     1
 90
        8
176
     1
 62
     8
420
  7895160
176
     1
 40
1.0
176
     1
 90
        1
176
     1
 90
        6
176
     1
 90
        2
176
     1
 62
     7
176
     1
 90
        5
176
     1
 90
        0
176
     1
 90
        0
176
     1
290
     0
176
     1
 90
       13
176
     1
 40
0.0
176
     1
 90
        0
176
     1
290
     0
176
     1
290
     1
176
     1
290
     1
176
     1
290
     0
176
     1
290
     0
176
     1
290
     0
176
     1
290
     0
176
     1
290
     0
176
     1
290
     0
176
     1
 90
       50
176
     1
 40
0.0
176
     1
 40
1.0
176
     1
 90
        0
176
     1
 62
    18
420
        0
176
     1
 90
       50
176
     1
 90
        3
176
     1
 62
     5
420
      255
176
     1
290
     0
176
     1
 90
       50
176
     1
 90
       50
176
     1
 90
       50
176
     1
290
     0
176
     1
 90
       50
176
     1
 62
   256
176
     0
 40
1.0
176
     0
 90
        2
176
     1
  1
strokes_ogs.tif
176
     1
290
     0
176
     1
 40
1.0
176
     1
 40
1.0
176
     1
  0
VISUALSTYLE
  5
7B6
102
{ACAD_REACTORS
330
2A
102
}
330
2A
100
AcDbVisualStyle
  2
Shaded
 70
    27
177
     3
291
     0
 70
    58
 90
        2
176
     1
 90
        2
176
     1
 90
        1
176
     1
 90
        2
176
     1
 40
0.6
176
     1
 40
30.0
176
     1
 62
     7
420
 16777215
176
     1
 90
        0
176
     1
 90
        4
176
     1
 62
     7
176
     1
 62
   257
176
     1
 90
        1
176
     1
 90
        1
176
     1
 40
1.0
176
     1
 90
        8
176
     1
 62
   257
176
     1
 40
1.0
176
     1
 90
        1
176
     1
 90
        6
176
     1
 90
        2
176
     1
 62
     8
420
  7895160
176
     1
 90
        3
176
     1
 90
        0
176
     1
 90
        0
176
     1
290
     0
176
     1
 90
        5
176
     1
 40
0.0
176
     1
 90
        0
176
     1
290
     0
176
     1
290
     1
176
     1
290
     1
176
     1
290
     0
176
     1
290
     0
176
     1
290
     0
176
     1
290
     0
176
     1
290
     0
176
     1
290
     0
176
     1
 90
       50
176
     1
 40
0.0
176
     1
 40
1.0
176
     1
 90
        0
176
     1
 62
    18
420
        0
176
     1
 90
       50
176
     1
 90
        3
176
     1
 62
     5
420
      255
176
     1
290
     0
176
     1
 90
       50
176
     1
 90
       50
176
     1
 90
       50
176
     1
290
     0
176
     1
 90
       50
176
     1
 62
   256
176
     0
 40
1.0
176
     0
 90
        2
176
     1
  1
strokes_ogs.tif
176
     1
290
     0
176
     1
 40
1.0
176
     1
 40
1.0
176
     1
  0
VISUALSTYLE
  5
7B5
102
{ACAD_REACTORS
330
2A
102
}
330
2A
100
AcDbVisualStyle
  2
Shaded with edges
 70
    26
177
     3
291
     0
 70
    58
 90
        2
176
     1
 90
        2
176
     1
 90
        1
176
     1
 90
        2
176
     1
 40
0.6
176
     1
 40
30.0
176
     1
 62
     7
420
 16777215
176
     1
 90
        1
176
     1
 90
        2
176
     1
 62
     7
176
     1
 62
   257
176
     1
 90
        2
176
     1
 90
        1
176
     1
 40
1.0
176
     1
 90
        8
176
     1
 62
   257
176
     1
 40
1.0
176
     1
 90
        1
176
     1
 90
        6
176
     1
 90
        2
176
     1
 62
     7
176
     1
 90
        3
176
     1
 90
        0
176
     1
 90
        0
176
     1
290
     0
176
     1
 90
        5
176
     1
 40
0.0
176
     1
 90
        0
176
     1
290
     0
176
     1
290
     1
176
     1
290
     1
176
     1
290
     0
176
     1
290
     0
176
     1
290
     0
176
     1
290
     0
176
     1
290
     0
176
     1
290
     0
176
     1
 90
       50
176
     1
 40
0.0
176
     1
 40
1.0
176
     1
 90
        0
176
     1
 62
    18
420
        0
176
     1
 90
       50
176
     1
 90
        3
176
     1
 62
     5
420
      255
176
     1
290
     0
176
     1
 90
       50
176
     1
 90
       50
176
     1
 90
       50
176
     1
290
     0
176
     1
 90
       50
176
     1
 62
   256
176
     0
 40
1.0
176
     0
 90
        2
176
     1
  1
strokes_ogs.tif
176
     1
290
     0
176
     1
 40
1.0
176
     1
 40
1.0
176
     1
  0
VISUALSTYLE
  5
7B2
102
{ACAD_REACTORS
330
2A
102
}
330
2A
100
AcDbVisualStyle
  2
Shades of Gray
 70
    23
177
     3
291
     0
 70
    58
 90
        2
176
     1
 90
        2
176
     1
 90
        3
176
     1
 90
        0
176
     1
 40
0.6
176
     1
 40
30.0
176
     1
 62
     7
420
 16777215
176
     1
 90
        2
176
     1
 90
        2
176
     1
 62
     7
176
     1
 62
     7
176
     1
 90
        1
176
     1
 90
        1
176
     1
 40
40.0
176
     1
 90
        8
176
     1
 62
     7
176
     1
 40
1.0
176
     1
 90
        1
176
     1
 90
        6
176
     1
 90
        2
176
     1
 62
     7
176
     1
 90
        3
176
     1
 90
        0
176
     1
 90
        0
176
     1
290
     0
176
     1
 90
        1
176
     1
 40
0.0
176
     1
 90
        0
176
     1
290
     0
176
     1
290
     1
176
     1
290
     1
176
     1
290
     0
176
     1
290
     0
176
     1
290
     0
176
     1
290
     0
176
     1
290
     0
176
     1
290
     0
176
     1
 90
       50
176
     1
 40
0.0
176
     1
 40
1.0
176
     1
 90
        0
176
     1
 62
    18
420
        0
176
     1
 90
       50
176
     1
 90
        3
176
     1
 62
     5
420
      255
176
     1
290
     0
176
     1
 90
       50
176
     1
 90
       50
176
     1
 90
       50
176
     1
290
     0
176
     1
 90
       50
176
     1
 62
   256
176
     0
 40
1.0
176
     0
 90
        2
176
     1
  1
strokes_ogs.tif
176
     1
290
     0
176
     1
 40
1.0
176
     1
 40
1.0
176
     1
  0
VISUALSTYLE
  5
7B3
102
{ACAD_REACTORS
330
2A
102
}
330
2A
100
AcDbVisualStyle
  2
Sketchy
 70
    24
177
     3
291
     0
 70
    58
 90
        1
176
     1
 90
        2
176
     1
 90
        2
176
     1
 90
        0
176
     1
 40
0.6
176
     1
 40
30.0
176
     1
 62
     7
420
 16777215
176
     1
 90
        2
176
     1
 90
        2
176
     1
 62
     7
176
     1
 62
     7
176
     1
 90
        1
176
     1
 90
        1
176
     1
 40
40.0
176
     1
 90
       11
176
     1
 62
     7
176
     1
 40
1.0
176
     1
 90
        1
176
     1
 90
        6
176
     1
 90
        2
176
     1
 62
     7
176
     1
 90
        6
176
     1
 90
        0
176
     1
 90
        0
176
     1
290
     0
176
     1
 90
        1
176
     1
 40
0.0
176
     1
 90
        0
176
     1
290
     0
176
     1
290
     1
176
     1
290
     1
176
     1
290
     0
176
     1
290
     0
176
     1
290
     0
176
     1
290
     0
176
     1
290
     0
176
     1
290
     0
176
     1
 90
       50
176
     1
 40
0.0
176
     1
 40
1.0
176
     1
 90
        0
176
     1
 62
    18
420
        0
176
     1
 90
       50
176
     1
 90
        3
176
     1
 62
     5
420
      255
176
     1
290
     0
176
     1
 90
       50
176
     1
 90
       50
176
     1
 90
       50
176
     1
290
     0
176
     1
 90
       50
176
     1
 62
   256
176
     0
 40
1.0
176
     0
 90
        2
176
     1
  1
strokes_ogs.tif
176
     1
290
     0
176
     1
 40
1.0
176
     1
 40
1.0
176
     1
  0
VISUALSTYLE
  5
37
102
{ACAD_REACTORS
330
2A
102
}
330
2A
100
AcDbVisualStyle
  2
Thicken
 70
    13
177
     3
291
     1
 70
    58
 90
        2
176
     1
 90
        2
176
     1
 90
        0
176
     1
 90
        0
176
     1
 40
0.6
176
     1
 40
30.0
176
     1
 62
     7
420
 16777215
176
     1
 90
        1
176
     1
 90
        4
176
     1
 62
     7
176
     1
 62
   257
176
     1
 90
        1
176
     1
 90
        1
176
     1
 40
1.0
176
     1
 90
       12
176
     1
 62
     7
176
     1
 40
1.0
176
     1
 90
        1
176
     1
 90
        6
176
     1
 90
        2
176
     1
 62
     7
176
     1
 90
        5
176
     1
 90
        0
176
     1
 90
        0
176
     1
290
     0
176
     1
 90
        1
176
     1
 40
0.0
176
     1
 90
        0
176
     1
290
     0
176
     1
290
     1
176
     1
290
     1
176
     1
290
     0
176
     1
290
     0
176
     1
290
     0
176
     1
290
     0
176
     1
290
     0
176
     1
290
     0
176
     1
 90
       50
176
     1
 40
0.0
176
     1
 40
1.0
176
     1
 90
        0
176
     1
 62
    18
420
        0
176
     1
 90
       50
176
     1
 90
        3
176
     1
 62
     5
420
      255
176
     1
290
     0
176
     1
 90
       50
176
     1
 90
       50
176
     1
 90
       50
176
     1
290
     0
176
     1
 90
       50
176
     1
 62
   256
176
     0
 40
1.0
176
     0
 90
        2
176
     1
  1
strokes_ogs.tif
176
     1
290
     0
176
     1
 40
1.0
176
     1
 40
1.0
176
     1
  0
VISUALSTYLE
  5
7B0
102
{ACAD_REACTORS
330
2A
102
}
330
2A
100
AcDbVisualStyle
  2
Wireframe
 70
     5
177
     3
291
     0
 70
    58
 90
        0
176
     1
 90
        2
176
     1
 90
        0
176
     1
 90
        0
176
     1
 40
0.6
176
     1
 40
30.0
176
     1
 62
     7
420
 16777215
176
     1
 90
        1
176
     1
 90
        4
176
     1
 62
     7
176
     1
 62
   257
176
     1
 90
        1
176
     1
 90
        1
176
     1
 40
1.0
176
     1
 90
        0
176
     1
 62
   257
176
     1
 40
1.0
176
     1
 90
        1
176
     1
 90
        6
176
     1
 90
        2
176
     1
 62
     7
176
     1
 90
        3
176
     1
 90
        0
176
     1
 90
        0
176
     1
290
     0
176
     1
 90
        1
176
     1
 40
0.0
176
     1
 90
        0
176
     1
290
     0
176
     1
290
     1
176
     1
290
     1
176
     1
290
     0
176
     1
290
     0
176
     1
290
     0
176
     1
290
     0
176
     1
290
     0
176
     1
290
     0
176
     1
 90
       50
176
     1
 40
0.0
176
     1
 40
1.0
176
     1
 90
        0
176
     1
 62
    18
420
        0
176
     1
 90
       50
176
     1
 90
        3
176
     1
 62
     5
420
      255
176
     1
290
     0
176
     1
 90
       50
176
     1
 90
       50
176
     1
 90
       50
176
     1
290
     0
176
     1
 90
       50
176
     1
 62
   256
176
     0
 40
1.0
176
     0
 90
        2
176
     1
  1
strokes_ogs.tif
176
     1
290
     0
176
     1
 40
1.0
176
     1
 40
1.0
176
     1
  0
VISUALSTYLE
  5
7B4
102
{ACAD_REACTORS
330
2A
102
}
330
2A
100
AcDbVisualStyle
  2
X-Ray
 70
    25
177
     3
291
     0
 70
    58
 90
        2
176
     1
 90
        2
176
     1
 90
        1
176
     1
 90
        1
176
     1
 40
0.5
176
     1
 40
30.0
176
     1
 62
     7
420
 16777215
176
     1
 90
        1
176
     1
 90
        0
176
     1
 62
     7
176
     1
 62
   257
176
     1
 90
        1
176
     1
 90
        1
176
     1
 40
1.0
176
     1
 90
        8
176
     1
 62
     7
176
     1
 40
1.0
176
     1
 90
        1
176
     1
 90
        6
176
     1
 90
        2
176
     1
 62
     7
176
     1
 90
        3
176
     1
 90
        0
176
     1
 90
        0
176
     1
290
     0
176
     1
 90
       13
176
     1
 40
0.0
176
     1
 90
        0
176
     1
290
     0
176
     1
290
     1
176
     1
290
     1
176
     1
290
     0
176
     1
290
     0
176
     1
290
     0
176
     1
290
     0
176
     1
290
     0
176
     1
290
     0
176
     1
 90
       50
176
     1
 40
0.0
176
     1
 40
1.0
176
     1
 90
        0
176
     1
 62
    18
420
        0
176
     1
 90
       50
176
     1
 90
        3
176
     1
 62
     5
420
      255
176
     1
290
     0
176
     1
 90
       50
176
     1
 90
       50
176
     1
 90
       50
176
     1
290
     0
176
     1
 90
       50
176
     1
 62
   256
176
     0
 40
1.0
176
     0
 90
        2
176
     1
  1
strokes_ogs.tif
176
     1
290
     0
176
     1
 40
1.0
176
     1
 40
1.0
176
     1
  0
DICTIONARYVAR
  5
457
102
{ACAD_REACTORS
330
453
102
}
330
453
100
DictionaryVariables
280
     0
  1
1:1
  0
DICTIONARYVAR
  5
455
102
{ACAD_REACTORS
330
453
102
}
330
453
100
DictionaryVariables
280
     0
  1
STANDARD
  0
DICTIONARYVAR
  5
454
102
{ACAD_REACTORS
330
453
102
}
330
453
100
DictionaryVariables
280
     0
  1
STANDARD
  0
DICTIONARYVAR
  5
80E
102
{ACAD_REACTORS
330
453
102
}
330
453
100
DictionaryVariables
280
     0
  1
Imperial24
  0
DICTIONARYVAR
  5
80F
102
{ACAD_REACTORS
330
453
102
}
330
453
100
DictionaryVariables
280
     0
  1
Imperial24
  0
DICTIONARYVAR
  5
459
102
{ACAD_REACTORS
330
453
102
}
330
453
100
DictionaryVariables
280
     0
  1
1
  0
DICTIONARYVAR
  5
45A
102
{ACAD_REACTORS
330
453
102
}
330
453
100
DictionaryVariables
280
     0
  1
15
  0
DICTIONARYVAR
  5
458
102
{ACAD_REACTORS
330
453
102
}
330
453
100
DictionaryVariables
280
     0
  1
0
  0
DICTIONARYVAR
  5
456
102
{ACAD_REACTORS
330
453
102
}
330
453
100
DictionaryVariables
280
     0
  1
0
  0
DICTIONARY
  5
451
330
22
100
AcDbDictionary
280
     1
281
     1
  0
DICTIONARY
  5
409
330
408
100
AcDbDictionary
280
     1
281
     1
  3
BUMPTILE
360
40B
  3
DIFFUSETILE
360
40A
  3
OPACITYTILE
360
40E
  3
REFLECTIONTILE
360
40D
  3
REFRACTIONTILE
360
40F
  3
SPECULARTILE
360
40C
  0
DICTIONARY
  5
401
330
400
100
AcDbDictionary
280
     1
281
     1
  3
BUMPTILE
360
403
  3
DIFFUSETILE
360
402
  3
OPACITYTILE
360
406
  3
REFLECTIONTILE
360
405
  3
REFRACTIONTILE
360
407
  3
SPECULARTILE
360
404
  0
DICTIONARY
  5
411
330
410
100
AcDbDictionary
280
     1
281
     1
  3
BUMPTILE
360
413
  3
DIFFUSETILE
360
412
  3
OPACITYTILE
360
416
  3
REFLECTIONTILE
360
415
  3
REFRACTIONTILE
360
417
  3
SPECULARTILE
360
414
  0
DICTIONARY
  5
985
330
41C
100
AcDbDictionary
280
     1
281
     1
  3
ACAD_ROUNDTRIP_2008_TABLESTYLE_CELLSTYLEMAP
360
986
  0
XRECORD
  5
40B
102
{ACAD_REACTORS
330
409
102
}
330
409
100
AcDbXrecord
280
     1
270
     1
271
     1
  0
XRECORD
  5
40A
102
{ACAD_REACTORS
330
409
102
}
330
409
100
AcDbXrecord
280
     1
270
     1
271
     1
  0
XRECORD
  5
40E
102
{ACAD_REACTORS
330
409
102
}
330
409
100
AcDbXrecord
280
     1
270
     1
271
     1
  0
XRECORD
  5
40D
102
{ACAD_REACTORS
330
409
102
}
330
409
100
AcDbXrecord
280
     1
270
     1
271
     1
  0
XRECORD
  5
40F
102
{ACAD_REACTORS
330
409
102
}
330
409
100
AcDbXrecord
280
     1
270
     1
271
     1
  0
XRECORD
  5
40C
102
{ACAD_REACTORS
330
409
102
}
330
409
100
AcDbXrecord
280
     1
270
     1
271
     1
  0
XRECORD
  5
403
102
{ACAD_REACTORS
330
401
102
}
330
401
100
AcDbXrecord
280
     1
270
     1
271
     1
  0
XRECORD
  5
402
102
{ACAD_REACTORS
330
401
102
}
330
401
100
AcDbXrecord
280
     1
270
     1
271
     1
  0
XRECORD
  5
406
102
{ACAD_REACTORS
330
401
102
}
330
401
100
AcDbXrecord
280
     1
270
     1
271
     1
  0
XRECORD
  5
405
102
{ACAD_REACTORS
330
401
102
}
330
401
100
AcDbXrecord
280
     1
270
     1
271
     1
  0
XRECORD
  5
407
102
{ACAD_REACTORS
330
401
102
}
330
401
100
AcDbXrecord
280
     1
270
     1
271
     1
  0
XRECORD
  5
404
102
{ACAD_REACTORS
330
401
102
}
330
401
100
AcDbXrecord
280
     1
270
     1
271
     1
  0
XRECORD
  5
413
102
{ACAD_REACTORS
330
411
102
}
330
411
100
AcDbXrecord
280
     1
270
     1
271
     1
  0
XRECORD
  5
412
102
{ACAD_REACTORS
330
411
102
}
330
411
100
AcDbXrecord
280
     1
270
     1
271
     1
  0
XRECORD
  5
416
102
{ACAD_REACTORS
330
411
102
}
330
411
100
AcDbXrecord
280
     1
270
     1
271
     1
  0
XRECORD
  5
415
102
{ACAD_REACTORS
330
411
102
}
330
411
100
AcDbXrecord
280
     1
270
     1
271
     1
  0
XRECORD
  5
417
102
{ACAD_REACTORS
330
411
102
}
330
411
100
AcDbXrecord
280
     1
270
     1
271
     1
  0
XRECORD
  5
414
102
{ACAD_REACTORS
330
411
102
}
330
411
100
AcDbXrecord
280
     1
270
     1
271
     1
  0
CELLSTYLEMAP
  5
986
102
{ACAD_REACTORS
330
985
102
}
330
985
100
AcDbCellStyleMap
 90
        3
300
CELLSTYLE
  1
TABLEFORMAT_BEGIN
 90
        5
170
     1
 91
        0
 92
    32768
 62
   257
 93
        1
300
CONTENTFORMAT
  1
CONTENTFORMAT_BEGIN
 90
        0
 91
        0
 92
      512
 93
        0
300

 40
0.0
140
1.0
 94
        5
 62
     0
340
11
144
0.25
309
CONTENTFORMAT_END
171
     0
 94
        0
309
TABLEFORMAT_END
  1
CELLSTYLE_BEGIN
 90
        1
 91
        1
300
_TITLE
309
CELLSTYLE_END
300
CELLSTYLE
  1
TABLEFORMAT_BEGIN
 90
        5
170
     1
 91
        0
 92
        0
 62
   257
 93
        1
300
CONTENTFORMAT
  1
CONTENTFORMAT_BEGIN
 90
        0
 91
        0
 92
      512
 93
        0
300

 40
0.0
140
1.0
 94
        5
 62
     0
340
11
144
0.18
309
CONTENTFORMAT_END
171
     0
 94
        0
309
TABLEFORMAT_END
  1
CELLSTYLE_BEGIN
 90
        2
 91
        1
300
_HEADER
309
CELLSTYLE_END
300
CELLSTYLE
  1
TABLEFORMAT_BEGIN
 90
        5
170
     1
 91
        0
 92
        0
 62
   257
 93
        1
300
CONTENTFORMAT
  1
CONTENTFORMAT_BEGIN
 90
        0
 91
        0
 92
      512
 93
        0
300

 40
0.0
140
1.0
 94
        2
 62
     0
340
11
144
0.18
309
CONTENTFORMAT_END
171
     0
 94
        0
309
TABLEFORMAT_END
  1
CELLSTYLE_BEGIN
 90
        3
 91
        2
300
_DATA
309
CELLSTYLE_END
  0
ENDSEC
  0
SECTION
  2
ACDSDATA
 70
     2
 71
     8
  0
ACDSSCHEMA
 90
        0
  1
AcDb_Thumbnail_Schema
  2
AcDbDs::ID
280
    10
 91
        8
  2
Thumbnail_Data
280
    15
 91
        0
101
ACDSRECORD
 95
        0
 90
        1
  2
AcDbDs::TreatedAsObjectData
280
     1
291
     1
101
ACDSRECORD
 95
        0
 90
        2
  2
AcDbDs::Legacy
280
     1
291
     1
101
ACDSRECORD
  1
AcDbDs::ID
 90
        3
  2
AcDs:Indexable
280
     1
291
     1
101
ACDSRECORD
  1
AcDbDs::ID
 90
        4
  2
AcDbDs::HandleAttribute
280
     7
282
     1
  0
ACDSSCHEMA
 90
        1
  1
AcDbDs::TreatedAsObjectDataSchema
  2
AcDbDs::TreatedAsObjectData
280
     1
 91
        0
  0
ACDSSCHEMA
 90
        2
  1
AcDbDs::LegacySchema
  2
AcDbDs::Legacy
280
     1
 91
        0
  0
ACDSSCHEMA
 90
        3
  1
AcDbDs::IndexedPropertySchema
  2
AcDs:Indexable
280
     1
 91
        0
  0
ACDSSCHEMA
 90
        4
  1
AcDbDs::HandleAttributeSchema
  2
AcDbDs::HandleAttribute
280
     7
 91
        1
284
     1
  0
ACDSRECORD
 90
        0
  2
AcDbDs::ID
280
    10
320
22
  2
Thumbnail_Data
280
    15
 94
     1224
310
89504E470D0A1A0A0000000D49484452000001000000006F08030000003479EE6F00000300504C5445212830FFFFFF2128300000000000000000000000000000000000000000000000000000330000660000990000CC0000FF0033000033330033660033990033CC0033FF0066000066330066660066990066CC0066FF0099
310
000099330099660099990099CC0099FF00CC0000CC3300CC6600CC9900CCCC00CCFF00FF0000FF3300FF6600FF9900FFCC00FFFF3300003300333300663300993300CC3300FF3333003333333333663333993333CC3333FF3366003366333366663366993366CC3366FF3399003399333399663399993399CC3399FF33CC00
310
33CC3333CC6633CC9933CCCC33CCFF33FF0033FF3333FF6633FF9933FFCC33FFFF6600006600336600666600996600CC6600FF6633006633336633666633996633CC6633FF6666006666336666666666996666CC6666FF6699006699336699666699996699CC6699FF66CC0066CC3366CC6666CC9966CCCC66CCFF66FF0066
310
FF3366FF6666FF9966FFCC66FFFF9900009900339900669900999900CC9900FF9933009933339933669933999933CC9933FF9966009966339966669966999966CC9966FF9999009999339999669999999999CC9999FF99CC0099CC3399CC6699CC9999CCCC99CCFF99FF0099FF3399FF6699FF9999FFCC99FFFFCC0000CC00
310
33CC0066CC0099CC00CCCC00FFCC3300CC3333CC3366CC3399CC33CCCC33FFCC6600CC6633CC6666CC6699CC66CCCC66FFCC9900CC9933CC9966CC9999CC99CCCC99FFCCCC00CCCC33CCCC66CCCC99CCCCCCCCCCFFCCFF00CCFF33CCFF66CCFF99CCFFCCCCFFFFFF0000FF0033FF0066FF0099FF00CCFF00FFFF3300FF3333
310
FF3366FF3399FF33CCFF33FFFF6600FF6633FF6666FF6699FF66CCFF66FFFF9900FF9933FF9966FF9999FF99CCFF99FFFFCC00FFCC33FFCC66FFCC99FFCCCCFFCCFFFFFF00FFFF33FFFF66FFFF99FFFFCCFFFFFF0000000D0D0D1A1A1A2828283535354343435050505D5D5D6B6B6B787878868686939393A1A1A1AEAEAEBB
310
BBBBC9C9C9D6D6D6E4E4E4F1F1F1FFFFFF0000000000000000000000000000000000000000000000000000000000002E4550F1000000B64944415478DAEDD9310AC330104541DDFF98B9C3F6219D152C7017C89BA964775E568BBEBC16F05B33A3000A00E92D30B6810E784CC1CC804E01B6D7B326599AEB63E3A3F775AE00
310
DB6E38ADFFBD01E6AE033EEB291660EEB743B303723300B706C290304479F00B43C530742A4066FE4DBC007B1A1486825940188A5F887CB7C3ABD601D2201C0E426B64015940017AE780F849B01886AED3DE9FA1FCCFD1FA8508C2100000000000000000000000000000008FBC0113853FA3B6126CB70000000049454E44AE
310
426082657098153F21298027328506207811885BF1CEDBE3724DAE92A6BB8B92C95B616781A0E3F0D41324A015B0300BA6A668D645C9AB022A4A40E764AD807F4DD1A90C122005720E3E683C11000000000000000000000000800FF30BFB8B5A05857672180000000049454E44AE4260828888C87B5C01CD6BF230C767726E
310
0000000049454E44AE42608272ADBB00AFB49505C887A2521540AC03E942492D02C0B9073ECF0A03F0533E1F0C5A0200000000000000000000E00F5C019399153E01B6AC510000000049454E44AE426082
  0
ENDSEC
  0
EOF
