  0
SECTION
  2
HEADER
  9
$ACADVER
  1
AC1032
  9
$ACADMAINTVER
 90
        4
  9
$DWGCODEPAGE
  3
ANSI_1252
  9
$LASTSAVEDBY
  1
jesse.cowley
  9
$REQUIREDVERSIONS
160
                 0
  9
$INSBASE
 10
0.0
 20
0.0
 30
0.0
  9
$EXTMIN
 10
2.915563901075074
 20
9.385930303883263
 30
0.0
  9
$EXTMAX
 10
8015.760449467649
 20
4734.394077055107
 30
0.0
  9
$LIMMIN
 10
0.0
 20
0.0
  9
$LIMMAX
 10
12.0
 20
9.0
  9
$ORTHOMODE
 70
     0
  9
$REGENMODE
 70
     1
  9
$FILLMODE
 70
     1
  9
$QTEXTMODE
 70
     0
  9
$MIRRTEXT
 70
     0
  9
$LTSCALE
 40
1.0
  9
$ATTMODE
 70
     1
  9
$TEXTSIZE
 40
0.2
  9
$TRACEWID
 40
0.05
  9
$TEXTSTYLE
  7
Standard
  9
$CLAYER
  8
0
  9
$CELTYPE
  6
ByLayer
  9
$CECOLOR
 62
   256
  9
$CELTSCALE
 40
1.0
  9
$DISPSILH
 70
     0
  9
$DIMSCALE
 40
1.0
  9
$DIMASZ
 40
0.18
  9
$DIMEXO
 40
0.0625
  9
$DIMDLI
 40
0.38
  9
$DIMRND
 40
0.0
  9
$DIMDLE
 40
0.0
  9
$DIMEXE
 40
0.18
  9
$DIMTP
 40
0.0
  9
$DIMTM
 40
0.0
  9
$DIMTXT
 40
0.18
  9
$DIMCEN
 40
0.09
  9
$DIMTSZ
 40
0.0
  9
$DIMTOL
 70
     0
  9
$DIMLIM
 70
     0
  9
$DIMTIH
 70
     1
  9
$DIMTOH
 70
     1
  9
$DIMSE1
 70
     0
  9
$DIMSE2
 70
     0
  9
$DIMTAD
 70
     0
  9
$DIMZIN
 70
     0
  9
$DIMBLK
  1

  9
$DIMASO
 70
     1
  9
$DIMSHO
 70
     1
  9
$DIMPOST
  1

  9
$DIMAPOST
  1

  9
$DIMALT
 70
     0
  9
$DIMALTD
 70
     2
  9
$DIMALTF
 40
25.4
  9
$DIMLFAC
 40
1.0
  9
$DIMTOFL
 70
     0
  9
$DIMTVP
 40
0.0
  9
$DIMTIX
 70
     0
  9
$DIMSOXD
 70
     0
  9
$DIMSAH
 70
     0
  9
$DIMBLK1
  1

  9
$DIMBLK2
  1

  9
$DIMSTYLE
  2
Standard
  9
$DIMCLRD
 70
     0
  9
$DIMCLRE
 70
     0
  9
$DIMCLRT
 70
     0
  9
$DIMTFAC
 40
1.0
  9
$DIMGAP
 40
0.09
  9
$DIMJUST
 70
     0
  9
$DIMSD1
 70
     0
  9
$DIMSD2
 70
     0
  9
$DIMTOLJ
 70
     1
  9
$DIMTZIN
 70
     0
  9
$DIMALTZ
 70
     0
  9
$DIMALTTZ
 70
     0
  9
$DIMUPT
 70
     0
  9
$DIMDEC
 70
     4
  9
$DIMTDEC
 70
     4
  9
$DIMALTU
 70
     2
  9
$DIMALTTD
 70
     2
  9
$DIMTXSTY
  7
Standard
  9
$DIMAUNIT
 70
     0
  9
$DIMADEC
 70
     0
  9
$DIMALTRND
 40
0.0
  9
$DIMAZIN
 70
     0
  9
$DIMDSEP
 70
    46
  9
$DIMATFIT
 70
     3
  9
$DIMFRAC
 70
     0
  9
$DIMLDRBLK
  1

  9
$DIMLUNIT
 70
     2
  9
$DIMLWD
 70
    -2
  9
$DIMLWE
 70
    -2
  9
$DIMTMOVE
 70
     0
  9
$DIMFXL
 40
1.0
  9
$DIMFXLON
 70
     0
  9
$DIMJOGANG
 40
0.7853981633974483
  9
$DIMTFILL
 70
     0
  9
$DIMTFILLCLR
 70
     0
  9
$DIMARCSYM
 70
     0
  9
$DIMLTYPE
  6

  9
$DIMLTEX1
  6

  9
$DIMLTEX2
  6

  9
$DIMTXTDIRECTION
 70
     0
  9
$LUNITS
 70
     2
  9
$LUPREC
 70
     4
  9
$SKETCHINC
 40
0.1
  9
$FILLETRAD
 40
0.0
  9
$AUNITS
 70
     0
  9
$AUPREC
 70
     0
  9
$MENU
  1
.
  9
$ELEVATION
 40
0.0
  9
$PELEVATION
 40
0.0
  9
$THICKNESS
 40
0.0
  9
$LIMCHECK
 70
     0
  9
$CHAMFERA
 40
0.0
  9
$CHAMFERB
 40
0.0
  9
$CHAMFERC
 40
0.0
  9
$CHAMFERD
 40
0.0
  9
$SKPOLY
 70
     0
  9
$TDCREATE
 40
2457261.514849537
  9
$TDUCREATE
 40
2457261.098187291
  9
$TDUPDATE
 40
2458442.437453704
  9
$TDUUPDATE
 40
2458441.979120371
  9
$TDINDWG
 40
0.0068014583
  9
$TDUSRTIMER
 40
0.0068014468
  9
$USRTIMER
 70
     1
  9
$ANGBASE
 50
0.0
  9
$ANGDIR
 70
     0
  9
$PDMODE
 70
     0
  9
$PDSIZE
 40
0.0
  9
$PLINEWID
 40
0.0
  9
$SPLFRAME
 70
     0
  9
$SPLINETYPE
 70
     6
  9
$SPLINESEGS
 70
     8
  9
$HANDSEED
  5
50B
  9
$SURFTAB1
 70
     6
  9
$SURFTAB2
 70
     6
  9
$SURFTYPE
 70
     6
  9
$SURFU
 70
     6
  9
$SURFV
 70
     6
  9
$UCSBASE
  2

  9
$UCSNAME
  2

  9
$UCSORG
 10
0.0
 20
0.0
 30
0.0
  9
$UCSXDIR
 10
1.0
 20
0.0
 30
0.0
  9
$UCSYDIR
 10
0.0
 20
1.0
 30
0.0
  9
$UCSORTHOREF
  2

  9
$UCSORTHOVIEW
 70
     0
  9
$UCSORGTOP
 10
0.0
 20
0.0
 30
0.0
  9
$UCSORGBOTTOM
 10
0.0
 20
0.0
 30
0.0
  9
$UCSORGLEFT
 10
0.0
 20
0.0
 30
0.0
  9
$UCSORGRIGHT
 10
0.0
 20
0.0
 30
0.0
  9
$UCSORGFRONT
 10
0.0
 20
0.0
 30
0.0
  9
$UCSORGBACK
 10
0.0
 20
0.0
 30
0.0
  9
$PUCSBASE
  2

  9
$PUCSNAME
  2

  9
$PUCSORG
 10
0.0
 20
0.0
 30
0.0
  9
$PUCSXDIR
 10
1.0
 20
0.0
 30
0.0
  9
$PUCSYDIR
 10
0.0
 20
1.0
 30
0.0
  9
$PUCSORTHOREF
  2

  9
$PUCSORTHOVIEW
 70
     0
  9
$PUCSORGTOP
 10
0.0
 20
0.0
 30
0.0
  9
$PUCSORGBOTTOM
 10
0.0
 20
0.0
 30
0.0
  9
$PUCSORGLEFT
 10
0.0
 20
0.0
 30
0.0
  9
$PUCSORGRIGHT
 10
0.0
 20
0.0
 30
0.0
  9
$PUCSORGFRONT
 10
0.0
 20
0.0
 30
0.0
  9
$PUCSORGBACK
 10
0.0
 20
0.0
 30
0.0
  9
$USERI1
 70
     0
  9
$USERI2
 70
     0
  9
$USERI3
 70
     0
  9
$USERI4
 70
     0
  9
$USERI5
 70
     0
  9
$USERR1
 40
0.0
  9
$USERR2
 40
0.0
  9
$USERR3
 40
0.0
  9
$USERR4
 40
0.0
  9
$USERR5
 40
0.0
  9
$WORLDVIEW
 70
     1
  9
$SHADEDGE
 70
     3
  9
$SHADEDIF
 70
    70
  9
$TILEMODE
 70
     1
  9
$MAXACTVP
 70
    64
  9
$PINSBASE
 10
0.0
 20
0.0
 30
0.0
  9
$PLIMCHECK
 70
     0
  9
$PEXTMIN
 10
0.0
 20
0.0
 30
0.0
  9
$PEXTMAX
 10
0.0
 20
0.0
 30
0.0
  9
$PLIMMIN
 10
0.0
 20
0.0
  9
$PLIMMAX
 10
12.0
 20
9.0
  9
$UNITMODE
 70
     0
  9
$VISRETAIN
 70
     1
  9
$PLINEGEN
 70
     0
  9
$PSLTSCALE
 70
     1
  9
$TREEDEPTH
 70
  3020
  9
$CMLSTYLE
  2
Standard
  9
$CMLJUST
 70
     0
  9
$CMLSCALE
 40
1.0
  9
$PROXYGRAPHICS
 70
     1
  9
$MEASUREMENT
 70
     0
  9
$CELWEIGHT
370
    -1
  9
$ENDCAPS
280
     0
  9
$JOINSTYLE
280
     0
  9
$LWDISPLAY
290
     0
  9
$INSUNITS
 70
     1
  9
$HYPERLINKBASE
  1

  9
$STYLESHEET
  1

  9
$XEDIT
290
     1
  9
$CEPSNTYPE
380
     0
  9
$PSTYLEMODE
290
     1
  9
$FINGERPRINTGUID
  2
{D2964051-5470-41B4-9E55-547FDCCAB028}
  9
$VERSIONGUID
  2
{2360B834-674D-7544-ACA1-CFF8BB0C8342}
  9
$EXTNAMES
290
     1
  9
$PSVPSCALE
 40
0.0
  9
$OLESTARTUP
290
     0
  9
$SORTENTS
280
   127
  9
$INDEXCTL
280
     0
  9
$HIDETEXT
280
     1
  9
$XCLIPFRAME
280
     2
  9
$HALOGAP
280
     0
  9
$OBSCOLOR
 70
   257
  9
$OBSLTYPE
280
     0
  9
$INTERSECTIONDISPLAY
280
     0
  9
$INTERSECTIONCOLOR
 70
   257
  9
$DIMASSOC
280
     2
  9
$PROJECTNAME
  1

  9
$CAMERADISPLAY
290
     0
  9
$LENSLENGTH
 40
50.0
  9
$CAMERAHEIGHT
 40
0.0
  9
$STEPSPERSEC
 40
2.0
  9
$STEPSIZE
 40
6.0
  9
$3DDWFPREC
 40
2.0
  9
$PSOLWIDTH
 40
0.25
  9
$PSOLHEIGHT
 40
4.0
  9
$LOFTANG1
 40
1.570796326794896
  9
$LOFTANG2
 40
1.570796326794896
  9
$LOFTMAG1
 40
0.0
  9
$LOFTMAG2
 40
0.0
  9
$LOFTPARAM
 70
     7
  9
$LOFTNORMALS
280
     1
  9
$LATITUDE
 40
37.795
  9
$LONGITUDE
 40
-122.394
  9
$NORTHDIRECTION
 40
0.0
  9
$TIMEZONE
 70
 -8000
  9
$LIGHTGLYPHDISPLAY
280
     1
  9
$TILEMODELIGHTSYNCH
280
     1
  9
$CMATERIAL
347
96
  9
$SOLIDHIST
280
     0
  9
$SHOWHIST
280
     1
  9
$DWFFRAME
280
     2
  9
$DGNFRAME
280
     0
  9
$REALWORLDSCALE
290
     1
  9
$INTERFERECOLOR
 62
     1
  9
$INTERFEREOBJVS
345
A3
  9
$INTERFEREVPVS
346
A0
  9
$CSHADOW
280
     0
  9
$SHADOWPLANELOCATION
 40
0.0
  0
ENDSEC
  0
SECTION
  2
CLASSES
  0
CLASS
  1
ACDBDICTIONARYWDFLT
  2
AcDbDictionaryWithDefault
  3
ObjectDBX Classes
 90
        0
 91
        1
280
     0
281
     0
  0
CLASS
  1
DICTIONARYVAR
  2
AcDbDictionaryVar
  3
ObjectDBX Classes
 90
        0
 91
        9
280
     0
281
     0
  0
CLASS
  1
TABLESTYLE
  2
AcDbTableStyle
  3
ObjectDBX Classes
 90
     4095
 91
        1
280
     0
281
     0
  0
CLASS
  1
MATERIAL
  2
AcDbMaterial
  3
ObjectDBX Classes
 90
     1153
 91
        3
280
     0
281
     0
  0
CLASS
  1
VISUALSTYLE
  2
AcDbVisualStyle
  3
ObjectDBX Classes
 90
     4095
 91
       24
280
     0
281
     0
  0
CLASS
  1
SCALE
  2
AcDbScale
  3
ObjectDBX Classes
 90
     1153
 91
       33
280
     0
281
     0
  0
CLASS
  1
MLEADERSTYLE
  2
AcDbMLeaderStyle
  3
ACDB_MLEADERSTYLE_CLASS
 90
     4095
 91
        2
280
     0
281
     0
  0
CLASS
  1
CELLSTYLEMAP
  2
AcDbCellStyleMap
  3
ObjectDBX Classes
 90
     1152
 91
        1
280
     0
281
     0
  0
CLASS
  1
EXACXREFPANELOBJECT
  2
ExAcXREFPanelObject
  3
EXAC_ESW
 90
     1025
 91
        1
280
     0
281
     0
  0
CLASS
  1
NPOCOLLECTION
  2
AcDbImpNonPersistentObjectsCollection
  3
ObjectDBX Classes
 90
     1153
 91
        1
280
     0
281
     0
  0
CLASS
  1
LAYER_INDEX
  2
AcDbLayerIndex
  3
ObjectDBX Classes
 90
        0
 91
        0
280
     0
281
     0
  0
CLASS
  1
SPATIAL_INDEX
  2
AcDbSpatialIndex
  3
ObjectDBX Classes
 90
        0
 91
        0
280
     0
281
     0
  0
CLASS
  1
IDBUFFER
  2
AcDbIdBuffer
  3
ObjectDBX Classes
 90
        0
 91
        0
280
     0
281
     0
  0
CLASS
  1
ACDBSECTIONVIEWSTYLE
  2
AcDbSectionViewStyle
  3
ObjectDBX Classes
 90
     1025
 91
        1
280
     0
281
     0
  0
CLASS
  1
ACDBDETAILVIEWSTYLE
  2
AcDbDetailViewStyle
  3
ObjectDBX Classes
 90
     1025
 91
        1
280
     0
281
     0
  0
CLASS
  1
SORTENTSTABLE
  2
AcDbSortentsTable
  3
ObjectDBX Classes
 90
        0
 91
        0
280
     0
281
     0
  0
ENDSEC
  0
SECTION
  2
TABLES
  0
TABLE
  2
VPORT
  5
8
330
0
100
AcDbSymbolTable
 70
     1
  0
VPORT
  5
94
330
8
100
AcDbSymbolTableRecord
100
AcDbViewportTableRecord
  2
*Active
 70
     0
 10
0.0
 20
0.0
 11
1.0
 21
1.0
 12
2057.055031211938
 22
-323.3681024631214
 13
0.0
 23
0.0
 14
0.5
 24
0.5
 15
0.5
 25
0.5
 16
0.0
 26
0.0
 36
1.0
 17
0.0
 27
0.0
 37
0.0
 40
13226.91422381261
 41
2.292712066905615
 42
50.0
 43
0.0
 44
0.0
 50
0.0
 51
0.0
 71
     0
 72
  1000
 73
     1
 74
     3
 75
     0
 76
     1
 77
     0
 78
     0
281
     0
 65
     1
110
0.0
120
0.0
130
0.0
111
1.0
121
0.0
131
0.0
112
0.0
122
1.0
132
0.0
 79
     0
146
0.0
348
9F
 60
     3
 61
     5
292
     1
282
     1
141
0.0
142
0.0
 63
   250
421
  3355443
1001
ACAD_NAV_VCDISPLAY
1070
     3
  0
ENDTAB
  0
TABLE
  2
LTYPE
  5
5
330
0
100
AcDbSymbolTable
 70
     1
  0
LTYPE
  5
14
330
5
100
AcDbSymbolTableRecord
100
AcDbLinetypeTableRecord
  2
ByBlock
 70
     0
  3

 72
    65
 73
     0
 40
0.0
  0
LTYPE
  5
15
330
5
100
AcDbSymbolTableRecord
100
AcDbLinetypeTableRecord
  2
ByLayer
 70
     0
  3

 72
    65
 73
     0
 40
0.0
  0
LTYPE
  5
16
330
5
100
AcDbSymbolTableRecord
100
AcDbLinetypeTableRecord
  2
Continuous
 70
     0
  3
Solid line
 72
    65
 73
     0
 40
0.0
  0
ENDTAB
  0
TABLE
  2
LAYER
  5
2
102
{ACAD_XDICTIONARY
360
18E
102
}
330
0
100
AcDbSymbolTable
 70
     4
  0
LAYER
  5
10
102
{ACAD_XDICTIONARY
360
E6
102
}
330
2
100
AcDbSymbolTableRecord
100
AcDbLayerTableRecord
  2
0
 70
     0
 62
     7
  6
Continuous
370
    -3
390
F
347
98
348
0
  0
LAYER
  5
1DB
102
{ACAD_XDICTIONARY
360
1DC
102
}
330
2
100
AcDbSymbolTableRecord
100
AcDbLayerTableRecord
  2
Furniture
 70
     0
 62
     7
  6
Continuous
370
    -3
390
F
347
98
348
0
  0
LAYER
  5
1DD
102
{ACAD_XDICTIONARY
360
1DE
102
}
330
2
100
AcDbSymbolTableRecord
100
AcDbLayerTableRecord
  2
Text
 70
     0
 62
     7
  6
Continuous
370
    -3
390
F
347
98
348
0
1001
AcAecLayerStandard
1000

1000

1001
AcCmTransparency
1071
        0
  0
LAYER
  5
1DF
102
{ACAD_XDICTIONARY
360
1E0
102
}
330
2
100
AcDbSymbolTableRecord
100
AcDbLayerTableRecord
  2
Dimension
 70
     0
 62
     7
  6
Continuous
370
    -3
390
F
347
98
348
0
1001
AcAecLayerStandard
1000

1000

1001
AcCmTransparency
1071
        0
  0
ENDTAB
  0
TABLE
  2
STYLE
  5
3
330
0
100
AcDbSymbolTable
 70
     2
  0
STYLE
  5
11
330
3
100
AcDbSymbolTableRecord
100
AcDbTextStyleTableRecord
  2
Standard
 70
     0
 40
0.0
 41
1.000099999999999
 50
0.0
 71
     0
 42
0.2
  3
apercu_regular-webfont.ttf
  4

1001
ACAD
1000
Apercu
1071
        2
  0
STYLE
  5
DC
330
3
100
AcDbSymbolTableRecord
100
AcDbTextStyleTableRecord
  2
Annotative
 70
     0
 40
0.0
 41
1.0
 50
0.0
 71
     0
 42
0.2
  3
arial.ttf
  4

1001
AcadAnnotative
1000
AnnotativeData
1002
{
1070
     1
1070
     1
1002
}
1001
ACAD
1000
Arial
1071
       34
  0
ENDTAB
  0
TABLE
  2
VIEW
  5
6
330
0
100
AcDbSymbolTable
 70
     1
  0
ENDTAB
  0
TABLE
  2
UCS
  5
7
330
0
100
AcDbSymbolTable
 70
     0
  0
ENDTAB
  0
TABLE
  2
APPID
  5
9
330
0
100
AcDbSymbolTable
 70
    10
  0
APPID
  5
12
330
9
100
AcDbSymbolTableRecord
100
AcDbRegAppTableRecord
  2
ACAD
 70
     0
  0
APPID
  5
DD
330
9
100
AcDbSymbolTableRecord
100
AcDbRegAppTableRecord
  2
AcadAnnoPO
 70
     0
  0
APPID
  5
DE
330
9
100
AcDbSymbolTableRecord
100
AcDbRegAppTableRecord
  2
AcadAnnotative
 70
     0
  0
APPID
  5
DF
330
9
100
AcDbSymbolTableRecord
100
AcDbRegAppTableRecord
  2
ACAD_DSTYLE_DIMJAG
 70
     0
  0
APPID
  5
E0
330
9
100
AcDbSymbolTableRecord
100
AcDbRegAppTableRecord
  2
ACAD_DSTYLE_DIMTALN
 70
     0
  0
APPID
  5
107
330
9
100
AcDbSymbolTableRecord
100
AcDbRegAppTableRecord
  2
ACAD_MLEADERVER
 70
     0
  0
APPID
  5
1A6
330
9
100
AcDbSymbolTableRecord
100
AcDbRegAppTableRecord
  2
ACAD_NAV_VCDISPLAY
 70
     0
  0
APPID
  5
1E1
330
9
100
AcDbSymbolTableRecord
100
AcDbRegAppTableRecord
  2
AcAecLayerStandard
 70
     0
  0
APPID
  5
1E2
330
9
100
AcDbSymbolTableRecord
100
AcDbRegAppTableRecord
  2
AcCmTransparency
 70
     0
  0
APPID
  5
437
330
9
100
AcDbSymbolTableRecord
100
AcDbRegAppTableRecord
  2
ACAD_EXEMPT_FROM_CAD_STANDARDS
 70
     0
  0
ENDTAB
  0
TABLE
  2
DIMSTYLE
  5
A
330
0
100
AcDbSymbolTable
 70
     2
100
AcDbDimStyleTable
 71
     2
340
27
340
E1
  0
DIMSTYLE
105
27
330
A
100
AcDbSymbolTableRecord
100
AcDbDimStyleTableRecord
  2
Standard
 70
     0
340
11
  0
DIMSTYLE
105
E1
330
A
100
AcDbSymbolTableRecord
100
AcDbDimStyleTableRecord
  2
Annotative
 70
     0
 40
0.0
340
11
1001
AcadAnnotative
1000
AnnotativeData
1002
{
1070
     1
1070
     1
1002
}
1001
ACAD_DSTYLE_DIMJAG
1070
   388
1040
1.5
1001
ACAD_DSTYLE_DIMTALN
1070
   392
1070
     0
  0
ENDTAB
  0
TABLE
  2
BLOCK_RECORD
  5
1
330
0
100
AcDbSymbolTable
 70
     1
  0
BLOCK_RECORD
  5
1F
102
{ACAD_XDICTIONARY
360
15D
102
}
330
1
100
AcDbSymbolTableRecord
100
AcDbBlockTableRecord
  2
*Model_Space
340
22
 70
     0
280
     1
281
     0
  0
BLOCK_RECORD
  5
58
330
1
100
AcDbSymbolTableRecord
100
AcDbBlockTableRecord
  2
*Paper_Space
340
59
 70
     0
280
     1
281
     0
  0
BLOCK_RECORD
  5
5D
330
1
100
AcDbSymbolTableRecord
100
AcDbBlockTableRecord
  2
*Paper_Space0
340
5E
 70
     0
280
     1
281
     0
  0
ENDTAB
  0
ENDSEC
  0
SECTION
  2
BLOCKS
  0
BLOCK
  5
20
330
1F
100
AcDbEntity
  8
0
100
AcDbBlockBegin
  2
*Model_Space
 70
     0
 10
0.0
 20
0.0
 30
0.0
  3
*Model_Space
  1

  0
ENDBLK
  5
21
330
1F
100
AcDbEntity
  8
0
100
AcDbBlockEnd
  0
BLOCK
  5
5A
330
58
100
AcDbEntity
 67
     1
  8
0
100
AcDbBlockBegin
  2
*Paper_Space
 70
     0
 10
0.0
 20
0.0
 30
0.0
  3
*Paper_Space
  1

  0
ENDBLK
  5
5B
330
58
100
AcDbEntity
 67
     1
  8
0
100
AcDbBlockEnd
  0
BLOCK
  5
5F
330
5D
100
AcDbEntity
 67
     1
  8
0
100
AcDbBlockBegin
  2
*Paper_Space0
 70
     0
 10
0.0
 20
0.0
 30
0.0
  3
*Paper_Space0
  1

  0
ENDBLK
  5
60
330
5D
100
AcDbEntity
 67
     1
  8
0
100
AcDbBlockEnd
  0
ENDSEC
  0
SECTION
  2
ENTITIES
  0
TEXT
  5
310
330
1F
100
AcDbEntity
  8
Text
100
AcDbText
 10
6816.455885268985
 20
51.74676731107084
 30
0.0
 40
121.5269914140627
  1
BA40
 41
1.000399999999999
100
AcDbText
  0
TEXT
  5
311
330
1F
100
AcDbEntity
  8
Text
100
AcDbText
 10
6816.455885268985
 20
1345.076121284573
 30
0.0
 40
121.5269914140627
  1
BA30
 41
1.000399999999999
100
AcDbText
  0
TEXT
  5
312
330
1F
100
AcDbEntity
  8
Dimension
100
AcDbText
 10
3179.552309466341
 20
575.9602678681889
 30
0.0
 40
121.5269914140627
  1
50
 41
1.000399999999999
100
AcDbText
  0
TEXT
  5
313
330
1F
100
AcDbEntity
  8
Dimension
100
AcDbText
 10
7324.137851120747
 20
478.2919917288867
 30
0.0
 40
121.5269914140627
  1
30
 41
1.000399999999999
100
AcDbText
  0
TEXT
  5
314
330
1F
100
AcDbEntity
  8
Dimension
100
AcDbText
 10
6897.968537338401
 20
2042.904212499333
 30
0.0
 40
121.5269914140627
  1
30
 41
1.000399999999999
100
AcDbText
  0
TEXT
  5
315
330
1F
100
AcDbEntity
  8
Dimension
100
AcDbText
 10
6913.999690089174
 20
825.0915668808787
 30
0.0
 40
121.5269914140627
  1
40
 41
1.000399999999999
100
AcDbText
  0
LINE
  5
317
330
1F
100
AcDbEntity
  8
Text
370
    20
100
AcDbLine
 10
2.915563901075074
 20
2729.669934528943
 30
0.0
 11
8015.760449467649
 21
2729.669934528943
 31
0.0
  0
LINE
  5
31B
330
1F
100
AcDbEntity
  8
Furniture
370
     9
100
AcDbLine
 10
3084.453721339251
 20
421.0872408325134
 30
0.0
 11
3078.439235056042
 21
421.0872408325134
 31
0.0
  0
LINE
  5
31C
330
1F
100
AcDbEntity
  8
Furniture
370
     9
100
AcDbLine
 10
3078.439235056042
 20
421.0872408325134
 30
0.0
 11
3078.439235056042
 21
383.6309534883525
 31
0.0
  0
LINE
  5
31D
330
1F
100
AcDbEntity
  8
Furniture
370
     9
100
AcDbLine
 10
3078.439235056042
 20
383.6309534883525
 30
0.0
 11
3084.453721339251
 21
383.6309534883525
 31
0.0
  0
LINE
  5
31E
330
1F
100
AcDbEntity
  8
Furniture
370
     9
100
AcDbLine
 10
3084.453721339251
 20
383.6309534883525
 30
0.0
 11
3084.453721339251
 21
421.0872408325134
 31
0.0
  0
LINE
  5
31F
330
1F
100
AcDbEntity
  8
Furniture
370
     9
100
AcDbLine
 10
3090.938089363339
 20
383.6309534883525
 30
0.0
 11
3090.938089363339
 21
875.0601284821799
 31
0.0
  0
LINE
  5
320
330
1F
100
AcDbEntity
  8
Furniture
370
     9
100
AcDbLine
 10
3090.938089363339
 20
875.0601284821799
 30
0.0
 11
3084.453721339251
 21
875.0601284821799
 31
0.0
  0
LINE
  5
321
330
1F
100
AcDbEntity
  8
Furniture
370
     9
100
AcDbLine
 10
3084.453721339251
 20
421.0872408325134
 30
0.0
 11
3084.453721339251
 21
837.6038411380189
 31
0.0
  0
LINE
  5
322
330
1F
100
AcDbEntity
  8
Furniture
370
     9
100
AcDbLine
 10
3090.938089363339
 20
383.6309534883525
 30
0.0
 11
3084.453721339251
 21
383.6309534883525
 31
0.0
  0
SPLINE
  5
323
330
1F
100
AcDbEntity
  8
Furniture
370
     9
100
AcDbSpline
210
0.0
220
0.0
230
1.0
 70
    11
 71
     3
 72
    17
 73
    13
 74
     0
 42
0.000000001
 43
0.0000000001
 40
0.0
 40
0.0
 40
0.0
 40
0.0
 40
1.0
 40
1.0
 40
1.0
 40
2.0
 40
2.0
 40
2.0
 40
3.0
 40
3.0
 40
3.0
 40
4.0
 40
4.0
 40
4.0
 40
4.0
 10
3056.47561996822
 20
840.8527377463808
 30
0.0
 10
3056.47561996822
 20
842.6517135543448
 30
0.0
 10
3055.012273975186
 20
844.1016343547429
 30
0.0
 10
3053.226723359872
 20
844.1016343547429
 30
0.0
 10
3051.441172744544
 20
844.1016343547429
 30
0.0
 10
3049.97782675154
 20
842.6517135543448
 30
0.0
 10
3049.97782675154
 20
840.8527377463808
 30
0.0
 10
3049.97782675154
 20
839.0671871310381
 30
0.0
 10
3051.427747551952
 20
837.6038411380189
 30
0.0
 10
3053.226723359872
 20
837.6038411380189
 30
0.0
 10
3055.012273975186
 20
837.6038411380189
 30
0.0
 10
3056.47561996822
 20
839.0537619384753
 30
0.0
 10
3056.47561996822
 20
840.8527377463808
 30
0.0
  0
SPLINE
  5
324
330
1F
100
AcDbEntity
  8
Furniture
370
     9
100
AcDbSpline
210
0.0
220
0.0
230
1.0
 70
    11
 71
     3
 72
    17
 73
    13
 74
     0
 42
0.000000001
 43
0.0000000001
 40
0.0
 40
0.0
 40
0.0
 40
0.0
 40
1.0
 40
1.0
 40
1.0
 40
2.0
 40
2.0
 40
2.0
 40
3.0
 40
3.0
 40
3.0
 40
4.0
 40
4.0
 40
4.0
 40
4.0
 10
2737.358791950133
 20
840.8527377463808
 30
0.0
 10
2737.358791950133
 20
842.6517135543448
 30
0.0
 10
2735.882020764493
 20
844.1016343547429
 30
0.0
 10
2734.09647014918
 20
844.1016343547429
 30
0.0
 10
2732.297494341259
 20
844.1016343547429
 30
0.0
 10
2730.847573540847
 20
842.6517135543448
 30
0.0
 10
2730.847573540847
 20
840.8527377463808
 30
0.0
 10
2730.847573540847
 20
839.0671871310381
 30
0.0
 10
2732.297494341259
 20
837.6038411380189
 30
0.0
 10
2734.09647014918
 20
837.6038411380189
 30
0.0
 10
2735.882020764493
 20
837.6038411380189
 30
0.0
 10
2737.358791950133
 20
839.0537619384753
 30
0.0
 10
2737.358791950133
 20
840.8527377463808
 30
0.0
  0
SPLINE
  5
325
330
1F
100
AcDbEntity
  8
Furniture
370
     9
100
AcDbSpline
210
0.0
220
0.0
230
1.0
 70
    11
 71
     3
 72
    17
 73
    13
 74
     0
 42
0.000000001
 43
0.0000000001
 40
0.0
 40
0.0
 40
0.0
 40
0.0
 40
1.0
 40
1.0
 40
1.0
 40
2.0
 40
2.0
 40
2.0
 40
3.0
 40
3.0
 40
3.0
 40
4.0
 40
4.0
 40
4.0
 40
4.0
 10
2897.158859425898
 20
840.8527377463808
 30
0.0
 10
2897.158859425898
 20
842.6517135543448
 30
0.0
 10
2895.708938625499
 20
844.1016343547429
 30
0.0
 10
2893.923388010171
 20
844.1016343547429
 30
0.0
 10
2892.124412202251
 20
844.1016343547429
 30
0.0
 10
2890.674491401809
 20
842.6517135543448
 30
0.0
 10
2890.674491401809
 20
840.8527377463808
 30
0.0
 10
2890.674491401809
 20
839.0671871310381
 30
0.0
 10
2892.110987009644
 20
837.6038411380189
 30
0.0
 10
2893.923388010171
 20
837.6038411380189
 30
0.0
 10
2895.708938625499
 20
837.6038411380189
 30
0.0
 10
2897.158859425898
 20
839.0537619384753
 30
0.0
 10
2897.158859425898
 20
840.8527377463808
 30
0.0
  0
LINE
  5
326
330
1F
100
AcDbEntity
  8
Furniture
370
     9
100
AcDbLine
 10
3077.955928122556
 20
869.0724925841253
 30
0.0
 11
3077.955928122556
 21
837.6038411380189
 31
0.0
  0
LINE
  5
327
330
1F
100
AcDbEntity
  8
Furniture
370
     9
100
AcDbLine
 10
3077.955928122556
 20
837.6038411380189
 30
0.0
 11
2709.890847897743
 21
837.6038411380189
 31
0.0
  0
LINE
  5
328
330
1F
100
AcDbEntity
  8
Furniture
370
     9
100
AcDbLine
 10
2709.890847897743
 20
875.0601284821799
 30
0.0
 11
2703.379629488442
 21
875.0601284821799
 31
0.0
  0
LINE
  5
329
330
1F
100
AcDbEntity
  8
Furniture
370
     9
100
AcDbLine
 10
2703.379629488442
 20
875.0601284821799
 30
0.0
 11
2703.379629488442
 21
837.6038411380189
 31
0.0
  0
LINE
  5
32A
330
1F
100
AcDbEntity
  8
Furniture
370
     9
100
AcDbLine
 10
2703.379629488442
 20
837.6038411380189
 30
0.0
 11
2709.890847897743
 21
837.6038411380189
 31
0.0
  0
LINE
  5
32B
330
1F
100
AcDbEntity
  8
Furniture
370
     9
100
AcDbLine
 10
2709.890847897743
 20
837.6038411380189
 30
0.0
 11
2709.890847897743
 21
875.0601284821799
 31
0.0
  0
LINE
  5
32C
330
1F
100
AcDbEntity
  8
Furniture
370
     9
100
AcDbLine
 10
3078.439235056042
 20
869.0724925841253
 30
0.0
 11
3078.439235056042
 21
872.0663105331526
 31
0.0
  0
LINE
  5
32D
330
1F
100
AcDbEntity
  8
Furniture
370
     9
100
AcDbLine
 10
3078.439235056042
 20
869.0724925841253
 30
0.0
 11
2709.890847897743
 21
869.0724925841253
 31
0.0
  0
LINE
  5
32E
330
1F
100
AcDbEntity
  8
Furniture
370
     9
100
AcDbLine
 10
2709.890847897743
 20
869.0724925841253
 30
0.0
 11
2709.890847897743
 21
872.0663105331526
 31
0.0
  0
LINE
  5
32F
330
1F
100
AcDbEntity
  8
Furniture
370
     9
100
AcDbLine
 10
2709.890847897743
 20
872.0663105331526
 30
0.0
 11
3078.439235056042
 21
872.0663105331526
 31
0.0
  0
LINE
  5
330
330
1F
100
AcDbEntity
  8
Furniture
370
     9
100
AcDbLine
 10
2703.889786807111
 20
383.6309534883525
 30
0.0
 11
2697.378568397824
 21
383.6309534883525
 31
0.0
  0
LINE
  5
331
330
1F
100
AcDbEntity
  8
Furniture
370
     9
100
AcDbLine
 10
2697.378568397824
 20
383.6309534883525
 30
0.0
 11
2697.378568397824
 21
875.0601284821799
 31
0.0
  0
LINE
  5
332
330
1F
100
AcDbEntity
  8
Furniture
370
     9
100
AcDbLine
 10
2697.378568397824
 20
875.0601284821799
 30
0.0
 11
2703.379629488442
 21
875.0601284821799
 31
0.0
  0
LINE
  5
333
330
1F
100
AcDbEntity
  8
Furniture
370
     9
100
AcDbLine
 10
2703.889786807111
 20
421.0872408325134
 30
0.0
 11
2703.889786807111
 21
837.6038411380189
 31
0.0
  0
LINE
  5
334
330
1F
100
AcDbEntity
  8
Furniture
370
     9
100
AcDbLine
 10
3078.439235056042
 20
837.6038411380189
 30
0.0
 11
3078.439235056042
 21
875.0601284821799
 31
0.0
  0
LINE
  5
335
330
1F
100
AcDbEntity
  8
Furniture
370
     9
100
AcDbLine
 10
3078.439235056042
 20
875.0601284821799
 30
0.0
 11
3084.453721339251
 21
875.0601284821799
 31
0.0
  0
LINE
  5
336
330
1F
100
AcDbEntity
  8
Furniture
370
     9
100
AcDbLine
 10
3084.453721339251
 20
875.0601284821799
 30
0.0
 11
3084.453721339251
 21
837.6038411380189
 31
0.0
  0
LINE
  5
337
330
1F
100
AcDbEntity
  8
Furniture
370
     9
100
AcDbLine
 10
3084.453721339251
 20
837.6038411380189
 30
0.0
 11
3078.439235056042
 21
837.6038411380189
 31
0.0
  0
LINE
  5
338
330
1F
100
AcDbEntity
  8
Furniture
370
     9
100
AcDbLine
 10
2731.453874373478
 20
841.591123339201
 30
0.0
 11
2736.736727225976
 21
841.591123339201
 31
0.0
  0
LINE
  5
339
330
1F
100
AcDbEntity
  8
Furniture
370
     9
100
AcDbLine
 10
2736.836651814916
 20
840.5976590870462
 30
0.0
 11
2731.363361673754
 21
840.5976590870462
 31
0.0
  0
SPLINE
  5
33A
330
1F
100
AcDbEntity
  8
Furniture
370
     9
100
AcDbSpline
210
0.0
220
0.0
230
1.0
 70
     8
 71
     3
 72
     8
 73
     4
 74
     0
 42
0.000000001
 43
0.0000000001
 40
0.0
 40
0.0
 40
0.0
 40
0.0
 40
1.0
 40
1.0
 40
1.0
 40
1.0
 10
2731.3845812447
 20
841.2823439094402
 30
0.0
 10
2731.344305666909
 20
840.9869896723588
 30
0.0
 10
2731.344305666909
 20
840.6916354352773
 30
0.0
 10
2731.3845812447
 20
840.3962811980795
 30
0.0
  0
SPLINE
  5
33B
330
1F
100
AcDbEntity
  8
Furniture
370
     9
100
AcDbSpline
210
0.0
220
0.0
230
1.0
 70
     8
 71
     3
 72
     8
 73
     4
 74
     0
 42
0.000000001
 43
0.0000000001
 40
0.0
 40
0.0
 40
0.0
 40
0.0
 40
1.0
 40
1.0
 40
1.0
 40
1.0
 10
2736.808359053674
 20
840.3962811980795
 30
0.0
 10
2736.862059824056
 20
840.6916354352773
 30
0.0
 10
2736.862059824056
 20
840.9869896723588
 30
0.0
 10
2736.808359053674
 20
841.2823439094402
 30
0.0
  0
SPLINE
  5
33C
330
1F
100
AcDbEntity
  8
Furniture
370
     9
100
AcDbSpline
210
0.0
220
0.0
230
1.0
 70
     8
 71
     3
 72
    11
 73
     7
 74
     0
 42
0.000000001
 43
0.0000000001
 40
0.0
 40
0.0
 40
0.0
 40
0.0
 40
1.0
 40
1.0
 40
1.0
 40
2.0
 40
2.0
 40
2.0
 40
2.0
 10
2731.3845812447
 20
840.4499819685055
 30
0.0
 10
2731.572533941031
 20
839.0940375162802
 30
0.0
 10
2732.753950889532
 20
838.1005732641254
 30
0.0
 10
2734.09647014918
 20
838.1005732641254
 30
0.0
 10
2735.465839794026
 20
838.1005732641254
 30
0.0
 10
2736.606981164736
 20
839.0940375162802
 30
0.0
 10
2736.808359053674
 20
840.4499819685055
 30
0.0
  0
SPLINE
  5
33D
330
1F
100
AcDbEntity
  8
Furniture
370
     9
100
AcDbSpline
210
0.0
220
0.0
230
1.0
 70
     8
 71
     3
 72
    11
 73
     7
 74
     0
 42
0.000000001
 43
0.0000000001
 40
0.0
 40
0.0
 40
0.0
 40
0.0
 40
1.0
 40
1.0
 40
1.0
 40
2.0
 40
2.0
 40
2.0
 40
2.0
 10
2736.808359053674
 20
841.2554935243147
 30
0.0
 10
2736.606981164736
 20
842.5980127839187
 30
0.0
 10
2735.465839794026
 20
843.5914770360152
 30
0.0
 10
2734.09647014918
 20
843.5914770360152
 30
0.0
 10
2732.753950889532
 20
843.5914770360152
 30
0.0
 10
2731.572533941031
 20
842.5980127839187
 30
0.0
 10
2731.3845812447
 20
841.2554935243147
 30
0.0
  0
LINE
  5
33E
330
1F
100
AcDbEntity
  8
Furniture
370
     9
100
AcDbLine
 10
3050.594132916714
 20
841.591123339201
 30
0.0
 11
3055.876985769243
 21
841.591123339201
 31
0.0
  0
LINE
  5
33F
330
1F
100
AcDbEntity
  8
Furniture
370
     9
100
AcDbLine
 10
3055.965462649536
 20
840.5976590870462
 30
0.0
 11
3050.492893696388
 21
840.5976590870462
 31
0.0
  0
SPLINE
  5
340
330
1F
100
AcDbEntity
  8
Furniture
370
     9
100
AcDbSpline
210
0.0
220
0.0
230
1.0
 70
     8
 71
     3
 72
     8
 73
     4
 74
     0
 42
0.000000001
 43
0.0000000001
 40
0.0
 40
0.0
 40
0.0
 40
0.0
 40
1.0
 40
1.0
 40
1.0
 40
1.0
 10
3050.528259647985
 20
841.2823439094402
 30
0.0
 10
3050.461133684982
 20
840.9869896723588
 30
0.0
 10
3050.461133684982
 20
840.6916354352773
 30
0.0
 10
3050.528259647985
 20
840.3962811980795
 30
0.0
  0
SPLINE
  5
341
330
1F
100
AcDbEntity
  8
Furniture
370
     9
100
AcDbSpline
210
0.0
220
0.0
230
1.0
 70
     8
 71
     3
 72
     8
 73
     4
 74
     0
 42
0.000000001
 43
0.0000000001
 40
0.0
 40
0.0
 40
0.0
 40
0.0
 40
1.0
 40
1.0
 40
1.0
 40
1.0
 10
3055.952037456973
 20
840.3962811980795
 30
0.0
 10
3055.978887842171
 20
840.6916354352773
 30
0.0
 10
3055.978887842171
 20
840.9869896723588
 30
0.0
 10
3055.952037456973
 20
841.2823439094402
 30
0.0
  0
SPLINE
  5
342
330
1F
100
AcDbEntity
  8
Furniture
370
     9
100
AcDbSpline
210
0.0
220
0.0
230
1.0
 70
     8
 71
     3
 72
    11
 73
     7
 74
     0
 42
0.000000001
 43
0.0000000001
 40
0.0
 40
0.0
 40
0.0
 40
0.0
 40
1.0
 40
1.0
 40
1.0
 40
2.0
 40
2.0
 40
2.0
 40
2.0
 10
3050.528259647985
 20
840.4499819685055
 30
0.0
 10
3050.702787151724
 20
839.0940375162802
 30
0.0
 10
3051.870778907618
 20
838.1005732641254
 30
0.0
 10
3053.226723359872
 20
838.1005732641254
 30
0.0
 10
3054.582667812127
 20
838.1005732641254
 30
0.0
 10
3055.737234375414
 20
839.0940375162802
 30
0.0
 10
3055.952037456973
 20
840.4499819685055
 30
0.0
  0
SPLINE
  5
343
330
1F
100
AcDbEntity
  8
Furniture
370
     9
100
AcDbSpline
210
0.0
220
0.0
230
1.0
 70
     8
 71
     3
 72
    11
 73
     7
 74
     0
 42
0.000000001
 43
0.0000000001
 40
0.0
 40
0.0
 40
0.0
 40
0.0
 40
1.0
 40
1.0
 40
1.0
 40
2.0
 40
2.0
 40
2.0
 40
2.0
 10
3055.952037456973
 20
841.2554935243147
 30
0.0
 10
3055.737234375414
 20
842.5980127839187
 30
0.0
 10
3054.582667812127
 20
843.5914770360152
 30
0.0
 10
3053.226723359872
 20
843.5914770360152
 30
0.0
 10
3051.870778907618
 20
843.5914770360152
 30
0.0
 10
3050.702787151724
 20
842.5980127839187
 30
0.0
 10
3050.528259647985
 20
841.2554935243147
 30
0.0
  0
LINE
  5
344
330
1F
100
AcDbEntity
  8
Furniture
370
     9
100
AcDbLine
 10
2891.259440542697
 20
841.591123339201
 30
0.0
 11
2896.56076997743
 21
841.591123339201
 31
0.0
  0
LINE
  5
345
330
1F
100
AcDbEntity
  8
Furniture
370
     9
100
AcDbLine
 10
2896.66212729982
 20
840.5976590870462
 30
0.0
 11
2891.171223527872
 21
840.5976590870462
 31
0.0
  0
SPLINE
  5
346
330
1F
100
AcDbEntity
  8
Furniture
370
     9
100
AcDbSpline
210
0.0
220
0.0
230
1.0
 70
     8
 71
     3
 72
     8
 73
     4
 74
     0
 42
0.000000001
 43
0.0000000001
 40
0.0
 40
0.0
 40
0.0
 40
0.0
 40
1.0
 40
1.0
 40
1.0
 40
1.0
 10
2891.211499105663
 20
841.2823439094402
 30
0.0
 10
2891.144373142703
 20
840.9869896723588
 30
0.0
 10
2891.144373142703
 20
840.6916354352773
 30
0.0
 10
2891.211499105663
 20
840.3962811980795
 30
0.0
  0
SPLINE
  5
347
330
1F
100
AcDbEntity
  8
Furniture
370
     9
100
AcDbSpline
210
0.0
220
0.0
230
1.0
 70
     8
 71
     3
 72
     8
 73
     4
 74
     0
 42
0.000000001
 43
0.0000000001
 40
0.0
 40
0.0
 40
0.0
 40
0.0
 40
1.0
 40
1.0
 40
1.0
 40
1.0
 10
2896.635276914651
 20
840.3962811980795
 30
0.0
 10
2896.66212729982
 20
840.6916354352773
 30
0.0
 10
2896.66212729982
 20
840.9869896723588
 30
0.0
 10
2896.635276914651
 20
841.2823439094402
 30
0.0
  0
SPLINE
  5
348
330
1F
100
AcDbEntity
  8
Furniture
370
     9
100
AcDbSpline
210
0.0
220
0.0
230
1.0
 70
     8
 71
     3
 72
    11
 73
     7
 74
     0
 42
0.000000001
 43
0.0000000001
 40
0.0
 40
0.0
 40
0.0
 40
0.0
 40
1.0
 40
1.0
 40
1.0
 40
2.0
 40
2.0
 40
2.0
 40
2.0
 10
2891.184648720464
 20
840.4499819685055
 30
0.0
 10
2891.399451802023
 20
839.0940375162802
 30
0.0
 10
2892.540593172718
 20
838.1005732641254
 30
0.0
 10
2893.923388010171
 20
838.1005732641254
 30
0.0
 10
2895.292757655017
 20
838.1005732641254
 30
0.0
 10
2896.420473833121
 20
839.0940375162802
 30
0.0
 10
2896.635276914651
 20
840.4499819685055
 30
0.0
  0
SPLINE
  5
349
330
1F
100
AcDbEntity
  8
Furniture
370
     9
100
AcDbSpline
210
0.0
220
0.0
230
1.0
 70
     8
 71
     3
 72
    11
 73
     7
 74
     0
 42
0.000000001
 43
0.0000000001
 40
0.0
 40
0.0
 40
0.0
 40
0.0
 40
1.0
 40
1.0
 40
1.0
 40
2.0
 40
2.0
 40
2.0
 40
2.0
 10
2896.635276914651
 20
841.2554935243147
 30
0.0
 10
2896.420473833121
 20
842.5980127839187
 30
0.0
 10
2895.292757655017
 20
843.5914770360152
 30
0.0
 10
2893.923388010171
 20
843.5914770360152
 30
0.0
 10
2892.540593172718
 20
843.5914770360152
 30
0.0
 10
2891.399451802023
 20
842.5980127839187
 30
0.0
 10
2891.184648720464
 20
841.2554935243147
 30
0.0
  0
LINE
  5
34A
330
1F
100
AcDbEntity
  8
Furniture
370
     9
100
AcDbLine
 10
2703.889786807111
 20
383.6309534883525
 30
0.0
 11
2703.889786807111
 21
421.0872408325134
 31
0.0
  0
LINE
  5
34B
330
1F
100
AcDbEntity
  8
Furniture
370
     9
100
AcDbLine
 10
2703.889786807111
 20
421.0872408325134
 30
0.0
 11
2709.890847897743
 21
421.0872408325134
 31
0.0
  0
LINE
  5
34C
330
1F
100
AcDbEntity
  8
Furniture
370
     9
100
AcDbLine
 10
2709.890847897743
 20
421.0872408325134
 30
0.0
 11
2709.890847897743
 21
383.6309534883525
 31
0.0
  0
LINE
  5
34D
330
1F
100
AcDbEntity
  8
Furniture
370
     9
100
AcDbLine
 10
2709.890847897743
 20
383.6309534883525
 30
0.0
 11
2703.889786807111
 21
383.6309534883525
 31
0.0
  0
LINE
  5
34E
330
1F
100
AcDbEntity
  8
Furniture
370
     9
100
AcDbLine
 10
4996.402524965528
 20
880.2019772466204
 30
0.0
 11
5228.604656114086
 21
880.2019772466204
 31
0.0
  0
LINE
  5
34F
330
1F
100
AcDbEntity
  8
Furniture
370
     9
100
AcDbLine
 10
5228.604656114086
 20
880.2019772466204
 30
0.0
 11
5228.604656114086
 21
842.7456899024594
 31
0.0
  0
LINE
  5
350
330
1F
100
AcDbEntity
  8
Furniture
370
     9
100
AcDbLine
 10
5228.604656114086
 20
842.7456899024594
 30
0.0
 11
4996.402524965528
 21
842.7456899024594
 31
0.0
  0
LINE
  5
351
330
1F
100
AcDbEntity
  8
Furniture
370
     9
100
AcDbLine
 10
4987.407645925898
 20
873.6529838082546
 30
0.0
 11
4987.407645925898
 21
865.2840877233588
 31
0.0
  0
LINE
  5
352
330
1F
100
AcDbEntity
  8
Furniture
370
     9
100
AcDbLine
 10
4985.890599162511
 20
865.2865882719682
 30
0.0
 11
4985.890599162511
 21
873.6504832595867
 31
0.0
  0
SPLINE
  5
353
330
1F
100
AcDbEntity
  8
Furniture
370
     9
100
AcDbSpline
210
0.0
220
0.0
230
1.0
 70
    24
 71
     3
 72
     8
 73
     4
 74
     0
 42
0.000000001
 43
0.0000000001
 40
-0.0185221627763948
 40
-0.0185221627763948
 40
-0.0185221627763948
 40
-0.0185221627763948
 40
-0.0083325743312474
 40
-0.0083325743312474
 40
-0.0083325743312474
 40
-0.0083325743312474
 10
4987.407645925927
 20
872.6241584249121
 30
0.0
 10
4987.402722367045
 20
872.6252619213241
 30
0.0
 10
4987.397798808149
 20
872.6263654177358
 30
0.0
 10
4987.392875249298
 20
872.6274689140895
 30
0.0
  0
SPLINE
  5
354
330
1F
100
AcDbEntity
  8
Furniture
370
     9
100
AcDbSpline
210
0.0
220
0.0
230
1.0
 70
    24
 71
     3
 72
     8
 73
     4
 74
     0
 42
0.000000001
 43
0.0000000001
 40
-0.0083325743312474
 40
-0.0083325743312474
 40
-0.0083325743312474
 40
-0.0083325743312474
 40
0.0
 40
0.0
 40
0.0
 40
0.0
 10
4987.392875249298
 20
872.6274689140895
 30
0.0
 10
4987.388848990482
 20
872.6283713025672
 30
0.0
 10
4987.384822731652
 20
872.6292736909284
 30
0.0
 10
4987.380795540729
 20
872.6301686221317
 30
0.0
  0
SPLINE
  5
355
330
1F
100
AcDbEntity
  8
Furniture
370
     9
100
AcDbSpline
210
0.0
220
0.0
230
1.0
 70
     8
 71
     3
 72
     8
 73
     4
 74
     0
 42
0.000000001
 43
0.0000000001
 40
0.0
 40
0.0
 40
0.0
 40
0.0
 40
1.0
 40
1.0
 40
1.0
 40
1.0
 10
4987.380795540729
 20
872.6301686221317
 30
0.0
 10
4986.897488607258
 20
872.7375701629838
 30
0.0
 10
4986.400756481166
 20
872.7375701629838
 30
0.0
 10
4985.930874740301
 20
872.6301686221317
 30
0.0
  0
SPLINE
  5
356
330
1F
100
AcDbEntity
  8
Furniture
370
     9
100
AcDbSpline
210
0.0
220
0.0
230
1.0
 70
    24
 71
     3
 72
     8
 73
     4
 74
     0
 42
0.000000001
 43
0.0000000001
 40
1.0
 40
1.0
 40
1.0
 40
1.0
 40
1.008522695545994
 40
1.008522695545994
 40
1.008522695545994
 40
1.008522695545994
 10
4985.930874740301
 20
872.6301686221317
 30
0.0
 10
4985.926870081286
 20
872.6292532716227
 30
0.0
 10
4985.922867372577
 20
872.6283301196575
 30
0.0
 10
4985.918864663839
 20
872.6274069677504
 30
0.0
  0
SPLINE
  5
357
330
1F
100
AcDbEntity
  8
Furniture
370
     9
100
AcDbSpline
210
0.0
220
0.0
230
1.0
 70
    24
 71
     3
 72
     8
 73
     4
 74
     0
 42
0.000000001
 43
0.0000000001
 40
1.008522695545994
 40
1.008522695545994
 40
1.008522695545994
 40
1.008522695545994
 40
1.02858396571999
 40
1.02858396571999
 40
1.02858396571999
 40
1.02858396571999
 10
4985.918864663839
 20
872.6274069677504
 30
0.0
 10
4985.909442830077
 20
872.6252339932301
 30
0.0
 10
4985.900020996287
 20
872.6230610187098
 30
0.0
 10
4985.890599162481
 20
872.6208880442476
 30
0.0
  0
SPLINE
  5
358
330
1F
100
AcDbEntity
  8
Furniture
370
     9
100
AcDbSpline
210
0.0
220
0.0
230
1.0
 70
    24
 71
     3
 72
     8
 73
     4
 74
     0
 42
0.000000001
 43
0.0000000001
 40
-0.0285839657199904
 40
-0.0285839657199904
 40
-0.0285839657199904
 40
-0.0285839657199904
 40
-0.0085226955459949
 40
-0.0085226955459949
 40
-0.0085226955459949
 40
-0.0085226955459949
 10
4985.890599162481
 20
866.3027582946865
 30
0.0
 10
4985.900020996287
 20
866.300585320166
 30
0.0
 10
4985.909442830077
 20
866.2984123456457
 30
0.0
 10
4985.918864663839
 20
866.2962393711254
 30
0.0
  0
SPLINE
  5
359
330
1F
100
AcDbEntity
  8
Furniture
370
     9
100
AcDbSpline
210
0.0
220
0.0
230
1.0
 70
    24
 71
     3
 72
     8
 73
     4
 74
     0
 42
0.000000001
 43
0.0000000001
 40
-0.0085226955459949
 40
-0.0085226955459949
 40
-0.0085226955459949
 40
-0.0085226955459949
 40
0.0
 40
0.0
 40
0.0
 40
0.0
 10
4985.918864663839
 20
866.2962393711254
 30
0.0
 10
4985.922867372577
 20
866.2953162192183
 30
0.0
 10
4985.926870081286
 20
866.2943930673112
 30
0.0
 10
4985.930874740301
 20
866.293477716686
 30
0.0
  0
SPLINE
  5
35A
330
1F
100
AcDbEntity
  8
Furniture
370
     9
100
AcDbSpline
210
0.0
220
0.0
230
1.0
 70
     8
 71
     3
 72
     8
 73
     4
 74
     0
 42
0.000000001
 43
0.0000000001
 40
0.0
 40
0.0
 40
0.0
 40
0.0
 40
1.0
 40
1.0
 40
1.0
 40
1.0
 10
4985.930874740301
 20
866.293477716686
 30
0.0
 10
4986.400756481166
 20
866.1860761758919
 30
0.0
 10
4986.897488607258
 20
866.1860761758919
 30
0.0
 10
4987.380795540729
 20
866.293477716686
 30
0.0
  0
SPLINE
  5
35B
330
1F
100
AcDbEntity
  8
Furniture
370
     9
100
AcDbSpline
210
0.0
220
0.0
230
1.0
 70
    24
 71
     3
 72
     8
 73
     4
 74
     0
 42
0.000000001
 43
0.0000000001
 40
1.0
 40
1.0
 40
1.0
 40
1.0
 40
1.008332574331247
 40
1.008332574331247
 40
1.008332574331247
 40
1.008332574331247
 10
4987.380795540729
 20
866.293477716686
 30
0.0
 10
4987.384822731652
 20
866.2943726479474
 30
0.0
 10
4987.388848990482
 20
866.2952750363668
 30
0.0
 10
4987.392875249298
 20
866.2961774247282
 30
0.0
  0
SPLINE
  5
35C
330
1F
100
AcDbEntity
  8
Furniture
370
     9
100
AcDbSpline
210
0.0
220
0.0
230
1.0
 70
    24
 71
     3
 72
     8
 73
     4
 74
     0
 42
0.000000001
 43
0.0000000001
 40
1.008332574331247
 40
1.008332574331247
 40
1.008332574331247
 40
1.008332574331247
 40
1.018522162776394
 40
1.018522162776394
 40
1.018522162776394
 40
1.018522162776394
 10
4987.392875249298
 20
866.2961774247282
 30
0.0
 10
4987.397798808149
 20
866.29728092114
 30
0.0
 10
4987.402722367045
 20
866.2983844175517
 30
0.0
 10
4987.407645925927
 20
866.2994879139636
 30
0.0
  0
SPLINE
  5
35D
330
1F
100
AcDbEntity
  8
Furniture
370
     9
100
AcDbSpline
210
0.0
220
0.0
230
1.0
 70
     8
 71
     3
 72
    11
 73
     7
 74
     0
 42
0.000000001
 43
0.0000000001
 40
0.0
 40
0.0
 40
0.0
 40
0.0
 40
1.0
 40
1.0
 40
1.0
 40
2.0
 40
2.0
 40
2.0
 40
2.0
 10
4985.890599162511
 20
873.6504832595286
 30
0.0
 10
4983.876820273032
 20
873.2745778668954
 30
0.0
 10
4982.413474280027
 20
871.5024524441155
 30
0.0
 10
4982.413474280027
 20
869.4618231694379
 30
0.0
 10
4982.413474280027
 20
867.4346190874397
 30
0.0
 10
4983.876820273032
 20
865.6624936646597
 30
0.0
 10
4985.890599162511
 20
865.2865882719682
 30
0.0
  0
SPLINE
  5
35E
330
1F
100
AcDbEntity
  8
Furniture
370
     9
100
AcDbSpline
210
0.0
220
0.0
230
1.0
 70
    24
 71
     3
 72
     8
 73
     4
 74
     0
 42
0.000000001
 43
0.0000000001
 40
-0.0022358031867494
 40
-0.0022358031867494
 40
-0.0022358031867494
 40
-0.0022358031867494
 40
0.0
 40
0.0
 40
0.0
 40
0.0
 10
4987.407645925927
 20
865.2840877234169
 30
0.0
 10
4987.412123639781
 20
865.2849143504912
 30
0.0
 10
4987.416598721338
 20
865.2857478215059
 30
0.0
 10
4987.421071118504
 20
865.2865882719682
 30
0.0
  0
SPLINE
  5
35F
330
1F
100
AcDbEntity
  8
Furniture
370
     9
100
AcDbSpline
210
0.0
220
0.0
230
1.0
 70
     8
 71
     3
 72
    11
 73
     7
 74
     0
 42
0.000000001
 43
0.0000000001
 40
0.0
 40
0.0
 40
0.0
 40
0.0
 40
1.0
 40
1.0
 40
1.0
 40
2.0
 40
2.0
 40
2.0
 40
2.0
 10
4987.421071118504
 20
865.2865882719682
 30
0.0
 10
4989.421424815391
 20
865.6624936646597
 30
0.0
 10
4990.88477080841
 20
867.4346190874397
 30
0.0
 10
4990.88477080841
 20
869.4618231694379
 30
0.0
 10
4990.88477080841
 20
871.5024524441155
 30
0.0
 10
4989.421424815391
 20
873.2745778668954
 30
0.0
 10
4987.421071118504
 20
873.6504832595286
 30
0.0
  0
SPLINE
  5
360
330
1F
100
AcDbEntity
  8
Furniture
370
     9
100
AcDbSpline
210
0.0
220
0.0
230
1.0
 70
    24
 71
     3
 72
     8
 73
     4
 74
     0
 42
0.000000001
 43
0.0000000001
 40
2.0
 40
2.0
 40
2.0
 40
2.0
 40
2.002235803186293
 40
2.002235803186293
 40
2.002235803186293
 40
2.002235803186293
 10
4987.421071118504
 20
873.6504832595286
 30
0.0
 10
4987.416598721338
 20
873.6513237100492
 30
0.0
 10
4987.412123639781
 20
873.6521571810639
 30
0.0
 10
4987.407645925927
 20
873.6529838082546
 30
0.0
  0
LINE
  5
361
330
1F
100
AcDbEntity
  8
Furniture
370
     9
100
AcDbLine
 10
4944.447029617197
 20
850.1586857470151
 30
0.0
 11
4944.447029617197
 21
841.8169728370315
 31
0.0
  0
LINE
  5
362
330
1F
100
AcDbEntity
  8
Furniture
370
     9
100
AcDbLine
 10
4942.956833238993
 20
841.8169728024562
 30
0.0
 11
4942.956833238993
 21
850.1587163346751
 31
0.0
  0
SPLINE
  5
363
330
1F
100
AcDbEntity
  8
Furniture
370
     9
100
AcDbSpline
210
0.0
220
0.0
230
1.0
 70
    24
 71
     3
 72
     8
 73
     4
 74
     0
 42
0.000000001
 43
0.0000000001
 40
-0.0190510883760037
 40
-0.0190510883760037
 40
-0.0190510883760037
 40
-0.0190510883760037
 40
-0.0073081511400429
 40
-0.0073081511400429
 40
-0.0073081511400429
 40
-0.0073081511400429
 10
4944.447029617197
 20
849.1575266750345
 30
0.0
 10
4944.441512977577
 20
849.1586382983999
 30
0.0
 10
4944.435996337928
 20
849.1597499217654
 30
0.0
 10
4944.430479698294
 20
849.1608615451308
 30
0.0
  0
SPLINE
  5
364
330
1F
100
AcDbEntity
  8
Furniture
370
     9
100
AcDbSpline
210
0.0
220
0.0
230
1.0
 70
    24
 71
     3
 72
     8
 73
     4
 74
     0
 42
0.000000001
 43
0.0000000001
 40
-0.0073081511400429
 40
-0.0073081511400429
 40
-0.0073081511400429
 40
-0.0073081511400429
 40
0.0
 40
0.0
 40
0.0
 40
0.0
 10
4944.430479698294
 20
849.1608615451308
 30
0.0
 10
4944.42704644852
 20
849.1615533576744
 30
0.0
 10
4944.423613198789
 20
849.162245170218
 30
0.0
 10
4944.420179232013
 20
849.1629319636317
 30
0.0
  0
SPLINE
  5
365
330
1F
100
AcDbEntity
  8
Furniture
370
     9
100
AcDbSpline
210
0.0
220
0.0
230
1.0
 70
     8
 71
     3
 72
     8
 73
     4
 74
     0
 42
0.000000001
 43
0.0000000001
 40
0.0
 40
0.0
 40
0.0
 40
0.0
 40
1.0
 40
1.0
 40
1.0
 40
1.0
 10
4944.420179232013
 20
849.1629319636317
 30
0.0
 10
4943.950297491134
 20
849.2569083118045
 30
0.0
 10
4943.466990557663
 20
849.2569083118045
 30
0.0
 10
4942.983683624206
 20
849.1629319636317
 30
0.0
  0
SPLINE
  5
366
330
1F
100
AcDbEntity
  8
Furniture
370
     9
100
AcDbSpline
210
0.0
220
0.0
230
1.0
 70
    24
 71
     3
 72
     8
 73
     4
 74
     0
 42
0.000000001
 43
0.0000000001
 40
1.0
 40
1.0
 40
1.0
 40
1.0
 40
1.007234700520712
 40
1.007234700520712
 40
1.007234700520712
 40
1.007234700520712
 10
4942.983683624206
 20
849.1629319636317
 30
0.0
 10
4942.980187043275
 20
849.1622520728318
 30
0.0
 10
4942.976690462372
 20
849.16156726331
 30
0.0
 10
4942.97319388144
 20
849.1608824537882
 30
0.0
  0
SPLINE
  5
367
330
1F
100
AcDbEntity
  8
Furniture
370
     9
100
AcDbSpline
210
0.0
220
0.0
230
1.0
 70
    24
 71
     3
 72
     8
 73
     4
 74
     0
 42
0.000000001
 43
0.0000000001
 40
1.007234700520712
 40
1.007234700520712
 40
1.007234700520712
 40
1.007234700520712
 40
1.018518518565841
 40
1.018518518565841
 40
1.018518518565841
 40
1.018518518565841
 10
4942.97319388144
 20
849.1608824537882
 30
0.0
 10
4942.967740333977
 20
849.159814369986
 30
0.0
 10
4942.962286786499
 20
849.1587462861838
 30
0.0
 10
4942.956833239023
 20
849.1576782023233
 30
0.0
  0
SPLINE
  5
368
330
1F
100
AcDbEntity
  8
Furniture
370
     9
100
AcDbSpline
210
0.0
220
0.0
230
1.0
 70
    24
 71
     3
 72
     8
 73
     4
 74
     0
 42
0.000000001
 43
0.0000000001
 40
-0.0185185185169906
 40
-0.0185185185169906
 40
-0.0185185185169906
 40
-0.0185185185169906
 40
-0.0082682291649689
 40
-0.0082682291649689
 40
-0.0082682291649689
 40
-0.0082682291649689
 10
4942.956833239023
 20
842.8322498023675
 30
0.0
 10
4942.961787274911
 20
842.8311398031123
 30
0.0
 10
4942.966741310829
 20
842.8300298037987
 30
0.0
 10
4942.971695346747
 20
842.828919804427
 30
0.0
  0
SPLINE
  5
369
330
1F
100
AcDbEntity
  8
Furniture
370
     9
100
AcDbSpline
210
0.0
220
0.0
230
1.0
 70
    24
 71
     3
 72
     8
 73
     4
 74
     0
 42
0.000000001
 43
0.0000000001
 40
-0.0082682291649689
 40
-0.0082682291649689
 40
-0.0082682291649689
 40
-0.0082682291649689
 40
0.0
 40
0.0
 40
0.0
 40
0.0
 10
4942.971695346747
 20
842.828919804427
 30
0.0
 10
4942.975691439238
 20
842.8280244415558
 30
0.0
 10
4942.979687531715
 20
842.8271290786264
 30
0.0
 10
4942.983683624206
 20
842.8262410580694
 30
0.0
  0
SPLINE
  5
36A
330
1F
100
AcDbEntity
  8
Furniture
370
     9
100
AcDbSpline
210
0.0
220
0.0
230
1.0
 70
     8
 71
     3
 72
     8
 73
     4
 74
     0
 42
0.000000001
 43
0.0000000001
 40
0.0
 40
0.0
 40
0.0
 40
0.0
 40
1.0
 40
1.0
 40
1.0
 40
1.0
 10
4942.983683624206
 20
842.8262410580694
 30
0.0
 10
4943.466990557663
 20
842.7188395172755
 30
0.0
 10
4943.950297491134
 20
842.7188395172755
 30
0.0
 10
4944.40675403942
 20
842.8262410580694
 30
0.0
  0
SPLINE
  5
36B
330
1F
100
AcDbEntity
  8
Furniture
370
     9
100
AcDbSpline
210
0.0
220
0.0
230
1.0
 70
    24
 71
     3
 72
     8
 73
     4
 74
     0
 42
0.000000001
 43
0.0000000001
 40
1.0
 40
1.0
 40
1.0
 40
1.0
 40
1.008522695545994
 40
1.008522695545994
 40
1.008522695545994
 40
1.008522695545994
 10
4944.40675403942
 20
842.8262410580694
 30
0.0
 10
4944.410644279607
 20
842.8271564086948
 30
0.0
 10
4944.414532569473
 20
842.8280795606019
 30
0.0
 10
4944.418420859354
 20
842.8290027125088
 30
0.0
  0
SPLINE
  5
36C
330
1F
100
AcDbEntity
  8
Furniture
370
     9
100
AcDbSpline
210
0.0
220
0.0
230
1.0
 70
    24
 71
     3
 72
     8
 73
     4
 74
     0
 42
0.000000001
 43
0.0000000001
 40
1.008522695545994
 40
1.008522695545994
 40
1.008522695545994
 40
1.008522695545994
 40
1.029425092264805
 40
1.029425092264805
 40
1.029425092264805
 40
1.029425092264805
 10
4944.418420859354
 20
842.8290027125088
 30
0.0
 10
4944.427957111988
 20
842.8312667952317
 30
0.0
 10
4944.437493364606
 20
842.8335308778963
 30
0.0
 10
4944.447029617212
 20
842.835794960561
 30
0.0
  0
SPLINE
  5
36D
330
1F
100
AcDbEntity
  8
Furniture
370
     9
100
AcDbSpline
210
0.0
220
0.0
230
1.0
 70
    24
 71
     3
 72
     8
 73
     4
 74
     0
 42
0.000000001
 43
0.0000000001
 40
-0.0022358696874261
 40
-0.0022358696874261
 40
-0.0022358696874261
 40
-0.0022358696874261
 40
0.0
 40
0.0
 40
0.0
 40
0.0
 10
4942.956833239009
 20
850.1587163346751
 30
0.0
 10
4942.952355657141
 20
850.1579499846606
 30
0.0
 10
4942.947880576616
 20
850.1571766572936
 30
0.0
 10
4942.943408046416
 20
850.1563962157282
 30
0.0
  0
SPLINE
  5
36E
330
1F
100
AcDbEntity
  8
Furniture
370
     9
100
AcDbSpline
210
0.0
220
0.0
230
1.0
 70
     8
 71
     3
 72
    11
 73
     7
 74
     0
 42
0.000000001
 43
0.0000000001
 40
0.0
 40
0.0
 40
0.0
 40
0.0
 40
1.0
 40
1.0
 40
1.0
 40
2.0
 40
2.0
 40
2.0
 40
2.0
 10
4942.943408046416
 20
850.1563962157282
 30
0.0
 10
4940.943054349544
 20
849.8073412082788
 30
0.0
 10
4939.452857971326
 20
848.0352157854989
 30
0.0
 10
4939.452857971326
 20
845.9945865108215
 30
0.0
 10
4939.452857971326
 20
843.9405320435811
 30
0.0
 10
4940.916203964345
 20
842.181831813364
 30
0.0
 10
4942.943408046416
 20
841.8193516133518
 30
0.0
  0
SPLINE
  5
36F
330
1F
100
AcDbEntity
  8
Furniture
370
     9
100
AcDbSpline
210
0.0
220
0.0
230
1.0
 70
    24
 71
     3
 72
     8
 73
     4
 74
     0
 42
0.000000001
 43
0.0000000001
 40
2.0
 40
2.0
 40
2.0
 40
2.0
 40
2.002206160332583
 40
2.002206160332583
 40
2.002206160332583
 40
2.002206160332583
 10
4942.943408046416
 20
841.8193516133518
 30
0.0
 10
4942.947880383628
 20
841.8185519239099
 30
0.0
 10
4942.952355465259
 20
841.8177590300377
 30
0.0
 10
4942.956833239009
 20
841.8169728025144
 30
0.0
  0
SPLINE
  5
370
330
1F
100
AcDbEntity
  8
Furniture
370
     9
100
AcDbSpline
210
0.0
220
0.0
230
1.0
 70
    24
 71
     3
 72
     8
 73
     4
 74
     0
 42
0.000000001
 43
0.0000000001
 40
-0.002206128317423
 40
-0.002206128317423
 40
-0.002206128317423
 40
-0.002206128317423
 40
0.0
 40
0.0
 40
0.0
 40
0.0
 10
4944.447029617182
 20
841.8169728372062
 30
0.0
 10
4944.451507455498
 20
841.8177590530881
 30
0.0
 10
4944.455982537478
 20
841.8185519355514
 30
0.0
 10
4944.460454809789
 20
841.8193516133518
 30
0.0
  0
SPLINE
  5
371
330
1F
100
AcDbEntity
  8
Furniture
370
     9
100
AcDbSpline
210
0.0
220
0.0
230
1.0
 70
     8
 71
     3
 72
    11
 73
     7
 74
     0
 42
0.000000001
 43
0.0000000001
 40
0.0
 40
0.0
 40
0.0
 40
0.0
 40
1.0
 40
1.0
 40
1.0
 40
2.0
 40
2.0
 40
2.0
 40
2.0
 10
4944.460454809789
 20
841.8193516133518
 30
0.0
 10
4946.48765889186
 20
842.181831813364
 30
0.0
 10
4947.937579692286
 20
843.9405320435811
 30
0.0
 10
4947.937579692286
 20
845.9945865108215
 30
0.0
 10
4947.937579692286
 20
848.0352157854989
 30
0.0
 10
4946.48765889186
 20
849.8073412082788
 30
0.0
 10
4944.460454809789
 20
850.1563962157282
 30
0.0
  0
SPLINE
  5
372
330
1F
100
AcDbEntity
  8
Furniture
370
     9
100
AcDbSpline
210
0.0
220
0.0
230
1.0
 70
    24
 71
     3
 72
     8
 73
     4
 74
     0
 42
0.000000001
 43
0.0000000001
 40
2.0
 40
2.0
 40
2.0
 40
2.0
 40
2.00220612817242
 40
2.00220612817242
 40
2.00220612817242
 40
2.00220612817242
 10
4944.460454809789
 20
850.1563962157282
 30
0.0
 10
4944.455982537754
 20
850.1571662757827
 30
0.0
 10
4944.451507456095
 20
850.157929409824
 30
0.0
 10
4944.447029617197
 20
850.1586857470151
 30
0.0
  0
LINE
  5
373
330
1F
100
AcDbEntity
  8
Furniture
370
     9
100
AcDbLine
 10
4944.447029617197
 20
402.6971948006006
 30
0.0
 11
4944.447029617197
 21
394.3419676491225
 31
0.0
  0
LINE
  5
374
330
1F
100
AcDbEntity
  8
Furniture
370
     9
100
AcDbLine
 10
4942.956833238993
 20
394.3419676158277
 30
0.0
 11
4942.956833238993
 21
402.6972277999788
 31
0.0
  0
SPLINE
  5
375
330
1F
100
AcDbEntity
  8
Furniture
370
     9
100
AcDbSpline
210
0.0
220
0.0
230
1.0
 70
    24
 71
     3
 72
     8
 73
     4
 74
     0
 42
0.000000001
 43
0.0000000001
 40
-0.0190510883760037
 40
-0.0190510883760037
 40
-0.0190510883760037
 40
-0.0190510883760037
 40
-0.0073081511400429
 40
-0.0073081511400429
 40
-0.0073081511400429
 40
-0.0073081511400429
 10
4944.447029617197
 20
401.682432242092
 30
0.0
 10
4944.441512977577
 20
401.6835438654574
 30
0.0
 10
4944.435996337928
 20
401.6846554887065
 30
0.0
 10
4944.430479698294
 20
401.6857671121883
 30
0.0
  0
SPLINE
  5
376
330
1F
100
AcDbEntity
  8
Furniture
370
     9
100
AcDbSpline
210
0.0
220
0.0
230
1.0
 70
    24
 71
     3
 72
     8
 73
     4
 74
     0
 42
0.000000001
 43
0.0000000001
 40
-0.0073081511400429
 40
-0.0073081511400429
 40
-0.0073081511400429
 40
-0.0073081511400429
 40
0.0
 40
0.0
 40
0.0
 40
0.0
 10
4944.430479698294
 20
401.6857671121883
 30
0.0
 10
4944.42704644852
 20
401.686458924732
 30
0.0
 10
4944.423613198789
 20
401.6871507372756
 30
0.0
 10
4944.420179232013
 20
401.6878375306309
 30
0.0
  0
SPLINE
  5
377
330
1F
100
AcDbEntity
  8
Furniture
370
     9
100
AcDbSpline
210
0.0
220
0.0
230
1.0
 70
     8
 71
     3
 72
     8
 73
     4
 74
     0
 42
0.000000001
 43
0.0000000001
 40
0.0
 40
0.0
 40
0.0
 40
0.0
 40
1.0
 40
1.0
 40
1.0
 40
1.0
 10
4944.420179232013
 20
401.6878375306309
 30
0.0
 10
4943.950297491134
 20
401.7818138788619
 30
0.0
 10
4943.466990557663
 20
401.7818138788619
 30
0.0
 10
4942.983683624206
 20
401.6878375306309
 30
0.0
  0
SPLINE
  5
378
330
1F
100
AcDbEntity
  8
Furniture
370
     9
100
AcDbSpline
210
0.0
220
0.0
230
1.0
 70
    24
 71
     3
 72
     8
 73
     4
 74
     0
 42
0.000000001
 43
0.0000000001
 40
1.0
 40
1.0
 40
1.0
 40
1.0
 40
1.007234700520712
 40
1.007234700520712
 40
1.007234700520712
 40
1.007234700520712
 10
4942.983683624206
 20
401.6878375306309
 30
0.0
 10
4942.980187043275
 20
401.6871576398893
 30
0.0
 10
4942.976690462372
 20
401.6864728303676
 30
0.0
 10
4942.97319388144
 20
401.6857880207876
 30
0.0
  0
SPLINE
  5
379
330
1F
100
AcDbEntity
  8
Furniture
370
     9
100
AcDbSpline
210
0.0
220
0.0
230
1.0
 70
    24
 71
     3
 72
     8
 73
     4
 74
     0
 42
0.000000001
 43
0.0000000001
 40
1.007234700520712
 40
1.007234700520712
 40
1.007234700520712
 40
1.007234700520712
 40
1.018518518565841
 40
1.018518518565841
 40
1.018518518565841
 40
1.018518518565841
 10
4942.97319388144
 20
401.6857880207876
 30
0.0
 10
4942.967740333977
 20
401.6847199369271
 30
0.0
 10
4942.962286786499
 20
401.6836518531831
 30
0.0
 10
4942.956833239023
 20
401.6825837693808
 30
0.0
  0
SPLINE
  5
37A
330
1F
100
AcDbEntity
  8
Furniture
370
     9
100
AcDbSpline
210
0.0
220
0.0
230
1.0
 70
    24
 71
     3
 72
     8
 73
     4
 74
     0
 42
0.000000001
 43
0.0000000001
 40
-0.0185185185169906
 40
-0.0185185185169906
 40
-0.0185185185169906
 40
-0.0185185185169906
 40
-0.0082682291649689
 40
-0.0082682291649689
 40
-0.0082682291649689
 40
-0.0082682291649689
 10
4942.956833239023
 20
395.3437301769204
 30
0.0
 10
4942.961787274911
 20
395.3426201774905
 30
0.0
 10
4942.966741310829
 20
395.3415101782352
 30
0.0
 10
4942.971695346747
 20
395.3404001789217
 30
0.0
  0
SPLINE
  5
37B
330
1F
100
AcDbEntity
  8
Furniture
370
     9
100
AcDbSpline
210
0.0
220
0.0
230
1.0
 70
    24
 71
     3
 72
     8
 73
     4
 74
     0
 42
0.000000001
 43
0.0000000001
 40
-0.0082682291649689
 40
-0.0082682291649689
 40
-0.0082682291649689
 40
-0.0082682291649689
 40
0.0
 40
0.0
 40
0.0
 40
0.0
 10
4942.971695346747
 20
395.3404001789217
 30
0.0
 10
4942.975691439238
 20
395.339504815934
 30
0.0
 10
4942.979687531715
 20
395.3386094531211
 30
0.0
 10
4942.983683624206
 20
395.3377214324477
 30
0.0
  0
SPLINE
  5
37C
330
1F
100
AcDbEntity
  8
Furniture
370
     9
100
AcDbSpline
210
0.0
220
0.0
230
1.0
 70
     8
 71
     3
 72
     8
 73
     4
 74
     0
 42
0.000000001
 43
0.0000000001
 40
0.0
 40
0.0
 40
0.0
 40
0.0
 40
1.0
 40
1.0
 40
1.0
 40
1.0
 10
4942.983683624206
 20
395.3377214324477
 30
0.0
 10
4943.466990557663
 20
395.2303198917702
 30
0.0
 10
4943.950297491134
 20
395.2303198917702
 30
0.0
 10
4944.40675403942
 20
395.3377214324477
 30
0.0
  0
SPLINE
  5
37D
330
1F
100
AcDbEntity
  8
Furniture
370
     9
100
AcDbSpline
210
0.0
220
0.0
230
1.0
 70
    24
 71
     3
 72
     8
 73
     4
 74
     0
 42
0.000000001
 43
0.0000000001
 40
1.0
 40
1.0
 40
1.0
 40
1.0
 40
1.008522695545994
 40
1.008522695545994
 40
1.008522695545994
 40
1.008522695545994
 10
4944.40675403942
 20
395.3377214324477
 30
0.0
 10
4944.410644279607
 20
395.338636783073
 30
0.0
 10
4944.414532569473
 20
395.3395599350383
 30
0.0
 10
4944.418420859354
 20
395.3404830870035
 30
0.0
  0
SPLINE
  5
37E
330
1F
100
AcDbEntity
  8
Furniture
370
     9
100
AcDbSpline
210
0.0
220
0.0
230
1.0
 70
    24
 71
     3
 72
     8
 73
     4
 74
     0
 42
0.000000001
 43
0.0000000001
 40
1.008522695545994
 40
1.008522695545994
 40
1.008522695545994
 40
1.008522695545994
 40
1.029425092264805
 40
1.029425092264805
 40
1.029425092264805
 40
1.029425092264805
 10
4944.418420859354
 20
395.3404830870035
 30
0.0
 10
4944.427957111988
 20
395.3427471696682
 30
0.0
 10
4944.437493364606
 20
395.3450112523328
 30
0.0
 10
4944.447029617212
 20
395.3472753350556
 30
0.0
  0
SPLINE
  5
37F
330
1F
100
AcDbEntity
  8
Furniture
370
     9
100
AcDbSpline
210
0.0
220
0.0
230
1.0
 70
    24
 71
     3
 72
     8
 73
     4
 74
     0
 42
0.000000001
 43
0.0000000001
 40
-0.0022358698977407
 40
-0.0022358698977407
 40
-0.0022358698977407
 40
-0.0022358698977407
 40
0.0
 40
0.0
 40
0.0
 40
0.0
 10
4942.956833239009
 20
402.6972277999788
 30
0.0
 10
4942.952355657969
 20
402.6964010137066
 30
0.0
 10
4942.947880577008
 20
402.6955674509567
 30
0.0
 10
4942.943408046416
 20
402.6947269753486
 30
0.0
  0
SPLINE
  5
380
330
1F
100
AcDbEntity
  8
Furniture
370
     9
100
AcDbSpline
210
0.0
220
0.0
230
1.0
 70
     8
 71
     3
 72
    11
 73
     7
 74
     0
 42
0.000000001
 43
0.0000000001
 40
0.0
 40
0.0
 40
0.0
 40
0.0
 40
1.0
 40
1.0
 40
1.0
 40
2.0
 40
2.0
 40
2.0
 40
2.0
 10
4942.943408046416
 20
402.6947269753486
 30
0.0
 10
4940.943054349544
 20
402.3188215827152
 30
0.0
 10
4939.452857971326
 20
400.5601213525564
 30
0.0
 10
4939.452857971326
 20
398.5060668853161
 30
0.0
 10
4939.452857971326
 20
396.4654376106386
 30
0.0
 10
4940.916203964345
 20
394.6933121878587
 30
0.0
 10
4942.943408046416
 20
394.3442571804093
 30
0.0
  0
SPLINE
  5
381
330
1F
100
AcDbEntity
  8
Furniture
370
     9
100
AcDbSpline
210
0.0
220
0.0
230
1.0
 70
    24
 71
     3
 72
     8
 73
     4
 74
     0
 42
0.000000001
 43
0.0000000001
 40
2.0
 40
2.0
 40
2.0
 40
2.0
 40
2.002206160190365
 40
2.002206160190365
 40
2.002206160190365
 40
2.002206160190365
 10
4942.943408046416
 20
394.3442571804093
 30
0.0
 10
4942.947880383352
 20
394.3434871091207
 30
0.0
 10
4942.952355464647
 20
394.3427239641364
 30
0.0
 10
4942.956833238993
 20
394.3419676157695
 30
0.0
  0
SPLINE
  5
382
330
1F
100
AcDbEntity
  8
Furniture
370
     9
100
AcDbSpline
210
0.0
220
0.0
230
1.0
 70
    24
 71
     3
 72
     8
 73
     4
 74
     0
 42
0.000000001
 43
0.0000000001
 40
-0.0022061281740043
 40
-0.0022061281740043
 40
-0.0022061281740043
 40
-0.0022061281740043
 40
0.0
 40
0.0
 40
0.0
 40
0.0
 10
4944.447029617182
 20
394.3419676491807
 30
0.0
 10
4944.451507456095
 20
394.3427239863717
 30
0.0
 10
4944.455982537769
 20
394.3434871203548
 30
0.0
 10
4944.460454809789
 20
394.3442571804093
 30
0.0
  0
SPLINE
  5
383
330
1F
100
AcDbEntity
  8
Furniture
370
     9
100
AcDbSpline
210
0.0
220
0.0
230
1.0
 70
     8
 71
     3
 72
    11
 73
     7
 74
     0
 42
0.000000001
 43
0.0000000001
 40
0.0
 40
0.0
 40
0.0
 40
0.0
 40
1.0
 40
1.0
 40
1.0
 40
2.0
 40
2.0
 40
2.0
 40
2.0
 10
4944.460454809789
 20
394.3442571804093
 30
0.0
 10
4946.48765889186
 20
394.6933121878587
 30
0.0
 10
4947.937579692286
 20
396.4654376106386
 30
0.0
 10
4947.937579692286
 20
398.5060668853161
 30
0.0
 10
4947.937579692286
 20
400.5601213525564
 30
0.0
 10
4946.48765889186
 20
402.3188215827152
 30
0.0
 10
4944.460454809789
 20
402.6947269753486
 30
0.0
  0
SPLINE
  5
384
330
1F
100
AcDbEntity
  8
Furniture
370
     9
100
AcDbSpline
210
0.0
220
0.0
230
1.0
 70
    24
 71
     3
 72
     8
 73
     4
 74
     0
 42
0.000000001
 43
0.0000000001
 40
2.0
 40
2.0
 40
2.0
 40
2.0
 40
2.002206128387164
 40
2.002206128387164
 40
2.002206128387164
 40
2.002206128387164
 10
4944.460454809789
 20
402.6947269753486
 30
0.0
 10
4944.455982537347
 20
402.695556270953
 30
0.0
 10
4944.451507455222
 20
402.6963788364132
 30
0.0
 10
4944.447029617212
 20
402.6971948006006
 30
0.0
  0
LINE
  5
385
330
1F
100
AcDbEntity
  8
Furniture
370
     9
100
AcDbLine
 10
4986.897488607229
 20
420.660119101119
 30
0.0
 11
4986.897488607229
 21
412.3182853270022
 31
0.0
  0
LINE
  5
386
330
1F
100
AcDbEntity
  8
Furniture
370
     9
100
AcDbLine
 10
4985.420717421632
 20
412.3160543951721
 30
0.0
 11
4985.420717421632
 21
420.6673677344856
 31
0.0
  0
SPLINE
  5
387
330
1F
100
AcDbEntity
  8
Furniture
370
     9
100
AcDbSpline
210
0.0
220
0.0
230
1.0
 70
    24
 71
     3
 72
     8
 73
     4
 74
     0
 42
0.000000001
 43
0.0000000001
 40
-0.0190598174721287
 40
-0.0190598174721287
 40
-0.0190598174721287
 40
-0.0190598174721287
 40
-0.0088304726186008
 40
-0.0088304726186008
 40
-0.0088304726186008
 40
-0.0088304726186008
 10
4986.897488607258
 20
419.6579834016787
 30
0.0
 10
4986.892685662973
 20
419.6590917506304
 30
0.0
 10
4986.887882718689
 20
419.6602000995821
 30
0.0
 10
4986.883079774434
 20
419.6613084485337
 30
0.0
  0
SPLINE
  5
388
330
1F
100
AcDbEntity
  8
Furniture
370
     9
100
AcDbSpline
210
0.0
220
0.0
230
1.0
 70
    24
 71
     3
 72
     8
 73
     4
 74
     0
 42
0.000000001
 43
0.0000000001
 40
-0.0088304726186008
 40
-0.0088304726186008
 40
-0.0088304726186008
 40
-0.0088304726186008
 40
0.0
 40
0.0
 40
0.0
 40
0.0
 10
4986.883079774434
 20
419.6613084485337
 30
0.0
 10
4986.878933637159
 20
419.6622652297423
 30
0.0
 10
4986.874787499899
 20
419.6632220109508
 30
0.0
 10
4986.870638222058
 20
419.6641704173575
 30
0.0
  0
SPLINE
  5
389
330
1F
100
AcDbEntity
  8
Furniture
370
     9
100
AcDbSpline
210
0.0
220
0.0
230
1.0
 70
     8
 71
     3
 72
     8
 73
     4
 74
     0
 42
0.000000001
 43
0.0000000001
 40
0.0
 40
0.0
 40
0.0
 40
0.0
 40
1.0
 40
1.0
 40
1.0
 40
1.0
 10
4986.870638222058
 20
419.6641704173575
 30
0.0
 10
4986.400756481166
 20
419.7715719581514
 30
0.0
 10
4985.890599162511
 20
419.7715719581514
 30
0.0
 10
4985.420717421646
 20
419.6641704173575
 30
0.0
  0
SPLINE
  5
38A
330
1F
100
AcDbEntity
  8
Furniture
370
     9
100
AcDbSpline
210
0.0
220
0.0
230
1.0
 70
     8
 71
     3
 72
     8
 73
     4
 74
     0
 42
0.000000001
 43
0.0000000001
 40
0.0
 40
0.0
 40
0.0
 40
0.0
 40
1.0
 40
1.0
 40
1.0
 40
1.0
 10
4985.420717421646
 20
413.3274795117953
 30
0.0
 10
4985.890599162511
 20
413.2200779710596
 30
0.0
 10
4986.400756481166
 20
413.2200779710596
 30
0.0
 10
4986.870638222058
 20
413.3274795117953
 30
0.0
  0
SPLINE
  5
38B
330
1F
100
AcDbEntity
  8
Furniture
370
     9
100
AcDbSpline
210
0.0
220
0.0
230
1.0
 70
    24
 71
     3
 72
     8
 73
     4
 74
     0
 42
0.000000001
 43
0.0000000001
 40
1.0
 40
1.0
 40
1.0
 40
1.0
 40
1.0088304726186
 40
1.0088304726186
 40
1.0088304726186
 40
1.0088304726186
 10
4986.870638222058
 20
413.3274795117953
 30
0.0
 10
4986.874787499899
 20
413.328427918202
 30
0.0
 10
4986.878933637159
 20
413.3293846994687
 30
0.0
 10
4986.883079774434
 20
413.3303414806773
 30
0.0
  0
SPLINE
  5
38C
330
1F
100
AcDbEntity
  8
Furniture
370
     9
100
AcDbSpline
210
0.0
220
0.0
230
1.0
 70
    24
 71
     3
 72
     8
 73
     4
 74
     0
 42
0.000000001
 43
0.0000000001
 40
1.0088304726186
 40
1.0088304726186
 40
1.0088304726186
 40
1.0088304726186
 40
1.019059817472128
 40
1.019059817472128
 40
1.019059817472128
 40
1.019059817472128
 10
4986.883079774434
 20
413.3303414806773
 30
0.0
 10
4986.887882718689
 20
413.3314498295125
 30
0.0
 10
4986.892685662973
 20
413.3325581785224
 30
0.0
 10
4986.897488607258
 20
413.333666527474
 30
0.0
  0
SPLINE
  5
38D
330
1F
100
AcDbEntity
  8
Furniture
370
     9
100
AcDbSpline
210
0.0
220
0.0
230
1.0
 70
     8
 71
     3
 72
     8
 73
     4
 74
     0
 42
0.000000001
 43
0.0000000001
 40
-0.0044096721696141
 40
-0.0044096721696141
 40
-0.0044096721696141
 40
-0.0044096721696141
 40
0.0
 40
0.0
 40
0.0
 40
0.0
 10
4985.420717421632
 20
420.662528674938
 30
0.0
 10
4985.411756611622
 20
420.6609232808163
 30
0.0
 10
4985.402806341856
 20
420.6592922889444
 30
0.0
 10
4985.393867036433
 20
420.6576346694541
 30
0.0
  0
SPLINE
  5
38E
330
1F
100
AcDbEntity
  8
Furniture
370
     9
100
AcDbSpline
210
0.0
220
0.0
230
1.0
 70
     8
 71
     3
 72
    11
 73
     7
 74
     0
 42
0.000000001
 43
0.0000000001
 40
0.0
 40
0.0
 40
0.0
 40
0.0
 40
1.0
 40
1.0
 40
1.0
 40
2.0
 40
2.0
 40
2.0
 40
2.0
 10
4985.393867036433
 20
420.6576346694541
 30
0.0
 10
4983.366662954362
 20
420.2817292767626
 30
0.0
 10
4981.903316961372
 20
418.5364542392248
 30
0.0
 10
4981.903316961372
 20
416.4958249646055
 30
0.0
 10
4981.903316961372
 20
414.4417704973069
 30
0.0
 10
4983.366662954362
 20
412.6696450745853
 30
0.0
 10
4985.393867036433
 20
412.3205900670777
 30
0.0
  0
SPLINE
  5
38F
330
1F
100
AcDbEntity
  8
Furniture
370
     9
100
AcDbSpline
210
0.0
220
0.0
230
1.0
 70
     8
 71
     3
 72
     8
 73
     4
 74
     0
 42
0.000000001
 43
0.0000000001
 40
2.0
 40
2.0
 40
2.0
 40
2.0
 40
2.004409669906916
 40
2.004409669906916
 40
2.004409669906916
 40
2.004409669906916
 10
4985.393867036433
 20
412.3205900670777
 30
0.0
 10
4985.402806337287
 20
412.3190508497695
 30
0.0
 10
4985.411756602425
 20
412.317539304267
 30
0.0
 10
4985.420717421646
 20
412.3160543951721
 30
0.0
  0
SPLINE
  5
390
330
1F
100
AcDbEntity
  8
Furniture
370
     9
100
AcDbSpline
210
0.0
220
0.0
230
1.0
 70
    24
 71
     3
 72
     8
 73
     4
 74
     0
 42
0.000000001
 43
0.0000000001
 40
-0.0022209152107827
 40
-0.0022209152107827
 40
-0.0022209152107827
 40
-0.0022209152107827
 40
0.0
 40
0.0
 40
0.0
 40
0.0
 10
4986.897488607272
 20
412.3182853269439
 30
0.0
 10
4986.901966286739
 20
412.3190466432182
 30
0.0
 10
4986.906441367686
 20
412.3198148454589
 30
0.0
 10
4986.910913799835
 20
412.3205900670777
 30
0.0
  0
SPLINE
  5
391
330
1F
100
AcDbEntity
  8
Furniture
370
     9
100
AcDbSpline
210
0.0
220
0.0
230
1.0
 70
     8
 71
     3
 72
    11
 73
     7
 74
     0
 42
0.000000001
 43
0.0000000001
 40
0.0
 40
0.0
 40
0.0
 40
0.0
 40
1.0
 40
1.0
 40
1.0
 40
2.0
 40
2.0
 40
2.0
 40
2.0
 10
4986.910913799835
 20
412.3205900670777
 30
0.0
 10
4988.924692689313
 20
412.6696450745853
 30
0.0
 10
4990.401463874925
 20
414.4417704973069
 30
0.0
 10
4990.401463874925
 20
416.4689745793052
 30
0.0
 10
4990.401463874925
 20
418.5364542392248
 30
0.0
 10
4988.924692689313
 20
420.2817292767626
 30
0.0
 10
4986.910913799835
 20
420.6576346694541
 30
0.0
  0
SPLINE
  5
392
330
1F
100
AcDbEntity
  8
Furniture
370
     9
100
AcDbSpline
210
0.0
220
0.0
230
1.0
 70
    24
 71
     3
 72
     8
 73
     4
 74
     0
 42
0.000000001
 43
0.0000000001
 40
2.0
 40
2.0
 40
2.0
 40
2.0
 40
2.002220915496354
 40
2.002220915496354
 40
2.002220915496354
 40
2.002220915496354
 10
4986.910913799835
 20
420.6576346694541
 30
0.0
 10
4986.906441367119
 20
420.658469523541
 30
0.0
 10
4986.901966285589
 20
420.659297623269
 30
0.0
 10
4986.897488607258
 20
420.660119101119
 30
0.0
  0
SPLINE
  5
393
330
1F
100
AcDbEntity
  8
Furniture
370
     9
100
AcDbSpline
210
0.0
220
0.0
230
1.0
 70
     9
 71
     3
 72
    17
 73
    13
 74
     0
 42
0.000000001
 43
0.0000000001
 40
0.0
 40
0.0
 40
0.0
 40
0.0
 40
1.0
 40
1.0
 40
1.0
 40
2.0
 40
2.0
 40
2.0
 40
3.0
 40
3.0
 40
3.0
 40
4.0
 40
4.0
 40
4.0
 40
4.0
 10
4986.159103014422
 20
411.7298815927983
 30
0.0
 10
4988.763590378152
 20
411.7298815927983
 30
0.0
 10
4990.88477080841
 20
413.8644872156486
 30
0.0
 10
4990.88477080841
 20
416.4689745793052
 30
0.0
 10
4990.88477080841
 20
419.1137375208831
 30
0.0
 10
4988.763590378152
 20
421.2349179511124
 30
0.0
 10
4986.159103014422
 20
421.2349179511124
 30
0.0
 10
4983.527765265538
 20
421.2349179511124
 30
0.0
 10
4981.406584835294
 20
419.1137375208831
 30
0.0
 10
4981.406584835294
 20
416.4958249646055
 30
0.0
 10
4981.406584835294
 20
413.8644872156486
 30
0.0
 10
4983.527765265538
 20
411.7433067854194
 30
0.0
 10
4986.159103014422
 20
411.7298815927983
 30
0.0
  0
SPLINE
  5
394
330
1F
100
AcDbEntity
  8
Furniture
370
     9
100
AcDbSpline
210
0.0
220
0.0
230
1.0
 70
    11
 71
     3
 72
    17
 73
    13
 74
     0
 42
0.000000001
 43
0.0000000001
 40
0.0
 40
0.0
 40
0.0
 40
0.0
 40
1.0
 40
1.0
 40
1.0
 40
2.0
 40
2.0
 40
2.0
 40
3.0
 40
3.0
 40
3.0
 40
4.0
 40
4.0
 40
4.0
 40
4.0
 10
4986.642409947922
 20
864.722730182931
 30
0.0
 10
4989.260322504229
 20
864.722730182931
 30
0.0
 10
4991.394928127079
 20
866.8439106131604
 30
0.0
 10
4991.394928127079
 20
869.4618231694379
 30
0.0
 10
4991.394928127079
 20
872.0797357257737
 30
0.0
 10
4989.260322504229
 20
874.2143413486241
 30
0.0
 10
4986.669260333107
 20
874.2143413486241
 30
0.0
 10
4984.024497391601
 20
874.2143413486241
 30
0.0
 10
4981.903316961372
 20
872.0797357257737
 30
0.0
 10
4981.903316961372
 20
869.4618231694379
 30
0.0
 10
4981.903316961372
 20
866.8439106131604
 30
0.0
 10
4984.024497391601
 20
864.722730182931
 30
0.0
 10
4986.642409947922
 20
864.722730182931
 30
0.0
  0
SPLINE
  5
395
330
1F
100
AcDbEntity
  8
Furniture
370
     9
100
AcDbSpline
210
0.0
220
0.0
230
1.0
 70
     8
 71
     3
 72
    14
 73
    10
 74
     0
 42
0.000000001
 43
0.0000000001
 40
0.0
 40
0.0
 40
0.0
 40
0.0
 40
1.0
 40
1.0
 40
1.0
 40
2.0
 40
2.0
 40
2.0
 40
3.0
 40
3.0
 40
3.0
 40
3.0
 10
4943.695218831813
 20
841.2420683316353
 30
0.0
 10
4946.326556580713
 20
841.2420683316353
 30
0.0
 10
4948.447737010956
 20
843.3900991471068
 30
0.0
 10
4948.447737010956
 20
845.9945865108215
 30
0.0
 10
4948.447737010956
 20
848.6124990671573
 30
0.0
 10
4946.326556580713
 20
850.7336794973284
 30
0.0
 10
4943.695218831813
 20
850.7336794973284
 30
0.0
 10
4941.077306275492
 20
850.7336794973284
 30
0.0
 10
4938.969551037855
 20
848.6124990671573
 30
0.0
 10
4938.956125845263
 20
845.9945865108215
 30
0.0
  0
SPLINE
  5
396
330
1F
100
AcDbEntity
  8
Furniture
370
     9
100
AcDbSpline
210
0.0
220
0.0
230
1.0
 70
     8
 71
     3
 72
     8
 73
     4
 74
     0
 42
0.000000001
 43
0.0000000001
 40
3.0
 40
3.0
 40
3.0
 40
3.0
 40
4.0
 40
4.0
 40
4.0
 40
4.0
 10
4938.956125845263
 20
845.9945865108215
 30
0.0
 10
4938.956125845263
 20
843.3900991471068
 30
0.0
 10
4941.077306275492
 20
841.2420683316353
 30
0.0
 10
4943.695218831813
 20
841.2420683316353
 30
0.0
  0
SPLINE
  5
397
330
1F
100
AcDbEntity
  8
Furniture
370
     9
100
AcDbSpline
210
0.0
220
0.0
230
1.0
 70
     8
 71
     3
 72
    14
 73
    10
 74
     0
 42
0.000000001
 43
0.0000000001
 40
0.0
 40
0.0
 40
0.0
 40
0.0
 40
1.0
 40
1.0
 40
1.0
 40
2.0
 40
2.0
 40
2.0
 40
3.0
 40
3.0
 40
3.0
 40
3.0
 10
4943.695218831813
 20
393.766973898751
 30
0.0
 10
4946.326556580713
 20
393.766973898751
 30
0.0
 10
4948.447737010956
 20
395.8881543289803
 30
0.0
 10
4948.447737010956
 20
398.5060668853161
 30
0.0
 10
4948.447737010956
 20
401.1374046341565
 30
0.0
 10
4946.326556580713
 20
403.2585850643276
 30
0.0
 10
4943.695218831813
 20
403.2585850643276
 30
0.0
 10
4941.077306275492
 20
403.2585850643276
 30
0.0
 10
4938.969551037855
 20
401.1374046341565
 30
0.0
 10
4938.956125845263
 20
398.5060668853161
 30
0.0
  0
SPLINE
  5
398
330
1F
100
AcDbEntity
  8
Furniture
370
     9
100
AcDbSpline
210
0.0
220
0.0
230
1.0
 70
     8
 71
     3
 72
     8
 73
     4
 74
     0
 42
0.000000001
 43
0.0000000001
 40
3.0
 40
3.0
 40
3.0
 40
3.0
 40
4.0
 40
4.0
 40
4.0
 40
4.0
 10
4938.956125845263
 20
398.5060668853161
 30
0.0
 10
4938.956125845263
 20
395.8881543289803
 30
0.0
 10
4941.077306275492
 20
393.766973898751
 30
0.0
 10
4943.695218831813
 20
393.766973898751
 30
0.0
  0
LINE
  5
399
330
1F
100
AcDbEntity
  8
Furniture
370
     9
100
AcDbLine
 10
4933.961954199349
 20
388.7728022528512
 30
0.0
 11
4996.402524965528
 21
388.7728022528512
 31
0.0
  0
LINE
  5
39A
330
1F
100
AcDbEntity
  8
Furniture
370
     9
100
AcDbLine
 10
4996.402524965528
 20
388.7728022528512
 30
0.0
 11
4996.402524965528
 21
880.2019772466204
 31
0.0
  0
LINE
  5
39B
330
1F
100
AcDbEntity
  8
Furniture
370
     9
100
AcDbLine
 10
4996.402524965528
 20
880.2019772466204
 30
0.0
 11
4933.961954199349
 21
880.2019772466204
 31
0.0
  0
LINE
  5
39C
330
1F
100
AcDbEntity
  8
Furniture
370
     9
100
AcDbLine
 10
4933.961954199349
 20
880.2019772466204
 30
0.0
 11
4933.961954199349
 21
388.7728022528512
 31
0.0
  0
LINE
  5
39D
330
1F
100
AcDbEntity
  8
Furniture
370
     9
100
AcDbLine
 10
4996.402524965528
 20
426.2290895970122
 30
0.0
 11
5228.604656114086
 21
426.2290895970122
 31
0.0
  0
LINE
  5
39E
330
1F
100
AcDbEntity
  8
Furniture
370
     9
100
AcDbLine
 10
5228.604656114086
 20
426.2290895970122
 30
0.0
 11
5228.604656114086
 21
388.7728022528512
 31
0.0
  0
LINE
  5
39F
330
1F
100
AcDbEntity
  8
Furniture
370
     9
100
AcDbLine
 10
5228.604656114086
 20
388.7728022528512
 30
0.0
 11
4996.402524965528
 21
388.7728022528512
 31
0.0
  0
LINE
  5
3A0
330
1F
100
AcDbEntity
  8
Furniture
370
     9
100
AcDbLine
 10
7218.513553148067
 20
624.6265857876327
 30
0.0
 11
7224.997921172169
 21
624.6265857876327
 31
0.0
  0
LINE
  5
3A1
330
1F
100
AcDbEntity
  8
Furniture
370
     9
100
AcDbLine
 10
7224.997921172169
 20
624.6265857876327
 30
0.0
 11
7224.997921172169
 21
687.0671565538554
 31
0.0
  0
LINE
  5
3A2
330
1F
100
AcDbEntity
  8
Furniture
370
     9
100
AcDbLine
 10
7224.997921172169
 20
687.0671565538554
 30
0.0
 11
7218.513553148067
 21
687.0671565538554
 31
0.0
  0
LINE
  5
3A3
330
1F
100
AcDbEntity
  8
Furniture
370
     9
100
AcDbLine
 10
7218.513553148067
 20
687.0671565538554
 30
0.0
 11
7218.513553148067
 21
624.6265857876327
 31
0.0
  0
LINE
  5
3A4
330
1F
100
AcDbEntity
  8
Furniture
370
     9
100
AcDbLine
 10
6843.950679706559
 20
687.0671565538554
 30
0.0
 11
6837.439461297272
 21
687.0671565538554
 31
0.0
  0
LINE
  5
3A5
330
1F
100
AcDbEntity
  8
Furniture
370
     9
100
AcDbLine
 10
6837.439461297272
 20
687.0671565538554
 30
0.0
 11
6837.439461297272
 21
392.4110294464676
 31
0.0
  0
LINE
  5
3A6
330
1F
100
AcDbEntity
  8
Furniture
370
     9
100
AcDbLine
 10
6837.439461297272
 20
392.4110294464676
 30
0.0
 11
6843.950679706559
 21
392.4110294464676
 31
0.0
  0
LINE
  5
3A7
330
1F
100
AcDbEntity
  8
Furniture
370
     9
100
AcDbLine
 10
6843.950679706559
 20
392.4110294464676
 30
0.0
 11
6843.950679706559
 21
687.0671565538554
 31
0.0
  0
LINE
  5
3A8
330
1F
100
AcDbEntity
  8
Furniture
370
     9
100
AcDbLine
 10
6843.950679706559
 20
687.0671565538554
 30
0.0
 11
7212.499066864857
 21
687.0671565538554
 31
0.0
  0
LINE
  5
3A9
330
1F
100
AcDbEntity
  8
Furniture
370
     9
100
AcDbLine
 10
6843.950679706559
 20
392.4110294464676
 30
0.0
 11
7212.499066864857
 21
392.4110294464676
 31
0.0
  0
LINE
  5
3AA
330
1F
100
AcDbEntity
  8
Furniture
370
     9
100
AcDbLine
 10
6837.439461297272
 20
687.0671565538554
 30
0.0
 11
6837.439461297272
 21
624.6265857876327
 31
0.0
  0
LINE
  5
3AB
330
1F
100
AcDbEntity
  8
Furniture
370
     9
100
AcDbLine
 10
6837.439461297272
 20
624.6265857876327
 30
0.0
 11
6830.928242887999
 21
624.6265857876327
 31
0.0
  0
LINE
  5
3AC
330
1F
100
AcDbEntity
  8
Furniture
370
     9
100
AcDbLine
 10
6830.928242887999
 20
624.6265857876327
 30
0.0
 11
6830.928242887999
 21
687.0671565538554
 31
0.0
  0
LINE
  5
3AD
330
1F
100
AcDbEntity
  8
Furniture
370
     9
100
AcDbLine
 10
6830.928242887999
 20
687.0671565538554
 30
0.0
 11
6837.439461297272
 21
687.0671565538554
 31
0.0
  0
LINE
  5
3AE
330
1F
100
AcDbEntity
  8
Furniture
370
     9
100
AcDbLine
 10
7212.499066864857
 20
392.4110294464676
 30
0.0
 11
7212.499066864857
 21
687.0671565538554
 31
0.0
  0
LINE
  5
3AF
330
1F
100
AcDbEntity
  8
Furniture
370
     9
100
AcDbLine
 10
7212.499066864857
 20
687.0671565538554
 30
0.0
 11
7218.513553148067
 21
687.0671565538554
 31
0.0
  0
LINE
  5
3B0
330
1F
100
AcDbEntity
  8
Furniture
370
     9
100
AcDbLine
 10
7218.513553148067
 20
687.0671565538554
 30
0.0
 11
7218.513553148067
 21
392.4110294464676
 31
0.0
  0
LINE
  5
3B1
330
1F
100
AcDbEntity
  8
Furniture
370
     9
100
AcDbLine
 10
7218.513553148067
 20
392.4110294464676
 30
0.0
 11
7212.499066864857
 21
392.4110294464676
 31
0.0
  0
TEXT
  5
3B2
330
1F
100
AcDbEntity
  8
Dimension
100
AcDbText
 10
7272.075143004305
 20
1731.506870224146
 30
0.0
 40
121.5269914140627
  1
25
 41
1.000399999999999
100
AcDbText
  0
TEXT
  5
3B3
330
1F
100
AcDbEntity
  8
Dimension
100
AcDbText
 10
3107.715935523174
 20
1821.64361331688
 30
0.0
 40
121.5269914140627
  1
40
 41
1.000399999999999
100
AcDbText
  0
LINE
  5
3B4
330
1F
100
AcDbEntity
  8
Furniture
370
     9
100
AcDbLine
 10
2991.631939727264
 20
1700.508095276139
 30
0.0
 11
2985.02674496979
 21
1700.508095276139
 31
0.0
  0
LINE
  5
3B5
330
1F
100
AcDbEntity
  8
Furniture
370
     9
100
AcDbLine
 10
2985.02674496979
 20
1700.508095276139
 30
0.0
 11
2985.02674496979
 21
1668.985743059665
 31
0.0
  0
LINE
  5
3B6
330
1F
100
AcDbEntity
  8
Furniture
370
     9
100
AcDbLine
 10
2985.02674496979
 20
1668.985743059665
 30
0.0
 11
2991.631939727264
 21
1668.985743059665
 31
0.0
  0
LINE
  5
3B7
330
1F
100
AcDbEntity
  8
Furniture
370
     9
100
AcDbLine
 10
2991.631939727264
 20
1668.985743059665
 30
0.0
 11
2991.631939727264
 21
1700.508095276139
 31
0.0
  0
LINE
  5
3B8
330
1F
100
AcDbEntity
  8
Furniture
370
     9
100
AcDbLine
 10
2997.700126780856
 20
1668.985743059665
 30
0.0
 11
2997.700126780856
 21
2068.989356471522
 31
0.0
  0
LINE
  5
3B9
330
1F
100
AcDbEntity
  8
Furniture
370
     9
100
AcDbLine
 10
2997.700126780856
 20
2068.989356471522
 30
0.0
 11
2991.631939727264
 21
2068.989356471522
 31
0.0
  0
LINE
  5
3BA
330
1F
100
AcDbEntity
  8
Furniture
370
     9
100
AcDbLine
 10
2991.631939727264
 20
1700.508095276139
 30
0.0
 11
2991.631939727264
 21
2037.467004254931
 31
0.0
  0
LINE
  5
3BB
330
1F
100
AcDbEntity
  8
Furniture
370
     9
100
AcDbLine
 10
2997.700126780856
 20
1668.985743059665
 30
0.0
 11
2991.631939727264
 21
1668.985743059665
 31
0.0
  0
SPLINE
  5
3BC
330
1F
100
AcDbEntity
  8
Furniture
370
     9
100
AcDbSpline
210
0.0
220
0.0
230
1.0
 70
    11
 71
     3
 72
    17
 73
    13
 74
     0
 42
0.000000001
 43
0.0000000001
 40
0.0
 40
0.0
 40
0.0
 40
0.0
 40
1.0
 40
1.0
 40
1.0
 40
2.0
 40
2.0
 40
2.0
 40
3.0
 40
3.0
 40
3.0
 40
4.0
 40
4.0
 40
4.0
 40
4.0
 10
2963.19738180796
 20
2040.822972947504
 30
0.0
 10
2963.19738180796
 20
2042.648799140652
 30
0.0
 10
2961.72061062235
 20
2044.125570326233
 30
0.0
 10
2959.867934044047
 20
2044.125570326233
 30
0.0
 10
2958.068958236112
 20
2044.125570326233
 30
0.0
 10
2956.592187050501
 20
2042.648799140652
 30
0.0
 10
2956.592187050501
 20
2040.822972947504
 30
0.0
 10
2956.592187050501
 20
2038.997146754415
 30
0.0
 10
2958.042107850899
 20
2037.506950376153
 30
0.0
 10
2959.867934044047
 20
2037.506950376153
 30
0.0
 10
2961.72061062235
 20
2037.506950376153
 30
0.0
 10
2963.19738180796
 20
2038.997146754415
 30
0.0
 10
2963.19738180796
 20
2040.822972947504
 30
0.0
  0
SPLINE
  5
3BD
330
1F
100
AcDbEntity
  8
Furniture
370
     9
100
AcDbSpline
210
0.0
220
0.0
230
1.0
 70
     8
 71
     3
 72
    11
 73
     7
 74
     0
 42
0.000000001
 43
0.0000000001
 40
0.0
 40
0.0
 40
0.0
 40
0.0
 40
1.0
 40
1.0
 40
1.0
 40
2.0
 40
2.0
 40
2.0
 40
2.0
 10
2738.54020889862
 20
2040.822972947504
 30
0.0
 10
2738.54020889862
 20
2042.648799140652
 30
0.0
 10
2737.036587327824
 20
2044.125570326233
 30
0.0
 10
2735.237611519889
 20
2044.125570326233
 30
0.0
 10
2733.4117853268
 20
2044.125570326233
 30
0.0
 10
2731.935014141145
 20
2042.648799140652
 30
0.0
 10
2731.935014141145
 20
2040.822972947504
 30
0.0
  0
SPLINE
  5
3BE
330
1F
100
AcDbEntity
  8
Furniture
370
     9
100
AcDbSpline
210
0.0
220
0.0
230
1.0
 70
     8
 71
     3
 72
    11
 73
     7
 74
     0
 42
0.000000001
 43
0.0000000001
 40
2.0
 40
2.0
 40
2.0
 40
2.0
 40
3.0
 40
3.0
 40
3.0
 40
4.0
 40
4.0
 40
4.0
 40
4.0
 10
2731.935014141145
 20
2040.822972947504
 30
0.0
 10
2731.908163755976
 20
2038.997146754415
 30
0.0
 10
2733.4117853268
 20
2037.506950376153
 30
0.0
 10
2735.237611519889
 20
2037.506950376153
 30
0.0
 10
2737.036587327824
 20
2037.506950376153
 30
0.0
 10
2738.54020889862
 20
2038.997146754415
 30
0.0
 10
2738.54020889862
 20
2040.822972947504
 30
0.0
  0
SPLINE
  5
3BF
330
1F
100
AcDbEntity
  8
Furniture
370
     9
100
AcDbSpline
210
0.0
220
0.0
230
1.0
 70
    11
 71
     3
 72
    17
 73
    13
 74
     0
 42
0.000000001
 43
0.0000000001
 40
0.0
 40
0.0
 40
0.0
 40
0.0
 40
1.0
 40
1.0
 40
1.0
 40
2.0
 40
2.0
 40
2.0
 40
3.0
 40
3.0
 40
3.0
 40
4.0
 40
4.0
 40
4.0
 40
4.0
 10
2850.828519775522
 20
2040.822972947504
 30
0.0
 10
2850.828519775522
 20
2042.648799140652
 30
0.0
 10
2849.378598975065
 20
2044.125570326233
 30
0.0
 10
2847.552772781975
 20
2044.125570326233
 30
0.0
 10
2845.726946588842
 20
2044.125570326233
 30
0.0
 10
2844.250175403246
 20
2042.648799140652
 30
0.0
 10
2844.250175403246
 20
2040.822972947504
 30
0.0
 10
2844.250175403246
 20
2038.997146754415
 30
0.0
 10
2845.726946588842
 20
2037.506950376153
 30
0.0
 10
2847.552772781975
 20
2037.506950376153
 30
0.0
 10
2849.378598975065
 20
2037.506950376153
 30
0.0
 10
2850.828519775522
 20
2038.997146754415
 30
0.0
 10
2850.828519775522
 20
2040.822972947504
 30
0.0
  0
LINE
  5
3C0
330
1F
100
AcDbEntity
  8
Furniture
370
     9
100
AcDbLine
 10
2985.02674496979
 20
2037.467004254931
 30
0.0
 11
2710.05195020889
 21
2037.467004254931
 31
0.0
  0
LINE
  5
3C1
330
1F
100
AcDbEntity
  8
Furniture
370
     9
100
AcDbLine
 10
2710.05195020889
 20
2068.989356471522
 30
0.0
 11
2703.983763155298
 21
2068.989356471522
 31
0.0
  0
LINE
  5
3C2
330
1F
100
AcDbEntity
  8
Furniture
370
     9
100
AcDbLine
 10
2703.983763155298
 20
2068.989356471522
 30
0.0
 11
2703.983763155298
 21
2037.467004254931
 31
0.0
  0
LINE
  5
3C3
330
1F
100
AcDbEntity
  8
Furniture
370
     9
100
AcDbLine
 10
2703.983763155298
 20
2037.467004254931
 30
0.0
 11
2710.05195020889
 21
2037.467004254931
 31
0.0
  0
LINE
  5
3C4
330
1F
100
AcDbEntity
  8
Furniture
370
     9
100
AcDbLine
 10
2710.05195020889
 20
2037.467004254931
 30
0.0
 11
2710.05195020889
 21
2068.989356471522
 31
0.0
  0
LINE
  5
3C5
330
1F
100
AcDbEntity
  8
Furniture
370
     9
100
AcDbLine
 10
2985.02674496979
 20
2062.894319032674
 30
0.0
 11
2985.02674496979
 21
2065.431680433341
 31
0.0
  0
LINE
  5
3C6
330
1F
100
AcDbEntity
  8
Furniture
370
     9
100
AcDbLine
 10
2985.02674496979
 20
2062.894319032674
 30
0.0
 11
2710.05195020889
 21
2062.894319032674
 31
0.0
  0
LINE
  5
3C7
330
1F
100
AcDbEntity
  8
Furniture
370
     9
100
AcDbLine
 10
2710.05195020889
 20
2062.894319032674
 30
0.0
 11
2710.05195020889
 21
2065.431680433341
 31
0.0
  0
LINE
  5
3C8
330
1F
100
AcDbEntity
  8
Furniture
370
     9
100
AcDbLine
 10
2710.05195020889
 20
2065.431680433341
 30
0.0
 11
2985.02674496979
 21
2065.431680433341
 31
0.0
  0
LINE
  5
3C9
330
1F
100
AcDbEntity
  8
Furniture
370
     9
100
AcDbLine
 10
2738.03005157995
 20
2041.064626414217
 30
0.0
 11
2732.526495374903
 21
2040.077146233937
 31
0.0
  0
LINE
  5
3CA
330
1F
100
AcDbEntity
  8
Furniture
370
     9
100
AcDbLine
 10
2732.418321074631
 20
2041.064626414217
 30
0.0
 11
2737.915130492042
 21
2041.577486623084
 31
0.0
  0
SPLINE
  5
3CB
330
1F
100
AcDbEntity
  8
Furniture
370
     9
100
AcDbSpline
210
0.0
220
0.0
230
1.0
 70
     8
 71
     3
 72
     8
 73
     4
 74
     0
 42
0.000000001
 43
0.0000000001
 40
0.0
 40
0.0
 40
0.0
 40
0.0
 40
1.0
 40
1.0
 40
1.0
 40
1.0
 10
2738.03005157995
 20
2040.769272177136
 30
0.0
 10
2738.03005157995
 20
2041.064626414217
 30
0.0
 10
2738.003201194781
 20
2041.359980651415
 30
0.0
 10
2737.895799653987
 20
2041.628484503255
 30
0.0
  0
SPLINE
  5
3CC
330
1F
100
AcDbEntity
  8
Furniture
370
     9
100
AcDbSpline
210
0.0
220
0.0
230
1.0
 70
     8
 71
     3
 72
     8
 73
     4
 74
     0
 42
0.000000001
 43
0.0000000001
 40
0.0
 40
0.0
 40
0.0
 40
0.0
 40
1.0
 40
1.0
 40
1.0
 40
1.0
 10
2732.418321074645
 20
2040.863248525309
 30
0.0
 10
2732.418321074645
 20
2040.567894288169
 30
0.0
 10
2732.445171459829
 20
2040.285965243651
 30
0.0
 10
2732.552573000623
 20
2040.004036199132
 30
0.0
  0
SPLINE
  5
3CD
330
1F
100
AcDbEntity
  8
Furniture
370
     9
100
AcDbSpline
210
0.0
220
0.0
230
1.0
 70
     8
 71
     3
 72
     8
 73
     4
 74
     0
 42
0.000000001
 43
0.0000000001
 40
0.0
 40
0.0
 40
0.0
 40
0.0
 40
1.0
 40
1.0
 40
1.0
 40
1.0
 10
2737.9226500392
 20
2041.615059310692
 30
0.0
 10
2737.493043876111
 20
2042.944153377733
 30
0.0
 10
2736.204225386861
 20
2043.789940511289
 30
0.0
 10
2734.808005356816
 20
2043.601987815002
 30
0.0
  0
SPLINE
  5
3CE
330
1F
100
AcDbEntity
  8
Furniture
370
     9
100
AcDbSpline
210
0.0
220
0.0
230
1.0
 70
     8
 71
     3
 72
     8
 73
     4
 74
     0
 42
0.000000001
 43
0.0000000001
 40
1.0
 40
1.0
 40
1.0
 40
1.0
 40
2.0
 40
2.0
 40
2.0
 40
2.0
 10
2734.808005356816
 20
2043.601987815002
 30
0.0
 10
2733.438635711984
 20
2043.37375954085
 30
0.0
 10
2732.418321074645
 20
2042.232618170155
 30
0.0
 10
2732.418321074645
 20
2040.822972947504
 30
0.0
  0
SPLINE
  5
3CF
330
1F
100
AcDbEntity
  8
Furniture
370
     9
100
AcDbSpline
210
0.0
220
0.0
230
1.0
 70
     8
 71
     3
 72
     8
 73
     4
 74
     0
 42
0.000000001
 43
0.0000000001
 40
0.0
 40
0.0
 40
0.0
 40
0.0
 40
1.0
 40
1.0
 40
1.0
 40
1.0
 10
2732.552573000623
 20
2040.030886584374
 30
0.0
 10
2732.928478393314
 20
2038.688367324653
 30
0.0
 10
2734.270997652948
 20
2037.842580191098
 30
0.0
 10
2735.613516912596
 20
2038.057383272628
 30
0.0
  0
SPLINE
  5
3D0
330
1F
100
AcDbEntity
  8
Furniture
370
     9
100
AcDbSpline
210
0.0
220
0.0
230
1.0
 70
     8
 71
     3
 72
     8
 73
     4
 74
     0
 42
0.000000001
 43
0.0000000001
 40
1.0
 40
1.0
 40
1.0
 40
1.0
 40
2.0
 40
2.0
 40
2.0
 40
2.0
 10
2735.613516912596
 20
2038.057383272628
 30
0.0
 10
2736.982886557457
 20
2038.258761161594
 30
0.0
 10
2738.003201194781
 20
2039.440178110095
 30
0.0
 10
2738.03005157995
 20
2040.809547754941
 30
0.0
  0
LINE
  5
3D1
330
1F
100
AcDbEntity
  8
Furniture
370
     9
100
AcDbLine
 10
2959.626280577289
 20
2043.628838200127
 30
0.0
 11
2961.623202348292
 21
2038.636533772694
 31
0.0
  0
LINE
  5
3D2
330
1F
100
AcDbEntity
  8
Furniture
370
     9
100
AcDbLine
 10
2960.778419604602
 20
2038.160597627697
 30
0.0
 11
2958.56573862724
 21
2043.273684751015
 31
0.0
  0
SPLINE
  5
3D3
330
1F
100
AcDbEntity
  8
Furniture
370
     9
100
AcDbSpline
210
0.0
220
0.0
230
1.0
 70
     8
 71
     3
 72
     8
 73
     4
 74
     0
 42
0.000000001
 43
0.0000000001
 40
0.0
 40
0.0
 40
0.0
 40
0.0
 40
1.0
 40
1.0
 40
1.0
 40
1.0
 10
2959.2235247994
 20
2043.548287044634
 30
0.0
 10
2958.981871332671
 20
2043.494586274208
 30
0.0
 10
2958.713367480759
 20
2043.346909155609
 30
0.0
 10
2958.444863628818
 20
2043.212657229689
 30
0.0
  0
SPLINE
  5
3D4
330
1F
100
AcDbEntity
  8
Furniture
370
     9
100
AcDbSpline
210
0.0
220
0.0
230
1.0
 70
     8
 71
     3
 72
     8
 73
     4
 74
     0
 42
0.000000001
 43
0.0000000001
 40
0.0
 40
0.0
 40
0.0
 40
0.0
 40
1.0
 40
1.0
 40
1.0
 40
1.0
 10
2960.51234328865
 20
2037.547555410541
 30
0.0
 10
2960.753996755379
 20
2037.61468137353
 30
0.0
 10
2961.049350992518
 20
2037.708657721703
 30
0.0
 10
2961.31785484443
 20
2037.856334840244
 30
0.0
  0
SPLINE
  5
3D5
330
1F
100
AcDbEntity
  8
Furniture
370
     9
100
AcDbSpline
210
0.0
220
0.0
230
1.0
 70
     8
 71
     3
 72
     8
 73
     4
 74
     0
 42
0.000000001
 43
0.0000000001
 40
0.0
 40
0.0
 40
0.0
 40
0.0
 40
1.0
 40
1.0
 40
1.0
 40
1.0
 10
2958.498564399201
 20
2043.239507614873
 30
0.0
 10
2957.263446680303
 20
2042.527972407295
 30
0.0
 10
2956.780139746861
 20
2041.051201221655
 30
0.0
 10
2957.290297065516
 20
2039.789233117544
 30
0.0
  0
SPLINE
  5
3D6
330
1F
100
AcDbEntity
  8
Furniture
370
     9
100
AcDbSpline
210
0.0
220
0.0
230
1.0
 70
     8
 71
     3
 72
     8
 73
     4
 74
     0
 42
0.000000001
 43
0.0000000001
 40
1.0
 40
1.0
 40
1.0
 40
1.0
 40
2.0
 40
2.0
 40
2.0
 40
2.0
 10
2957.290297065516
 20
2039.789233117544
 30
0.0
 10
2957.800454384186
 20
2038.473564243182
 30
0.0
 10
2959.196674414215
 20
2037.788879420672
 30
0.0
 10
2960.539193673863
 20
2038.097658850432
 30
0.0
  0
SPLINE
  5
3D7
330
1F
100
AcDbEntity
  8
Furniture
370
     9
100
AcDbSpline
210
0.0
220
0.0
230
1.0
 70
     8
 71
     3
 72
     8
 73
     4
 74
     0
 42
0.000000001
 43
0.0000000001
 40
2.0
 40
2.0
 40
2.0
 40
2.0
 40
2.076592771107803
 40
2.076592771107803
 40
2.076592771107803
 40
2.076592771107803
 10
2960.539193673863
 20
2038.097658850432
 30
0.0
 10
2960.642020944233
 20
2038.121309122599
 30
0.0
 10
2960.744533181573
 20
2038.150787505734
 30
0.0
 10
2960.847045418926
 20
2038.180265888868
 30
0.0
  0
SPLINE
  5
3D8
330
1F
100
AcDbEntity
  8
Furniture
370
     9
100
AcDbSpline
210
0.0
220
0.0
230
1.0
 70
    24
 71
     3
 72
     8
 73
     4
 74
     0
 42
0.000000001
 43
0.0000000001
 40
2.076592771107803
 40
2.076592771107803
 40
2.076592771107803
 40
2.076592771107803
 40
2.087703103667004
 40
2.087703103667004
 40
2.087703103667004
 40
2.087703103667004
 10
2960.847045418926
 20
2038.180265888868
 30
0.0
 10
2960.861915556529
 20
2038.184541940403
 30
0.0
 10
2960.876785694174
 20
2038.188817992113
 30
0.0
 10
2960.891655831791
 20
2038.193094043707
 30
0.0
  0
SPLINE
  5
3D9
330
1F
100
AcDbEntity
  8
Furniture
370
     9
100
AcDbSpline
210
0.0
220
0.0
230
1.0
 70
    24
 71
     3
 72
     8
 73
     4
 74
     0
 42
0.000000001
 43
0.0000000001
 40
-0.1089855066892438
 40
-0.1089855066892438
 40
-0.1089855066892438
 40
-0.1089855066892438
 40
-0.0783643746867138
 40
-0.0783643746867138
 40
-0.0783643746867138
 40
-0.0783643746867138
 10
2960.891655831863
 20
2038.193094043649
 30
0.0
 10
2960.92944291476
 20
2038.212634697794
 30
0.0
 10
2960.967229997641
 20
2038.232175351998
 30
0.0
 10
2961.005017080508
 20
2038.251716006203
 30
0.0
  0
SPLINE
  5
3DA
330
1F
100
AcDbEntity
  8
Furniture
370
     9
100
AcDbSpline
210
0.0
220
0.0
230
1.0
 70
     8
 71
     3
 72
     8
 73
     4
 74
     0
 42
0.000000001
 43
0.0000000001
 40
-0.0783643746867138
 40
-0.0783643746867138
 40
-0.0783643746867138
 40
-0.0783643746867138
 40
0.0
 40
0.0
 40
0.0
 40
0.0
 10
2961.005017080508
 20
2038.251716006203
 30
0.0
 10
2961.101720269686
 20
2038.301723665737
 30
0.0
 10
2961.198423458835
 20
2038.35173132533
 30
0.0
 10
2961.291004459261
 20
2038.406438280077
 30
0.0
  0
SPLINE
  5
3DB
330
1F
100
AcDbEntity
  8
Furniture
370
     9
100
AcDbSpline
210
0.0
220
0.0
230
1.0
 70
     8
 71
     3
 72
     8
 73
     4
 74
     0
 42
0.000000001
 43
0.0000000001
 40
0.0
 40
0.0
 40
0.0
 40
0.0
 40
1.0
 40
1.0
 40
1.0
 40
1.0
 10
2961.291004459261
 20
2038.406438280077
 30
0.0
 10
2962.472421407762
 20
2039.10454829515
 30
0.0
 10
2962.982578726402
 20
2040.567894288169
 30
0.0
 10
2962.445571022549
 20
2041.883563162647
 30
0.0
  0
SPLINE
  5
3DC
330
1F
100
AcDbEntity
  8
Furniture
370
     9
100
AcDbSpline
210
0.0
220
0.0
230
1.0
 70
     8
 71
     3
 72
     8
 73
     4
 74
     0
 42
0.000000001
 43
0.0000000001
 40
1.0
 40
1.0
 40
1.0
 40
1.0
 40
2.0
 40
2.0
 40
2.0
 40
2.0
 10
2962.445571022549
 20
2041.883563162647
 30
0.0
 10
2961.935413703894
 20
2043.132106074079
 30
0.0
 10
2960.539193673863
 20
2043.870491666957
 30
0.0
 10
2959.196674414215
 20
2043.548287044634
 30
0.0
  0
LINE
  5
3DD
330
1F
100
AcDbEntity
  8
Furniture
370
     9
100
AcDbLine
 10
2849.546500536631
 20
2042.777066477987
 30
0.0
 11
2846.187393194345
 21
2038.392277504497
 31
0.0
  0
LINE
  5
3DE
330
1F
100
AcDbEntity
  8
Furniture
370
     9
100
AcDbLine
 10
2845.619257380637
 20
2038.809470407728
 30
0.0
 11
2848.677839762258
 21
2043.383929145062
 31
0.0
  0
SPLINE
  5
3DF
330
1F
100
AcDbEntity
  8
Furniture
370
     9
100
AcDbSpline
210
0.0
220
0.0
230
1.0
 70
     8
 71
     3
 72
     8
 73
     4
 74
     0
 42
0.000000001
 43
0.0000000001
 40
0.0
 40
0.0
 40
0.0
 40
0.0
 40
1.0
 40
1.0
 40
1.0
 40
1.0
 10
2849.539701286256
 20
2042.809901451814
 30
0.0
 10
2849.298047819513
 20
2043.024704533401
 30
0.0
 10
2849.083244737969
 20
2043.185806844447
 30
0.0
 10
2848.814740886043
 20
2043.306633577804
 30
0.0
  0
SPLINE
  5
3E0
330
1F
100
AcDbEntity
  8
Furniture
370
     9
100
AcDbSpline
210
0.0
220
0.0
230
1.0
 70
     8
 71
     3
 72
     8
 73
     4
 74
     0
 42
0.000000001
 43
0.0000000001
 40
0.0
 40
0.0
 40
0.0
 40
0.0
 40
1.0
 40
1.0
 40
1.0
 40
1.0
 10
2848.841591271226
 20
2043.306633577804
 30
0.0
 10
2847.606473552373
 20
2043.937617629888
 30
0.0
 10
2846.076001596364
 20
2043.601987815002
 30
0.0
 10
2845.297340425754
 20
2042.474271636927
 30
0.0
  0
SPLINE
  5
3E1
330
1F
100
AcDbEntity
  8
Furniture
370
     9
100
AcDbSpline
210
0.0
220
0.0
230
1.0
 70
     8
 71
     3
 72
     8
 73
     4
 74
     0
 42
0.000000001
 43
0.0000000001
 40
1.0
 40
1.0
 40
1.0
 40
1.0
 40
2.0
 40
2.0
 40
2.0
 40
2.0
 10
2845.297340425754
 20
2042.474271636927
 30
0.0
 10
2844.46497848479
 20
2041.333130266173
 30
0.0
 10
2844.599230410739
 20
2039.789233117544
 30
0.0
 10
2845.619545048092
 20
2038.809194058069
 30
0.0
  0
SPLINE
  5
3E2
330
1F
100
AcDbEntity
  8
Furniture
370
     9
100
AcDbSpline
210
0.0
220
0.0
230
1.0
 70
     8
 71
     3
 72
     8
 73
     4
 74
     0
 42
0.000000001
 43
0.0000000001
 40
2.0
 40
2.0
 40
2.0
 40
2.0
 40
2.080853389188862
 40
2.080853389188862
 40
2.080853389188862
 40
2.080853389188862
 10
2845.619545048092
 20
2038.809194058069
 30
0.0
 10
2845.702040944529
 20
2038.729954578628
 30
0.0
 10
2845.790329272674
 20
2038.654401191923
 30
0.0
 10
2845.878617600789
 20
2038.578847805334
 30
0.0
  0
SPLINE
  5
3E3
330
1F
100
AcDbEntity
  8
Furniture
370
     9
100
AcDbSpline
210
0.0
220
0.0
230
1.0
 70
    24
 71
     3
 72
     8
 73
     4
 74
     0
 42
0.000000001
 43
0.0000000001
 40
2.080853389188862
 40
2.080853389188862
 40
2.080853389188862
 40
2.080853389188862
 40
2.09562088958715
 40
2.09562088958715
 40
2.09562088958715
 40
2.09562088958715
 10
2845.878617600789
 20
2038.578847805334
 30
0.0
 10
2845.894743058645
 20
2038.565048326045
 30
0.0
 10
2845.91086851653
 20
2038.551248846755
 30
0.0
 10
2845.926993974386
 20
2038.537449367407
 30
0.0
  0
SPLINE
  5
3E4
330
1F
100
AcDbEntity
  8
Furniture
370
     9
100
AcDbSpline
210
0.0
220
0.0
230
1.0
 70
    24
 71
     3
 72
     8
 73
     4
 74
     0
 42
0.000000001
 43
0.0000000001
 40
-0.0920339383327828
 40
-0.0920339383327828
 40
-0.0920339383327828
 40
-0.0920339383327828
 40
-0.0752420211354117
 40
-0.0752420211354117
 40
-0.0752420211354117
 40
-0.0752420211354117
 10
2845.926993973542
 20
2038.537449368164
 30
0.0
 10
2845.947394724706
 20
2038.525892019452
 30
0.0
 10
2845.967795475914
 20
2038.514334670797
 30
0.0
 10
2845.988196227077
 20
2038.502777322026
 30
0.0
  0
SPLINE
  5
3E5
330
1F
100
AcDbEntity
  8
Furniture
370
     9
100
AcDbSpline
210
0.0
220
0.0
230
1.0
 70
     8
 71
     3
 72
     8
 73
     4
 74
     0
 42
0.000000001
 43
0.0000000001
 40
-0.0752420211354117
 40
-0.0752420211354117
 40
-0.0752420211354117
 40
-0.0752420211354117
 40
0.0
 40
0.0
 40
0.0
 40
0.0
 10
2845.988196227077
 20
2038.502777322026
 30
0.0
 10
2846.079608883145
 20
2038.4509906043
 30
0.0
 10
2846.171021539213
 20
2038.399203886516
 30
0.0
 10
2846.26395429271
 20
2038.352737509709
 30
0.0
  0
SPLINE
  5
3E6
330
1F
100
AcDbEntity
  8
Furniture
370
     9
100
AcDbSpline
210
0.0
220
0.0
230
1.0
 70
     8
 71
     3
 72
     8
 73
     4
 74
     0
 42
0.000000001
 43
0.0000000001
 40
0.0
 40
0.0
 40
0.0
 40
0.0
 40
1.0
 40
1.0
 40
1.0
 40
1.0
 10
2846.26395429271
 20
2038.352737509709
 30
0.0
 10
2847.499072011593
 20
2037.735178650304
 30
0.0
 10
2849.002693582388
 20
2038.057383272628
 30
0.0
 10
2849.808205138183
 20
2039.198524643381
 30
0.0
  0
SPLINE
  5
3E7
330
1F
100
AcDbEntity
  8
Furniture
370
     9
100
AcDbSpline
210
0.0
220
0.0
230
1.0
 70
     8
 71
     3
 72
     8
 73
     4
 74
     0
 42
0.000000001
 43
0.0000000001
 40
1.0
 40
1.0
 40
1.0
 40
1.0
 40
2.0
 40
2.0
 40
2.0
 40
2.0
 10
2849.808205138183
 20
2039.198524643381
 30
0.0
 10
2850.613716693948
 20
2040.326240821455
 30
0.0
 10
2850.479464768
 20
2041.883563162647
 30
0.0
 10
2849.512850901057
 20
2042.809901451814
 30
0.0
  0
LINE
  5
3E8
330
1F
100
AcDbEntity
  8
Furniture
370
     9
100
AcDbLine
 10
2703.983763155298
 20
1668.985743059665
 30
0.0
 11
2697.378568397824
 21
1668.985743059665
 31
0.0
  0
LINE
  5
3E9
330
1F
100
AcDbEntity
  8
Furniture
370
     9
100
AcDbLine
 10
2697.378568397824
 20
1668.985743059665
 30
0.0
 11
2697.378568397824
 21
2068.989356471522
 31
0.0
  0
LINE
  5
3EA
330
1F
100
AcDbEntity
  8
Furniture
370
     9
100
AcDbLine
 10
2697.378568397824
 20
2068.989356471522
 30
0.0
 11
2703.983763155298
 21
2068.989356471522
 31
0.0
  0
LINE
  5
3EB
330
1F
100
AcDbEntity
  8
Furniture
370
     9
100
AcDbLine
 10
2703.983763155298
 20
1700.508095276139
 30
0.0
 11
2703.983763155298
 21
2037.467004254931
 31
0.0
  0
LINE
  5
3EC
330
1F
100
AcDbEntity
  8
Furniture
370
     9
100
AcDbLine
 10
2703.983763155298
 20
1668.985743059665
 30
0.0
 11
2703.983763155298
 21
1700.508095276139
 31
0.0
  0
LINE
  5
3ED
330
1F
100
AcDbEntity
  8
Furniture
370
     9
100
AcDbLine
 10
2703.983763155298
 20
1700.508095276139
 30
0.0
 11
2710.05195020889
 21
1700.508095276139
 31
0.0
  0
LINE
  5
3EE
330
1F
100
AcDbEntity
  8
Furniture
370
     9
100
AcDbLine
 10
2710.05195020889
 20
1700.508095276139
 30
0.0
 11
2710.05195020889
 21
1668.985743059665
 31
0.0
  0
LINE
  5
3EF
330
1F
100
AcDbEntity
  8
Furniture
370
     9
100
AcDbLine
 10
2710.05195020889
 20
1668.985743059665
 30
0.0
 11
2703.983763155298
 21
1668.985743059665
 31
0.0
  0
LINE
  5
3F0
330
1F
100
AcDbEntity
  8
Furniture
370
     9
100
AcDbLine
 10
2985.02674496979
 20
2037.467004254931
 30
0.0
 11
2985.02674496979
 21
2068.989356471522
 31
0.0
  0
LINE
  5
3F1
330
1F
100
AcDbEntity
  8
Furniture
370
     9
100
AcDbLine
 10
2985.02674496979
 20
2068.989356471522
 30
0.0
 11
2991.631939727264
 21
2068.989356471522
 31
0.0
  0
LINE
  5
3F2
330
1F
100
AcDbEntity
  8
Furniture
370
     9
100
AcDbLine
 10
2991.631939727264
 20
2068.989356471522
 30
0.0
 11
2991.631939727264
 21
2037.467004254931
 31
0.0
  0
LINE
  5
3F3
330
1F
100
AcDbEntity
  8
Furniture
370
     9
100
AcDbLine
 10
2991.631939727264
 20
2037.467004254931
 30
0.0
 11
2985.02674496979
 21
2037.467004254931
 31
0.0
  0
LINE
  5
3F4
330
1F
100
AcDbEntity
  8
Furniture
370
     9
100
AcDbLine
 10
5023.212634580694
 20
2069.016206856648
 30
0.0
 11
5209.742260516028
 21
2069.016206856648
 31
0.0
  0
LINE
  5
3F5
330
1F
100
AcDbEntity
  8
Furniture
370
     9
100
AcDbLine
 10
5209.742260516028
 20
2069.016206856648
 30
0.0
 11
5209.742260516028
 21
2037.493854640173
 31
0.0
  0
LINE
  5
3F6
330
1F
100
AcDbEntity
  8
Furniture
370
     9
100
AcDbLine
 10
5209.742260516028
 20
2037.493854640173
 30
0.0
 11
5023.212634580694
 21
2037.493854640173
 31
0.0
  0
LINE
  5
3F7
330
1F
100
AcDbEntity
  8
Furniture
370
     9
100
AcDbLine
 10
5014.539960163358
 20
2061.860579202713
 30
0.0
 11
5014.539960163358
 21
2053.322156711486
 31
0.0
  0
LINE
  5
3F8
330
1F
100
AcDbEntity
  8
Furniture
370
     9
100
AcDbLine
 10
5012.98263782218
 20
2053.32215671137
 30
0.0
 11
5013.009336598657
 21
2061.865765189408
 31
0.0
  0
SPLINE
  5
3F9
330
1F
100
AcDbEntity
  8
Furniture
370
     9
100
AcDbSpline
210
0.0
220
0.0
230
1.0
 70
    24
 71
     3
 72
     8
 73
     4
 74
     0
 42
0.000000001
 43
0.0000000001
 40
-0.0185185185169906
 40
-0.0185185185169906
 40
-0.0185185185169906
 40
-0.0185185185169906
 40
-0.0082682291649689
 40
-0.0082682291649689
 40
-0.0082682291649689
 40
-0.0082682291649689
 10
5014.539960163358
 20
2060.807405435834
 30
0.0
 10
5014.535006127441
 20
2060.808515435148
 30
0.0
 10
5014.530052091537
 20
2060.809625434461
 30
0.0
 10
5014.525098055634
 20
2060.810735433833
 30
0.0
  0
SPLINE
  5
3FA
330
1F
100
AcDbEntity
  8
Furniture
370
     9
100
AcDbSpline
210
0.0
220
0.0
230
1.0
 70
    24
 71
     3
 72
     8
 73
     4
 74
     0
 42
0.000000001
 43
0.0000000001
 40
-0.0082682291649689
 40
-0.0082682291649689
 40
-0.0082682291649689
 40
-0.0082682291649689
 40
0.0
 40
0.0
 40
0.0
 40
0.0
 10
5014.525098055634
 20
2060.810735433833
 30
0.0
 10
5014.521101963158
 20
2060.811630796704
 30
0.0
 10
5014.517105870666
 20
2060.812526159634
 30
0.0
 10
5014.513109778189
 20
2060.813414180191
 30
0.0
  0
SPLINE
  5
3FB
330
1F
100
AcDbEntity
  8
Furniture
370
     9
100
AcDbSpline
210
0.0
220
0.0
230
1.0
 70
     8
 71
     3
 72
     8
 73
     4
 74
     0
 42
0.000000001
 43
0.0000000001
 40
0.0
 40
0.0
 40
0.0
 40
0.0
 40
1.0
 40
1.0
 40
1.0
 40
1.0
 10
5014.513109778189
 20
2060.813414180191
 30
0.0
 10
5014.029802844717
 20
2060.920815720985
 30
0.0
 10
5013.546495911232
 20
2060.920815720985
 30
0.0
 10
5013.036338592563
 20
2060.813414180191
 30
0.0
  0
SPLINE
  5
3FC
330
1F
100
AcDbEntity
  8
Furniture
370
     9
100
AcDbSpline
210
0.0
220
0.0
230
1.0
 70
    24
 71
     3
 72
     8
 73
     4
 74
     0
 42
0.000000001
 43
0.0000000001
 40
1.0
 40
1.0
 40
1.0
 40
1.0
 40
1.008522695545994
 40
1.008522695545994
 40
1.008522695545994
 40
1.008522695545994
 10
5013.036338592563
 20
2060.813414180191
 30
0.0
 10
5013.031990677049
 20
2060.812498829565
 30
0.0
 10
5013.027640811245
 20
2060.811575677659
 30
0.0
 10
5013.02329094541
 20
2060.810652525751
 30
0.0
  0
SPLINE
  5
3FD
330
1F
100
AcDbEntity
  8
Furniture
370
     9
100
AcDbSpline
210
0.0
220
0.0
230
1.0
 70
    24
 71
     3
 72
     8
 73
     4
 74
     0
 42
0.000000001
 43
0.0000000001
 40
1.008522695545994
 40
1.008522695545994
 40
1.008522695545994
 40
1.008522695545994
 40
1.019797180232298
 40
1.019797180232298
 40
1.019797180232298
 40
1.019797180232298
 10
5013.02329094541
 20
2060.810652525751
 30
0.0
 10
5013.01753660449
 20
2060.809431308536
 30
0.0
 10
5013.011782263613
 20
2060.808210091321
 30
0.0
 10
5013.006027922707
 20
2060.806988874048
 30
0.0
  0
SPLINE
  5
3FE
330
1F
100
AcDbEntity
  8
Furniture
370
     9
100
AcDbSpline
210
0.0
220
0.0
230
1.0
 70
    24
 71
     3
 72
     8
 73
     4
 74
     0
 42
0.000000001
 43
0.0000000001
 40
-0.0329100821469587
 40
-0.0329100821469587
 40
-0.0329100821469587
 40
-0.0329100821469587
 40
-0.0095286633001849
 40
-0.0095286633001849
 40
-0.0095286633001849
 40
-0.0095286633001849
 10
5012.985947812737
 20
2054.381353686394
 30
0.0
 10
5012.997881996769
 20
2054.378501666541
 30
0.0
 10
5013.009816180802
 20
2054.375649646628
 30
0.0
 10
5013.021750364835
 20
2054.372797626716
 30
0.0
  0
SPLINE
  5
3FF
330
1F
100
AcDbEntity
  8
Furniture
370
     9
100
AcDbSpline
210
0.0
220
0.0
230
1.0
 70
    24
 71
     3
 72
     8
 73
     4
 74
     0
 42
0.000000001
 43
0.0000000001
 40
-0.0095286633001849
 40
-0.0095286633001849
 40
-0.0095286633001849
 40
-0.0095286633001849
 40
0.0
 40
0.0
 40
0.0
 40
0.0
 10
5013.021750364835
 20
2054.372797626716
 30
0.0
 10
5013.026613920043
 20
2054.371635338937
 30
0.0
 10
5013.031477475252
 20
2054.370473051158
 30
0.0
 10
5013.036338592563
 20
2054.369321733893
 30
0.0
  0
SPLINE
  5
400
330
1F
100
AcDbEntity
  8
Furniture
370
     9
100
AcDbSpline
210
0.0
220
0.0
230
1.0
 70
     8
 71
     3
 72
     8
 73
     4
 74
     0
 42
0.000000001
 43
0.0000000001
 40
0.0
 40
0.0
 40
0.0
 40
0.0
 40
1.0
 40
1.0
 40
1.0
 40
1.0
 10
5013.036338592563
 20
2054.369321733893
 30
0.0
 10
5013.546495911232
 20
2054.248495000536
 30
0.0
 10
5014.029802844717
 20
2054.248495000536
 30
0.0
 10
5014.513109778189
 20
2054.369321733893
 30
0.0
  0
SPLINE
  5
401
330
1F
100
AcDbEntity
  8
Furniture
370
     9
100
AcDbSpline
210
0.0
220
0.0
230
1.0
 70
    24
 71
     3
 72
     8
 73
     4
 74
     0
 42
0.000000001
 43
0.0000000001
 40
1.0
 40
1.0
 40
1.0
 40
1.0
 40
1.009301757814682
 40
1.009301757814682
 40
1.009301757814682
 40
1.009301757814682
 10
5014.513109778189
 20
2054.369321733893
 30
0.0
 10
5014.517605382225
 20
2054.370445634942
 30
0.0
 10
5014.52210098629
 20
2054.371579990262
 30
0.0
 10
5014.526596590342
 20
2054.372714345523
 30
0.0
  0
SPLINE
  5
402
330
1F
100
AcDbEntity
  8
Furniture
370
     9
100
AcDbSpline
210
0.0
220
0.0
230
1.0
 70
    24
 71
     3
 72
     8
 73
     4
 74
     0
 42
0.000000001
 43
0.0000000001
 40
1.009301757814682
 40
1.009301757814682
 40
1.009301757814682
 40
1.009301757814682
 40
1.018518518492867
 40
1.018518518492867
 40
1.018518518492867
 40
1.018518518492867
 10
5014.526596590342
 20
2054.372714345523
 30
0.0
 10
5014.531051114656
 20
2054.373838335339
 30
0.0
 10
5014.535505639014
 20
2054.374962325155
 30
0.0
 10
5014.539960163358
 20
2054.376086314971
 30
0.0
  0
SPLINE
  5
403
330
1F
100
AcDbEntity
  8
Furniture
370
     9
100
AcDbSpline
210
0.0
220
0.0
230
1.0
 70
     8
 71
     3
 72
     8
 73
     4
 74
     0
 42
0.000000001
 43
0.0000000001
 40
-0.0043557772148646
 40
-0.0043557772148646
 40
-0.0043557772148646
 40
-0.0043557772148646
 40
0.0
 40
0.0
 40
0.0
 40
0.0
 10
5013.009336598643
 20
2061.86576518935
 30
0.0
 10
5013.000426082555
 20
2061.864061850827
 30
0.0
 10
5012.99152634868
 20
2061.862333517177
 30
0.0
 10
5012.98263782218
 20
2061.860579202713
 30
0.0
  0
SPLINE
  5
404
330
1F
100
AcDbEntity
  8
Furniture
370
     9
100
AcDbSpline
210
0.0
220
0.0
230
1.0
 70
     8
 71
     3
 72
    11
 73
     7
 74
     0
 42
0.000000001
 43
0.0000000001
 40
0.0
 40
0.0
 40
0.0
 40
0.0
 40
1.0
 40
1.0
 40
1.0
 40
2.0
 40
2.0
 40
2.0
 40
2.0
 10
5012.98263782218
 20
2061.860579202713
 30
0.0
 10
5010.942008547518
 20
2061.457823424838
 30
0.0
 10
5009.492087747091
 20
2059.685698002116
 30
0.0
 10
5009.492087747091
 20
2057.604793149692
 30
0.0
 10
5009.492087747091
 20
2055.497037912026
 30
0.0
 10
5010.942008547518
 20
2053.711487296741
 30
0.0
 10
5012.98263782218
 20
2053.322156711428
 30
0.0
  0
SPLINE
  5
405
330
1F
100
AcDbEntity
  8
Furniture
370
     9
100
AcDbSpline
210
0.0
220
0.0
230
1.0
 70
     8
 71
     3
 72
    11
 73
     7
 74
     0
 42
0.000000001
 43
0.0000000001
 40
0.0
 40
0.0
 40
0.0
 40
0.0
 40
1.0
 40
1.0
 40
1.0
 40
2.0
 40
2.0
 40
2.0
 40
2.0
 10
5014.539960163372
 20
2053.322156711428
 30
0.0
 10
5016.60743982322
 20
2053.711487296741
 30
0.0
 10
5018.111061394015
 20
2055.497037912026
 30
0.0
 10
5018.111061394015
 20
2057.604793149692
 30
0.0
 10
5018.111061394015
 20
2059.685698002116
 30
0.0
 10
5016.60743982322
 20
2061.457823424838
 30
0.0
 10
5014.539960163372
 20
2061.860579202713
 30
0.0
  0
LINE
  5
406
330
1F
100
AcDbEntity
  8
Furniture
370
     9
100
AcDbLine
 10
4970.31737575059
 20
2044.557430467282
 30
0.0
 11
4970.31737575059
 21
2036.075054280582
 31
0.0
  0
LINE
  5
407
330
1F
100
AcDbEntity
  8
Furniture
370
     9
100
AcDbLine
 10
4968.786903794597
 20
2036.065811761776
 30
0.0
 11
4968.786903794597
 21
2044.563900153158
 31
0.0
  0
SPLINE
  5
408
330
1F
100
AcDbEntity
  8
Furniture
370
     9
100
AcDbSpline
210
0.0
220
0.0
230
1.0
 70
     8
 71
     3
 72
    14
 73
    10
 74
     0
 42
0.000000001
 43
0.0000000001
 40
0.0185184009095182
 40
0.0185184009095182
 40
0.0185184009095182
 40
0.0185184009095182
 40
1.0
 40
1.0
 40
1.0
 40
1.008522695545994
 40
1.008522695545994
 40
1.008522695545994
 40
1.052609254671625
 40
1.052609254671625
 40
1.052609254671625
 40
1.052609254671625
 10
4970.317375750619
 20
2043.502236176695
 30
0.0
 10
4969.843009851367
 20
2043.629130825405
 30
0.0
 10
4969.368164971082
 20
2043.627178751927
 30
0.0
 10
4968.867454950178
 20
2043.521766115917
 30
0.0
 10
4968.863107034664
 20
2043.520850765349
 30
0.0
 10
4968.858757168829
 20
2043.519927613384
 30
0.0
 10
4968.85440730301
 20
2043.519004461477
 30
0.0
 10
4968.831906133539
 20
2043.514229142228
 30
0.0
 10
4968.809404964067
 20
2043.509453823038
 30
0.0
 10
4968.786903794597
 20
2043.504678503848
 30
0.0
  0
SPLINE
  5
409
330
1F
100
AcDbEntity
  8
Furniture
370
     9
100
AcDbSpline
210
0.0
220
0.0
230
1.0
 70
     8
 71
     3
 72
    14
 73
    10
 74
     0
 42
0.000000001
 43
0.0000000001
 40
0.0166806562582914
 40
0.0166806562582914
 40
0.0166806562582914
 40
0.0166806562582914
 40
1.0
 40
1.0
 40
1.0
 40
1.008332574337169
 40
1.008332574337169
 40
1.008332574337169
 40
1.039251441807423
 40
1.039251441807423
 40
1.039251441807423
 40
1.039251441807423
 10
4968.786903794626
 20
2037.07303820906
 30
0.0
 10
4969.314065689079
 20
2036.983275587734
 30
0.0
 10
4969.814832426713
 20
2036.971615774969
 30
0.0
 10
4970.263674980222
 20
2037.050823284493
 30
0.0
 10
4970.267478438345
 20
2037.051494482968
 30
0.0
 10
4970.271278167918
 20
2037.052172206464
 30
0.0
 10
4970.275077897492
 20
2037.052849929901
 30
0.0
 10
4970.289177181857
 20
2037.055364692006
 30
0.0
 10
4970.303276466253
 20
2037.057879454112
 30
0.0
 10
4970.317375750619
 20
2037.060394216217
 30
0.0
  0
SPLINE
  5
40A
330
1F
100
AcDbEntity
  8
Furniture
370
     9
100
AcDbSpline
210
0.0
220
0.0
230
1.0
 70
     8
 71
     3
 72
     8
 73
     4
 74
     0
 42
0.000000001
 43
0.0000000001
 40
0.0043910523132983
 40
0.0043910523132983
 40
0.0043910523132983
 40
0.0043910523132983
 40
1.0
 40
1.0
 40
1.0
 40
1.0
 10
4968.78690379464
 20
2044.563900153158
 30
0.0
 10
4966.759948935014
 20
2044.177691568625
 30
0.0
 10
4965.269503334322
 20
2042.438495444779
 30
0.0
 10
4965.269503334352
 20
2040.339995470601
 30
0.0
  0
SPLINE
  5
40B
330
1F
100
AcDbEntity
  8
Furniture
370
     9
100
AcDbSpline
210
0.0
220
0.0
230
1.0
 70
     8
 71
     3
 72
    11
 73
     7
 74
     0
 42
0.000000001
 43
0.0000000001
 40
1.0
 40
1.0
 40
1.0
 40
1.0
 40
2.0
 40
2.0
 40
2.0
 40
2.004323489303876
 40
2.004323489303876
 40
2.004323489303876
 40
2.004323489303876
 10
4965.269503334352
 20
2040.339995470601
 30
0.0
 10
4965.242652949139
 20
2038.245665425498
 30
0.0
 10
4966.692573749566
 20
2036.460114810214
 30
0.0
 10
4968.760053409427
 20
2036.070784224901
 30
0.0
 10
4968.76899213561
 20
2036.069100958242
 30
0.0
 10
4968.777942405566
 20
2036.06744379056
 30
0.0
 10
4968.786903794597
 20
2036.065811761718
 30
0.0
  0
SPLINE
  5
40C
330
1F
100
AcDbEntity
  8
Furniture
370
     9
100
AcDbSpline
210
0.0
220
0.0
230
1.0
 70
     8
 71
     3
 72
     8
 73
     4
 74
     0
 42
0.000000001
 43
0.0000000001
 40
0.0043338959777065
 40
0.0043338959777065
 40
0.0043338959777065
 40
0.0043338959777065
 40
1.0
 40
1.0
 40
1.0
 40
1.0
 10
4970.317375750576
 20
2036.075054280582
 30
0.0
 10
4972.371242091456
 20
2036.408238694601
 30
0.0
 10
4973.888476981276
 20
2038.160649319068
 30
0.0
 10
4973.888476981276
 20
2040.219168737245
 30
0.0
  0
SPLINE
  5
40D
330
1F
100
AcDbEntity
  8
Furniture
370
     9
100
AcDbSpline
210
0.0
220
0.0
230
1.0
 70
     8
 71
     3
 72
    11
 73
     7
 74
     0
 42
0.000000001
 43
0.0000000001
 40
1.0
 40
1.0
 40
1.0
 40
1.0
 40
2.0
 40
2.0
 40
2.0
 40
2.013292579010605
 40
2.013292579010605
 40
2.013292579010605
 40
2.013292579010605
 10
4973.888476981276
 20
2040.219168737245
 30
0.0
 10
4973.942177751658
 20
2042.340349167474
 30
0.0
 10
4972.411705795664
 20
2044.13932497538
 30
0.0
 10
4970.3979269062
 20
2044.542080753313
 30
0.0
 10
4970.371158591198
 20
2044.547434416255
 30
0.0
 10
4970.344304879418
 20
2044.552541377493
 30
0.0
 10
4970.317375750619
 20
2044.557430467166
 30
0.0
  0
LINE
  5
40E
330
1F
100
AcDbEntity
  8
Furniture
370
     9
100
AcDbLine
 10
4970.344226135789
 20
1683.176171634176
 30
0.0
 11
4970.317571911309
 21
1674.686801135603
 31
0.0
  0
LINE
  5
40F
330
1F
100
AcDbEntity
  8
Furniture
370
     9
100
AcDbLine
 10
4968.786707632247
 20
1674.686801664478
 30
0.0
 11
4968.760053409413
 21
1683.176171634118
 31
0.0
  0
SPLINE
  5
410
330
1F
100
AcDbEntity
  8
Furniture
370
     9
100
AcDbSpline
210
0.0
220
0.0
230
1.0
 70
     8
 71
     3
 72
    20
 73
    16
 74
     0
 42
0.000000001
 43
0.0000000001
 40
-0.0368854585258374
 40
-0.0368854585258374
 40
-0.0368854585258374
 40
-0.0368854585258374
 40
-0.0101790766635587
 40
-0.0101790766635587
 40
-0.0101790766635587
 40
0.0
 40
0.0
 40
0.0
 40
1.0
 40
1.0
 40
1.0
 40
1.009301757809225
 40
1.009301757809225
 40
1.009301757809225
 40
1.032969850756941
 40
1.032969850756941
 40
1.032969850756941
 40
1.032969850756941
 10
4970.340980269383
 20
1682.142363171273
 30
0.0
 10
4970.32880456484
 20
1682.145622862391
 30
0.0
 10
4970.316628860285
 20
1682.148882553452
 30
0.0
 10
4970.304453155757
 20
1682.152142244571
 30
0.0
 10
4970.299812413683
 20
1682.153384668408
 30
0.0
 10
4970.295171671623
 20
1682.154627092246
 30
0.0
 10
4970.29052536542
 20
1682.15585699678
 30
0.0
 10
4969.834068817134
 20
1682.276683730136
 30
0.0
 10
4969.323911498464
 20
1682.276683730136
 30
0.0
 10
4968.81375417981
 20
1682.15585699678
 30
0.0
 10
4968.809008819986
 20
1682.15473309573
 30
0.0
 10
4968.804263460148
 20
1682.153598740527
 30
0.0
 10
4968.799518100325
 20
1682.152464385207
 30
0.0
 10
4968.78744364945
 20
1682.149578046233
 30
0.0
 10
4968.775369198588
 20
1682.146691707259
 30
0.0
 10
4968.763294747743
 20
1682.143805368285
 30
0.0
  0
SPLINE
  5
411
330
1F
100
AcDbEntity
  8
Furniture
370
     9
100
AcDbSpline
210
0.0
220
0.0
230
1.0
 70
     8
 71
     3
 72
    14
 73
    10
 74
     0
 42
0.000000001
 43
0.0000000001
 40
0.0
 40
0.0
 40
0.0
 40
0.0
 40
1.0
 40
1.0
 40
1.0
 40
2.0
 40
2.0
 40
2.0
 40
2.004348514654925
 40
2.004348514654925
 40
2.004348514654925
 40
2.004348514654925
 10
4968.760053409427
 20
1683.176171634118
 30
0.0
 10
4966.719424134764
 20
1682.80026624131
 30
0.0
 10
4965.269503334352
 20
1681.014715626084
 30
0.0
 10
4965.269503334352
 20
1678.920385581039
 30
0.0
 10
4965.269503334352
 20
1676.852905921119
 30
0.0
 10
4966.719424134764
 20
1675.053930113272
 30
0.0
 10
4968.760053409427
 20
1674.691449913201
 30
0.0
 10
4968.768927115732
 20
1674.689873662666
 30
0.0
 10
4968.777811992088
 20
1674.688324575725
 30
0.0
 10
4968.786707632276
 20
1674.686801664478
 30
0.0
  0
SPLINE
  5
412
330
1F
100
AcDbEntity
  8
Furniture
370
     9
100
AcDbSpline
210
0.0
220
0.0
230
1.0
 70
     8
 71
     3
 72
    14
 73
    10
 74
     0
 42
0.000000001
 43
0.0000000001
 40
-0.0043490061767371
 40
-0.0043490061767371
 40
-0.0043490061767371
 40
-0.0043490061767371
 40
0.0
 40
0.0
 40
0.0
 40
1.0
 40
1.0
 40
1.0
 40
2.0
 40
2.0
 40
2.0
 40
2.0
 10
4970.317571911324
 20
1674.686801135487
 30
0.0
 10
4970.326466560265
 20
1674.688324225606
 30
0.0
 10
4970.335351426478
 20
1674.68987348455
 30
0.0
 10
4970.344226135804
 20
1674.691449913201
 30
0.0
 10
4972.384855410481
 20
1675.053930113272
 30
0.0
 10
4973.888476981276
 20
1676.852905921119
 30
0.0
 10
4973.888476981276
 20
1678.906960388417
 30
0.0
 10
4973.888476981276
 20
1681.014715626084
 30
0.0
 10
4972.384855410481
 20
1682.80026624131
 30
0.0
 10
4970.344226135804
 20
1683.176171634118
 30
0.0
  0
LINE
  5
413
330
1F
100
AcDbEntity
  8
Furniture
370
     9
100
AcDbLine
 10
5014.029802844703
 20
1694.874552731058
 30
0.0
 11
5014.029802844703
 21
1686.380286747944
 31
0.0
  0
LINE
  5
414
330
1F
100
AcDbEntity
  8
Furniture
370
     9
100
AcDbLine
 10
5012.526181273893
 20
1686.380286490084
 30
0.0
 11
5012.526181273893
 21
1694.87455301971
 31
0.0
  0
SPLINE
  5
415
330
1F
100
AcDbEntity
  8
Furniture
370
     9
100
AcDbSpline
210
0.0
220
0.0
230
1.0
 70
     8
 71
     3
 72
    20
 73
    16
 74
     0
 42
0.000000001
 43
0.0000000001
 40
-0.0185259451311575
 40
-0.0185259451311575
 40
-0.0185259451311575
 40
-0.0185259451311575
 40
-0.0085226955459949
 40
-0.0085226955459949
 40
-0.0085226955459949
 40
0.0
 40
0.0
 40
0.0
 40
1.0
 40
1.0
 40
1.0
 40
1.009244161233208
 40
1.009244161233208
 40
1.009244161233208
 40
1.019625836014734
 40
1.019625836014734
 40
1.019625836014734
 40
1.019625836014734
 10
5014.029802844717
 20
1693.829762338374
 30
0.0
 10
5014.024970493967
 20
1693.830845859256
 30
0.0
 10
5014.020138143202
 20
1693.831929380312
 30
0.0
 10
5014.015305792422
 20
1693.833012901252
 30
0.0
 10
5014.011188664913
 20
1693.833936053158
 30
0.0
 10
5014.007071537377
 20
1693.834859205123
 30
0.0
 10
5014.002952459534
 20
1693.835774555691
 30
0.0
 10
5013.519645526049
 20
1693.943176096485
 30
0.0
 10
5013.009488207379
 20
1693.943176096485
 30
0.0
 10
5012.553031659077
 20
1693.835774555691
 30
0.0
 10
5012.548812101162
 20
1693.834781718562
 30
0.0
 10
5012.544597132208
 20
1693.833779703423
 30
0.0
 10
5012.540382163239
 20
1693.832777688285
 30
0.0
 10
5012.535648533467
 20
1693.83165237308
 30
0.0
 10
5012.53091490368
 20
1693.830527057876
 30
0.0
 10
5012.526181273864
 20
1693.829401742672
 30
0.0
  0
SPLINE
  5
416
330
1F
100
AcDbEntity
  8
Furniture
370
     9
100
AcDbSpline
210
0.0
220
0.0
230
1.0
 70
     8
 71
     3
 72
    20
 73
    16
 74
     0
 42
0.000000001
 43
0.0000000001
 40
-0.0196286893600658
 40
-0.0196286893600658
 40
-0.0196286893600658
 40
-0.0196286893600658
 40
-0.0111314441765951
 40
-0.0111314441765951
 40
-0.0111314441765951
 40
0.0
 40
0.0
 40
0.0
 40
1.0
 40
1.0
 40
1.0
 40
1.010539965461082
 40
1.010539965461082
 40
1.010539965461082
 40
1.018527309995593
 40
1.018527309995593
 40
1.018527309995593
 40
1.018527309995593
 10
5012.526181273893
 20
1687.399659042833
 30
0.0
 10
5012.530054817722
 20
1687.398505572875
 30
0.0
 10
5012.53392836155
 20
1687.3973521028
 30
0.0
 10
5012.537801905379
 20
1687.396198632899
 30
0.0
 10
5012.542876271927
 20
1687.394687580066
 30
0.0
 10
5012.547950638506
 20
1687.393176527233
 30
0.0
 10
5012.553031659077
 20
1687.391682109393
 30
0.0
 10
5013.009488207379
 20
1687.257430183473
 30
0.0
 10
5013.519645526049
 20
1687.257430183473
 30
0.0
 10
5014.002952459534
 20
1687.391682109393
 30
0.0
 10
5014.008046497915
 20
1687.393097120051
 30
0.0
 10
5014.013137553458
 20
1687.394527044851
 30
0.0
 10
5014.018228609032
 20
1687.395956969592
 30
0.0
 10
5014.022086687578
 20
1687.397040588262
 30
0.0
 10
5014.025944766141
 20
1687.398124206816
 30
0.0
 10
5014.029802844703
 20
1687.39920782537
 30
0.0
  0
SPLINE
  5
417
330
1F
100
AcDbEntity
  8
Furniture
370
     9
100
AcDbSpline
210
0.0
220
0.0
230
1.0
 70
     8
 71
     3
 72
    17
 73
    13
 74
     0
 42
0.000000001
 43
0.0000000001
 40
-0.0043812278906211
 40
-0.0043812278906211
 40
-0.0043812278906211
 40
-0.0043812278906211
 40
0.0
 40
0.0
 40
0.0
 40
1.0
 40
1.0
 40
1.0
 40
2.0
 40
2.0
 40
2.0
 40
2.004381225839808
 40
2.004381225839808
 40
2.004381225839808
 40
2.004381225839808
 10
5012.526181273909
 20
1694.874553019593
 30
0.0
 10
5012.517221605045
 20
1694.872899334708
 30
0.0
 10
5012.508271350601
 20
1694.871220131701
 30
0.0
 10
5012.49933088871
 20
1694.869514385651
 30
0.0
 10
5010.458701614061
 20
1694.480183800396
 30
0.0
 10
5008.928229658067
 20
1692.708058377616
 30
0.0
 10
5008.928229658067
 20
1690.613728332571
 30
0.0
 10
5008.928229658067
 20
1688.519398287467
 30
0.0
 10
5010.458701614061
 20
1686.733847672183
 30
0.0
 10
5012.49933088871
 20
1686.384792664675
 30
0.0
 10
5012.508271346425
 20
1686.383263375906
 30
0.0
 10
5012.517221596649
 20
1686.381761660862
 30
0.0
 10
5012.52618127385
 20
1686.380286490084
 30
0.0
  0
SPLINE
  5
418
330
1F
100
AcDbEntity
  8
Furniture
370
     9
100
AcDbSpline
210
0.0
220
0.0
230
1.0
 70
     8
 71
     3
 72
    17
 73
    13
 74
     0
 42
0.000000001
 43
0.0000000001
 40
-0.0043809766084227
 40
-0.0043809766084227
 40
-0.0043809766084227
 40
-0.0043809766084227
 40
0.0
 40
0.0
 40
0.0
 40
1.0
 40
1.0
 40
1.0
 40
2.0
 40
2.0
 40
2.0
 40
2.004380978719209
 40
2.004380978719209
 40
2.004380978719209
 40
2.004380978719209
 10
5014.029802844717
 20
1686.380286747944
 30
0.0
 10
5014.03876302492
 20
1686.381761831644
 30
0.0
 10
5014.047713280804
 20
1686.38326346281
 30
0.0
 10
5014.056653229902
 20
1686.384792664675
 30
0.0
 10
5016.097282504564
 20
1686.733847672183
 30
0.0
 10
5017.60090407536
 20
1688.519398287467
 30
0.0
 10
5017.60090407536
 20
1690.613728332571
 30
0.0
 10
5017.60090407536
 20
1692.708058377616
 30
0.0
 10
5016.097282504564
 20
1694.480183800396
 30
0.0
 10
5014.056653229902
 20
1694.869514385651
 30
0.0
 10
5014.047713276497
 20
1694.871220034726
 30
0.0
 10
5014.038763016277
 20
1694.872899143787
 30
0.0
 10
5014.029802844703
 20
1694.874552731
 30
0.0
  0
SPLINE
  5
419
330
1F
100
AcDbEntity
  8
Furniture
370
     9
100
AcDbSpline
210
0.0
220
0.0
230
1.0
 70
     9
 71
     3
 72
    17
 73
    13
 74
     0
 42
0.000000001
 43
0.0000000001
 40
0.0
 40
0.0
 40
0.0
 40
0.0
 40
1.0
 40
1.0
 40
1.0
 40
2.0
 40
2.0
 40
2.0
 40
3.0
 40
3.0
 40
3.0
 40
4.0
 40
4.0
 40
4.0
 40
4.0
 10
5013.277992059291
 20
1685.794084190396
 30
0.0
 10
5015.936180193417
 20
1685.794084190396
 30
0.0
 10
5018.111061394015
 20
1687.942115005809
 30
0.0
 10
5018.111061394015
 20
1690.613728332571
 30
0.0
 10
5018.111061394015
 20
1693.285341659158
 30
0.0
 10
5015.936180193417
 20
1695.460222859872
 30
0.0
 10
5013.277992059291
 20
1695.460222859872
 30
0.0
 10
5010.646654310407
 20
1695.460222859872
 30
0.0
 10
5008.471773109766
 20
1693.285341659158
 30
0.0
 10
5008.471773109766
 20
1690.613728332571
 30
0.0
 10
5008.471773109766
 20
1687.942115005809
 30
0.0
 10
5010.646654310407
 20
1685.794084190396
 30
0.0
 10
5013.277992059291
 20
1685.794084190396
 30
0.0
  0
SPLINE
  5
41A
330
1F
100
AcDbEntity
  8
Furniture
370
     9
100
AcDbSpline
210
0.0
220
0.0
230
1.0
 70
    11
 71
     3
 72
    17
 73
    13
 74
     0
 42
0.000000001
 43
0.0000000001
 40
0.0
 40
0.0
 40
0.0
 40
0.0
 40
1.0
 40
1.0
 40
1.0
 40
2.0
 40
2.0
 40
2.0
 40
3.0
 40
3.0
 40
3.0
 40
4.0
 40
4.0
 40
4.0
 40
4.0
 10
5013.788149377961
 20
2052.731448237149
 30
0.0
 10
5016.446337512072
 20
2052.731448237149
 30
0.0
 10
5018.594368327515
 20
2054.906329437688
 30
0.0
 10
5018.594368327515
 20
2057.604793149692
 30
0.0
 10
5018.594368327515
 20
2060.249556091095
 30
0.0
 10
5016.446337512072
 20
2062.411012099188
 30
0.0
 10
5013.788149377961
 20
2062.411012099188
 30
0.0
 10
5011.129961243863
 20
2062.411012099188
 30
0.0
 10
5008.928229658067
 20
2060.249556091095
 30
0.0
 10
5008.928229658067
 20
2057.604793149692
 30
0.0
 10
5008.928229658067
 20
2054.906329437688
 30
0.0
 10
5011.129961243863
 20
2052.731448237149
 30
0.0
 10
5013.788149377961
 20
2052.731448237149
 30
0.0
  0
SPLINE
  5
41B
330
1F
100
AcDbEntity
  8
Furniture
370
     9
100
AcDbSpline
210
0.0
220
0.0
230
1.0
 70
     8
 71
     3
 72
    17
 73
    13
 74
     0
 42
0.000000001
 43
0.0000000001
 40
0.0
 40
0.0
 40
0.0
 40
0.0
 40
1.0
 40
1.0
 40
1.0
 40
2.0
 40
2.0
 40
2.0
 40
3.0
 40
3.0
 40
3.0
 40
4.0
 40
4.0
 40
4.0
 40
4.0
 10
4969.592415350406
 20
2035.480075750621
 30
0.0
 10
4972.250603484503
 20
2035.480075750621
 30
0.0
 10
4974.39863429993
 20
2037.641531758656
 30
0.0
 10
4974.39863429993
 20
2040.299719892797
 30
0.0
 10
4974.39863429993
 20
2042.9713332195
 30
0.0
 10
4972.250603484503
 20
2045.159639612776
 30
0.0
 10
4969.592415350406
 20
2045.159639612776
 30
0.0
 10
4966.907376831096
 20
2045.159639612776
 30
0.0
 10
4964.759346015668
 20
2042.9713332195
 30
0.0
 10
4964.759346015668
 20
2040.299719892797
 30
0.0
 10
4964.759346015668
 20
2037.641531758656
 30
0.0
 10
4966.907376831096
 20
2035.480075750621
 30
0.0
 10
4969.565564965208
 20
2035.480075750621
 30
0.0
  0
SPLINE
  5
41C
330
1F
100
AcDbEntity
  8
Furniture
370
     9
100
AcDbSpline
210
0.0
220
0.0
230
1.0
 70
     8
 71
     3
 72
    20
 73
    16
 74
     0
 42
0.000000001
 43
0.0000000001
 40
-0.0033647952520675
 40
-0.0033647952520675
 40
-0.0033647952520675
 40
-0.0033647952520675
 40
0.0
 40
0.0
 40
0.0
 40
1.0
 40
1.0
 40
1.0
 40
2.0
 40
2.0
 40
2.0
 40
3.0
 40
3.0
 40
3.0
 40
4.0
 40
4.0
 40
4.0
 40
4.0
 10
4969.565565359884
 20
1674.100814372364
 30
0.0
 10
4969.574521056846
 20
1674.100765910587
 30
0.0
 10
4969.583471091599
 20
1674.100741438864
 30
0.0
 10
4969.592415350406
 20
1674.100741438864
 30
0.0
 10
4972.250603484503
 20
1674.100741438864
 30
0.0
 10
4974.39863429993
 20
1676.262197446956
 30
0.0
 10
4974.39863429993
 20
1678.906960388417
 30
0.0
 10
4974.39863429993
 20
1681.578573715121
 30
0.0
 10
4972.250603484503
 20
1683.753454915776
 30
0.0
 10
4969.592415350406
 20
1683.753454915776
 30
0.0
 10
4966.907376831096
 20
1683.753454915776
 30
0.0
 10
4964.759346015668
 20
1681.578573715121
 30
0.0
 10
4964.759346015668
 20
1678.920385581039
 30
0.0
 10
4964.759346015668
 20
1676.262197446956
 30
0.0
 10
4966.907376831096
 20
1674.100741438864
 30
0.0
 10
4969.565564965208
 20
1674.100741438864
 30
0.0
  0
LINE
  5
41D
330
1F
100
AcDbEntity
  8
Furniture
370
     9
100
AcDbLine
 10
4959.657772829003
 20
1669.012593444791
 30
0.0
 11
5023.212634580694
 21
1669.012593444791
 31
0.0
  0
LINE
  5
41E
330
1F
100
AcDbEntity
  8
Furniture
370
     9
100
AcDbLine
 10
5023.212634580694
 20
1669.012593444791
 30
0.0
 11
5023.212634580694
 21
2069.016206856648
 31
0.0
  0
LINE
  5
41F
330
1F
100
AcDbEntity
  8
Furniture
370
     9
100
AcDbLine
 10
5023.212634580694
 20
2069.016206856648
 30
0.0
 11
4959.657772829003
 21
2069.016206856648
 31
0.0
  0
LINE
  5
420
330
1F
100
AcDbEntity
  8
Furniture
370
     9
100
AcDbLine
 10
4959.657772829003
 20
2069.016206856648
 30
0.0
 11
4959.657772829003
 21
1669.012593444791
 31
0.0
  0
LINE
  5
421
330
1F
100
AcDbEntity
  8
Furniture
370
     9
100
AcDbLine
 10
5023.212634580694
 20
1700.534945661323
 30
0.0
 11
5209.742260516028
 21
1700.534945661323
 31
0.0
  0
LINE
  5
422
330
1F
100
AcDbEntity
  8
Furniture
370
     9
100
AcDbLine
 10
5209.742260516028
 20
1700.534945661323
 30
0.0
 11
5209.742260516028
 21
1669.012593444791
 31
0.0
  0
LINE
  5
423
330
1F
100
AcDbEntity
  8
Furniture
370
     9
100
AcDbLine
 10
5209.742260516028
 20
1669.012593444791
 30
0.0
 11
5023.212634580694
 21
1669.012593444791
 31
0.0
  0
LINE
  5
424
330
1F
100
AcDbEntity
  8
Furniture
370
     9
100
AcDbLine
 10
7160.301918049784
 20
1855.246865143073
 30
0.0
 11
7166.370105103375
 21
1855.246865143073
 31
0.0
  0
LINE
  5
425
330
1F
100
AcDbEntity
  8
Furniture
370
     9
100
AcDbLine
 10
7166.370105103375
 20
1855.246865143073
 30
0.0
 11
7166.370105103375
 21
1918.788301702128
 31
0.0
  0
LINE
  5
426
330
1F
100
AcDbEntity
  8
Furniture
370
     9
100
AcDbLine
 10
7166.370105103375
 20
1918.788301702128
 30
0.0
 11
7160.301918049784
 21
1918.788301702128
 31
0.0
  0
LINE
  5
427
330
1F
100
AcDbEntity
  8
Furniture
370
     9
100
AcDbLine
 10
7160.301918049784
 20
1918.788301702128
 30
0.0
 11
7160.301918049784
 21
1855.246865143073
 31
0.0
  0
LINE
  5
428
330
1F
100
AcDbEntity
  8
Furniture
370
     9
100
AcDbLine
 10
6878.721928531423
 20
1918.788301702128
 30
0.0
 11
6872.653741477818
 21
1918.788301702128
 31
0.0
  0
LINE
  5
429
330
1F
100
AcDbEntity
  8
Furniture
370
     9
100
AcDbLine
 10
6872.653741477818
 20
1918.788301702128
 30
0.0
 11
6872.653741477818
 21
1668.703814015147
 31
0.0
  0
LINE
  5
42A
330
1F
100
AcDbEntity
  8
Furniture
370
     9
100
AcDbLine
 10
6872.653741477818
 20
1668.703814015147
 30
0.0
 11
6878.721928531423
 21
1668.703814015147
 31
0.0
  0
LINE
  5
42B
330
1F
100
AcDbEntity
  8
Furniture
370
     9
100
AcDbLine
 10
6878.721928531423
 20
1668.703814015147
 30
0.0
 11
6878.721928531423
 21
1918.788301702128
 31
0.0
  0
LINE
  5
42C
330
1F
100
AcDbEntity
  8
Furniture
370
     9
100
AcDbLine
 10
6878.721928531423
 20
1918.788301702128
 30
0.0
 11
7153.696723292309
 21
1918.788301702128
 31
0.0
  0
LINE
  5
42D
330
1F
100
AcDbEntity
  8
Furniture
370
     9
100
AcDbLine
 10
6878.721928531423
 20
1668.703814015147
 30
0.0
 11
7153.696723292309
 21
1668.703814015147
 31
0.0
  0
LINE
  5
42E
330
1F
100
AcDbEntity
  8
Furniture
370
     9
100
AcDbLine
 10
6872.653741477818
 20
1918.788301702128
 30
0.0
 11
6872.653741477818
 21
1855.246865143073
 31
0.0
  0
LINE
  5
42F
330
1F
100
AcDbEntity
  8
Furniture
370
     9
100
AcDbLine
 10
6872.653741477818
 20
1855.246865143073
 30
0.0
 11
6866.048546720358
 21
1855.246865143073
 31
0.0
  0
LINE
  5
430
330
1F
100
AcDbEntity
  8
Furniture
370
     9
100
AcDbLine
 10
6866.048546720358
 20
1855.246865143073
 30
0.0
 11
6866.048546720358
 21
1918.788301702128
 31
0.0
  0
LINE
  5
431
330
1F
100
AcDbEntity
  8
Furniture
370
     9
100
AcDbLine
 10
6866.048546720358
 20
1918.788301702128
 30
0.0
 11
6872.653741477818
 21
1918.788301702128
 31
0.0
  0
LINE
  5
432
330
1F
100
AcDbEntity
  8
Furniture
370
     9
100
AcDbLine
 10
7153.696723292309
 20
1668.703814015147
 30
0.0
 11
7153.696723292309
 21
1918.788301702128
 31
0.0
  0
LINE
  5
433
330
1F
100
AcDbEntity
  8
Furniture
370
     9
100
AcDbLine
 10
7153.696723292309
 20
1918.788301702128
 30
0.0
 11
7160.301918049784
 21
1918.788301702128
 31
0.0
  0
LINE
  5
434
330
1F
100
AcDbEntity
  8
Furniture
370
     9
100
AcDbLine
 10
7160.301918049784
 20
1918.788301702128
 30
0.0
 11
7160.301918049784
 21
1668.703814015147
 31
0.0
  0
LINE
  5
435
330
1F
100
AcDbEntity
  8
Furniture
370
     9
100
AcDbLine
 10
7160.301918049784
 20
1668.703814015147
 30
0.0
 11
7153.696723292309
 21
1668.703814015147
 31
0.0
  0
SPLINE
  5
436
330
1F
100
AcDbEntity
  8
Furniture
370
     9
100
AcDbSpline
210
0.0
220
0.0
230
1.0
 70
     8
 71
     3
 72
    23
 73
    19
 74
     0
 42
0.000000001
 43
0.0000000001
 40
-0.0419102514243209
 40
-0.0419102514243209
 40
-0.0419102514243209
 40
-0.0419102514243209
 40
-0.0196286893600658
 40
-0.0196286893600658
 40
-0.0196286893600658
 40
-0.0111314441765951
 40
-0.0111314441765951
 40
-0.0111314441765951
 40
0.0
 40
0.0
 40
0.0
 40
1.0
 40
1.0
 40
1.0
 40
1.010539965461082
 40
1.010539965461082
 40
1.010539965461082
 40
1.018527309995593
 40
1.018527309995593
 40
1.018527309995593
 40
1.018527309995593
 10
4968.783478603397
 20
1675.715247352322
 30
0.0
 10
4968.793635849117
 20
1675.712222711712
 30
0.0
 10
4968.803793094823
 20
1675.709198071044
 30
0.0
 10
4968.813950340529
 20
1675.706173430376
 30
0.0
 10
4968.817823884329
 20
1675.705019960417
 30
0.0
 10
4968.821697428172
 20
1675.703866490459
 30
0.0
 10
4968.825570971985
 20
1675.702713020442
 30
0.0
 10
4968.830645338563
 20
1675.701201967551
 30
0.0
 10
4968.835719705126
 20
1675.699690914718
 30
0.0
 10
4968.840800725713
 20
1675.698196496878
 30
0.0
 10
4969.297257273986
 20
1675.563944571016
 30
0.0
 10
4969.807414592669
 20
1675.563944571016
 30
0.0
 10
4970.290721526126
 20
1675.698196496878
 30
0.0
 10
4970.295815564536
 20
1675.699611507594
 30
0.0
 10
4970.300906620094
 20
1675.701041432393
 30
0.0
 10
4970.305997675652
 20
1675.702471357251
 30
0.0
 10
4970.309855754215
 20
1675.703554975805
 30
0.0
 10
4970.313713832762
 20
1675.704638594359
 30
0.0
 10
4970.317571911324
 20
1675.705722212971
 30
0.0
  0
TEXT
  5
4D6
330
1F
100
AcDbEntity
  8
Text
100
AcDbText
 10
2.915563901075074
 20
1989.223068747258
 30
0.0
 40
233.9816249415046
  1
Side Tables
 41
1.000399999999999
100
AcDbText
  0
TEXT
  5
4D8
330
1F
100
AcDbEntity
  8
Text
100
AcDbText
 10
2.915563901075074
 20
4473.160474620415
 30
0.0
 40
192.6907499518273
  1
BAILEY
 41
1.000399999999999
100
AcDbText
  0
TEXT
  5
4D9
330
1F
100
AcDbEntity
  8
Text
100
AcDbText
 10
2.915563901075074
 20
3870.537506265213
 30
0.0
 40
192.6907499518273
  1
—
 41
1.000399999999999
100
AcDbText
  0
TEXT
  5
4DA
330
1F
100
AcDbEntity
  8
Text
100
AcDbText
 10
2.915563901075131
 20
3195.566990386749
 30
0.0
 40
233.9816249415046
  1
DIMENSIONS
 41
1.000399999999999
100
AcDbText
  0
ENDSEC
  0
SECTION
  2
OBJECTS
  0
DICTIONARY
  5
C
330
0
100
AcDbDictionary
281
     1
  3
ACAD_CIP_PREVIOUS_PRODUCT_INFO
350
1A5
  3
ACAD_COLOR
350
73
  3
ACAD_DETAILVIEWSTYLE
350
1AB
  3
ACAD_GROUP
350
D
  3
ACAD_LAYOUT
350
1A
  3
ACAD_MATERIAL
350
72
  3
ACAD_MLEADERSTYLE
350
D7
  3
ACAD_MLINESTYLE
350
17
  3
ACAD_PLOTSETTINGS
350
19
  3
ACAD_PLOTSTYLENAME
350
E
  3
ACAD_SCALELIST
350
B6
  3
ACAD_SECTIONVIEWSTYLE
350
1A8
  3
ACAD_TABLESTYLE
350
86
  3
ACAD_VISUALSTYLE
350
99
  3
ACDB_RECOMPOSE_DATA
350
50A
  3
AcDbVariableDictionary
350
66
  0
DICTIONARY
  5
18E
330
2
100
AcDbDictionary
280
     1
281
     1
  3
ACAD_LAYERSTATES
360
18F
  0
DICTIONARY
  5
E6
330
10
100
AcDbDictionary
280
     1
281
     1
  0
DICTIONARY
  5
1DC
330
1DB
100
AcDbDictionary
280
     1
281
     1
  0
DICTIONARY
  5
1DE
330
1DD
100
AcDbDictionary
280
     1
281
     1
  0
DICTIONARY
  5
1E0
330
1DF
100
AcDbDictionary
280
     1
281
     1
  0
DICTIONARY
  5
15D
330
1F
100
AcDbDictionary
280
     1
281
     1
  0
XRECORD
  5
1A5
102
{ACAD_REACTORS
330
C
102
}
330
C
100
AcDbXrecord
280
     1
300
AMECH_PP
300
2018
300
PDSP_F_S
  0
DICTIONARY
  5
73
102
{ACAD_REACTORS
330
C
102
}
330
C
100
AcDbDictionary
281
     1
  0
DICTIONARY
  5
1AB
102
{ACAD_REACTORS
330
C
102
}
330
C
100
AcDbDictionary
281
     1
  3
Imperial24
350
1AC
  0
DICTIONARY
  5
D
102
{ACAD_REACTORS
330
C
102
}
330
C
100
AcDbDictionary
281
     1
  0
DICTIONARY
  5
1A
102
{ACAD_REACTORS
330
C
102
}
330
C
100
AcDbDictionary
281
     1
  3
Layout1
350
59
  3
Layout2
350
5E
  3
Model
350
22
  0
DICTIONARY
  5
72
102
{ACAD_REACTORS
330
C
102
}
330
C
100
AcDbDictionary
281
     1
  3
ByBlock
350
97
  3
ByLayer
350
96
  3
Global
350
98
  0
DICTIONARY
  5
D7
102
{ACAD_REACTORS
330
C
102
}
330
C
100
AcDbDictionary
281
     1
  3
Annotative
350
E5
  3
Standard
350
D8
  0
DICTIONARY
  5
17
102
{ACAD_REACTORS
330
C
102
}
330
C
100
AcDbDictionary
281
     1
  3
Standard
350
18
  0
DICTIONARY
  5
19
102
{ACAD_REACTORS
330
C
102
}
330
C
100
AcDbDictionary
281
     1
  0
ACDBDICTIONARYWDFLT
  5
E
102
{ACAD_REACTORS
330
C
102
}
330
C
100
AcDbDictionary
281
     1
  3
Normal
350
F
100
AcDbDictionaryWithDefault
340
F
  0
DICTIONARY
  5
B6
102
{ACAD_REACTORS
330
C
102
}
330
C
100
AcDbDictionary
281
     1
  3
A0
350
B7
  3
A1
350
124
  3
A2
350
125
  3
A3
350
126
  3
A4
350
127
  3
A5
350
128
  3
A6
350
129
  3
A7
350
12A
  3
A8
350
12B
  3
A9
350
12C
  3
B0
350
12D
  3
B1
350
12E
  3
B2
350
12F
  3
B3
350
130
  3
B4
350
131
  3
B5
350
132
  3
B6
350
133
  3
B7
350
134
  3
B8
350
135
  3
B9
350
136
  3
C0
350
137
  3
C1
350
138
  3
C2
350
139
  3
C3
350
13A
  3
C4
350
13B
  3
C5
350
13C
  3
C6
350
13D
  3
C7
350
13E
  3
C8
350
13F
  3
C9
350
140
  3
D0
350
141
  3
D1
350
142
  3
D2
350
143
  0
DICTIONARY
  5
1A8
102
{ACAD_REACTORS
330
C
102
}
330
C
100
AcDbDictionary
281
     1
  3
Imperial24
350
1AA
  0
DICTIONARY
  5
86
102
{ACAD_REACTORS
330
C
102
}
330
C
100
AcDbDictionary
281
     1
  3
Standard
350
87
  0
DICTIONARY
  5
99
102
{ACAD_REACTORS
330
C
102
}
330
C
100
AcDbDictionary
281
     1
  3
2dWireframe
350
9F
  3
Basic
350
9E
  3
Brighten
350
A5
  3
ColorChange
350
A9
  3
Conceptual
350
A2
  3
Dim
350
A4
  3
EdgeColorOff
350
175
  3
Facepattern
350
A8
  3
Flat
350
9A
  3
FlatWithEdges
350
9B
  3
Gouraud
350
9C
  3
GouraudWithEdges
350
9D
  3
Hidden
350
A1
  3
JitterOff
350
173
  3
Linepattern
350
A7
  3
OverhangOff
350
174
  3
Realistic
350
A3
  3
Shaded
350
182
  3
Shaded with edges
350
181
  3
Shades of Gray
350
17E
  3
Sketchy
350
17F
  3
Thicken
350
A6
  3
Wireframe
350
A0
  3
X-Ray
350
180
  0
XRECORD
  5
50A
102
{ACAD_REACTORS
330
C
102
}
330
C
100
AcDbXrecord
280
     1
 90
        1
330
87
  0
DICTIONARY
  5
66
102
{ACAD_REACTORS
330
C
102
}
330
C
100
AcDbDictionary
281
     1
  3
CANNOSCALE
350
F0
  3
CMLEADERSTYLE
350
EF
  3
CTABLESTYLE
350
89
  3
CVIEWDETAILSTYLE
350
1B7
  3
CVIEWSECTIONSTYLE
350
1B8
  3
DIMASSOC
350
67
  3
HIDETEXT
350
6B
  3
LAYEREVAL
350
14D
  3
LAYERNOTIFY
350
14E
  0
DICTIONARY
  5
18F
102
{ACAD_REACTORS
330
18E
102
}
330
18E
100
AcDbDictionary
281
     1
  0
ACDBDETAILVIEWSTYLE
  5
1AC
102
{ACAD_REACTORS
330
1AB
102
}
330
1AB
100
AcDbModelDocViewStyle
 70
     0
  3
Imperial24
290
     0
300
Imperial24
 90
        0
100
AcDbDetailViewStyle
 70
     0
 71
     0
 90
        3
 71
     1
340
11
 62
   256
 40
0.24
340
0
 62
   256
 40
0.24
300

 40
0.36
280
     3
 71
     2
340
16
 90
       25
 62
   256
 71
     3
340
11
 62
   256
 40
0.24
 90
        1
 40
0.75
 90
        1
300
%<\AcVar ViewType \f "%tc1">% %<\AcVar ViewDetailId>%\PSCALE %<\AcVar ViewScale \f "%sn">%
 71
     4
340
16
 90
       25
 62
   256
340
16
 90
       25
 62
   256
280
     0
  0
LAYOUT
  5
59
102
{ACAD_REACTORS
330
1A
102
}
330
1A
100
AcDbPlotSettings
  1

  2
None
  4

  6

 40
0.0
 41
0.0
 42
0.0
 43
0.0
 44
0.0
 45
0.0
 46
0.0
 47
0.0
 48
0.0
 49
0.0
140
0.0
141
0.0
142
1.0
143
1.0
 70
   688
 72
     0
 73
     0
 74
     5
  7

 75
    16
147
1.0
 76
     0
 77
     2
 78
   300
148
0.0
149
0.0
100
AcDbLayout
  1
Layout1
 70
     1
 71
     1
 10
0.0
 20
0.0
 11
12.0
 21
9.0
 12
0.0
 22
0.0
 32
0.0
 14
0.0
 24
0.0
 34
0.0
 15
0.0
 25
0.0
 35
0.0
146
0.0
 13
0.0
 23
0.0
 33
0.0
 16
1.0
 26
0.0
 36
0.0
 17
0.0
 27
1.0
 37
0.0
 76
     0
330
58
  0
LAYOUT
  5
5E
102
{ACAD_REACTORS
330
1A
102
}
330
1A
100
AcDbPlotSettings
  1

  2
None
  4

  6

 40
0.0
 41
0.0
 42
0.0
 43
0.0
 44
0.0
 45
0.0
 46
0.0
 47
0.0
 48
0.0
 49
0.0
140
0.0
141
0.0
142
1.0
143
1.0
 70
   688
 72
     0
 73
     0
 74
     5
  7

 75
    16
147
1.0
 76
     0
 77
     2
 78
   300
148
0.0
149
0.0
100
AcDbLayout
  1
Layout2
 70
     1
 71
     2
 10
0.0
 20
0.0
 11
12.0
 21
9.0
 12
0.0
 22
0.0
 32
0.0
 14
0.0
 24
0.0
 34
0.0
 15
0.0
 25
0.0
 35
0.0
146
0.0
 13
0.0
 23
0.0
 33
0.0
 16
1.0
 26
0.0
 36
0.0
 17
0.0
 27
1.0
 37
0.0
 76
     0
330
5D
  0
LAYOUT
  5
22
102
{ACAD_XDICTIONARY
360
194
102
}
102
{ACAD_REACTORS
330
1A
102
}
330
1A
100
AcDbPlotSettings
  1

  2
none_device
  4
ANSI_A_(8.50_x_11.00_Inches)
  6

 40
6.349999904632568
 41
19.04999923706055
 42
6.350006103515625
 43
19.04998779296875
 44
215.8999938964844
 45
279.3999938964844
 46
0.0
 47
0.0
 48
0.0
 49
0.0
140
0.0
141
0.0
142
1.0
143
2.584895464708373
 70
 11952
 72
     0
 73
     1
 74
     0
  7

 75
     0
147
0.3868628397755418
 76
     0
 77
     2
 78
   300
148
0.0
149
0.0
100
AcDbLayout
  1
Model
 70
     1
 71
     0
 10
0.0
 20
0.0
 11
12.0
 21
9.0
 12
0.0
 22
0.0
 32
0.0
 14
0.0
 24
0.0
 34
0.0
 15
0.0
 25
0.0
 35
0.0
146
0.0
 13
0.0
 23
0.0
 33
0.0
 16
1.0
 26
0.0
 36
0.0
 17
0.0
 27
1.0
 37
0.0
 76
     0
330
1F
331
94
  0
MATERIAL
  5
97
102
{ACAD_XDICTIONARY
360
188
102
}
102
{ACAD_REACTORS
330
72
102
}
330
72
100
AcDbMaterial
  1
ByBlock
 94
       63
  0
MATERIAL
  5
96
102
{ACAD_XDICTIONARY
360
186
102
}
102
{ACAD_REACTORS
330
72
102
}
330
72
100
AcDbMaterial
  1
ByLayer
 94
       63
  0
MATERIAL
  5
98
102
{ACAD_XDICTIONARY
360
110
102
}
102
{ACAD_REACTORS
330
72
102
}
330
72
100
AcDbMaterial
  1
Global
 43
0.0208000000566244
 43
0.0
 43
0.0
 43
0.0
 43
0.0
 43
0.0208000000566244
 43
0.0
 43
0.0
 43
0.0
 43
0.0
 43
1.0
 43
0.0
 43
0.0
 43
0.0
 43
0.0
 43
1.0
 49
0.0208000000566244
 49
0.0
 49
0.0
 49
0.0
 49
0.0
 49
0.0208000000566244
 49
0.0
 49
0.0
 49
0.0
 49
0.0
 49
1.0
 49
0.0
 49
0.0
 49
0.0
 49
0.0
 49
1.0
142
0.0208000000566244
142
0.0
142
0.0
142
0.0
142
0.0
142
0.0208000000566244
142
0.0
142
0.0
142
0.0
142
0.0
142
1.0
142
0.0
142
0.0
142
0.0
142
0.0
142
1.0
144
0.0208000000566244
144
0.0
144
0.0
144
0.0
144
0.0
144
0.0208000000566244
144
0.0
144
0.0
144
0.0
144
0.0
144
1.0
144
0.0
144
0.0
144
0.0
144
0.0
144
1.0
 94
       63
1001
ACAD
1070
    -1
1070
     3
1070
     0
1000

1071
        0
1070
     0
  0
MLEADERSTYLE
  5
E5
102
{ACAD_REACTORS
330
D7
102
}
330
D7
100
AcDbMLeaderStyle
179
     2
170
     2
171
     1
172
     0
 90
        2
 40
0.0
 41
0.0
173
     1
 91
-1056964608
340
14
 92
       -2
290
     1
 42
0.09
291
     1
 43
0.36
  3
Standard
 44
0.18
300

342
11
174
     1
178
     1
175
     1
176
     0
 93
-1056964608
 45
0.18
292
     0
297
     0
 46
0.18
 94
-1056964608
 47
1.0
 49
1.0
140
1.0
293
     1
141
0.0
294
     1
177
     0
142
1.0
295
     0
296
     1
143
0.125
271
     0
272
     9
273
     9
298
     0
  0
MLEADERSTYLE
  5
D8
102
{ACAD_REACTORS
330
D7
102
}
330
D7
100
AcDbMLeaderStyle
179
     2
170
     2
171
     1
172
     0
 90
        2
 40
0.0
 41
0.0
173
     1
 91
-1056964608
340
14
 92
       -2
290
     1
 42
0.09
291
     1
 43
0.36
  3
Standard
 44
0.18
300

342
11
174
     1
178
     1
175
     1
176
     0
 93
-1056964608
 45
0.18
292
     0
297
     0
 46
0.18
 94
-1056964608
 47
1.0
 49
1.0
140
1.0
293
     1
141
0.0
294
     1
177
     0
142
1.0
295
     0
296
     0
143
0.125
271
     0
272
     9
273
     9
298
     0
  0
MLINESTYLE
  5
18
102
{ACAD_REACTORS
330
17
102
}
330
17
100
AcDbMlineStyle
  2
STANDARD
 70
     0
  3

 62
   256
 51
90.0
 52
90.0
 71
     2
 49
0.5
 62
   256
  6
BYLAYER
 49
-0.5
 62
   256
  6
BYLAYER
  0
ACDBPLACEHOLDER
  5
F
102
{ACAD_REACTORS
330
E
102
}
330
E
  0
SCALE
  5
B7
102
{ACAD_REACTORS
330
B6
102
}
330
B6
100
AcDbScale
 70
     0
300
1:1
140
1.0
141
1.0
290
     1
  0
SCALE
  5
124
102
{ACAD_REACTORS
330
B6
102
}
330
B6
100
AcDbScale
 70
     0
300
1:2
140
1.0
141
2.0
290
     0
  0
SCALE
  5
125
102
{ACAD_REACTORS
330
B6
102
}
330
B6
100
AcDbScale
 70
     0
300
1:4
140
1.0
141
4.0
290
     0
  0
SCALE
  5
126
102
{ACAD_REACTORS
330
B6
102
}
330
B6
100
AcDbScale
 70
     0
300
1:5
140
1.0
141
5.0
290
     0
  0
SCALE
  5
127
102
{ACAD_REACTORS
330
B6
102
}
330
B6
100
AcDbScale
 70
     0
300
1:8
140
1.0
141
8.0
290
     0
  0
SCALE
  5
128
102
{ACAD_REACTORS
330
B6
102
}
330
B6
100
AcDbScale
 70
     0
300
1:10
140
1.0
141
10.0
290
     0
  0
SCALE
  5
129
102
{ACAD_REACTORS
330
B6
102
}
330
B6
100
AcDbScale
 70
     0
300
1:16
140
1.0
141
16.0
290
     0
  0
SCALE
  5
12A
102
{ACAD_REACTORS
330
B6
102
}
330
B6
100
AcDbScale
 70
     0
300
1:20
140
1.0
141
20.0
290
     0
  0
SCALE
  5
12B
102
{ACAD_REACTORS
330
B6
102
}
330
B6
100
AcDbScale
 70
     0
300
1:30
140
1.0
141
30.0
290
     0
  0
SCALE
  5
12C
102
{ACAD_REACTORS
330
B6
102
}
330
B6
100
AcDbScale
 70
     0
300
1:40
140
1.0
141
40.0
290
     0
  0
SCALE
  5
12D
102
{ACAD_REACTORS
330
B6
102
}
330
B6
100
AcDbScale
 70
     0
300
1:50
140
1.0
141
50.0
290
     0
  0
SCALE
  5
12E
102
{ACAD_REACTORS
330
B6
102
}
330
B6
100
AcDbScale
 70
     0
300
1:100
140
1.0
141
100.0
290
     0
  0
SCALE
  5
12F
102
{ACAD_REACTORS
330
B6
102
}
330
B6
100
AcDbScale
 70
     0
300
2:1
140
2.0
141
1.0
290
     0
  0
SCALE
  5
130
102
{ACAD_REACTORS
330
B6
102
}
330
B6
100
AcDbScale
 70
     0
300
4:1
140
4.0
141
1.0
290
     0
  0
SCALE
  5
131
102
{ACAD_REACTORS
330
B6
102
}
330
B6
100
AcDbScale
 70
     0
300
8:1
140
8.0
141
1.0
290
     0
  0
SCALE
  5
132
102
{ACAD_REACTORS
330
B6
102
}
330
B6
100
AcDbScale
 70
     0
300
10:1
140
10.0
141
1.0
290
     0
  0
SCALE
  5
133
102
{ACAD_REACTORS
330
B6
102
}
330
B6
100
AcDbScale
 70
     0
300
100:1
140
100.0
141
1.0
290
     0
  0
SCALE
  5
134
102
{ACAD_REACTORS
330
B6
102
}
330
B6
100
AcDbScale
 70
     0
300
1/128" = 1'-0"
140
0.0078125
141
12.0
290
     0
  0
SCALE
  5
135
102
{ACAD_REACTORS
330
B6
102
}
330
B6
100
AcDbScale
 70
     0
300
1/64" = 1'-0"
140
0.015625
141
12.0
290
     0
  0
SCALE
  5
136
102
{ACAD_REACTORS
330
B6
102
}
330
B6
100
AcDbScale
 70
     0
300
1/32" = 1'-0"
140
0.03125
141
12.0
290
     0
  0
SCALE
  5
137
102
{ACAD_REACTORS
330
B6
102
}
330
B6
100
AcDbScale
 70
     0
300
1/16" = 1'-0"
140
0.0625
141
12.0
290
     0
  0
SCALE
  5
138
102
{ACAD_REACTORS
330
B6
102
}
330
B6
100
AcDbScale
 70
     0
300
3/32" = 1'-0"
140
0.09375
141
12.0
290
     0
  0
SCALE
  5
139
102
{ACAD_REACTORS
330
B6
102
}
330
B6
100
AcDbScale
 70
     0
300
1/8" = 1'-0"
140
0.125
141
12.0
290
     0
  0
SCALE
  5
13A
102
{ACAD_REACTORS
330
B6
102
}
330
B6
100
AcDbScale
 70
     0
300
3/16" = 1'-0"
140
0.1875
141
12.0
290
     0
  0
SCALE
  5
13B
102
{ACAD_REACTORS
330
B6
102
}
330
B6
100
AcDbScale
 70
     0
300
1/4" = 1'-0"
140
0.25
141
12.0
290
     0
  0
SCALE
  5
13C
102
{ACAD_REACTORS
330
B6
102
}
330
B6
100
AcDbScale
 70
     0
300
3/8" = 1'-0"
140
0.375
141
12.0
290
     0
  0
SCALE
  5
13D
102
{ACAD_REACTORS
330
B6
102
}
330
B6
100
AcDbScale
 70
     0
300
1/2" = 1'-0"
140
0.5
141
12.0
290
     0
  0
SCALE
  5
13E
102
{ACAD_REACTORS
330
B6
102
}
330
B6
100
AcDbScale
 70
     0
300
3/4" = 1'-0"
140
0.75
141
12.0
290
     0
  0
SCALE
  5
13F
102
{ACAD_REACTORS
330
B6
102
}
330
B6
100
AcDbScale
 70
     0
300
1" = 1'-0"
140
1.0
141
12.0
290
     0
  0
SCALE
  5
140
102
{ACAD_REACTORS
330
B6
102
}
330
B6
100
AcDbScale
 70
     0
300
1-1/2" = 1'-0"
140
1.5
141
12.0
290
     0
  0
SCALE
  5
141
102
{ACAD_REACTORS
330
B6
102
}
330
B6
100
AcDbScale
 70
     0
300
3" = 1'-0"
140
3.0
141
12.0
290
     0
  0
SCALE
  5
142
102
{ACAD_REACTORS
330
B6
102
}
330
B6
100
AcDbScale
 70
     0
300
6" = 1'-0"
140
6.0
141
12.0
290
     0
  0
SCALE
  5
143
102
{ACAD_REACTORS
330
B6
102
}
330
B6
100
AcDbScale
 70
     0
300
1'-0" = 1'-0"
140
12.0
141
12.0
290
     0
  0
ACDBSECTIONVIEWSTYLE
  5
1AA
102
{ACAD_REACTORS
330
1A8
102
}
330
1A8
100
AcDbModelDocViewStyle
 70
     0
  3
Imperial24
290
     0
300
Imperial24
 90
        0
100
AcDbSectionViewStyle
 70
     0
 71
     0
 90
       78
 71
     1
340
11
 62
   256
 40
0.24
340
0
340
0
 62
   256
 40
0.24
300
I, O, Q, S, X, Z
 40
0.48
 90
        3
 40
0.18
 90
        1
 71
     2
340
16
 90
       25
 62
   256
340
16
 90
       50
 62
   256
 40
0.24
 40
0.0
 40
0.24
 71
     3
340
11
 62
   256
 40
0.24
 90
        1
 40
0.75
 90
        1
300
%<\AcVar ViewType \f "%tc1">% %<\AcVar ViewSectionStartId>%-%<\AcVar ViewSectionEndId>%\PSCALE %<\AcVar ViewScale \f "%sn">%
 71
     4
 62
   256
 62
   257
300
ANSI31
 40
1.0
 90
        0
290
     0
290
     0
 90
        6
 40
0.0
 40
1.570796326794896
 40
0.2617993877991494
 40
1.308996938995747
 40
-0.2617993877991494
 40
1.832595714594046
  0
TABLESTYLE
  5
87
102
{ACAD_XDICTIONARY
360
104
102
}
102
{ACAD_REACTORS
330
86
102
}
330
86
100
AcDbTableStyle
280
     0
  3
Standard
 70
     0
 71
     0
 40
0.06
 41
0.06
280
     0
281
     0
  7
Standard
140
0.18
170
     2
 62
     0
 63
     7
283
     0
 90
      512
 91
        0
  1

274
    -2
284
     1
 64
     0
275
    -2
285
     1
 65
     0
276
    -2
286
     1
 66
     0
277
    -2
287
     1
 67
     0
278
    -2
288
     1
 68
     0
279
    -2
289
     1
 69
     0
  7
Standard
140
0.25
170
     5
 62
     0
 63
     7
283
     0
 90
      512
 91
        0
  1

274
    -2
284
     1
 64
     0
275
    -2
285
     1
 65
     0
276
    -2
286
     1
 66
     0
277
    -2
287
     1
 67
     0
278
    -2
288
     1
 68
     0
279
    -2
289
     1
 69
     0
  7
Standard
140
0.18
170
     5
 62
     0
 63
     7
283
     0
 90
      512
 91
        0
  1

274
    -2
284
     1
 64
     0
275
    -2
285
     1
 65
     0
276
    -2
286
     1
 66
     0
277
    -2
287
     1
 67
     0
278
    -2
288
     1
 68
     0
279
    -2
289
     1
 69
     0
  0
VISUALSTYLE
  5
9F
102
{ACAD_REACTORS
330
99
102
}
330
99
100
AcDbVisualStyle
  2
2dWireframe
 70
     4
177
     3
291
     0
 70
    58
 90
        0
176
     1
 90
        2
176
     1
 90
        1
176
     1
 90
        0
176
     1
 40
0.6
176
     1
 40
30.0
176
     1
 62
     7
420
 16777215
176
     1
 90
        1
176
     1
 90
        4
176
     1
 62
     7
176
     1
 62
   257
176
     1
 90
        1
176
     1
 90
        1
176
     1
 40
1.0
176
     1
 90
        0
176
     1
 62
   257
176
     1
 40
1.0
176
     1
 90
        1
176
     1
 90
        6
176
     1
 90
        2
176
     1
 62
     7
176
     1
 90
        5
176
     1
 90
        0
176
     1
 90
        0
176
     1
290
     0
176
     1
 90
        1
176
     1
 40
0.0
176
     1
 90
        0
176
     1
290
     1
176
     1
290
     1
176
     1
290
     0
176
     1
290
     0
176
     1
290
     0
176
     1
290
     0
176
     1
290
     0
176
     1
290
     0
176
     1
290
     0
176
     1
 90
       50
176
     1
 40
0.0
176
     1
 40
1.0
176
     1
 90
        0
176
     1
 62
    18
420
        0
176
     1
 90
       50
176
     1
 90
        3
176
     1
 62
     5
420
      255
176
     1
290
     0
176
     1
 90
       50
176
     1
 90
       50
176
     1
 90
       50
176
     1
290
     0
176
     1
 90
       50
176
     1
 62
   256
176
     0
 40
1.0
176
     0
 90
        2
176
     1
  1
strokes_ogs.tif
176
     1
290
     0
176
     1
 40
1.0
176
     1
 40
1.0
176
     1
  0
VISUALSTYLE
  5
9E
102
{ACAD_REACTORS
330
99
102
}
330
99
100
AcDbVisualStyle
  2
Basic
 70
     7
177
     3
291
     1
 70
    58
 90
        1
176
     1
 90
        0
176
     1
 90
        1
176
     1
 90
        0
176
     1
 40
0.6
176
     1
 40
30.0
176
     1
 62
     7
420
 16777215
176
     1
 90
        0
176
     1
 90
        4
176
     1
 62
     7
176
     1
 62
   257
176
     1
 90
        1
176
     1
 90
        1
176
     1
 40
1.0
176
     1
 90
        8
176
     1
 62
     7
176
     1
 40
1.0
176
     1
 90
        1
176
     1
 90
        6
176
     1
 90
        2
176
     1
 62
     7
176
     1
 90
        5
176
     1
 90
        0
176
     1
 90
        0
176
     1
290
     0
176
     1
 90
        1
176
     1
 40
0.0
176
     1
 90
        0
176
     1
290
     0
176
     1
290
     1
176
     1
290
     1
176
     1
290
     0
176
     1
290
     0
176
     1
290
     0
176
     1
290
     0
176
     1
290
     0
176
     1
290
     0
176
     1
 90
       50
176
     1
 40
0.0
176
     1
 40
1.0
176
     1
 90
        0
176
     1
 62
    18
420
        0
176
     1
 90
       50
176
     1
 90
        3
176
     1
 62
     5
420
      255
176
     1
290
     0
176
     1
 90
       50
176
     1
 90
       50
176
     1
 90
       50
176
     1
290
     0
176
     1
 90
       50
176
     1
 62
   256
176
     0
 40
1.0
176
     0
 90
        2
176
     1
  1
strokes_ogs.tif
176
     1
290
     0
176
     1
 40
1.0
176
     1
 40
1.0
176
     1
  0
VISUALSTYLE
  5
A5
102
{ACAD_REACTORS
330
99
102
}
330
99
100
AcDbVisualStyle
  2
Brighten
 70
    12
177
     3
291
     1
 70
    58
 90
        2
176
     1
 90
        2
176
     1
 90
        1
176
     1
 90
        0
176
     1
 40
0.6
176
     1
 40
30.0
176
     1
 62
     7
420
 16777215
176
     1
 90
        1
176
     1
 90
        4
176
     1
 62
     7
176
     1
 62
   257
176
     1
 90
        1
176
     1
 90
        1
176
     1
 40
1.0
176
     1
 90
        8
176
     1
 62
     7
176
     1
 40
1.0
176
     1
 90
        1
176
     1
 90
        6
176
     1
 90
        2
176
     1
 62
     7
176
     1
 90
        5
176
     1
 90
        0
176
     1
 90
        0
176
     1
290
     0
176
     1
 90
        1
176
     1
 40
50.0
176
     1
 90
        0
176
     1
290
     0
176
     1
290
     1
176
     1
290
     1
176
     1
290
     0
176
     1
290
     0
176
     1
290
     0
176
     1
290
     0
176
     1
290
     0
176
     1
290
     0
176
     1
 90
       50
176
     1
 40
0.0
176
     1
 40
1.0
176
     1
 90
        0
176
     1
 62
    18
420
        0
176
     1
 90
       50
176
     1
 90
        3
176
     1
 62
     5
420
      255
176
     1
290
     0
176
     1
 90
       50
176
     1
 90
       50
176
     1
 90
       50
176
     1
290
     0
176
     1
 90
       50
176
     1
 62
   256
176
     0
 40
1.0
176
     0
 90
        2
176
     1
  1
strokes_ogs.tif
176
     1
290
     0
176
     1
 40
1.0
176
     1
 40
1.0
176
     1
  0
VISUALSTYLE
  5
A9
102
{ACAD_REACTORS
330
99
102
}
330
99
100
AcDbVisualStyle
  2
ColorChange
 70
    16
177
     3
291
     1
 70
    58
 90
        2
176
     1
 90
        2
176
     1
 90
        3
176
     1
 90
        0
176
     1
 40
0.6
176
     1
 40
30.0
176
     1
 62
     8
420
  8421504
176
     1
 90
        1
176
     1
 90
        4
176
     1
 62
     7
176
     1
 62
   257
176
     1
 90
        1
176
     1
 90
        1
176
     1
 40
1.0
176
     1
 90
        8
176
     1
 62
     8
420
  8421504
176
     1
 40
1.0
176
     1
 90
        1
176
     1
 90
        6
176
     1
 90
        2
176
     1
 62
     7
176
     1
 90
        5
176
     1
 90
        0
176
     1
 90
        0
176
     1
290
     0
176
     1
 90
        1
176
     1
 40
0.0
176
     1
 90
        0
176
     1
290
     0
176
     1
290
     1
176
     1
290
     1
176
     1
290
     0
176
     1
290
     0
176
     1
290
     0
176
     1
290
     0
176
     1
290
     0
176
     1
290
     0
176
     1
 90
       50
176
     1
 40
0.0
176
     1
 40
1.0
176
     1
 90
        0
176
     1
 62
    18
420
        0
176
     1
 90
       50
176
     1
 90
        3
176
     1
 62
     5
420
      255
176
     1
290
     0
176
     1
 90
       50
176
     1
 90
       50
176
     1
 90
       50
176
     1
290
     0
176
     1
 90
       50
176
     1
 62
   256
176
     0
 40
1.0
176
     0
 90
        2
176
     1
  1
strokes_ogs.tif
176
     1
290
     0
176
     1
 40
1.0
176
     1
 40
1.0
176
     1
  0
VISUALSTYLE
  5
A2
102
{ACAD_REACTORS
330
99
102
}
330
99
100
AcDbVisualStyle
  2
Conceptual
 70
     9
177
     3
291
     0
 70
    58
 90
        3
176
     1
 90
        2
176
     1
 90
        1
176
     1
 90
        0
176
     1
 40
0.6
176
     1
 40
30.0
176
     1
 62
     7
420
 16777215
176
     1
 90
        2
176
     1
 90
        2
176
     1
 62
     7
176
     1
 62
   257
176
     1
 90
        1
176
     1
 90
        1
176
     1
 40
40.0
176
     1
 90
        8
176
     1
 62
     7
176
     1
 40
1.0
176
     1
 90
        1
176
     1
 90
        6
176
     1
 90
        2
176
     1
 62
     7
176
     1
 90
        3
176
     1
 90
        0
176
     1
 90
        0
176
     1
290
     0
176
     1
 90
        1
176
     1
 40
0.0
176
     1
 90
        0
176
     1
290
     0
176
     1
290
     1
176
     1
290
     1
176
     1
290
     0
176
     1
290
     0
176
     1
290
     0
176
     1
290
     0
176
     1
290
     0
176
     1
290
     0
176
     1
 90
       50
176
     1
 40
0.0
176
     1
 40
1.0
176
     1
 90
        0
176
     1
 62
    18
420
        0
176
     1
 90
       50
176
     1
 90
        3
176
     1
 62
     5
420
      255
176
     1
290
     0
176
     1
 90
       50
176
     1
 90
       50
176
     1
 90
       50
176
     1
290
     0
176
     1
 90
       50
176
     1
 62
   256
176
     0
 40
1.0
176
     0
 90
        2
176
     1
  1
strokes_ogs.tif
176
     1
290
     0
176
     1
 40
1.0
176
     1
 40
1.0
176
     1
  0
VISUALSTYLE
  5
A4
102
{ACAD_REACTORS
330
99
102
}
330
99
100
AcDbVisualStyle
  2
Dim
 70
    11
177
     3
291
     1
 70
    58
 90
        2
176
     1
 90
        2
176
     1
 90
        1
176
     1
 90
        0
176
     1
 40
0.6
176
     1
 40
30.0
176
     1
 62
     7
420
 16777215
176
     1
 90
        1
176
     1
 90
        4
176
     1
 62
     7
176
     1
 62
   257
176
     1
 90
        1
176
     1
 90
        1
176
     1
 40
1.0
176
     1
 90
        8
176
     1
 62
     7
176
     1
 40
1.0
176
     1
 90
        1
176
     1
 90
        6
176
     1
 90
        2
176
     1
 62
     7
176
     1
 90
        5
176
     1
 90
        0
176
     1
 90
        0
176
     1
290
     0
176
     1
 90
        1
176
     1
 40
-50.0
176
     1
 90
        0
176
     1
290
     0
176
     1
290
     1
176
     1
290
     1
176
     1
290
     0
176
     1
290
     0
176
     1
290
     0
176
     1
290
     0
176
     1
290
     0
176
     1
290
     0
176
     1
 90
       50
176
     1
 40
0.0
176
     1
 40
1.0
176
     1
 90
        0
176
     1
 62
    18
420
        0
176
     1
 90
       50
176
     1
 90
        3
176
     1
 62
     5
420
      255
176
     1
290
     0
176
     1
 90
       50
176
     1
 90
       50
176
     1
 90
       50
176
     1
290
     0
176
     1
 90
       50
176
     1
 62
   256
176
     0
 40
1.0
176
     0
 90
        2
176
     1
  1
strokes_ogs.tif
176
     1
290
     0
176
     1
 40
1.0
176
     1
 40
1.0
176
     1
  0
VISUALSTYLE
  5
175
102
{ACAD_REACTORS
330
99
102
}
330
99
100
AcDbVisualStyle
  2
EdgeColorOff
 70
    22
177
     3
291
     1
 70
    58
 90
        2
176
     0
 90
        2
176
     0
 90
        0
176
     0
 90
        0
176
     0
 40
0.6
176
     0
 40
30.0
176
     0
 62
     7
420
 16777215
176
     0
 90
        1
176
     0
 90
        4
176
     0
 62
     7
176
     0
 62
   257
176
     0
 90
        1
176
     0
 90
        1
176
     0
 40
1.0
176
     0
 90
        8
176
     2
 62
     7
176
     0
 40
1.0
176
     0
 90
        1
176
     0
 90
        6
176
     0
 90
        2
176
     0
 62
     7
176
     0
 90
        5
176
     0
 90
        0
176
     0
 90
        0
176
     0
290
     0
176
     0
 90
        1
176
     0
 40
0.0
176
     0
 90
        0
176
     0
290
     0
176
     1
290
     1
176
     1
290
     1
176
     1
290
     0
176
     1
290
     0
176
     1
290
     0
176
     1
290
     0
176
     1
290
     0
176
     1
290
     0
176
     1
 90
       50
176
     1
 40
0.0
176
     1
 40
1.0
176
     1
 90
        0
176
     1
 62
    18
420
        0
176
     1
 90
       50
176
     1
 90
        3
176
     1
 62
     5
420
      255
176
     1
290
     0
176
     1
 90
       50
176
     1
 90
       50
176
     1
 90
       50
176
     1
290
     0
176
     1
 90
       50
176
     1
 62
   256
176
     0
 40
1.0
176
     0
 90
        2
176
     1
  1
strokes_ogs.tif
176
     1
290
     0
176
     1
 40
1.0
176
     1
 40
1.0
176
     1
  0
VISUALSTYLE
  5
A8
102
{ACAD_REACTORS
330
99
102
}
330
99
100
AcDbVisualStyle
  2
Facepattern
 70
    15
177
     3
291
     1
 70
    58
 90
        2
176
     1
 90
        2
176
     1
 90
        1
176
     1
 90
        0
176
     1
 40
0.6
176
     1
 40
30.0
176
     1
 62
     7
420
 16777215
176
     1
 90
        1
176
     1
 90
        4
176
     1
 62
     7
176
     1
 62
   257
176
     1
 90
        1
176
     1
 90
        1
176
     1
 40
1.0
176
     1
 90
        8
176
     1
 62
     7
176
     1
 40
1.0
176
     1
 90
        1
176
     1
 90
        6
176
     1
 90
        2
176
     1
 62
     7
176
     1
 90
        5
176
     1
 90
        0
176
     1
 90
        0
176
     1
290
     0
176
     1
 90
        1
176
     1
 40
0.0
176
     1
 90
        0
176
     1
290
     0
176
     1
290
     1
176
     1
290
     1
176
     1
290
     0
176
     1
290
     0
176
     1
290
     0
176
     1
290
     0
176
     1
290
     0
176
     1
290
     0
176
     1
 90
       50
176
     1
 40
0.0
176
     1
 40
1.0
176
     1
 90
        0
176
     1
 62
    18
420
        0
176
     1
 90
       50
176
     1
 90
        3
176
     1
 62
     5
420
      255
176
     1
290
     0
176
     1
 90
       50
176
     1
 90
       50
176
     1
 90
       50
176
     1
290
     0
176
     1
 90
       50
176
     1
 62
   256
176
     0
 40
1.0
176
     0
 90
        2
176
     1
  1
strokes_ogs.tif
176
     1
290
     0
176
     1
 40
1.0
176
     1
 40
1.0
176
     1
  0
VISUALSTYLE
  5
9A
102
{ACAD_REACTORS
330
99
102
}
330
99
100
AcDbVisualStyle
  2
Flat
 70
     0
177
     3
291
     1
 70
    58
 90
        2
176
     1
 90
        1
176
     1
 90
        1
176
     1
 90
        2
176
     1
 40
0.6
176
     1
 40
30.0
176
     1
 62
     7
420
 16777215
176
     1
 90
        0
176
     1
 90
        0
176
     1
 62
     7
176
     1
 62
   257
176
     1
 90
        1
176
     1
 90
        1
176
     1
 40
1.0
176
     1
 90
        8
176
     1
 62
     7
176
     1
 40
1.0
176
     1
 90
        1
176
     1
 90
        6
176
     1
 90
        2
176
     1
 62
     7
176
     1
 90
        5
176
     1
 90
        0
176
     1
 90
        0
176
     1
290
     0
176
     1
 90
       13
176
     1
 40
0.0
176
     1
 90
        0
176
     1
290
     0
176
     1
290
     1
176
     1
290
     1
176
     1
290
     0
176
     1
290
     0
176
     1
290
     0
176
     1
290
     0
176
     1
290
     0
176
     1
290
     0
176
     1
 90
       50
176
     1
 40
0.0
176
     1
 40
1.0
176
     1
 90
        0
176
     1
 62
    18
420
        0
176
     1
 90
       50
176
     1
 90
        3
176
     1
 62
     5
420
      255
176
     1
290
     0
176
     1
 90
       50
176
     1
 90
       50
176
     1
 90
       50
176
     1
290
     0
176
     1
 90
       50
176
     1
 62
   256
176
     0
 40
1.0
176
     0
 90
        2
176
     1
  1
strokes_ogs.tif
176
     1
290
     0
176
     1
 40
1.0
176
     1
 40
1.0
176
     1
  0
VISUALSTYLE
  5
9B
102
{ACAD_REACTORS
330
99
102
}
330
99
100
AcDbVisualStyle
  2
FlatWithEdges
 70
     1
177
     3
291
     1
 70
    58
 90
        2
176
     1
 90
        1
176
     1
 90
        1
176
     1
 90
        2
176
     1
 40
0.6
176
     1
 40
30.0
176
     1
 62
     7
420
 16777215
176
     1
 90
        1
176
     1
 90
        0
176
     1
 62
     7
176
     1
 62
   257
176
     1
 90
        1
176
     1
 90
        1
176
     1
 40
1.0
176
     1
 90
        0
176
     1
 62
   257
176
     1
 40
1.0
176
     1
 90
        1
176
     1
 90
        6
176
     1
 90
        2
176
     1
 62
     7
176
     1
 90
        5
176
     1
 90
        0
176
     1
 90
        0
176
     1
290
     0
176
     1
 90
       13
176
     1
 40
0.0
176
     1
 90
        0
176
     1
290
     0
176
     1
290
     1
176
     1
290
     1
176
     1
290
     0
176
     1
290
     0
176
     1
290
     0
176
     1
290
     0
176
     1
290
     0
176
     1
290
     0
176
     1
 90
       50
176
     1
 40
0.0
176
     1
 40
1.0
176
     1
 90
        0
176
     1
 62
    18
420
        0
176
     1
 90
       50
176
     1
 90
        3
176
     1
 62
     5
420
      255
176
     1
290
     0
176
     1
 90
       50
176
     1
 90
       50
176
     1
 90
       50
176
     1
290
     0
176
     1
 90
       50
176
     1
 62
   256
176
     0
 40
1.0
176
     0
 90
        2
176
     1
  1
strokes_ogs.tif
176
     1
290
     0
176
     1
 40
1.0
176
     1
 40
1.0
176
     1
  0
VISUALSTYLE
  5
9C
102
{ACAD_REACTORS
330
99
102
}
330
99
100
AcDbVisualStyle
  2
Gouraud
 70
     2
177
     3
291
     1
 70
    58
 90
        2
176
     1
 90
        2
176
     1
 90
        1
176
     1
 90
        2
176
     1
 40
0.6
176
     1
 40
30.0
176
     1
 62
     7
420
 16777215
176
     1
 90
        0
176
     1
 90
        0
176
     1
 62
     7
176
     1
 62
   257
176
     1
 90
        1
176
     1
 90
        1
176
     1
 40
1.0
176
     1
 90
        0
176
     1
 62
     7
176
     1
 40
1.0
176
     1
 90
        1
176
     1
 90
        6
176
     1
 90
        2
176
     1
 62
     7
176
     1
 90
        5
176
     1
 90
        0
176
     1
 90
        0
176
     1
290
     0
176
     1
 90
       13
176
     1
 40
0.0
176
     1
 90
        0
176
     1
290
     0
176
     1
290
     1
176
     1
290
     1
176
     1
290
     0
176
     1
290
     0
176
     1
290
     0
176
     1
290
     0
176
     1
290
     0
176
     1
290
     0
176
     1
 90
       50
176
     1
 40
0.0
176
     1
 40
1.0
176
     1
 90
        0
176
     1
 62
    18
420
        0
176
     1
 90
       50
176
     1
 90
        3
176
     1
 62
     5
420
      255
176
     1
290
     0
176
     1
 90
       50
176
     1
 90
       50
176
     1
 90
       50
176
     1
290
     0
176
     1
 90
       50
176
     1
 62
   256
176
     0
 40
1.0
176
     0
 90
        2
176
     1
  1
strokes_ogs.tif
176
     1
290
     0
176
     1
 40
1.0
176
     1
 40
1.0
176
     1
  0
VISUALSTYLE
  5
9D
102
{ACAD_REACTORS
330
99
102
}
330
99
100
AcDbVisualStyle
  2
GouraudWithEdges
 70
     3
177
     3
291
     1
 70
    58
 90
        2
176
     1
 90
        2
176
     1
 90
        1
176
     1
 90
        2
176
     1
 40
0.6
176
     1
 40
30.0
176
     1
 62
     7
420
 16777215
176
     1
 90
        1
176
     1
 90
        0
176
     1
 62
     7
176
     1
 62
   257
176
     1
 90
        1
176
     1
 90
        1
176
     1
 40
1.0
176
     1
 90
        0
176
     1
 62
   257
176
     1
 40
1.0
176
     1
 90
        1
176
     1
 90
        6
176
     1
 90
        2
176
     1
 62
     7
176
     1
 90
        5
176
     1
 90
        0
176
     1
 90
        0
176
     1
290
     0
176
     1
 90
       13
176
     1
 40
0.0
176
     1
 90
        0
176
     1
290
     0
176
     1
290
     1
176
     1
290
     1
176
     1
290
     0
176
     1
290
     0
176
     1
290
     0
176
     1
290
     0
176
     1
290
     0
176
     1
290
     0
176
     1
 90
       50
176
     1
 40
0.0
176
     1
 40
1.0
176
     1
 90
        0
176
     1
 62
    18
420
        0
176
     1
 90
       50
176
     1
 90
        3
176
     1
 62
     5
420
      255
176
     1
290
     0
176
     1
 90
       50
176
     1
 90
       50
176
     1
 90
       50
176
     1
290
     0
176
     1
 90
       50
176
     1
 62
   256
176
     0
 40
1.0
176
     0
 90
        2
176
     1
  1
strokes_ogs.tif
176
     1
290
     0
176
     1
 40
1.0
176
     1
 40
1.0
176
     1
  0
VISUALSTYLE
  5
A1
102
{ACAD_REACTORS
330
99
102
}
330
99
100
AcDbVisualStyle
  2
Hidden
 70
     6
177
     3
291
     0
 70
    58
 90
        1
176
     1
 90
        2
176
     1
 90
        2
176
     1
 90
        0
176
     1
 40
0.6
176
     1
 40
30.0
176
     1
 62
     7
420
 16777215
176
     1
 90
        2
176
     1
 90
        2
176
     1
 62
     7
176
     1
 62
   257
176
     1
 90
        2
176
     1
 90
        1
176
     1
 40
40.0
176
     1
 90
        0
176
     1
 62
   257
176
     1
 40
1.0
176
     1
 90
        1
176
     1
 90
        6
176
     1
 90
        2
176
     1
 62
     7
176
     1
 90
        3
176
     1
 90
        0
176
     1
 90
        0
176
     1
290
     0
176
     1
 90
        1
176
     1
 40
0.0
176
     1
 90
        0
176
     1
290
     0
176
     1
290
     1
176
     1
290
     1
176
     1
290
     0
176
     1
290
     0
176
     1
290
     0
176
     1
290
     0
176
     1
290
     0
176
     1
290
     0
176
     1
 90
       50
176
     1
 40
0.0
176
     1
 40
1.0
176
     1
 90
        0
176
     1
 62
    18
420
        0
176
     1
 90
       50
176
     1
 90
        3
176
     1
 62
     5
420
      255
176
     1
290
     0
176
     1
 90
       50
176
     1
 90
       50
176
     1
 90
       50
176
     1
290
     0
176
     1
 90
       50
176
     1
 62
   256
176
     0
 40
1.0
176
     0
 90
        2
176
     1
  1
strokes_ogs.tif
176
     1
290
     0
176
     1
 40
1.0
176
     1
 40
1.0
176
     1
  0
VISUALSTYLE
  5
173
102
{ACAD_REACTORS
330
99
102
}
330
99
100
AcDbVisualStyle
  2
JitterOff
 70
    20
177
     3
291
     1
 70
    58
 90
        2
176
     0
 90
        2
176
     0
 90
        0
176
     0
 90
        0
176
     0
 40
0.6
176
     0
 40
30.0
176
     0
 62
     7
420
 16777215
176
     0
 90
        1
176
     0
 90
        4
176
     0
 62
     7
176
     0
 62
   257
176
     0
 90
        1
176
     0
 90
        1
176
     0
 40
1.0
176
     0
 90
       10
176
     2
 62
     7
176
     0
 40
1.0
176
     0
 90
        1
176
     0
 90
        6
176
     0
 90
        2
176
     0
 62
     7
176
     0
 90
        5
176
     0
 90
        0
176
     0
 90
        0
176
     0
290
     0
176
     0
 90
        1
176
     0
 40
0.0
176
     0
 90
        0
176
     0
290
     0
176
     1
290
     1
176
     1
290
     1
176
     1
290
     0
176
     1
290
     0
176
     1
290
     0
176
     1
290
     0
176
     1
290
     0
176
     1
290
     0
176
     1
 90
       50
176
     1
 40
0.0
176
     1
 40
1.0
176
     1
 90
        0
176
     1
 62
    18
420
        0
176
     1
 90
       50
176
     1
 90
        3
176
     1
 62
     5
420
      255
176
     1
290
     0
176
     1
 90
       50
176
     1
 90
       50
176
     1
 90
       50
176
     1
290
     0
176
     1
 90
       50
176
     1
 62
   256
176
     0
 40
1.0
176
     0
 90
        2
176
     1
  1
strokes_ogs.tif
176
     1
290
     0
176
     1
 40
1.0
176
     1
 40
1.0
176
     1
  0
VISUALSTYLE
  5
A7
102
{ACAD_REACTORS
330
99
102
}
330
99
100
AcDbVisualStyle
  2
Linepattern
 70
    14
177
     3
291
     1
 70
    58
 90
        2
176
     1
 90
        2
176
     1
 90
        1
176
     1
 90
        0
176
     1
 40
0.6
176
     1
 40
30.0
176
     1
 62
     7
420
 16777215
176
     1
 90
        1
176
     1
 90
        4
176
     1
 62
     7
176
     1
 62
   257
176
     1
 90
        7
176
     1
 90
        7
176
     1
 40
1.0
176
     1
 90
        8
176
     1
 62
     7
176
     1
 40
1.0
176
     1
 90
        1
176
     1
 90
        6
176
     1
 90
        2
176
     1
 62
     7
176
     1
 90
        5
176
     1
 90
        0
176
     1
 90
        0
176
     1
290
     0
176
     1
 90
        1
176
     1
 40
0.0
176
     1
 90
        0
176
     1
290
     0
176
     1
290
     1
176
     1
290
     1
176
     1
290
     0
176
     1
290
     0
176
     1
290
     0
176
     1
290
     0
176
     1
290
     0
176
     1
290
     0
176
     1
 90
       50
176
     1
 40
0.0
176
     1
 40
1.0
176
     1
 90
        0
176
     1
 62
    18
420
        0
176
     1
 90
       50
176
     1
 90
        3
176
     1
 62
     5
420
      255
176
     1
290
     0
176
     1
 90
       50
176
     1
 90
       50
176
     1
 90
       50
176
     1
290
     0
176
     1
 90
       50
176
     1
 62
   256
176
     0
 40
1.0
176
     0
 90
        2
176
     1
  1
strokes_ogs.tif
176
     1
290
     0
176
     1
 40
1.0
176
     1
 40
1.0
176
     1
  0
VISUALSTYLE
  5
174
102
{ACAD_REACTORS
330
99
102
}
330
99
100
AcDbVisualStyle
  2
OverhangOff
 70
    21
177
     3
291
     1
 70
    58
 90
        2
176
     0
 90
        2
176
     0
 90
        0
176
     0
 90
        0
176
     0
 40
0.6
176
     0
 40
30.0
176
     0
 62
     7
420
 16777215
176
     0
 90
        1
176
     0
 90
        4
176
     0
 62
     7
176
     0
 62
   257
176
     0
 90
        1
176
     0
 90
        1
176
     0
 40
1.0
176
     0
 90
        9
176
     2
 62
     7
176
     0
 40
1.0
176
     0
 90
        1
176
     0
 90
        6
176
     0
 90
        2
176
     0
 62
     7
176
     0
 90
        5
176
     0
 90
        0
176
     0
 90
        0
176
     0
290
     0
176
     0
 90
        1
176
     0
 40
0.0
176
     0
 90
        0
176
     0
290
     0
176
     1
290
     1
176
     1
290
     1
176
     1
290
     0
176
     1
290
     0
176
     1
290
     0
176
     1
290
     0
176
     1
290
     0
176
     1
290
     0
176
     1
 90
       50
176
     1
 40
0.0
176
     1
 40
1.0
176
     1
 90
        0
176
     1
 62
    18
420
        0
176
     1
 90
       50
176
     1
 90
        3
176
     1
 62
     5
420
      255
176
     1
290
     0
176
     1
 90
       50
176
     1
 90
       50
176
     1
 90
       50
176
     1
290
     0
176
     1
 90
       50
176
     1
 62
   256
176
     0
 40
1.0
176
     0
 90
        2
176
     1
  1
strokes_ogs.tif
176
     1
290
     0
176
     1
 40
1.0
176
     1
 40
1.0
176
     1
  0
VISUALSTYLE
  5
A3
102
{ACAD_REACTORS
330
99
102
}
330
99
100
AcDbVisualStyle
  2
Realistic
 70
     8
177
     3
291
     0
 70
    58
 90
        2
176
     1
 90
        2
176
     1
 90
        0
176
     1
 90
        2
176
     1
 40
0.6
176
     1
 40
30.0
176
     1
 62
     7
420
 16777215
176
     1
 90
        0
176
     1
 90
        0
176
     1
 62
     7
176
     1
 62
   257
176
     1
 90
        1
176
     1
 90
        1
176
     1
 40
1.0
176
     1
 90
        8
176
     1
 62
   257
176
     1
 40
1.0
176
     1
 90
        1
176
     1
 90
        6
176
     1
 90
        2
176
     1
 62
     7
176
     1
 90
        3
176
     1
 90
        0
176
     1
 90
        0
176
     1
290
     0
176
     1
 90
       13
176
     1
 40
0.0
176
     1
 90
        0
176
     1
290
     0
176
     1
290
     1
176
     1
290
     1
176
     1
290
     0
176
     1
290
     0
176
     1
290
     0
176
     1
290
     0
176
     1
290
     0
176
     1
290
     0
176
     1
 90
       50
176
     1
 40
0.0
176
     1
 40
1.0
176
     1
 90
        0
176
     1
 62
    18
420
        0
176
     1
 90
       50
176
     1
 90
        3
176
     1
 62
     5
420
      255
176
     1
290
     0
176
     1
 90
       50
176
     1
 90
       50
176
     1
 90
       50
176
     1
290
     0
176
     1
 90
       50
176
     1
 62
   256
176
     0
 40
1.0
176
     0
 90
        2
176
     1
  1
strokes_ogs.tif
176
     1
290
     0
176
     1
 40
1.0
176
     1
 40
1.0
176
     1
  0
VISUALSTYLE
  5
182
102
{ACAD_REACTORS
330
99
102
}
330
99
100
AcDbVisualStyle
  2
Shaded
 70
    27
177
     3
291
     0
 70
    58
 90
        2
176
     1
 90
        2
176
     1
 90
        1
176
     1
 90
        2
176
     1
 40
0.6
176
     1
 40
30.0
176
     1
 62
     7
420
 16777215
176
     1
 90
        0
176
     1
 90
        4
176
     1
 62
     7
176
     1
 62
   257
176
     1
 90
        1
176
     1
 90
        1
176
     1
 40
1.0
176
     1
 90
        8
176
     1
 62
   257
176
     1
 40
1.0
176
     1
 90
        1
176
     1
 90
        6
176
     1
 90
        2
176
     1
 62
     8
420
  7895160
176
     1
 90
        3
176
     1
 90
        0
176
     1
 90
        0
176
     1
290
     0
176
     1
 90
        5
176
     1
 40
0.0
176
     1
 90
        0
176
     1
290
     0
176
     1
290
     1
176
     1
290
     1
176
     1
290
     0
176
     1
290
     0
176
     1
290
     0
176
     1
290
     0
176
     1
290
     0
176
     1
290
     0
176
     1
 90
       50
176
     1
 40
0.0
176
     1
 40
1.0
176
     1
 90
        0
176
     1
 62
    18
420
        0
176
     1
 90
       50
176
     1
 90
        3
176
     1
 62
     5
420
      255
176
     1
290
     0
176
     1
 90
       50
176
     1
 90
       50
176
     1
 90
       50
176
     1
290
     0
176
     1
 90
       50
176
     1
 62
   256
176
     0
 40
1.0
176
     0
 90
        2
176
     1
  1
strokes_ogs.tif
176
     1
290
     0
176
     1
 40
1.0
176
     1
 40
1.0
176
     1
  0
VISUALSTYLE
  5
181
102
{ACAD_REACTORS
330
99
102
}
330
99
100
AcDbVisualStyle
  2
Shaded with edges
 70
    26
177
     3
291
     0
 70
    58
 90
        2
176
     1
 90
        2
176
     1
 90
        1
176
     1
 90
        2
176
     1
 40
0.6
176
     1
 40
30.0
176
     1
 62
     7
420
 16777215
176
     1
 90
        1
176
     1
 90
        2
176
     1
 62
     7
176
     1
 62
   257
176
     1
 90
        2
176
     1
 90
        1
176
     1
 40
1.0
176
     1
 90
        8
176
     1
 62
   257
176
     1
 40
1.0
176
     1
 90
        1
176
     1
 90
        6
176
     1
 90
        2
176
     1
 62
     7
176
     1
 90
        3
176
     1
 90
        0
176
     1
 90
        0
176
     1
290
     0
176
     1
 90
        5
176
     1
 40
0.0
176
     1
 90
        0
176
     1
290
     0
176
     1
290
     1
176
     1
290
     1
176
     1
290
     0
176
     1
290
     0
176
     1
290
     0
176
     1
290
     0
176
     1
290
     0
176
     1
290
     0
176
     1
 90
       50
176
     1
 40
0.0
176
     1
 40
1.0
176
     1
 90
        0
176
     1
 62
    18
420
        0
176
     1
 90
       50
176
     1
 90
        3
176
     1
 62
     5
420
      255
176
     1
290
     0
176
     1
 90
       50
176
     1
 90
       50
176
     1
 90
       50
176
     1
290
     0
176
     1
 90
       50
176
     1
 62
   256
176
     0
 40
1.0
176
     0
 90
        2
176
     1
  1
strokes_ogs.tif
176
     1
290
     0
176
     1
 40
1.0
176
     1
 40
1.0
176
     1
  0
VISUALSTYLE
  5
17E
102
{ACAD_REACTORS
330
99
102
}
330
99
100
AcDbVisualStyle
  2
Shades of Gray
 70
    23
177
     3
291
     0
 70
    58
 90
        2
176
     1
 90
        2
176
     1
 90
        3
176
     1
 90
        0
176
     1
 40
0.6
176
     1
 40
30.0
176
     1
 62
     7
420
 16777215
176
     1
 90
        2
176
     1
 90
        2
176
     1
 62
     7
176
     1
 62
     7
176
     1
 90
        1
176
     1
 90
        1
176
     1
 40
40.0
176
     1
 90
        8
176
     1
 62
     7
176
     1
 40
1.0
176
     1
 90
        1
176
     1
 90
        6
176
     1
 90
        2
176
     1
 62
     7
176
     1
 90
        3
176
     1
 90
        0
176
     1
 90
        0
176
     1
290
     0
176
     1
 90
        1
176
     1
 40
0.0
176
     1
 90
        0
176
     1
290
     0
176
     1
290
     1
176
     1
290
     1
176
     1
290
     0
176
     1
290
     0
176
     1
290
     0
176
     1
290
     0
176
     1
290
     0
176
     1
290
     0
176
     1
 90
       50
176
     1
 40
0.0
176
     1
 40
1.0
176
     1
 90
        0
176
     1
 62
    18
420
        0
176
     1
 90
       50
176
     1
 90
        3
176
     1
 62
     5
420
      255
176
     1
290
     0
176
     1
 90
       50
176
     1
 90
       50
176
     1
 90
       50
176
     1
290
     0
176
     1
 90
       50
176
     1
 62
   256
176
     0
 40
1.0
176
     0
 90
        2
176
     1
  1
strokes_ogs.tif
176
     1
290
     0
176
     1
 40
1.0
176
     1
 40
1.0
176
     1
  0
VISUALSTYLE
  5
17F
102
{ACAD_REACTORS
330
99
102
}
330
99
100
AcDbVisualStyle
  2
Sketchy
 70
    24
177
     3
291
     0
 70
    58
 90
        1
176
     1
 90
        2
176
     1
 90
        2
176
     1
 90
        0
176
     1
 40
0.6
176
     1
 40
30.0
176
     1
 62
     7
420
 16777215
176
     1
 90
        2
176
     1
 90
        2
176
     1
 62
     7
176
     1
 62
     7
176
     1
 90
        1
176
     1
 90
        1
176
     1
 40
40.0
176
     1
 90
       11
176
     1
 62
     7
176
     1
 40
1.0
176
     1
 90
        1
176
     1
 90
        6
176
     1
 90
        2
176
     1
 62
     7
176
     1
 90
        6
176
     1
 90
        0
176
     1
 90
        0
176
     1
290
     0
176
     1
 90
        1
176
     1
 40
0.0
176
     1
 90
        0
176
     1
290
     0
176
     1
290
     1
176
     1
290
     1
176
     1
290
     0
176
     1
290
     0
176
     1
290
     0
176
     1
290
     0
176
     1
290
     0
176
     1
290
     0
176
     1
 90
       50
176
     1
 40
0.0
176
     1
 40
1.0
176
     1
 90
        0
176
     1
 62
    18
420
        0
176
     1
 90
       50
176
     1
 90
        3
176
     1
 62
     5
420
      255
176
     1
290
     0
176
     1
 90
       50
176
     1
 90
       50
176
     1
 90
       50
176
     1
290
     0
176
     1
 90
       50
176
     1
 62
   256
176
     0
 40
1.0
176
     0
 90
        2
176
     1
  1
strokes_ogs.tif
176
     1
290
     0
176
     1
 40
1.0
176
     1
 40
1.0
176
     1
  0
VISUALSTYLE
  5
A6
102
{ACAD_REACTORS
330
99
102
}
330
99
100
AcDbVisualStyle
  2
Thicken
 70
    13
177
     3
291
     1
 70
    58
 90
        2
176
     1
 90
        2
176
     1
 90
        1
176
     1
 90
        0
176
     1
 40
0.6
176
     1
 40
30.0
176
     1
 62
     7
420
 16777215
176
     1
 90
        1
176
     1
 90
        4
176
     1
 62
     7
176
     1
 62
   257
176
     1
 90
        1
176
     1
 90
        1
176
     1
 40
1.0
176
     1
 90
       12
176
     1
 62
     7
176
     1
 40
1.0
176
     1
 90
        1
176
     1
 90
        6
176
     1
 90
        2
176
     1
 62
     7
176
     1
 90
        5
176
     1
 90
        0
176
     1
 90
        0
176
     1
290
     0
176
     1
 90
        1
176
     1
 40
0.0
176
     1
 90
        0
176
     1
290
     0
176
     1
290
     1
176
     1
290
     1
176
     1
290
     0
176
     1
290
     0
176
     1
290
     0
176
     1
290
     0
176
     1
290
     0
176
     1
290
     0
176
     1
 90
       50
176
     1
 40
0.0
176
     1
 40
1.0
176
     1
 90
        0
176
     1
 62
    18
420
        0
176
     1
 90
       50
176
     1
 90
        3
176
     1
 62
     5
420
      255
176
     1
290
     0
176
     1
 90
       50
176
     1
 90
       50
176
     1
 90
       50
176
     1
290
     0
176
     1
 90
       50
176
     1
 62
   256
176
     0
 40
1.0
176
     0
 90
        2
176
     1
  1
strokes_ogs.tif
176
     1
290
     0
176
     1
 40
1.0
176
     1
 40
1.0
176
     1
  0
VISUALSTYLE
  5
A0
102
{ACAD_REACTORS
330
99
102
}
330
99
100
AcDbVisualStyle
  2
Wireframe
 70
     5
177
     3
291
     0
 70
    58
 90
        0
176
     1
 90
        2
176
     1
 90
        0
176
     1
 90
        0
176
     1
 40
0.6
176
     1
 40
30.0
176
     1
 62
     7
420
 16777215
176
     1
 90
        1
176
     1
 90
        4
176
     1
 62
     7
176
     1
 62
   257
176
     1
 90
        1
176
     1
 90
        1
176
     1
 40
1.0
176
     1
 90
        0
176
     1
 62
   257
176
     1
 40
1.0
176
     1
 90
        1
176
     1
 90
        6
176
     1
 90
        2
176
     1
 62
     7
176
     1
 90
        3
176
     1
 90
        0
176
     1
 90
        0
176
     1
290
     0
176
     1
 90
        1
176
     1
 40
0.0
176
     1
 90
        0
176
     1
290
     0
176
     1
290
     1
176
     1
290
     1
176
     1
290
     0
176
     1
290
     0
176
     1
290
     0
176
     1
290
     0
176
     1
290
     0
176
     1
290
     0
176
     1
 90
       50
176
     1
 40
0.0
176
     1
 40
1.0
176
     1
 90
        0
176
     1
 62
    18
420
        0
176
     1
 90
       50
176
     1
 90
        3
176
     1
 62
     5
420
      255
176
     1
290
     0
176
     1
 90
       50
176
     1
 90
       50
176
     1
 90
       50
176
     1
290
     0
176
     1
 90
       50
176
     1
 62
   256
176
     0
 40
1.0
176
     0
 90
        2
176
     1
  1
strokes_ogs.tif
176
     1
290
     0
176
     1
 40
1.0
176
     1
 40
1.0
176
     1
  0
VISUALSTYLE
  5
180
102
{ACAD_REACTORS
330
99
102
}
330
99
100
AcDbVisualStyle
  2
X-Ray
 70
    25
177
     3
291
     0
 70
    58
 90
        2
176
     1
 90
        2
176
     1
 90
        1
176
     1
 90
        1
176
     1
 40
0.5
176
     1
 40
30.0
176
     1
 62
     7
420
 16777215
176
     1
 90
        1
176
     1
 90
        0
176
     1
 62
     7
176
     1
 62
   257
176
     1
 90
        1
176
     1
 90
        1
176
     1
 40
1.0
176
     1
 90
        8
176
     1
 62
     7
176
     1
 40
1.0
176
     1
 90
        1
176
     1
 90
        6
176
     1
 90
        2
176
     1
 62
     7
176
     1
 90
        3
176
     1
 90
        0
176
     1
 90
        0
176
     1
290
     0
176
     1
 90
       13
176
     1
 40
0.0
176
     1
 90
        0
176
     1
290
     0
176
     1
290
     1
176
     1
290
     1
176
     1
290
     0
176
     1
290
     0
176
     1
290
     0
176
     1
290
     0
176
     1
290
     0
176
     1
290
     0
176
     1
 90
       50
176
     1
 40
0.0
176
     1
 40
1.0
176
     1
 90
        0
176
     1
 62
    18
420
        0
176
     1
 90
       50
176
     1
 90
        3
176
     1
 62
     5
420
      255
176
     1
290
     0
176
     1
 90
       50
176
     1
 90
       50
176
     1
 90
       50
176
     1
290
     0
176
     1
 90
       50
176
     1
 62
   256
176
     0
 40
1.0
176
     0
 90
        2
176
     1
  1
strokes_ogs.tif
176
     1
290
     0
176
     1
 40
1.0
176
     1
 40
1.0
176
     1
  0
DICTIONARYVAR
  5
F0
102
{ACAD_REACTORS
330
66
102
}
330
66
100
DictionaryVariables
280
     0
  1
1:1
  0
DICTIONARYVAR
  5
EF
102
{ACAD_REACTORS
330
66
102
}
330
66
100
DictionaryVariables
280
     0
  1
STANDARD
  0
DICTIONARYVAR
  5
89
102
{ACAD_REACTORS
330
66
102
}
330
66
100
DictionaryVariables
280
     0
  1
STANDARD
  0
DICTIONARYVAR
  5
1B7
102
{ACAD_REACTORS
330
66
102
}
330
66
100
DictionaryVariables
280
     0
  1
Imperial24
  0
DICTIONARYVAR
  5
1B8
102
{ACAD_REACTORS
330
66
102
}
330
66
100
DictionaryVariables
280
     0
  1
Imperial24
  0
DICTIONARYVAR
  5
67
102
{ACAD_REACTORS
330
66
102
}
330
66
100
DictionaryVariables
280
     0
  1
2
  0
DICTIONARYVAR
  5
6B
102
{ACAD_REACTORS
330
66
102
}
330
66
100
DictionaryVariables
280
     0
  1
1
  0
DICTIONARYVAR
  5
14D
102
{ACAD_REACTORS
330
66
102
}
330
66
100
DictionaryVariables
280
     0
  1
0
  0
DICTIONARYVAR
  5
14E
102
{ACAD_REACTORS
330
66
102
}
330
66
100
DictionaryVariables
280
     0
  1
0
  0
DICTIONARY
  5
194
330
22
100
AcDbDictionary
280
     1
281
     1
  0
DICTIONARY
  5
188
330
97
100
AcDbDictionary
280
     1
281
     1
  3
FBXASSET
360
189
  0
DICTIONARY
  5
186
330
96
100
AcDbDictionary
280
     1
281
     1
  3
FBXASSET
360
187
  0
DICTIONARY
  5
110
330
98
100
AcDbDictionary
280
     1
281
     1
  3
BUMPTILE
360
112
  3
DIFFUSETILE
360
111
  3
FBXASSET
360
18A
  3
OPACITYTILE
360
113
  3
REFLECTIONTILE
360
114
  0
DICTIONARY
  5
104
330
87
100
AcDbDictionary
280
     1
281
     1
  3
ACAD_ROUNDTRIP_2008_TABLESTYLE_CELLSTYLEMAP
360
509
  0
XRECORD
  5
189
102
{ACAD_REACTORS
330
188
102
}
330
188
100
AcDbXrecord
280
     1
 70
     1
 90
429727718
  1
508B35C9-AEE7-456F-BE74-D52651303AC6
310
504B03040A0000080000B670623B3DEE336E79000000790000001B0000006175746F6465736B2D64657369676E2D7061636B6167652E786D6C3C3F786D6C2076657273696F6E3D22312E302220656E636F64696E673D227574662D3822203F3E3C666F726D6174733E3C666F726D61743E687474703A2F2F736368656D612E
310
6175746F6465736B2E636F6D2F64657369676E2D7061636B6167652F323030393C2F666F726D61743E3C2F666F726D6174733E504B0304140006080800B670623BD486FD9CA0000000F4000000130000005B436F6E74656E745F54797065735D2E786D6C7D8EC10E82300C865F65E91D8A1E8C310C0EEA1BF002731658846E
310
D98AC1B77784ABF1D8FE5FBFBF75BBCE937A534CCEB38643598122B6FEE978D0B0485F9C41B54DDD7D022595594E1A469170414C76A4D9A4D207E29CF43ECE46F218070CC6BECC4078ACAA135ACF422C856C0E68EA1BF5669944DDD7BCDE7B1F8E415D77AECB980613C2E4AC91FC167A2B244592486606FC29C8FD7F045B9A
310
EF7053A7E60B504B0304140006080800B670623B28ED286BEB0000007C01000008000000636F72652E786D6C8D90416EC3201045AF82665B6183218D6D61A254764FD00B204C5C94182C03558F5F9C3852BBEB6A467FFE9B197D71FA9E6FE8CBACC17AD7012D0820E3B41FAD9B3A48F1826B40272956EFE32F1B20A766D3C1
310
268314D3EAD3B24BDABB685CCCAAF3A3D94515828980F42D371D04FD696655A814B3235C8B45E9AB9A4C419F5D8653B2237A1CB163DE672FD6AC209BF3C08E0D1B30EB19C3FC9D72FCC6EB231EFA33EDE96BDD341517E5064B11EDFCBCAF57A3A2194156843498524CAA0FCA5B7268F9E185D42D21A2DCEC7FA0B48CFF8492
310
759155FBBB0F2C80A4F991FB408A72CB22977B50B96EB9C91F504B0304140006080800B670623B55019EA25F0000007C00000007000000636E782E786D6C4DCB3B0E80201045D1AD90E915ED2CF8AC45050C11660C8261F98AB1B07AC9C97D42D718D865D3E909258CFD00CCE24AC6E326A164D74DC0B4128928FF32603847
310
2BA13128B1252AC747C6BAB984FC68F0B87FE8960A5C09FE86CFB69FBA01504B0304140006080800B670623B7BC41AC871010000D40300000C0000006662782F636F72652E786D6CC553ED6E8320147D15C2DF4501B56B6D90A64BBB27D80B50A5CE54C120983EFEAE1F4DD7A56BBA5FF3879273EEE59E7310BE393735EA95
310
ED2AA333CC428A91D2B9292A5D66D8BB63B0C26823B835C67D2BC348CB46657880B1E0A535BE9DA1DC68A7B403549B42CDA0EC3AE530CA6B5864B8CB3F552343E91D5474A7B095F949962A6421D0502778E72C0840D390E18DC5F170E664C205F7BE2A66B62A605A75AC94C522DDEEE3651AEF837817C741F2CE92E02D592D
310
83FD6ECB76EC7595A651C2C9D02CB8AB9A8BBADC2AE954814544691A3016D0E883256BBA58278B17BA5A53CAC9507ED3E4DBE2C9265F691747B3DCA9ADC382819091F8E1162272A8933DE82182932144F88C09DF060D8140C84E1EEA8B8F1340BDCA9DB1093085F157AA97B557309586747CD0EF0B4EA64E983A6E0EAEEFCE
310
889E9EF17847386AA94B30211D2C0FDE0D3AF9A4610EAD5536E8DD1969631B593F67E381C33F5157F17725E5A636F6BF1491F980C8FC7B90E13E8A2F504B0304140006080800B670623B70102A487D0000009D0000000B0000006662782F636E782E786D6C4DCCD10A83201886E15B91FFDC95A5C30335ACCDFB886521330D
310
A76397BF1A1DECE883878F57749FD5A3B74D2F17830472A901D9F088930B8B849267CC01754AA418F3DF0D5018572BE160506249B16C274D761E8BCFBB7A179E27F65CB39A0F14D396184C9921B81F34C3ACA1B4B99ABB6E6F062A25AA5F69DF23ACBE504B0304140006080800B670623B3610CA3329010000120200003100
310
00006662782F42384135303843342D343331462D343546312D424341352D3532343432364645413344462F636F72652E786D6C8D515B6EC32010BC0AE22B55850D0E446E848992B43E412FE000495162B07854397EA176A4F62F3F2C9A9D991D58BEBB8F37F0AD7D30CE76905418026DA553C65E3A98E219B510EC04F7CEC5
310
3F3408EC30EA0E16180A7EF12E4D0B249D8DDAC68C5AA7F4020E21E80881BCE54B0783FCD2E3500D296646B856D320AFC34557A4CAEDCC133C449F0380794839A138B47B86DB2345744D7A44594FD0E1B867883594369BFE63BF7EEF793D0B054FC9A8456E548E63CE46FB674D8A58F068C6477CE9F510B582A2C1F80D1182
310
70F349E816B32D65AFB8DD62CCEB42FF274A937A52948C8DEB66893BCB021484D7734370E5D2E9F608A3EF93F3119479ABA0E50B14B8C298119A43CCC4FCFCECB8A18B6388CEE7EF5D5D4F994BD86CBBA182D76543B9FCAE2FD7B24DF103504B0304140006080800B670623B1B8617914E0100003303000030000000666278
310
2F42384135303843342D343331462D343546312D424341352D3532343432364645413344462F636E782E786D6CD593C16EC32010447F0571AD6CE3D489D20813A9877E410FBD62D82434182CC055F3F75D1292E692438FBD206B7698593D61BEFD1E2DF982108D773D6D6B460938E5B571FB9ECE6957AD29D90A1EBC4F7736
310
4A9C1CA1A759A682EF839FA72269D8C9D92654AD71C72206887E0E0A22CAF926B15E498B01E0AA19451807D01A34B919F16B070157417138917400F2F6FA41FCF0092A45DEE414C19BDC21783E4BD39D891265658C3D8DEA00A3ACE59CBC8678ACB54CB26EEB6BD7839D7E9348BE70AD9C8321B9BCA7F9A4A26C542347DEE0
310
50F09802D22BA6749A800A394DD62899107273365E3C82CFC6A55557BC06C10774B7ABE7AEC3B0F34CF06446280E154026D0542C187BA9DAB6628BF7B6DBB0E5A65B3EB1F58631DE64BBE083F7B65CC218087E22CABB042E51D1F2268F1FE12B3EA24D40D63E9CFE00120194D60B9D5BC67FE6D39CDF37E20AF817881F504B
310
0304140006080800B670623BBFEF2E3B690500003C100000340000006662782F42384135303843342D343331462D343546312D424341352D3532343432364645413344462F6F626A656374732E786D6CAD575D739B3814FD2B0CFB0C98D84E931D4227B6938EA793B6534F3BFB90198F0099B001899144EAECAFDF231018B0
310
D37A3FFC609090EEE7B94757C1FB7D915B2F54C88CB31BDB7727B64559CC938CA53776A576CE956DBD0F03C1B9EA2DB32D460A7A63EB693B0C52C1ABD24C257447AA5C8D66EF177F5832A68CDA569C13296F6C193FD182B8A4523CA1F2D94D88226EBADBBBBEDB2C1C8A4D05299F46424B222853B014F30C52ACC6287F389C
310
D85E1878FA7B18E87FB36AFAF62AAFF667A83F635211161F291B8999FAB3D5DDC5FCDA99CF6653677679E13B8BFBC5CAF1DF4D27CBCBE5F2FAF6EE1A8AA51290642C117467871F101B91C581D77CEA2C36869F3229E68CD1B8F61F1ED6361B89092D294B90C78C4A68EB793D190E7D1D9BDEE7A91E1B95FDE9F3BCEAEFE809
310
6A6D6F9F7D4B79F4275C90E7A04248AA51D5C4C738DAE06F72885AC4796EBE65D22A88A22223B995679120E2D50EB1542F098381188D4EA111AE3DB043FF20AF6F2B4AE3D7D83D65E5AECA730D4D3BAC91BD05FEA992B565D95F549CD6069B90AB2A63EACA38A45E4B6A87D781574F86817E4C2FCCC72690D62E2729520E37
310
9BAF234797BAF6D62B3BFC781FED37BA1E4F2B2F052FA9501A3E80569BB8F6A9A364D4FA67654E6F803383981F82F21591FF84F23D9882BC896C3FDBCF8C162508933B2E0AE4C69DD43F6BD2BE38DDDBF10BF86CB4FA784D37F3AF16075E67EC9030DECA1FC0A55373F5DFF3378C591FA9BDF485C10B0A8C8BA909E5262639
310
A8E72163488806A595734C81CB77D1DE0ED7604A303B76913CEC0272F412782FF88EFF4636D8AA56DF7B322474C4B767303F625997056C7B032C473C592B36CEBD15F3F9FF5233B7ABCDC74D257624A60F8658567497B14CE1EC3C80B76FD02011038F9EE9EB0F2E12387A9C844D3F09855125116D1D731DF8B43D2CF4E0A0
310
79A020C6BE946BCE0B7EA1E1219331CD73C228AF5A2DDD31A4B1DA918CE91350854D40A71723140BFA92E94E62B0626016CEFA5864A50E5977E8753CEDBEE1CBB7F52780D20E17AF0BA0F5F9B02A3AD07DCC732EB6D1EBB661421BE0C39E21BABF0FE16D22EA6929407C8DE596724C88B749B6DB5512BC7B228ADFD7CB7EA6
310
3A22397E690BA8D5D8D4E40CEC8CDA23C2C0B7D5898640101CEC9C6D331CE328CB93CAFBBAC70A642DF70DF95155945B52F08AA973C23469FD69ADEF84F7BB18F983A8F8C90E37F5D35980B2139A1C523540813E824EF83448CF7C72B598CE97D7CEEDDDDD3B6736BFBC771677EF66CE6A7E7139F7A793E9EDF2B2B3A8B624
310
0CDA13AA5F8388264EC4A0129909F3B7F5A16CEDF08128E97D680ACA4B9BE7B7B58BB638F0B00700EF36AE8B32A705658A68F83EE897FC2B41573190D1CCAF0B92D233A47CFEB019D9809933F67DD1A5467F8CF69AD9A5AE859342D45355448C64F968A371DC2D596ADC6E43D93D1B466F877A64E2893E54F23C4B40388995
310
525E5005DA3983ED45412510D3EFCA13737B3863F74BD30F2A12E5B4B5E489A025CE25500DB855B11ACE5BBFA185D35DD48D8DC3CE7DC69F2944DB42AA6F6CF09BCA622ADD08C7A36E7C6AE18000BAB08E040135C2D21C9D75B3A91B77BB746C403F38018DFE6EC939DD92F16B40BC05294B9CDA035AAD6D330AE27FE4786B
310
8E45145EA34A75BE1C263A676A35A8ACC6297337400BF16C54EF515F3F77CB77EB3583889C754FFA29081AA98E2222ADEF05DA3E63D2EDEA8B8756C05A7FB6CABC4A91CBF325398202CC952E70A008A830324BA200D5E5EF8F5F04C75DB4B0EE3340E071C98B823333B83577596BF3849B69F2085AA0FAFA212F26BEFF5877
310
FDE622B28D88A42E49E43326DA82D31E8CB006401E1DA726059ECEC168F97A6599036306A135688F9AD2E61A6EA178F4CD51974A9F2CCB9F36FE5EBD14601068D9C3BF01504B0304140006080000B670623B000000000000000000000000350000006662782F42384135303843342D343331462D343546312D424341352D35
310
32343432364645413344462F76657274696365732E62696E504B0304140006080800B670623BF270F1330600000004000000360000006662782F42384135303843342D343331462D343546312D424341352D3532343432364645413344462F747269616E676C65732E62696E636660600000504B0304140006080000B67062
310
3B000000000000000000000000370000006662782F42384135303843342D343331462D343546312D424341352D3532343432364645413344462F617474726962757465732E62696E504B0304140006080800B670623B08DA0BD19000000041010000360000006662782F42384135303843342D343331462D343546312D4243
310
41352D3532343432364645413344462F6469726563746F72792E786D6C858F410AC3201045AF22B36F53E9A60B35CBEEBAE80D244E44489C6234F4F835464A48035D0DF398FF9F8AF63D0E6CC63039F212F8F9020C7D47C6792B21C5FE7403D62A1188E2E60C98D7234A5830286103A55745067B9D86B8A3CF9C7F90C11DE6
310
07FB144396D7B6A82D282E9A152AD114D5EF2CB866EEE831B8EEA07A7BB5A8D7D61A2BAAEB7FD5F70921FF497D00504B0304140006080800B670623B3B4606F3FE000000A00100003B0000006662782F42384135303843342D343331462D343546312D424341352D3532343432364645413344462F7265736F75726365732F
310
636F72652E786D6C8D504B6E833010BD0A9A6D65B08134808CA354A427E8052C332156828DFCA97AFC9A40A576D7CDCCE87D344F8F9FBEE647F689CE6B6B7A6039850C8DB2A336530F315C4903D94970676DF82583CCC8197B5861107C72362E3BA4AC096842428D1D7107A5F71820538F74F4E0D50D6799CB1892C2DFF345
310
AABB9C306779A2934E701F5C0A906D4FD609C2A1B7D129F4BCD858C163D4E3AED163FAA9AF1A1D88F67CA98E6D35906AA82A52BFB39ABCD5CD915C86331BD86BD3B665CD8BD52C78D0F34F46E550061C419494B6843142CB0F5677F4D0D58717DA7494F26295FF31C565FCA7296A13AA728FBBD93C0896823C09C18BB5AFB4
310
9E65A6BD762BBE01504B010214000A0000080000B670623B3DEE336E79000000790000001B00000000000000000000000000000000006175746F6465736B2D64657369676E2D7061636B6167652E786D6C504B01021400140006080800B670623BD486FD9CA0000000F40000001300000000000000000000000000B2000000
310
5B436F6E74656E745F54797065735D2E786D6C504B01021400140006080800B670623B28ED286BEB0000007C010000080000000000000000000000000083010000636F72652E786D6C504B01021400140006080800B670623B55019EA25F0000007C000000070000000000000000000000000094020000636E782E786D6C50
310
4B01021400140006080800B670623B7BC41AC871010000D40300000C00000000000000000000000000180300006662782F636F72652E786D6C504B01021400140006080800B670623B70102A487D0000009D0000000B00000000000000000000000000B30400006662782F636E782E786D6C504B01021400140006080800B6
310
70623B3610CA3329010000120200003100000000000000000000000000590500006662782F42384135303843342D343331462D343546312D424341352D3532343432364645413344462F636F72652E786D6C504B01021400140006080800B670623B1B8617914E010000330300003000000000000000000000000000D10600
310
006662782F42384135303843342D343331462D343546312D424341352D3532343432364645413344462F636E782E786D6C504B01021400140006080800B670623BBFEF2E3B690500003C10000034000000000000000000000000006D0800006662782F42384135303843342D343331462D343546312D424341352D35323434
310
32364645413344462F6F626A656374732E786D6C504B01021400140006080000B670623B0000000000000000000000003500000000000000000000000000280E00006662782F42384135303843342D343331462D343546312D424341352D3532343432364645413344462F76657274696365732E62696E504B010214001400
310
06080800B670623BF270F133060000000400000036000000000000000000000000007B0E00006662782F42384135303843342D343331462D343546312D424341352D3532343432364645413344462F747269616E676C65732E62696E504B01021400140006080000B670623B00000000000000000000000037000000000000
310
00000000000000D50E00006662782F42384135303843342D343331462D343546312D424341352D3532343432364645413344462F617474726962757465732E62696E504B01021400140006080800B670623B08DA0BD1900000004101000036000000000000000000000000002A0F00006662782F42384135303843342D3433
310
31462D343546312D424341352D3532343432364645413344462F6469726563746F72792E786D6C504B01021400140006080800B670623B3B4606F3FE000000A00100003B000000000000000000000000000E1000006662782F42384135303843342D343331462D343546312D424341352D3532343432364645413344462F72
310
65736F75726365732F636F72652E786D6C504B0506000000000E000E0080040000651100000000
  0
XRECORD
  5
187
102
{ACAD_REACTORS
330
186
102
}
330
186
100
AcDbXrecord
280
     1
 70
     1
 90
429727718
  1
887D55A9-D0DD-414E-B741-A7DCD4DA2B4C
310
504B03040A0000080000B670623B3DEE336E79000000790000001B0000006175746F6465736B2D64657369676E2D7061636B6167652E786D6C3C3F786D6C2076657273696F6E3D22312E302220656E636F64696E673D227574662D3822203F3E3C666F726D6174733E3C666F726D61743E687474703A2F2F736368656D612E
310
6175746F6465736B2E636F6D2F64657369676E2D7061636B6167652F323030393C2F666F726D61743E3C2F666F726D6174733E504B0304140006080800B670623BD486FD9CA0000000F4000000130000005B436F6E74656E745F54797065735D2E786D6C7D8EC10E82300C865F65E91D8A1E8C310C0EEA1BF002731658846E
310
D98AC1B77784ABF1D8FE5FBFBF75BBCE937A534CCEB38643598122B6FEE978D0B0485F9C41B54DDD7D022595594E1A469170414C76A4D9A4D207E29CF43ECE46F218070CC6BECC4078ACAA135ACF422C856C0E68EA1BF5669944DDD7BCDE7B1F8E415D77AECB980613C2E4AC91FC167A2B244592486606FC29C8FD7F045B9A
310
EF7053A7E60B504B0304140006080800B670623BBC1638F5EC0000007C01000008000000636F72652E786D6C8D90416EC3201045AF82665B61836BE2D8C24471DB9CA01740401C94182C03558F5F9C3852BBEB6A467FFE9B197D7EF89E6EE8CB2CC17AD7032D0820E394D7D68D3DA478C67B4007C117EFE32F1B202727D3C3
310
2A83E0E3E2D3BC49CABB685CCCAAF3DA6CA20CC14440EA969B1E82BA98491632C5EC08D76296EA2A4753D06797E194AC468F2356E77DF66CCD02825543D50CACC62D39ED70FDC68EB8FD68F6F8787A6784342D1DDA1D2F5758F068A7E77DB518198D065111D2624A31A93E69DD11D6D5EC85EC3B4278B9DAFF4069D6FF8492
310
75F1B5DADE7D600104CD8FDC0782976B16B9DC83CA75CD4DFC00504B0304140006080800B670623B55019EA25F0000007C00000007000000636E782E786D6C4DCB3B0E80201045D1AD90E915ED2CF8AC45050C11660C8261F98AB1B07AC9C97D42D718D865D3E909258CFD00CCE24AC6E326A164D74DC0B4128928FF326038
310
472BA13128B1252AC747C6BAB984FC68F0B87FE8960A5C09FE86CFB69FBA01504B0304140006080800B670623B3586FFB671010000D40300000C0000006662782F636F72652E786D6CC553ED6E8320147D15C2DF4541A76D6D90A6DDD627D80B50A4CE54C120983EFEAE1F4DD7A55BBA5FF3879273EEE59E7310B6393735EA
310
95ED2AA3731C851423A5A5292A5DE6D8BB63B0C268C39935C67D29C3488B46E578803167A535BE9D2169B453DA01AA4DA16650749D7218C91A1639EEE4876A4428BC838AEE14B6429E44A9C228041AEA38EB9C0501681A32BC313F1ECE8C4C3867DE57C5CC56054CAB8E95B298A7F12E5EEED224C8E87E11242FE936C8DE96
310
AB60BB7F4D295D66D12E5B30323473E6AAE6A24E5A259C2A308F29CD82280A68FC1E256B9AAE93F489AED694323294DF34F9B678B0C957DA3DC7B3DCA9ADC33C022123F1CD2D44E450277AD04338234388F01913BE0D1A0281909D38D4171F27807A259DB1093085F157AA17B557309586747CD0CF0B46A64E983A6E0EAEEF
310
CE881F9EF1FB8E70D44297604238581EBC1B74B249C31C5AAB6CD0BB33D2C636A27ECCC62F0EFF445DC5DF95244D6DEC7F2922F30191F9F720C37DE49F504B0304140006080800B670623B4220A0FF7D0000009D0000000B0000006662782F636E782E786D6C4DCCD10A83201886E15B91FFDCE542CB0335D0EC3E6259C84A
310
C3E9D8E5AF46073BFAE0E1E315DD675BD1DBA5978F41C2FD4600B9F088930F8B849267CC01754AA418F3DF0D50183727E164506249B1EC174D6E1ECB9A0F5D7D785E68DB8151CD286E5A5363CA6B8A39E90D36D40E96B086F55A43A544F52B1D7B86D517504B0304140006080800B670623B2FA3FEDE290100001202000031
310
0000006662782F45374635344235342D363743322D343832342D383044432D4334454645303536354442422F636F72652E786D6C8D515B6EC32010BC0AE22B55850D2E386E848994D7097A0117488A1283C5A3CAF10BB523B57FF961D1ECCCECC0F2ED7DBC816FED8371B687A4C210682B9D32F6D2C314CFA883602BB8772E
310
FEA141608751F7B0C050F08B77695A20E96CD43666D43AA5177008414708E42D5F7A18E4971E876A483133C2B59A06791D2EBA22556E679EE021FA1C00CC43CA09C5717D6274C7286AD7FB06D1AEA1A8C3873DDAD3E3E98859CB0EBB1DAF67A1E02919B5C88DCA71CCD968FFAC49110B1ECDF8882FBD1EA256503418BF2342
310
106E3E08DD60B6A1EC15771B8C795DE8FF4469524F8A92B1F1AD59E2CEB20005E1F5DC105CB9F4797B84D1F7C9F908CABC55D0F2050A5C61CC1AD2F27A26E6E767C7962E8E213A9FBF7775FDCC5CC266DB960A5E970DE5F2BBBE5CCB36C50F504B0304140006080800B670623B1B8617914E01000033030000300000006662
310
782F45374635344235342D363743322D343832342D383044432D4334454645303536354442422F636E782E786D6CD593C16EC32010447F0571AD6CE3D489D20813A9877E410FBD62D82434182CC055F3F75D1292E692438FBD206B7698593D61BEFD1E2DF982108D773D6D6B460938E5B571FB9ECE6957AD29D90A1EBC4F77
310
364A9C1CA1A759A682EF839FA72269D8C9D92654AD71C72206887E0E0A22CAF926B15E498B01E0AA19451807D01A34B919F16B070157417138917400F2F6FA41FCF0092A45DEE414C19BDC21783E4BD39D891265658C3D8DEA00A3ACE59CBC8678ACB54CB26EEB6BD7839D7E9348BE70AD9C8321B9BCA7F9A4A26C542347DE
310
E050F09802D22BA6749A800A394DD62899107273365E3C82CFC6A55557BC06C10774B7ABE7AEC3B0F34CF06446280E154026D0542C187BA9DAB6628BF7B6DBB0E5A65B3EB1F58631DE64BBE083F7B65CC218087E22CABB042E51D1F2268F1FE12B3EA24D40D63E9CFE00120194D60B9D5BC67FE6D39CDF37E20AF817881F50
310
4B0304140006080800B670623B29652116630500003C100000340000006662782F45374635344235342D363743322D343832342D383044432D4334454645303536354442422F6F626A656374732E786D6CAD575D739B3814FD2B0CFB0C989834C90EA1639B24E3E9A6EDD4D3CE3E64C623834CD8006224913AFDF57B040203
310
B65BEF871F0C12D2FD3CF7E8CA7FBFCB33E3957291B2E2D674ED8969D02262715A24B76625B7D6B569BC0F7CCE98EC2D338D82E4F4D654D366E0279C55A59E8AE99654991CCDDECFFF3444440B6A1A514684B83545F44C7362934AB2988A173B2692D8C97667BB76B3702836E1A47C1E092D09A78584A5982F20C5688C7287
310
C389E904BEA3BE07BEFAD7ABA6A75739B53F43FD69212429A20365233153D70BEF2E2E6FAC4BCF9B5ADEBB0BD79ADFCF43CBBD9A4E16EF168B9BD9DD0D140BC921495BC2E9D60C1E101B9E46BED37CEA2CD6861F3329624541A3DA7F7858DBAC25C6B4A4458C3CA654405BCFEBC970E8AAD8F43E4FD558ABEC4F9FE7557F47
310
4F506B7BFBEC5BCA367FC105710E2AB8A00A554D7CB4A30DFE26FBA86D18CBF4B75418399194A72433B274C3097F33032C554B027F2046A1932B842B0FCCC0DDCBEBDB8AD2F835768F59B9ADB24C41D30C6A64AF817F2A456D59FA83F2E3DA60137255A585BCD60EC9B7929AC18DEFD49381AF1ED30BFDB109A4B1CD488294
310
C3CDE6EBC8D185AABD6568061FEE37BB95AAC7E3CA4BCE4ACAA5820FA0D526AE7DAA2869B5EE5999531BE0CC20E6FBA07C41E43FA27CF7A6206F3CDD793B4F6B919C1462CB788EDCD893FA674CDA17AB7B3B7C019F8D561FAEE966FED562DFE98C1D12C6A9FC015C2A35D7FF3D7FC398F591DA4B5FE0BFA2C0189FEA50AE22
310
92817A1ED3020951A03432862970F976B33383259812CC8E5D240BBA801CBCF8CE2BBEE3BF910DB6AAD5F79E05123AE2DB33981FB1ACCB02B69D00CB014FD68AB573A7627EF9BFD4CC2C5C7D58557C4B22FAA88925A4DBB44825CECE3D78FB060D1231F0E885BE7D673C86A3874958F593906B5502D1563157814FDAC3420D
310
F69A070A22EC4B98E23CFF171A1E5311D12C23056555ABA53B8614563B92D17D02AAB009E8F46284624E5F53D5490C560CCCC2591FF1B45421EB0EBD8EA7ED13BE7C5D7E0428CD60FEF60779EB13E6664FF711CB185F6FDED60D139A001FF60CD1FD6D086F1D51474901E26B2CB794A343BC8ED3EDB612E0DD2351FCB65CF4
310
33D511C9E14B5B40ADC6A6263DB0336A8F700DDF56271A024E70B0B3629DE21847591E55DED73D56206AB927E46FAABC5C939C55853C274C93D69FD6FA4E78BF8B11DF898C9ECD60553FAD39283BA6F18984AA23E8884F83F45C5F5F859797B31B2B9C84A1E5B9DE9D35BFF25C6B76152E422F9C5DCC3D847F5801ED09D5AF
310
41441327A25FF15487F9EB725FB666F048A4701E9A827292E6F97569A32DF61DEC01C0BB8DCBBCCC684E0B49147C1FD54BF685A0AB18C868E6973949E819523E3DAC463660E68C7D9F55A9D1EFA3BD7A76A16AE1A810F95CE59B82A4D968A376DC2E8B44BBDD86B27B368CDE0ED548C7137DA860591A83706223A12CA712B4
310
7306DBF39C0A20A6DF95C7FAF670C6EED7A61F946493D1D6926782963813403548A78AE470DEF80D2D9CEAA26E4D1C76F60BFE74219A06527D6B82DF641A51616F703CAAC6A7160E08A00BEB4810A0274592A1B36E3675E36E978A0DE80727A0D6DF2D39A75BD27E0D8837276589537B40ABB56D5A41F48F1C6FCD3188C4EB
310
A6929D2FFB89CE995A4D00AE813BDD032DC48B56BD437DFDDC2DD7AED70C2272D63DE9A72068A45A92F0A4BE17A8A06B9366E16707AD80B1FC649459952097E74BB23805982B55E0401150A165964402AA8BDF9F3E7386BB686EDCA780C0D382E5392BF460A6EFB2C6EA1937D3F809B440D5F5435C4C5CF7A9EEFAF54564BD
310
2182DA24162F98680B4E7930C21A0079709CEAEB99A372305ABE0C0D7D6078105A83F6A0296DAEE1068A47DD1C55A9F4C9B2FC69E3EFD44B81028E963DF81B504B0304140006080000B670623B000000000000000000000000350000006662782F45374635344235342D363743322D343832342D383044432D433445464530
310
3536354442422F76657274696365732E62696E504B0304140006080800B670623BF270F1330600000004000000360000006662782F45374635344235342D363743322D343832342D383044432D4334454645303536354442422F747269616E676C65732E62696E636660600000504B0304140006080000B670623B00000000
310
0000000000000000370000006662782F45374635344235342D363743322D343832342D383044432D4334454645303536354442422F617474726962757465732E62696E504B0304140006080800B670623B08DA0BD19000000041010000360000006662782F45374635344235342D363743322D343832342D383044432D4334
310
454645303536354442422F6469726563746F72792E786D6C858F410AC3201045AF22B36F53E9A60B35CBEEBAE80D244E44489C6234F4F835464A48035D0DF398FF9F8AF63D0E6CC63039F212F8F9020C7D47C6792B21C5FE7403D62A1188E2E60C98D7234A5830286103A55745067B9D86B8A3CF9C7F90C11DE607FB144396
310
D7B6A82D282E9A152AD114D5EF2CB866EEE831B8EEA07A7BB5A8D7D61A2BAAEB7FD5F70921FF497D00504B0304140006080800B670623B6378F24DFF000000A00100003B0000006662782F45374635344235342D363743322D343832342D383044432D4334454645303536354442422F7265736F75726365732F636F72652E
310
786D6C8D504B6E833010BD0A9A6D65B0094E42641C85B639412F6099496225D8C89FAAC7AF09546A77DDCC8CDE47F3F4C4F16B7C149FE88371B603565228D06A37187BED20C50BD9437194C23B177FC9A0B06AC40E6618A4B87A97A615D2CE46B431A3D60DB8822A048C50E8473E3A08FA86A32A558A5911EEE5A4F45D5DB1
310
6465A6B34E8A107D0E502C4FE609D26370C96B0CA25A58295232C3AA3143FE692E063D485EF7F5AEE71BD2D2F39634AFFC44DAF7DD9E9CCE6F9CD25DCBFA762BAAD92C4534E34F46ED51451C40D694B6843142EB0FD61C283F34FC85EE0F948A6A96FF31A569F8A729191B37F51A77B105902C0779125254735F793DCBCC7B
310
EE567E03504B010214000A0000080000B670623B3DEE336E79000000790000001B00000000000000000000000000000000006175746F6465736B2D64657369676E2D7061636B6167652E786D6C504B01021400140006080800B670623BD486FD9CA0000000F40000001300000000000000000000000000B20000005B436F6E
310
74656E745F54797065735D2E786D6C504B01021400140006080800B670623BBC1638F5EC0000007C010000080000000000000000000000000083010000636F72652E786D6C504B01021400140006080800B670623B55019EA25F0000007C000000070000000000000000000000000095020000636E782E786D6C504B010214
310
00140006080800B670623B3586FFB671010000D40300000C00000000000000000000000000190300006662782F636F72652E786D6C504B01021400140006080800B670623B4220A0FF7D0000009D0000000B00000000000000000000000000B40400006662782F636E782E786D6C504B01021400140006080800B670623B2F
310
A3FEDE290100001202000031000000000000000000000000005A0500006662782F45374635344235342D363743322D343832342D383044432D4334454645303536354442422F636F72652E786D6C504B01021400140006080800B670623B1B8617914E010000330300003000000000000000000000000000D2060000666278
310
2F45374635344235342D363743322D343832342D383044432D4334454645303536354442422F636E782E786D6C504B01021400140006080800B670623B29652116630500003C10000034000000000000000000000000006E0800006662782F45374635344235342D363743322D343832342D383044432D4334454645303536
310
354442422F6F626A656374732E786D6C504B01021400140006080000B670623B0000000000000000000000003500000000000000000000000000230E00006662782F45374635344235342D363743322D343832342D383044432D4334454645303536354442422F76657274696365732E62696E504B01021400140006080800
310
B670623BF270F13306000000040000003600000000000000000000000000760E00006662782F45374635344235342D363743322D343832342D383044432D4334454645303536354442422F747269616E676C65732E62696E504B01021400140006080000B670623B0000000000000000000000003700000000000000000000
310
000000D00E00006662782F45374635344235342D363743322D343832342D383044432D4334454645303536354442422F617474726962757465732E62696E504B01021400140006080800B670623B08DA0BD190000000410100003600000000000000000000000000250F00006662782F45374635344235342D363743322D34
310
3832342D383044432D4334454645303536354442422F6469726563746F72792E786D6C504B01021400140006080800B670623B6378F24DFF000000A00100003B00000000000000000000000000091000006662782F45374635344235342D363743322D343832342D383044432D4334454645303536354442422F7265736F75
310
726365732F636F72652E786D6C504B0506000000000E000E0080040000611100000000
  0
XRECORD
  5
112
102
{ACAD_REACTORS
330
110
102
}
330
110
100
AcDbXrecord
280
     1
270
     1
271
     1
  0
XRECORD
  5
111
102
{ACAD_REACTORS
330
110
102
}
330
110
100
AcDbXrecord
280
     1
270
     1
271
     1
  0
XRECORD
  5
18A
102
{ACAD_REACTORS
330
110
102
}
330
110
100
AcDbXrecord
280
     1
 70
     0
 90
1778669749
  1
9BF507EE-FAF7-4A99-A33D-4EE51894BC40
310
504B03040A0000080000B670623B3DEE336E79000000790000001B0000006175746F6465736B2D64657369676E2D7061636B6167652E786D6C3C3F786D6C2076657273696F6E3D22312E302220656E636F64696E673D227574662D3822203F3E3C666F726D6174733E3C666F726D61743E687474703A2F2F736368656D612E
310
6175746F6465736B2E636F6D2F64657369676E2D7061636B6167652F323030393C2F666F726D61743E3C2F666F726D6174733E504B0304140006080800B670623BD486FD9CA0000000F4000000130000005B436F6E74656E745F54797065735D2E786D6C7D8EC10E82300C865F65E91D8A1E8C310C0EEA1BF002731658846E
310
D98AC1B77784ABF1D8FE5FBFBF75BBCE937A534CCEB38643598122B6FEE978D0B0485F9C41B54DDD7D022595594E1A469170414C76A4D9A4D207E29CF43ECE46F218070CC6BECC4078ACAA135ACF422C856C0E68EA1BF5669944DDD7BCDE7B1F8E415D77AECB980613C2E4AC91FC167A2B244592486606FC29C8FD7F045B9A
310
EF7053A7E60B504B0304140006080800B670623BCA089DFFEC0000007C01000008000000636F72652E786D6C8D90416E83301045AF62CDB632D8402020E32882F604BD80653BC44AB011B6AB1EBF262152BBEB6A467FFE9B197D76FA9EEFE84BAFDE38DB03CD08206DA553C64E3DC470C1474027CE56E7C22F1B202B66DDC3
310
260367D3EAE2B24BD2D9A06D48AA754AEFA2F05E0740F29E9A1EBCBCEA59642286E4F0B76C11F226269DD15797E0188D42CF2346A57DE662F40ABCAEC77628C6120F654571D50C04B7F5B9C1E3997CD4F550BE3745C3F20DE62C98F9755FAE5A04AD801784B498524C8A4F5A75E4D055873772EC0861F966FF03C545FD138A
310
C686B2D8DF7D621E384D8F3C069CE55B16A93C824A75CB8DFF00504B0304140006080800B670623B55019EA25F0000007C00000007000000636E782E786D6C4DCB3B0E80201045D1AD90E915ED2CF8AC45050C11660C8261F98AB1B07AC9C97D42D718D865D3E909258CFD00CCE24AC6E326A164D74DC0B4128928FF326038
310
472BA13128B1252AC747C6BAB984FC68F0B87FE8960A5C09FE86CFB69FBA01504B0304140006080800B670623B68FC0B7272010000D40300000C0000006662782F636F72652E786D6CC5535B6E833010BC8AE5DF0A6C1E8124328E22D29EA01770C0A128602363A31CBFCB234A53A555FA553EC09AD9F5CE8C31DB5DDA060D
310
D2F4B556190E7C8A9154852E6B5565D8D993B7C668C799D1DA7E29C3488956667884316795D1AE5BA0422B2B950554E9522EA0E87B69312A1A5864B82F3E642B7CE12C54F467BF13C55954D20F7CA0A18EB3DE1A1080E621E31BF3D3F1C2C88C73E65C5D2E6C5DC2B4FA544B8379921C36797888BC3C8A032F4E73EA6D927D
310
EA1DF6F42D49F2E8350D5346C666CE6CDD5ED515460A2B4BCC434A375E1078347C0FE22D5D6DE3D50B5D6F2965642CBF6B725DF96493AB958DC245EEDCD6631E809089F8E61622B2A81703E8219C913144F84C09DF070D8140C8561C9BAB8F3340832CAC363130A576376A108D933095FA747AD0CF0B46E64E983A6D0EAE1F
310
CE089F9EF1FB8E70D44255604258581E9D1D75B259C3125A278D37D80B52DAB4A279CEC62F0EFF44DDC43F9454E8469BFF5244960322CBEF41C6FBC83F01504B0304140006080800B670623B0F71DDB67E0000009D0000000B0000006662782F636E782E786D6C4DCCD10A83201886E15B91FFDCA54DB73F502386BB8F5816
310
32D3703976F9ABD1C18E3E78F87855FB990379BBFCF2296AE02706C4C5471A7C9C349475A408A4352AA7B4FEDD80C47E761A7606A3A69CCA72D0E0C6BE8475D3E0E3F3409428EA6B27A84079A782899AA2EC1A7AE3ECCC2FD858CB2D544655BFD2B67BD87C01504B0304140006080800B670623BE134B4FB28010000120200
310
00310000006662782F38353834323741342D343835462D343034322D383541392D4331303331363839454531452F636F72652E786D6C8D515B6EC32010BC0AE22B55850D0EA424C24451959EA0172086A42831583CAA1CBF503B52FB971F16CDCECC0EACD8DFC71BF836215AEF7A481A0C817183D7D65D7A98D3197108F652
310
04EFD31F1A044E8DA6871586525C82CFD3020DDE25E352419DD76601558C264130DCCAA58771F832A36A544E8511AFCDA486ABBA988634A55D7852C4144A00300FA927949C71DABD1D28A29C7D208A6987383B6CD13BC16BB2E1DBE3911C453B0BA5C8D9EA456E758963CFD684674DAA588A64C747FC2118958C86B2C3788B
310
0841B8FB247487D98EB257CC77188BB6D2FF89F2A49F1465EBD2BA5BE2CEB2082511EDDC9042FB7CBA3DC298FBE4430275DE2A9AE1054ADC60CC08E3A29D89E5F9C5714317C7987C28DFBBBA9E0A97B0D97643A568EB864AF95D5FA9759BF207504B0304140006080800B670623B1B8617914E010000330300003000000066
310
62782F38353834323741342D343835462D343034322D383541392D4331303331363839454531452F636E782E786D6CD593C16EC32010447F0571AD6CE3D489D20813A9877E410FBD62D82434182CC055F3F75D1292E692438FBD206B7698593D61BEFD1E2DF982108D773D6D6B460938E5B571FB9ECE6957AD29D90A1EBC4F
310
77364A9C1CA1A759A682EF839FA72269D8C9D92654AD71C72206887E0E0A22CAF926B15E498B01E0AA19451807D01A34B919F16B070157417138917400F2F6FA41FCF0092A45DEE414C19BDC21783E4BD39D891265658C3D8DEA00A3ACE59CBC8678ACB54CB26EEB6BD7839D7E9348BE70AD9C8321B9BCA7F9A4A26C542347
310
DEE050F09802D22BA6749A800A394DD62899107273365E3C82CFC6A55557BC06C10774B7ABE7AEC3B0F34CF06446280E154026D0542C187BA9DAB6628BF7B6DBB0E5A65B3EB1F58631DE64BBE083F7B65CC218087E22CABB042E51D1F2268F1FE12B3EA24D40D63E9CFE00120194D60B9D5BC67FE6D39CDF37E20AF817881F
310
504B0304140006080800B670623B5933D422630500003B100000340000006662782F38353834323741342D343835462D343034322D383541392D4331303331363839454531452F6F626A656374732E786D6CAD575B6FA33814FE2B887D0642934E9B156594264D158D3A534DD4D13E548A0C38942D60649B4EBABF7E3F8321
310
40924EF6928780CDF1B97EE762EFF32E4B8D37CA45C2F21BD3B547A641F39045491EDF98A5DC5AD7A6F1D9F73863B243661A39C9E88DA9B64DDF8B392B0BBD15D12D295339D85DDEFE618890E6D434C2940871638AF08566C426A5641115AF764424B1E3EDCE76ED9AB0CF36E6A47819302D08A7B984A6D8CFC1C5A89572FB
310
CB91E9F89EA3BEFB9EFAD754E3D3544E654F5F7E920B49F2F040D880CDD89D2CEE2E2EA7D6E56432B6269F2E5CEB7679BBB0DCABF168FE693E9FCEEEA6102C240727AD09A75BD3BF876F78127A4EFDA9D5582B7E4CA590E5390D2BFB6161A5B3E618D182E611E2985001691DAB47FDA5AB7CD3F93C566B2DB2BB7D9E55DD13
310
1D468DEECDB3AB290BFE8409E21C54704115AA6AFF68436BFC8DF65E0B184BF5B74418199194272435D224E084BF9B3E481589EFF5D828747285706581E9BB7B7E5D5D911ABFC6EE312DB7659A2A689A7E85EC0DF04FA5A8344BFEA2FCB834E8845895492EAFB541F2BDA0A63FF59C6AD3F7D4637CA13FD68E34B629891172
310
98597F1D183A57B9B75A98FE9765B05BAB7C3C2EBCE0ACA05C2AF8005A4DE09AA7F29216EB9E15397500C6F47CBE77CA7778FE2BD277AF0AE2C693DD6437D1522427B9D8329E2136F6A8FA19A3E6C56ADF0E5F50CF06D48734EDCEBF22F69C56D97EC138153F804B85E6FABFC7AFEFB32E523BE1F3BD372418E363EDCA7548
310
52949E8724474014288D94610BB57C1BEC4C7F854A89CA8E5324F55B871CBC78CE1BBEE3BFE68D6A5589EF3C730474506FCFA8FCF0659516D0ED04580EEA6425581B77CAE797FF4BCECC16EB2FEB926F49481F746159D06D922712BD730FDEAE42BD40F42C7AA5EF3F198F60E86110D6DD20645A9480B795CF95E3E3A659A8
310
C55E724F408873315335CFFB8584874484344D494E59D94869DB90C26A5B64F49C802CAC1D3ABE18A098D3B7444D123D8A9E5AE8F5214F0AE5B2B6E9B575DA3E61CBD3EA2B4009FA940524DD1305FB6A1FB294F14DF0BEA90BA109ECE1481FDC3FFAE8D60E75141700BE82725371B4873751B2DD960265F788137FACE6DD40
310
B575E4F0A5C99F46629D92131467A41EE11ABD8D4CCC039CA0AFB37C93A08B232B8F0AEFCA1E0A1015DF13FC83322B362463652ECF71D3A8B1A7D1BE65DE1D62C44F22C317D35F574FEB16153BA2D13E543D10A80E74C4A65E78A6B7CBCBD1D5DD9DB59C2DAFACC96C3AB566E3F1C29ADCDD5DBAD7D3C9ED7C822ED74F80A6
310
41755310DE4443F44A9E68373FADF6596BFA0F440AE7BECE2727AE9F4F2B1B53B1E7E00CF0DD1E5C65454A339A4BA2D0FBA05ED2EF0443458F47BDBFCA484CCFE0F2ED7E3DD0013B679C7B5499467F0ECEEADDB9CA85A34CE44B99053949D2C1416DB85DE4B136BB7165FBAC0B7AB3542BED4F8CA182A549847A1319316519
310
95A83A67147B9E5101C47487F2485F1ECE38FD568F839204296D3479219888530154036E6528FBFBC66F98E0D4107563A2D7D9AFF8D389681A08F58D89F22693900A3B407754734FC51C10C010D6D640809EE4718AC1BA3ED4AEDB53CA37283F68805A7E4B72CEB0A4EDEAD5DD8C14059A76AFAA56BA6901E13F32BC51C720
310
12AF41295B5BF61BAD3195181FB506E6B40F4C10AF5AF40EF9F5B159AE5DD1F43C72D635E94310D45C2D49785C5D0B94D3B54AB3C5A38349C0587D338AB48C11CBF339599C02CCA54A70A008A8D03C0B2201D5F9EFCF8F9CE12A9A19CB0410789EB32C63B95ECCF455D658BFE0621A3DA32C5075FB101723D77DAE867E7D0F
310
D90444509B44E2151B4DC2290B065803200FBAA9BE9D392A0603F2D5C2D00D6302A615680F66D2FA166E2079D4C551A54AB758161FCEFD4E450A14704CECFEDF504B0304140006080000B670623B000000000000000000000000350000006662782F38353834323741342D343835462D343034322D383541392D4331303331
310
363839454531452F76657274696365732E62696E504B0304140006080800B670623BF270F1330600000004000000360000006662782F38353834323741342D343835462D343034322D383541392D4331303331363839454531452F747269616E676C65732E62696E636660600000504B0304140006080000B670623B000000
310
000000000000000000370000006662782F38353834323741342D343835462D343034322D383541392D4331303331363839454531452F617474726962757465732E62696E504B0304140006080800B670623B08DA0BD19000000041010000360000006662782F38353834323741342D343835462D343034322D383541392D43
310
31303331363839454531452F6469726563746F72792E786D6C858F410AC3201045AF22B36F53E9A60B35CBEEBAE80D244E44489C6234F4F835464A48035D0DF398FF9F8AF63D0E6CC63039F212F8F9020C7D47C6792B21C5FE7403D62A1188E2E60C98D7234A5830286103A55745067B9D86B8A3CF9C7F90C11DE607FB1443
310
96D7B6A82D282E9A152AD114D5EF2CB866EEE831B8EEA07A7BB5A8D7D61A2BAAEB7FD5F70921FF497D00504B0304140006080800B670623BD9A3B367FE000000A00100003B0000006662782F38353834323741342D343835462D343034322D383541392D4331303331363839454531452F7265736F75726365732F636F7265
310
2E786D6C8D504B6E833010BD0A9A6D65B01D0201194711694FD00B586642AD043BF2A7EAF16B122AB5BB6E6646EFA3797AE2F8B5DC8A4FF4C1383B002B291468B59B8C9D0748F1420E501CA5F0CEC55F3228AC5A708015062966EFD27D83B4B3116DCCA875136EA00A012314FA968F0182FEC045952AC5AC08D7F2AEF455CD
310
58B232D3592745883E07289E4FD609D26370C96B0CA27AB252A464A64D63A6FCD35C0C7A904D73EE467EE664DCD58CD4ED4849D79C5A723ED1B7A61977AF2D6F45B59AA58866F9C9A83DAA8813484E6947182394BFB3BAA7FBBEDEBFD0434FA9A856F91F53BA4FFF342563E38E6F719FB60092E5200F428A6AED2BAF479979
310
AFDDCA6F504B010214000A0000080000B670623B3DEE336E79000000790000001B00000000000000000000000000000000006175746F6465736B2D64657369676E2D7061636B6167652E786D6C504B01021400140006080800B670623BD486FD9CA0000000F40000001300000000000000000000000000B20000005B436F6E
310
74656E745F54797065735D2E786D6C504B01021400140006080800B670623BCA089DFFEC0000007C010000080000000000000000000000000083010000636F72652E786D6C504B01021400140006080800B670623B55019EA25F0000007C000000070000000000000000000000000095020000636E782E786D6C504B010214
310
00140006080800B670623B68FC0B7272010000D40300000C00000000000000000000000000190300006662782F636F72652E786D6C504B01021400140006080800B670623B0F71DDB67E0000009D0000000B00000000000000000000000000B50400006662782F636E782E786D6C504B01021400140006080800B670623BE1
310
34B4FB280100001202000031000000000000000000000000005C0500006662782F38353834323741342D343835462D343034322D383541392D4331303331363839454531452F636F72652E786D6C504B01021400140006080800B670623B1B8617914E010000330300003000000000000000000000000000D3060000666278
310
2F38353834323741342D343835462D343034322D383541392D4331303331363839454531452F636E782E786D6C504B01021400140006080800B670623B5933D422630500003B10000034000000000000000000000000006F0800006662782F38353834323741342D343835462D343034322D383541392D4331303331363839
310
454531452F6F626A656374732E786D6C504B01021400140006080000B670623B0000000000000000000000003500000000000000000000000000240E00006662782F38353834323741342D343835462D343034322D383541392D4331303331363839454531452F76657274696365732E62696E504B01021400140006080800
310
B670623BF270F13306000000040000003600000000000000000000000000770E00006662782F38353834323741342D343835462D343034322D383541392D4331303331363839454531452F747269616E676C65732E62696E504B01021400140006080000B670623B0000000000000000000000003700000000000000000000
310
000000D10E00006662782F38353834323741342D343835462D343034322D383541392D4331303331363839454531452F617474726962757465732E62696E504B01021400140006080800B670623B08DA0BD190000000410100003600000000000000000000000000260F00006662782F38353834323741342D343835462D34
310
3034322D383541392D4331303331363839454531452F6469726563746F72792E786D6C504B01021400140006080800B670623BD9A3B367FE000000A00100003B000000000000000000000000000A1000006662782F38353834323741342D343835462D343034322D383541392D4331303331363839454531452F7265736F75
310
726365732F636F72652E786D6C504B0506000000000E000E0080040000611100000000
  0
XRECORD
  5
113
102
{ACAD_REACTORS
330
110
102
}
330
110
100
AcDbXrecord
280
     1
270
     1
271
     1
  0
XRECORD
  5
114
102
{ACAD_REACTORS
330
110
102
}
330
110
100
AcDbXrecord
280
     1
270
     1
271
     1
  0
CELLSTYLEMAP
  5
509
102
{ACAD_REACTORS
330
104
102
}
330
104
100
AcDbCellStyleMap
 90
        3
300
CELLSTYLE
  1
TABLEFORMAT_BEGIN
 90
        5
170
     1
 91
        0
 92
    32768
 62
   257
 93
        1
300
CONTENTFORMAT
  1
CONTENTFORMAT_BEGIN
 90
        0
 91
        0
 92
      512
 93
        0
300

 40
0.0
140
1.0
 94
        5
 62
     0
340
11
144
0.25
309
CONTENTFORMAT_END
171
     1
301
MARGIN
  1
CELLMARGIN_BEGIN
 40
0.06
 40
0.06
 40
0.06
 40
0.06
 40
0.18
 40
0.18
309
CELLMARGIN_END
 94
        6
 95
        1
302
GRIDFORMAT
  1
GRIDFORMAT_BEGIN
 90
        0
 91
        1
 62
     0
 92
       -2
340
0
 93
        0
 40
0.045
309
GRIDFORMAT_END
 95
        2
302
GRIDFORMAT
  1
GRIDFORMAT_BEGIN
 90
        0
 91
        1
 62
     0
 92
       -2
340
0
 93
        0
 40
0.045
309
GRIDFORMAT_END
 95
        4
302
GRIDFORMAT
  1
GRIDFORMAT_BEGIN
 90
        0
 91
        1
 62
     0
 92
       -2
340
0
 93
        0
 40
0.045
309
GRIDFORMAT_END
 95
        8
302
GRIDFORMAT
  1
GRIDFORMAT_BEGIN
 90
        0
 91
        1
 62
     0
 92
       -2
340
0
 93
        0
 40
0.045
309
GRIDFORMAT_END
 95
       16
302
GRIDFORMAT
  1
GRIDFORMAT_BEGIN
 90
        0
 91
        1
 62
     0
 92
       -2
340
0
 93
        0
 40
0.045
309
GRIDFORMAT_END
 95
       32
302
GRIDFORMAT
  1
GRIDFORMAT_BEGIN
 90
        0
 91
        1
 62
     0
 92
       -2
340
0
 93
        0
 40
0.045
309
GRIDFORMAT_END
309
TABLEFORMAT_END
  1
CELLSTYLE_BEGIN
 90
        1
 91
        1
300
_TITLE
309
CELLSTYLE_END
300
CELLSTYLE
  1
TABLEFORMAT_BEGIN
 90
        5
170
     1
 91
        0
 92
        0
 62
   257
 93
        1
300
CONTENTFORMAT
  1
CONTENTFORMAT_BEGIN
 90
        0
 91
        0
 92
      512
 93
        0
300

 40
0.0
140
1.0
 94
        5
 62
     0
340
11
144
0.18
309
CONTENTFORMAT_END
171
     1
301
MARGIN
  1
CELLMARGIN_BEGIN
 40
0.06
 40
0.06
 40
0.06
 40
0.06
 40
0.18
 40
0.18
309
CELLMARGIN_END
 94
        6
 95
        1
302
GRIDFORMAT
  1
GRIDFORMAT_BEGIN
 90
        0
 91
        1
 62
     0
 92
       -2
340
0
 93
        0
 40
0.045
309
GRIDFORMAT_END
 95
        2
302
GRIDFORMAT
  1
GRIDFORMAT_BEGIN
 90
        0
 91
        1
 62
     0
 92
       -2
340
0
 93
        0
 40
0.045
309
GRIDFORMAT_END
 95
        4
302
GRIDFORMAT
  1
GRIDFORMAT_BEGIN
 90
        0
 91
        1
 62
     0
 92
       -2
340
0
 93
        0
 40
0.045
309
GRIDFORMAT_END
 95
        8
302
GRIDFORMAT
  1
GRIDFORMAT_BEGIN
 90
        0
 91
        1
 62
     0
 92
       -2
340
0
 93
        0
 40
0.045
309
GRIDFORMAT_END
 95
       16
302
GRIDFORMAT
  1
GRIDFORMAT_BEGIN
 90
        0
 91
        1
 62
     0
 92
       -2
340
0
 93
        0
 40
0.045
309
GRIDFORMAT_END
 95
       32
302
GRIDFORMAT
  1
GRIDFORMAT_BEGIN
 90
        0
 91
        1
 62
     0
 92
       -2
340
0
 93
        0
 40
0.045
309
GRIDFORMAT_END
309
TABLEFORMAT_END
  1
CELLSTYLE_BEGIN
 90
        2
 91
        1
300
_HEADER
309
CELLSTYLE_END
300
CELLSTYLE
  1
TABLEFORMAT_BEGIN
 90
        5
170
     1
 91
        0
 92
        0
 62
   257
 93
        1
300
CONTENTFORMAT
  1
CONTENTFORMAT_BEGIN
 90
        0
 91
        0
 92
      512
 93
        0
300

 40
0.0
140
1.0
 94
        2
 62
     0
340
11
144
0.18
309
CONTENTFORMAT_END
171
     1
301
MARGIN
  1
CELLMARGIN_BEGIN
 40
0.06
 40
0.06
 40
0.06
 40
0.06
 40
0.18
 40
0.18
309
CELLMARGIN_END
 94
        6
 95
        1
302
GRIDFORMAT
  1
GRIDFORMAT_BEGIN
 90
        0
 91
        1
 62
     0
 92
       -2
340
0
 93
        0
 40
0.045
309
GRIDFORMAT_END
 95
        2
302
GRIDFORMAT
  1
GRIDFORMAT_BEGIN
 90
        0
 91
        1
 62
     0
 92
       -2
340
0
 93
        0
 40
0.045
309
GRIDFORMAT_END
 95
        4
302
GRIDFORMAT
  1
GRIDFORMAT_BEGIN
 90
        0
 91
        1
 62
     0
 92
       -2
340
0
 93
        0
 40
0.045
309
GRIDFORMAT_END
 95
        8
302
GRIDFORMAT
  1
GRIDFORMAT_BEGIN
 90
        0
 91
        1
 62
     0
 92
       -2
340
0
 93
        0
 40
0.045
309
GRIDFORMAT_END
 95
       16
302
GRIDFORMAT
  1
GRIDFORMAT_BEGIN
 90
        0
 91
        1
 62
     0
 92
       -2
340
0
 93
        0
 40
0.045
309
GRIDFORMAT_END
 95
       32
302
GRIDFORMAT
  1
GRIDFORMAT_BEGIN
 90
        0
 91
        1
 62
     0
 92
       -2
340
0
 93
        0
 40
0.045
309
GRIDFORMAT_END
309
TABLEFORMAT_END
  1
CELLSTYLE_BEGIN
 90
        3
 91
        2
300
_DATA
309
CELLSTYLE_END
  0
ENDSEC
  0
SECTION
  2
ACDSDATA
 70
     2
 71
     8
  0
ACDSSCHEMA
 90
        0
  1
AcDb_Thumbnail_Schema
  2
AcDbDs::ID
280
    10
 91
        8
  2
Thumbnail_Data
280
    15
 91
        0
101
ACDSRECORD
 95
        0
 90
        1
  2
AcDbDs::TreatedAsObjectData
280
     1
291
     1
101
ACDSRECORD
 95
        0
 90
        2
  2
AcDbDs::Legacy
280
     1
291
     1
101
ACDSRECORD
  1
AcDbDs::ID
 90
        3
  2
AcDs:Indexable
280
     1
291
     1
101
ACDSRECORD
  1
AcDbDs::ID
 90
        4
  2
AcDbDs::HandleAttribute
280
     7
282
     1
  0
ACDSSCHEMA
 90
        1
  1
AcDbDs::TreatedAsObjectDataSchema
  2
AcDbDs::TreatedAsObjectData
280
     1
 91
        0
  0
ACDSSCHEMA
 90
        2
  1
AcDbDs::LegacySchema
  2
AcDbDs::Legacy
280
     1
 91
        0
  0
ACDSSCHEMA
 90
        3
  1
AcDbDs::IndexedPropertySchema
  2
AcDs:Indexable
280
     1
 91
        0
  0
ACDSSCHEMA
 90
        4
  1
AcDbDs::HandleAttributeSchema
  2
AcDbDs::HandleAttribute
280
     7
 91
        1
284
     1
  0
ACDSRECORD
 90
        0
  2
AcDbDs::ID
280
    10
320
22
  2
Thumbnail_Data
280
    15
 94
     1050
310
89504E470D0A1A0A0000000D49484452000001000000006F08030000003479EE6F00000300504C5445212830FFFFFF2128300000000000000000000000000000000000000000000000000000330000660000990000CC0000FF0033000033330033660033990033CC0033FF0066000066330066660066990066CC0066FF0099
310
000099330099660099990099CC0099FF00CC0000CC3300CC6600CC9900CCCC00CCFF00FF0000FF3300FF6600FF9900FFCC00FFFF3300003300333300663300993300CC3300FF3333003333333333663333993333CC3333FF3366003366333366663366993366CC3366FF3399003399333399663399993399CC3399FF33CC00
310
33CC3333CC6633CC9933CCCC33CCFF33FF0033FF3333FF6633FF9933FFCC33FFFF6600006600336600666600996600CC6600FF6633006633336633666633996633CC6633FF6666006666336666666666996666CC6666FF6699006699336699666699996699CC6699FF66CC0066CC3366CC6666CC9966CCCC66CCFF66FF0066
310
FF3366FF6666FF9966FFCC66FFFF9900009900339900669900999900CC9900FF9933009933339933669933999933CC9933FF9966009966339966669966999966CC9966FF9999009999339999669999999999CC9999FF99CC0099CC3399CC6699CC9999CCCC99CCFF99FF0099FF3399FF6699FF9999FFCC99FFFFCC0000CC00
310
33CC0066CC0099CC00CCCC00FFCC3300CC3333CC3366CC3399CC33CCCC33FFCC6600CC6633CC6666CC6699CC66CCCC66FFCC9900CC9933CC9966CC9999CC99CCCC99FFCCCC00CCCC33CCCC66CCCC99CCCCCCCCCCFFCCFF00CCFF33CCFF66CCFF99CCFFCCCCFFFFFF0000FF0033FF0066FF0099FF00CCFF00FFFF3300FF3333
310
FF3366FF3399FF33CCFF33FFFF6600FF6633FF6666FF6699FF66CCFF66FFFF9900FF9933FF9966FF9999FF99CCFF99FFFFCC00FFCC33FFCC66FFCC99FFCCCCFFCCFFFFFF00FFFF33FFFF66FFFF99FFFFCCFFFFFF0000000D0D0D1A1A1A2828283535354343435050505D5D5D6B6B6B787878868686939393A1A1A1AEAEAEBB
310
BBBBC9C9C9D6D6D6E4E4E4F1F1F1FFFFFF0000000000000000000000000000000000000000000000000000000000002E4550F1000000944944415478DAEDD83B0E80201445C1B7FFFDD25B985880406262C39D298D8DC70F0FAB000000E067ED26800010FB0A082000C4CF010F01040092BF019FC808877C0304586C12FB43
310
87E49A05A83140D446BA8DD7D7C653C2020CAF800980F4055404387940CC9804A773C0CBE0536101FA3BBE7F48C2021CBD12B6FDE6C7DF30AC94220000000000000000000000000000B070011F17036BB2E059190000000049454E44AE426082C9907922C0D2C3400001829E02FB06189CD905F051107C0DB0312280000298
310
0E01000000000000000000227D007A23861E849DD2130000000049454E44AE426082
  0
ENDSEC
  0
EOF
