  0
SECTION
  2
HEADER
  9
$ACADVER
  1
AC1032
  9
$ACADMAINTVER
 90
        4
  9
$DWGCODEPAGE
  3
ANSI_1252
  9
$LASTSAVEDBY
  1
jesse.cowley
  9
$REQUIREDVERSIONS
160
                 0
  9
$INSBASE
 10
0.0
 20
0.0
 30
0.0
  9
$EXTMIN
 10
-4903.996709315107
 20
-1481.062762804256
 30
0.0
  9
$EXTMAX
 10
4182.272596022935
 20
3796.250269850315
 30
0.0
  9
$LIMMIN
 10
0.0
 20
0.0
  9
$LIMMAX
 10
12.0
 20
9.0
  9
$ORTHOMODE
 70
     0
  9
$REGENMODE
 70
     1
  9
$FILLMODE
 70
     1
  9
$QTEXTMODE
 70
     0
  9
$MIRRTEXT
 70
     1
  9
$LTSCALE
 40
1.0
  9
$ATTMODE
 70
     1
  9
$TEXTSIZE
 40
0.2
  9
$TRACEWID
 40
0.05
  9
$TEXTSTYLE
  7
Standard
  9
$CLAYER
  8
Furniture
  9
$CELTYPE
  6
ByLayer
  9
$CECOLOR
 62
   256
  9
$CELTSCALE
 40
1.0
  9
$DISPSILH
 70
     0
  9
$DIMSCALE
 40
1.0
  9
$DIMASZ
 40
0.18
  9
$DIMEXO
 40
0.0625
  9
$DIMDLI
 40
0.38
  9
$DIMRND
 40
0.0
  9
$DIMDLE
 40
0.0
  9
$DIMEXE
 40
0.18
  9
$DIMTP
 40
0.0
  9
$DIMTM
 40
0.0
  9
$DIMTXT
 40
0.18
  9
$DIMCEN
 40
0.09
  9
$DIMTSZ
 40
0.0
  9
$DIMTOL
 70
     0
  9
$DIMLIM
 70
     0
  9
$DIMTIH
 70
     1
  9
$DIMTOH
 70
     1
  9
$DIMSE1
 70
     0
  9
$DIMSE2
 70
     0
  9
$DIMTAD
 70
     0
  9
$DIMZIN
 70
     0
  9
$DIMBLK
  1

  9
$DIMASO
 70
     1
  9
$DIMSHO
 70
     1
  9
$DIMPOST
  1

  9
$DIMAPOST
  1

  9
$DIMALT
 70
     0
  9
$DIMALTD
 70
     2
  9
$DIMALTF
 40
25.4
  9
$DIMLFAC
 40
1.0
  9
$DIMTOFL
 70
     0
  9
$DIMTVP
 40
0.0
  9
$DIMTIX
 70
     0
  9
$DIMSOXD
 70
     0
  9
$DIMSAH
 70
     0
  9
$DIMBLK1
  1

  9
$DIMBLK2
  1

  9
$DIMSTYLE
  2
Standard
  9
$DIMCLRD
 70
     0
  9
$DIMCLRE
 70
     0
  9
$DIMCLRT
 70
     0
  9
$DIMTFAC
 40
1.0
  9
$DIMGAP
 40
0.09
  9
$DIMJUST
 70
     0
  9
$DIMSD1
 70
     0
  9
$DIMSD2
 70
     0
  9
$DIMTOLJ
 70
     1
  9
$DIMTZIN
 70
     0
  9
$DIMALTZ
 70
     0
  9
$DIMALTTZ
 70
     0
  9
$DIMUPT
 70
     0
  9
$DIMDEC
 70
     4
  9
$DIMTDEC
 70
     4
  9
$DIMALTU
 70
     2
  9
$DIMALTTD
 70
     2
  9
$DIMTXSTY
  7
Standard
  9
$DIMAUNIT
 70
     0
  9
$DIMADEC
 70
     0
  9
$DIMALTRND
 40
0.0
  9
$DIMAZIN
 70
     0
  9
$DIMDSEP
 70
    46
  9
$DIMATFIT
 70
     3
  9
$DIMFRAC
 70
     0
  9
$DIMLDRBLK
  1

  9
$DIMLUNIT
 70
     2
  9
$DIMLWD
 70
    -2
  9
$DIMLWE
 70
    -2
  9
$DIMTMOVE
 70
     0
  9
$DIMFXL
 40
1.0
  9
$DIMFXLON
 70
     0
  9
$DIMJOGANG
 40
0.7853981633974483
  9
$DIMTFILL
 70
     0
  9
$DIMTFILLCLR
 70
     0
  9
$DIMARCSYM
 70
     0
  9
$DIMLTYPE
  6

  9
$DIMLTEX1
  6

  9
$DIMLTEX2
  6

  9
$DIMTXTDIRECTION
 70
     0
  9
$LUNITS
 70
     2
  9
$LUPREC
 70
     4
  9
$SKETCHINC
 40
0.1
  9
$FILLETRAD
 40
0.5
  9
$AUNITS
 70
     0
  9
$AUPREC
 70
     0
  9
$MENU
  1
.
  9
$ELEVATION
 40
0.0
  9
$PELEVATION
 40
0.0
  9
$THICKNESS
 40
0.0
  9
$LIMCHECK
 70
     0
  9
$CHAMFERA
 40
0.5
  9
$CHAMFERB
 40
0.5
  9
$CHAMFERC
 40
1.0
  9
$CHAMFERD
 40
0.0
  9
$SKPOLY
 70
     0
  9
$TDCREATE
 40
2456463.577592593
  9
$TDUCREATE
 40
2456463.160931308
  9
$TDUPDATE
 40
2458444.465127315
  9
$TDUUPDATE
 40
2458444.006793981
  9
$TDINDWG
 40
0.0075108218
  9
$TDUSRTIMER
 40
0.0075108218
  9
$USRTIMER
 70
     1
  9
$ANGBASE
 50
0.0
  9
$ANGDIR
 70
     0
  9
$PDMODE
 70
     0
  9
$PDSIZE
 40
0.0
  9
$PLINEWID
 40
0.0
  9
$SPLFRAME
 70
     0
  9
$SPLINETYPE
 70
     6
  9
$SPLINESEGS
 70
     8
  9
$HANDSEED
  5
36C
  9
$SURFTAB1
 70
     6
  9
$SURFTAB2
 70
     6
  9
$SURFTYPE
 70
     6
  9
$SURFU
 70
     6
  9
$SURFV
 70
     6
  9
$UCSBASE
  2

  9
$UCSNAME
  2

  9
$UCSORG
 10
0.0
 20
0.0
 30
0.0
  9
$UCSXDIR
 10
1.0
 20
0.0
 30
0.0
  9
$UCSYDIR
 10
0.0
 20
1.0
 30
0.0
  9
$UCSORTHOREF
  2

  9
$UCSORTHOVIEW
 70
     0
  9
$UCSORGTOP
 10
0.0
 20
0.0
 30
0.0
  9
$UCSORGBOTTOM
 10
0.0
 20
0.0
 30
0.0
  9
$UCSORGLEFT
 10
0.0
 20
0.0
 30
0.0
  9
$UCSORGRIGHT
 10
0.0
 20
0.0
 30
0.0
  9
$UCSORGFRONT
 10
0.0
 20
0.0
 30
0.0
  9
$UCSORGBACK
 10
0.0
 20
0.0
 30
0.0
  9
$PUCSBASE
  2

  9
$PUCSNAME
  2

  9
$PUCSORG
 10
0.0
 20
0.0
 30
0.0
  9
$PUCSXDIR
 10
1.0
 20
0.0
 30
0.0
  9
$PUCSYDIR
 10
0.0
 20
1.0
 30
0.0
  9
$PUCSORTHOREF
  2

  9
$PUCSORTHOVIEW
 70
     0
  9
$PUCSORGTOP
 10
0.0
 20
0.0
 30
0.0
  9
$PUCSORGBOTTOM
 10
0.0
 20
0.0
 30
0.0
  9
$PUCSORGLEFT
 10
0.0
 20
0.0
 30
0.0
  9
$PUCSORGRIGHT
 10
0.0
 20
0.0
 30
0.0
  9
$PUCSORGFRONT
 10
0.0
 20
0.0
 30
0.0
  9
$PUCSORGBACK
 10
0.0
 20
0.0
 30
0.0
  9
$USERI1
 70
     0
  9
$USERI2
 70
     0
  9
$USERI3
 70
     0
  9
$USERI4
 70
     0
  9
$USERI5
 70
     0
  9
$USERR1
 40
0.0
  9
$USERR2
 40
0.0
  9
$USERR3
 40
0.0
  9
$USERR4
 40
0.0
  9
$USERR5
 40
0.0
  9
$WORLDVIEW
 70
     1
  9
$SHADEDGE
 70
     3
  9
$SHADEDIF
 70
    70
  9
$TILEMODE
 70
     1
  9
$MAXACTVP
 70
    64
  9
$PINSBASE
 10
0.0
 20
0.0
 30
0.0
  9
$PLIMCHECK
 70
     0
  9
$PEXTMIN
 10
1.000000000000000E+20
 20
1.000000000000000E+20
 30
1.000000000000000E+20
  9
$PEXTMAX
 10
-1.000000000000000E+20
 20
-1.000000000000000E+20
 30
-1.000000000000000E+20
  9
$PLIMMIN
 10
0.0
 20
0.0
  9
$PLIMMAX
 10
12.0
 20
9.0
  9
$UNITMODE
 70
     0
  9
$VISRETAIN
 70
     1
  9
$PLINEGEN
 70
     0
  9
$PSLTSCALE
 70
     1
  9
$TREEDEPTH
 70
  3020
  9
$CMLSTYLE
  2
Standard
  9
$CMLJUST
 70
     0
  9
$CMLSCALE
 40
1.0
  9
$PROXYGRAPHICS
 70
     1
  9
$MEASUREMENT
 70
     0
  9
$CELWEIGHT
370
    -1
  9
$ENDCAPS
280
     0
  9
$JOINSTYLE
280
     0
  9
$LWDISPLAY
290
     1
  9
$INSUNITS
 70
     1
  9
$HYPERLINKBASE
  1

  9
$STYLESHEET
  1

  9
$XEDIT
290
     1
  9
$CEPSNTYPE
380
     0
  9
$PSTYLEMODE
290
     1
  9
$FINGERPRINTGUID
  2
{95041136-D9EA-419D-915A-677FD59738DA}
  9
$VERSIONGUID
  2
{5ADCABDC-FAB8-6349-AFF3-6B7001F50299}
  9
$EXTNAMES
290
     1
  9
$PSVPSCALE
 40
0.0
  9
$OLESTARTUP
290
     0
  9
$SORTENTS
280
   127
  9
$INDEXCTL
280
     0
  9
$HIDETEXT
280
     1
  9
$XCLIPFRAME
280
     0
  9
$HALOGAP
280
     0
  9
$OBSCOLOR
 70
   257
  9
$OBSLTYPE
280
     0
  9
$INTERSECTIONDISPLAY
280
     0
  9
$INTERSECTIONCOLOR
 70
   257
  9
$DIMASSOC
280
     2
  9
$PROJECTNAME
  1

  9
$CAMERADISPLAY
290
     0
  9
$LENSLENGTH
 40
50.0
  9
$CAMERAHEIGHT
 40
0.0
  9
$STEPSPERSEC
 40
2.0
  9
$STEPSIZE
 40
6.0
  9
$3DDWFPREC
 40
2.0
  9
$PSOLWIDTH
 40
0.25
  9
$PSOLHEIGHT
 40
4.0
  9
$LOFTANG1
 40
1.570796326794896
  9
$LOFTANG2
 40
1.570796326794896
  9
$LOFTMAG1
 40
0.0
  9
$LOFTMAG2
 40
0.0
  9
$LOFTPARAM
 70
     7
  9
$LOFTNORMALS
280
     1
  9
$LATITUDE
 40
37.795
  9
$LONGITUDE
 40
-122.394
  9
$NORTHDIRECTION
 40
0.0
  9
$TIMEZONE
 70
 -8000
  9
$LIGHTGLYPHDISPLAY
280
     1
  9
$TILEMODELIGHTSYNCH
280
     1
  9
$CMATERIAL
347
123
  9
$SOLIDHIST
280
     1
  9
$SHOWHIST
280
     1
  9
$DWFFRAME
280
     2
  9
$DGNFRAME
280
     0
  9
$REALWORLDSCALE
290
     1
  9
$INTERFERECOLOR
 62
     1
  9
$INTERFEREOBJVS
345
33
  9
$INTERFEREVPVS
346
251
  9
$CSHADOW
280
     0
  9
$SHADOWPLANELOCATION
 40
0.0
  0
ENDSEC
  0
SECTION
  2
CLASSES
  0
CLASS
  1
ACDBDICTIONARYWDFLT
  2
AcDbDictionaryWithDefault
  3
ObjectDBX Classes
 90
        0
 91
        1
280
     0
281
     0
  0
CLASS
  1
VISUALSTYLE
  2
AcDbVisualStyle
  3
ObjectDBX Classes
 90
     4095
 91
       26
280
     0
281
     0
  0
CLASS
  1
MATERIAL
  2
AcDbMaterial
  3
ObjectDBX Classes
 90
     1153
 91
        3
280
     0
281
     0
  0
CLASS
  1
TABLESTYLE
  2
AcDbTableStyle
  3
ObjectDBX Classes
 90
     4095
 91
        1
280
     0
281
     0
  0
CLASS
  1
SCALE
  2
AcDbScale
  3
ObjectDBX Classes
 90
     1153
 91
       33
280
     0
281
     0
  0
CLASS
  1
MLEADERSTYLE
  2
AcDbMLeaderStyle
  3
ACDB_MLEADERSTYLE_CLASS
 90
     4095
 91
        1
280
     0
281
     0
  0
CLASS
  1
DICTIONARYVAR
  2
AcDbDictionaryVar
  3
ObjectDBX Classes
 90
        0
 91
        9
280
     0
281
     0
  0
CLASS
  1
EXACXREFPANELOBJECT
  2
ExAcXREFPanelObject
  3
EXAC_ESW
 90
     1025
 91
        1
280
     0
281
     0
  0
CLASS
  1
NPOCOLLECTION
  2
AcDbImpNonPersistentObjectsCollection
  3
ObjectDBX Classes
 90
     1153
 91
        1
280
     0
281
     0
  0
CLASS
  1
SORTENTSTABLE
  2
AcDbSortentsTable
  3
ObjectDBX Classes
 90
        0
 91
        2
280
     0
281
     0
  0
CLASS
  1
ACDBSECTIONVIEWSTYLE
  2
AcDbSectionViewStyle
  3
ObjectDBX Classes
 90
     1025
 91
        1
280
     0
281
     0
  0
CLASS
  1
ACDBDETAILVIEWSTYLE
  2
AcDbDetailViewStyle
  3
ObjectDBX Classes
 90
     1025
 91
        1
280
     0
281
     0
  0
CLASS
  1
CELLSTYLEMAP
  2
AcDbCellStyleMap
  3
ObjectDBX Classes
 90
     1152
 91
        1
280
     0
281
     0
  0
ENDSEC
  0
SECTION
  2
TABLES
  0
TABLE
  2
VPORT
  5
8
330
0
100
AcDbSymbolTable
 70
     1
  0
VPORT
  5
29
330
8
100
AcDbSymbolTableRecord
100
AcDbViewportTableRecord
  2
*Active
 70
     0
 10
0.0
 20
0.0
 11
1.0
 21
1.0
 12
-1803.504686003575
 22
1233.510401015545
 13
0.0
 23
0.0
 14
0.5
 24
0.5
 15
0.5
 25
0.5
 16
0.0
 26
0.0
 36
1.0
 17
148.4999796178229
 27
-105.0008259828643
 37
0.0
 40
7017.222213528156
 41
2.292712066905615
 42
50.0
 43
0.0
 44
0.0
 50
0.0
 51
0.0
 71
     0
 72
   100
 73
     1
 74
     3
 75
     0
 76
     0
 77
     0
 78
     0
281
     0
 65
     1
110
0.0
120
0.0
130
0.0
111
1.0
121
0.0
131
0.0
112
0.0
122
1.0
132
0.0
 79
     0
146
0.0
348
2F
 60
     3
 61
     5
292
     1
282
     1
141
0.0
142
0.0
 63
   250
421
  3355443
1001
ACAD_NAV_VCDISPLAY
1070
     3
  0
ENDTAB
  0
TABLE
  2
LTYPE
  5
5
330
0
100
AcDbSymbolTable
 70
     1
  0
LTYPE
  5
14
330
5
100
AcDbSymbolTableRecord
100
AcDbLinetypeTableRecord
  2
ByBlock
 70
     0
  3

 72
    65
 73
     0
 40
0.0
  0
LTYPE
  5
15
330
5
100
AcDbSymbolTableRecord
100
AcDbLinetypeTableRecord
  2
ByLayer
 70
     0
  3

 72
    65
 73
     0
 40
0.0
  0
LTYPE
  5
16
330
5
100
AcDbSymbolTableRecord
100
AcDbLinetypeTableRecord
  2
Continuous
 70
     0
  3
Solid line
 72
    65
 73
     0
 40
0.0
  0
ENDTAB
  0
TABLE
  2
LAYER
  5
2
102
{ACAD_XDICTIONARY
360
16E
102
}
330
0
100
AcDbSymbolTable
 70
     4
  0
LAYER
  5
10
102
{ACAD_XDICTIONARY
360
167
102
}
330
2
100
AcDbSymbolTableRecord
100
AcDbLayerTableRecord
  2
0
 70
     0
 62
     7
  6
Continuous
370
    -3
390
F
347
133
348
0
  0
LAYER
  5
3B
102
{ACAD_XDICTIONARY
360
169
102
}
330
2
100
AcDbSymbolTableRecord
100
AcDbLayerTableRecord
  2
Text
 70
     0
 62
     7
  6
Continuous
370
    -3
390
F
347
133
348
0
  0
LAYER
  5
246
330
2
100
AcDbSymbolTableRecord
100
AcDbLayerTableRecord
  2
Furniture
 70
     0
 62
     7
  6
Continuous
370
    -3
390
F
347
133
348
0
1001
AcAecLayerStandard
1000

1000

  0
LAYER
  5
248
330
2
100
AcDbSymbolTableRecord
100
AcDbLayerTableRecord
  2
Dimensions
 70
     0
 62
     7
  6
Continuous
370
    -3
390
F
347
133
348
0
1001
AcAecLayerStandard
1000

1000

  0
ENDTAB
  0
TABLE
  2
STYLE
  5
3
330
0
100
AcDbSymbolTable
 70
     1
  0
STYLE
  5
11
330
3
100
AcDbSymbolTableRecord
100
AcDbTextStyleTableRecord
  2
Standard
 70
     0
 40
0.0
 41
1.000099999999999
 50
0.0
 71
     0
 42
0.2
  3
apercu_regular-webfont.ttf
  4

1001
ACAD
1000
Apercu
1071
        2
  0
ENDTAB
  0
TABLE
  2
VIEW
  5
6
330
0
100
AcDbSymbolTable
 70
     1
  0
ENDTAB
  0
TABLE
  2
UCS
  5
7
330
0
100
AcDbSymbolTable
 70
     0
  0
ENDTAB
  0
TABLE
  2
APPID
  5
9
330
0
100
AcDbSymbolTable
 70
     5
  0
APPID
  5
12
330
9
100
AcDbSymbolTableRecord
100
AcDbRegAppTableRecord
  2
ACAD
 70
     0
  0
APPID
  5
182
330
9
100
AcDbSymbolTableRecord
100
AcDbRegAppTableRecord
  2
ACAD_EXEMPT_FROM_CAD_STANDARDS
 70
     0
  0
APPID
  5
247
330
9
100
AcDbSymbolTableRecord
100
AcDbRegAppTableRecord
  2
AcAecLayerStandard
 70
     0
  0
APPID
  5
267
330
9
100
AcDbSymbolTableRecord
100
AcDbRegAppTableRecord
  2
AcadAnnoPO
 70
     0
  0
APPID
  5
269
330
9
100
AcDbSymbolTableRecord
100
AcDbRegAppTableRecord
  2
ACAD_NAV_VCDISPLAY
 70
     0
  0
ENDTAB
  0
TABLE
  2
DIMSTYLE
  5
A
330
0
100
AcDbSymbolTable
 70
     1
100
AcDbDimStyleTable
 71
     1
340
27
  0
DIMSTYLE
105
27
330
A
100
AcDbSymbolTableRecord
100
AcDbDimStyleTableRecord
  2
Standard
 70
     0
340
11
  0
ENDTAB
  0
TABLE
  2
BLOCK_RECORD
  5
1
330
0
100
AcDbSymbolTable
 70
    17
  0
BLOCK_RECORD
  5
1F
102
{ACAD_XDICTIONARY
360
1A0
102
}
330
1
100
AcDbSymbolTableRecord
100
AcDbBlockTableRecord
  2
*Model_Space
340
22
 70
     0
280
     1
281
     0
  0
BLOCK_RECORD
  5
1B
330
1
100
AcDbSymbolTableRecord
100
AcDbBlockTableRecord
  2
*Paper_Space
340
1E
 70
     0
280
     1
281
     0
  0
BLOCK_RECORD
  5
23
330
1
100
AcDbSymbolTableRecord
100
AcDbBlockTableRecord
  2
*Paper_Space0
340
26
 70
     0
280
     1
281
     0
  0
BLOCK_RECORD
  5
3C
330
1
100
AcDbSymbolTableRecord
100
AcDbBlockTableRecord
  2
block 2
340
0
102
{BLKREFS
331
3D
102
}
 70
     0
280
     1
281
     0
  0
BLOCK_RECORD
  5
40
330
1
100
AcDbSymbolTableRecord
100
AcDbBlockTableRecord
  2
block 3
340
0
102
{BLKREFS
331
41
102
}
 70
     0
280
     1
281
     0
  0
BLOCK_RECORD
  5
44
330
1
100
AcDbSymbolTableRecord
100
AcDbBlockTableRecord
  2
block 4
340
0
102
{BLKREFS
331
45
102
}
 70
     0
280
     1
281
     0
  0
BLOCK_RECORD
  5
48
330
1
100
AcDbSymbolTableRecord
100
AcDbBlockTableRecord
  2
block 5
340
0
102
{BLKREFS
331
49
102
}
 70
     0
280
     1
281
     0
  0
BLOCK_RECORD
  5
4C
330
1
100
AcDbSymbolTableRecord
100
AcDbBlockTableRecord
  2
block 6
340
0
102
{BLKREFS
331
4D
102
}
 70
     0
280
     1
281
     0
  0
BLOCK_RECORD
  5
53
330
1
100
AcDbSymbolTableRecord
100
AcDbBlockTableRecord
  2
block 7
340
0
 70
     0
280
     1
281
     0
  0
BLOCK_RECORD
  5
60
330
1
100
AcDbSymbolTableRecord
100
AcDbBlockTableRecord
  2
block 8
340
0
 70
     0
280
     1
281
     0
  0
BLOCK_RECORD
  5
6F
330
1
100
AcDbSymbolTableRecord
100
AcDbBlockTableRecord
  2
block 9
340
0
 70
     0
280
     1
281
     0
  0
BLOCK_RECORD
  5
91
330
1
100
AcDbSymbolTableRecord
100
AcDbBlockTableRecord
  2
block 10
340
0
 70
     0
280
     1
281
     0
  0
BLOCK_RECORD
  5
B1
330
1
100
AcDbSymbolTableRecord
100
AcDbBlockTableRecord
  2
block 11
340
0
102
{BLKREFS
331
B2
102
}
 70
     0
280
     1
281
     0
  0
BLOCK_RECORD
  5
B5
330
1
100
AcDbSymbolTableRecord
100
AcDbBlockTableRecord
  2
block 12
340
0
102
{BLKREFS
331
B6
102
}
 70
     0
280
     1
281
     0
  0
BLOCK_RECORD
  5
B9
330
1
100
AcDbSymbolTableRecord
100
AcDbBlockTableRecord
  2
block 13
340
0
102
{BLKREFS
331
BA
102
}
 70
     0
280
     1
281
     0
  0
BLOCK_RECORD
  5
BD
330
1
100
AcDbSymbolTableRecord
100
AcDbBlockTableRecord
  2
block 14
340
0
102
{BLKREFS
331
BE
102
}
 70
     0
280
     1
281
     0
  0
BLOCK_RECORD
  5
C6
330
1
100
AcDbSymbolTableRecord
100
AcDbBlockTableRecord
  2
block 15
340
0
 70
     0
280
     1
281
     0
  0
BLOCK_RECORD
  5
F0
330
1
100
AcDbSymbolTableRecord
100
AcDbBlockTableRecord
  2
block 16
340
0
 70
     0
280
     1
281
     0
  0
BLOCK_RECORD
  5
26A
102
{ACAD_XDICTIONARY
360
26C
102
}
330
1
100
AcDbSymbolTableRecord
100
AcDbBlockTableRecord
  2
A$C62247D44
340
0
 70
     1
280
     1
281
     0
  0
ENDTAB
  0
ENDSEC
  0
SECTION
  2
BLOCKS
  0
BLOCK
  5
20
330
1F
100
AcDbEntity
  8
0
100
AcDbBlockBegin
  2
*Model_Space
 70
     0
 10
0.0
 20
0.0
 30
0.0
  3
*Model_Space
  1

  0
ENDBLK
  5
21
330
1F
100
AcDbEntity
  8
0
100
AcDbBlockEnd
  0
BLOCK
  5
1C
330
1B
100
AcDbEntity
 67
     1
  8
0
100
AcDbBlockBegin
  2
*Paper_Space
 70
     0
 10
0.0
 20
0.0
 30
0.0
  3
*Paper_Space
  1

  0
ENDBLK
  5
1D
330
1B
100
AcDbEntity
 67
     1
  8
0
100
AcDbBlockEnd
  0
BLOCK
  5
24
330
23
100
AcDbEntity
 67
     1
  8
0
100
AcDbBlockBegin
  2
*Paper_Space0
 70
     0
 10
0.0
 20
0.0
 30
0.0
  3
*Paper_Space0
  1

  0
ENDBLK
  5
25
330
23
100
AcDbEntity
 67
     1
  8
0
100
AcDbBlockEnd
  0
BLOCK
  5
3E
330
3C
100
AcDbEntity
  8
0
100
AcDbBlockBegin
  2
block 2
 70
     0
 10
0.0
 20
0.0
 30
0.0
  3
block 2
  1

  0
ENDBLK
  5
3F
330
3C
100
AcDbEntity
  8
0
100
AcDbBlockEnd
  0
BLOCK
  5
42
330
40
100
AcDbEntity
  8
0
100
AcDbBlockBegin
  2
block 3
 70
     0
 10
0.0
 20
0.0
 30
0.0
  3
block 3
  1

  0
ENDBLK
  5
43
330
40
100
AcDbEntity
  8
0
100
AcDbBlockEnd
  0
BLOCK
  5
46
330
44
100
AcDbEntity
  8
0
100
AcDbBlockBegin
  2
block 4
 70
     0
 10
0.0
 20
0.0
 30
0.0
  3
block 4
  1

  0
INSERT
  5
49
330
44
100
AcDbEntity
  8
Text
100
AcDbBlockReference
  2
block 5
 10
0.0
 20
0.0
 30
0.0
  0
INSERT
  5
4D
330
44
100
AcDbEntity
  8
Text
100
AcDbBlockReference
  2
block 6
 10
0.0
 20
0.0
 30
0.0
  0
ENDBLK
  5
47
330
44
100
AcDbEntity
  8
0
100
AcDbBlockEnd
  0
BLOCK
  5
4A
330
48
100
AcDbEntity
  8
0
100
AcDbBlockBegin
  2
block 5
 70
     0
 10
0.0
 20
0.0
 30
0.0
  3
block 5
  1

  0
ENDBLK
  5
4B
330
48
100
AcDbEntity
  8
0
100
AcDbBlockEnd
  0
BLOCK
  5
4E
330
4C
100
AcDbEntity
  8
0
100
AcDbBlockBegin
  2
block 6
 70
     0
 10
0.0
 20
0.0
 30
0.0
  3
block 6
  1

  0
ENDBLK
  5
4F
330
4C
100
AcDbEntity
  8
0
100
AcDbBlockEnd
  0
BLOCK
  5
55
330
53
100
AcDbEntity
  8
0
100
AcDbBlockBegin
  2
block 7
 70
     0
 10
0.0
 20
0.0
 30
0.0
  3
block 7
  1

  0
SPLINE
  5
57
330
53
100
AcDbEntity
  8
Text
 62
   250
370
     9
100
AcDbSpline
210
0.0
220
0.0
230
1.0
 70
     8
 71
     3
 72
    26
 73
    22
 74
     0
 42
0.000000001
 43
0.0000000001
 40
0.0
 40
0.0
 40
0.0
 40
0.0
 40
1.0
 40
1.0
 40
1.0
 40
2.0
 40
2.0
 40
2.0
 40
3.0
 40
3.0
 40
3.0
 40
4.0
 40
4.0
 40
4.0
 40
5.0
 40
5.0
 40
5.0
 40
6.0
 40
6.0
 40
6.0
 40
7.0
 40
7.0
 40
7.0
 40
7.0
 10
96.35501435308139
 20
-93.18259817548907
 30
0.0
 10
96.35501435308139
 20
-93.18259817548907
 30
0.0
 10
93.42737220971608
 20
-93.03997122239973
 30
0.0
 10
93.42737220971608
 20
-93.03997122239973
 30
0.0
 10
92.3948770927867
 20
-92.99811331225395
 30
0.0
 10
92.3948770927867
 20
-92.79140758313896
 30
0.0
 10
92.3948770927867
 20
-92.79140758313896
 30
0.0
 10
91.74961070839939
 20
-92.58487410879823
 30
0.0
 10
90.97515324331524
 20
-91.48709443242337
 30
0.0
 10
90.97515324331524
 20
-91.48709443242337
 30
0.0
 10
89.8782348408117
 20
-89.79176294413191
 30
0.0
 10
92.3948770927867
 20
-86.56784258903511
 30
0.0
 10
92.3948770927867
 20
-86.56784258903511
 30
0.0
 10
92.3948770927867
 20
-86.56784258903511
 30
0.0
 10
92.54542776549213
 20
-86.42280406910611
 30
0.0
 10
92.60985105106628
 20
-85.93842364387999
 30
0.0
 10
92.60985105106628
 20
-85.93842364387999
 30
0.0
 10
92.8816690848525
 20
-82.60081513776993
 30
0.0
 10
93.52659095969128
 20
-82.32434622507865
 30
0.0
 10
93.52659095969128
 20
-82.32434622507865
 30
0.0
 10
93.72847355512691
 20
-81.97776961926249
 30
0.0
 10
96.35501435308139
 20
-81.97776961926249
 30
0.0
  0
SPLINE
  5
58
330
53
100
AcDbEntity
  8
Text
 62
   250
370
     9
100
AcDbSpline
210
0.0
220
0.0
230
1.0
 70
     8
 71
     3
 72
    11
 73
     7
 74
     0
 42
0.000000001
 43
0.0000000001
 40
0.0
 40
0.0
 40
0.0
 40
0.0
 40
1.0
 40
1.0
 40
1.0
 40
2.0
 40
2.0
 40
2.0
 40
2.0
 10
92.82516951889441
 20
-92.40004473601457
 30
0.0
 10
92.82516951889441
 20
-92.40004473601457
 30
0.0
 10
93.36260441459337
 20
-89.43071693727773
 30
0.0
 10
93.9007283293894
 20
-87.78499482397389
 30
0.0
 10
93.9007283293894
 20
-87.78499482397389
 30
0.0
 10
93.64234616799567
 20
-87.41275225679265
 30
0.0
 10
93.36260441459337
 20
-87.3050930228786
 30
0.0
  0
SPLINE
  5
59
330
53
100
AcDbEntity
  8
Text
 62
   250
370
     9
100
AcDbSpline
210
0.0
220
0.0
230
1.0
 70
     8
 71
     3
 72
     8
 73
     4
 74
     0
 42
0.000000001
 43
0.0000000001
 40
0.0
 40
0.0
 40
0.0
 40
0.0
 40
1.0
 40
1.0
 40
1.0
 40
1.0
 10
96.35501435308139
 20
-87.3050930228786
 30
0.0
 10
96.35501435308139
 20
-87.3050930228786
 30
0.0
 10
94.76062416250776
 20
-87.40706784924197
 30
0.0
 10
93.9007283293894
 20
-87.78499482397389
 30
0.0
  0
SPLINE
  5
5A
330
53
100
AcDbEntity
  8
Text
 62
   250
370
     9
100
AcDbSpline
210
0.0
220
0.0
230
1.0
 70
     8
 71
     3
 72
    32
 73
    28
 74
     0
 42
0.000000001
 43
0.0000000001
 40
0.0
 40
0.0
 40
0.0
 40
0.0
 40
1.0
 40
1.0
 40
1.0
 40
2.0
 40
2.0
 40
2.0
 40
3.0
 40
3.0
 40
3.0
 40
4.0
 40
4.0
 40
4.0
 40
5.0
 40
5.0
 40
5.0
 40
6.0
 40
6.0
 40
6.0
 40
7.0
 40
7.0
 40
7.0
 40
8.0
 40
8.0
 40
8.0
 40
9.0
 40
9.0
 40
9.0
 40
9.0
 10
92.0348646145781
 20
-92.60123831235317
 30
0.0
 10
92.0348646145781
 20
-92.60123831235317
 30
0.0
 10
90.54520532675606
 20
-91.59079180652939
 30
0.0
 10
91.01856144642939
 20
-89.90217825443417
 30
0.0
 10
91.01856144642939
 20
-89.90217825443417
 30
0.0
 10
91.57735593413692
 20
-88.6662502491008
 30
0.0
 10
92.48065997036942
 20
-87.02948538405861
 30
0.0
 10
92.48065997036942
 20
-87.02948538405861
 30
0.0
 10
92.73904213176315
 20
-86.52598467888934
 30
0.0
 10
92.82516951889441
 20
-85.89639347895994
 30
0.0
 10
92.82516951889441
 20
-85.89639347895994
 30
0.0
 10
93.27165389378277
 20
-82.38015677193969
 30
0.0
 10
94.11570228766899
 20
-82.38015677193969
 30
0.0
 10
94.11570228766899
 20
-82.38015677193969
 30
0.0
 10
96.64922550752173
 20
-82.0025743067563
 30
0.0
 10
98.80930037677337
 20
-82.38015677193969
 30
0.0
 10
99.63956838871858
 20
-82.52536754664296
 30
0.0
 10
99.88485918726837
 20
-85.89639347895994
 30
0.0
 10
99.88485918726837
 20
-85.89639347895994
 30
0.0
 10
99.97064206485109
 20
-86.52598467888934
 30
0.0
 10
100.2286797166963
 20
-87.02948538405861
 30
0.0
 10
100.2286797166963
 20
-87.02948538405861
 30
0.0
 10
101.1319837529288
 20
-88.6662502491008
 30
0.0
 10
101.6914672597334
 20
-89.90217825443417
 30
0.0
 10
101.6914672597334
 20
-89.90217825443417
 30
0.0
 10
102.1644788698581
 20
-91.59079180652939
 30
0.0
 10
100.5163451897146
 20
-92.70045706232837
 30
0.0
 10
100.5163451897146
 20
-92.70045706232837
 30
0.0
  0
SPLINE
  5
5B
330
53
100
AcDbEntity
  8
Text
 62
   250
370
     9
100
AcDbSpline
210
0.0
220
0.0
230
1.0
 70
     8
 71
     3
 72
    26
 73
    22
 74
     0
 42
0.000000001
 43
0.0000000001
 40
0.0
 40
0.0
 40
0.0
 40
0.0
 40
1.0
 40
1.0
 40
1.0
 40
2.0
 40
2.0
 40
2.0
 40
3.0
 40
3.0
 40
3.0
 40
4.0
 40
4.0
 40
4.0
 40
5.0
 40
5.0
 40
5.0
 40
6.0
 40
6.0
 40
6.0
 40
7.0
 40
7.0
 40
7.0
 40
7.0
 10
96.35501435308139
 20
-93.18259817548907
 30
0.0
 10
96.35501435308139
 20
-93.18259817548907
 30
0.0
 10
99.28231198689818
 20
-93.03997122239973
 30
0.0
 10
99.28231198689818
 20
-93.03997122239973
 30
0.0
 10
100.3148071038275
 20
-92.99811331225395
 30
0.0
 10
100.3148071038275
 20
-92.79140758313896
 30
0.0
 10
100.3148071038275
 20
-92.79140758313896
 30
0.0
 10
100.9600734882148
 20
-92.58487410879823
 30
0.0
 10
101.7341864437505
 20
-91.48709443242337
 30
0.0
 10
101.7341864437505
 20
-91.48709443242337
 30
0.0
 10
102.831104846254
 20
-89.79176294413191
 30
0.0
 10
100.3148071038275
 20
-86.56784258903511
 30
0.0
 10
100.3148071038275
 20
-86.56784258903511
 30
0.0
 10
100.3148071038275
 20
-86.56784258903511
 30
0.0
 10
100.1642564311221
 20
-86.42280406910611
 30
0.0
 10
100.0998331455479
 20
-85.93842364387999
 30
0.0
 10
100.0998331455479
 20
-85.93842364387999
 30
0.0
 10
99.82835962131026
 20
-82.60081513776993
 30
0.0
 10
99.18309323692298
 20
-82.32434622507865
 30
0.0
 10
99.18309323692298
 20
-82.32434622507865
 30
0.0
 10
98.98155515103587
 20
-81.97776961926249
 30
0.0
 10
96.35501435308139
 20
-81.97776961926249
 30
0.0
  0
SPLINE
  5
5C
330
53
100
AcDbEntity
  8
Text
 62
   250
370
     9
100
AcDbSpline
210
0.0
220
0.0
230
1.0
 70
     8
 71
     3
 72
    11
 73
     7
 74
     0
 42
0.000000001
 43
0.0000000001
 40
0.0
 40
0.0
 40
0.0
 40
0.0
 40
1.0
 40
1.0
 40
1.0
 40
2.0
 40
2.0
 40
2.0
 40
2.0
 10
99.88485918726837
 20
-92.40004473601457
 30
0.0
 10
99.88485918726837
 20
-92.40004473601457
 30
0.0
 10
99.34673527247234
 20
-89.34700111698615
 30
0.0
 10
98.80930037677337
 20
-87.78499482397389
 30
0.0
 10
98.80930037677337
 20
-87.78499482397389
 30
0.0
 10
99.06733802861859
 20
-87.41275225679265
 30
0.0
 10
99.34673527247234
 20
-87.3050930228786
 30
0.0
  0
SPLINE
  5
5D
330
53
100
AcDbEntity
  8
Text
 62
   250
370
     9
100
AcDbSpline
210
0.0
220
0.0
230
1.0
 70
     8
 71
     3
 72
     8
 73
     4
 74
     0
 42
0.000000001
 43
0.0000000001
 40
0.0
 40
0.0
 40
0.0
 40
0.0
 40
1.0
 40
1.0
 40
1.0
 40
1.0
 10
96.35501435308139
 20
-87.3050930228786
 30
0.0
 10
96.35501435308139
 20
-87.3050930228786
 30
0.0
 10
97.94871552455797
 20
-87.40706784924197
 30
0.0
 10
98.80930037677337
 20
-87.78499482397389
 30
0.0
  0
ENDBLK
  5
56
330
53
100
AcDbEntity
  8
0
100
AcDbBlockEnd
  0
BLOCK
  5
62
330
60
100
AcDbEntity
  8
0
100
AcDbBlockBegin
  2
block 8
 70
     0
 10
0.0
 20
0.0
 30
0.0
  3
block 8
  1

  0
SPLINE
  5
64
330
60
100
AcDbEntity
  8
Text
 62
   250
370
     9
100
AcDbSpline
210
0.0
220
0.0
230
1.0
 70
     8
 71
     3
 72
    26
 73
    22
 74
     0
 42
0.000000001
 43
0.0000000001
 40
0.0
 40
0.0
 40
0.0
 40
0.0
 40
1.0
 40
1.0
 40
1.0
 40
2.0
 40
2.0
 40
2.0
 40
3.0
 40
3.0
 40
3.0
 40
4.0
 40
4.0
 40
4.0
 40
5.0
 40
5.0
 40
5.0
 40
6.0
 40
6.0
 40
6.0
 40
7.0
 40
7.0
 40
7.0
 40
7.0
 10
96.35501435308139
 20
-121.0330945877973
 30
0.0
 10
96.35501435308139
 20
-121.0330945877973
 30
0.0
 10
93.42737220971608
 20
-120.8904676347079
 30
0.0
 10
93.42737220971608
 20
-120.8904676347079
 30
0.0
 10
92.3948770927867
 20
-120.8484374697879
 30
0.0
 10
92.3948770927867
 20
-120.6420762502214
 30
0.0
 10
92.3948770927867
 20
-120.6420762502214
 30
0.0
 10
91.74961070839939
 20
-120.4353705211064
 30
0.0
 10
90.97515324331524
 20
-119.3377630995058
 30
0.0
 10
90.97515324331524
 20
-119.3377630995058
 30
0.0
 10
89.8782348408117
 20
-117.6420871016659
 30
0.0
 10
92.3948770927867
 20
-114.4185112561176
 30
0.0
 10
92.3948770927867
 20
-114.4185112561176
 30
0.0
 10
92.3948770927867
 20
-114.4185112561176
 30
0.0
 10
92.54542776549213
 20
-114.27312822664
 30
0.0
 10
92.60985105106628
 20
-113.7887478014139
 30
0.0
 10
92.60985105106628
 20
-113.7887478014139
 30
0.0
 10
92.8816690848525
 20
-110.4511392953039
 30
0.0
 10
93.52659095969128
 20
-110.1748426373868
 30
0.0
 10
93.52659095969128
 20
-110.1748426373868
 30
0.0
 10
93.72847355512691
 20
-109.8282660315707
 30
0.0
 10
96.35501435308139
 20
-109.8282660315707
 30
0.0
  0
SPLINE
  5
65
330
60
100
AcDbEntity
  8
Text
 62
   250
370
     9
100
AcDbSpline
210
0.0
220
0.0
230
1.0
 70
     8
 71
     3
 72
    11
 73
     7
 74
     0
 42
0.000000001
 43
0.0000000001
 40
0.0
 40
0.0
 40
0.0
 40
0.0
 40
1.0
 40
1.0
 40
1.0
 40
2.0
 40
2.0
 40
2.0
 40
2.0
 10
92.82516951889441
 20
-120.250713403097
 30
0.0
 10
92.82516951889441
 20
-120.250713403097
 30
0.0
 10
93.36260441459337
 20
-117.2813856043602
 30
0.0
 10
93.9007283293894
 20
-115.6353189815078
 30
0.0
 10
93.9007283293894
 20
-115.6353189815078
 30
0.0
 10
93.64234616799567
 20
-115.2632486691008
 30
0.0
 10
93.36260441459337
 20
-115.155761689961
 30
0.0
  0
SPLINE
  5
66
330
60
100
AcDbEntity
  8
Text
 62
   250
370
     9
100
AcDbSpline
210
0.0
220
0.0
230
1.0
 70
     8
 71
     3
 72
     8
 73
     4
 74
     0
 42
0.000000001
 43
0.0000000001
 40
0.0
 40
0.0
 40
0.0
 40
0.0
 40
1.0
 40
1.0
 40
1.0
 40
1.0
 10
96.35501435308139
 20
-115.155761689961
 30
0.0
 10
96.35501435308139
 20
-115.155761689961
 30
0.0
 10
94.76062416250776
 20
-115.2577365163244
 30
0.0
 10
93.9007283293894
 20
-115.6353189815078
 30
0.0
  0
SPLINE
  5
67
330
60
100
AcDbEntity
  8
Text
 62
   250
370
     9
100
AcDbSpline
210
0.0
220
0.0
230
1.0
 70
     8
 71
     3
 72
    32
 73
    28
 74
     0
 42
0.000000001
 43
0.0000000001
 40
0.0
 40
0.0
 40
0.0
 40
0.0
 40
1.0
 40
1.0
 40
1.0
 40
2.0
 40
2.0
 40
2.0
 40
3.0
 40
3.0
 40
3.0
 40
4.0
 40
4.0
 40
4.0
 40
5.0
 40
5.0
 40
5.0
 40
6.0
 40
6.0
 40
6.0
 40
7.0
 40
7.0
 40
7.0
 40
8.0
 40
8.0
 40
8.0
 40
9.0
 40
9.0
 40
9.0
 40
9.0
 10
92.0348646145781
 20
-120.4515624698871
 30
0.0
 10
92.0348646145781
 20
-120.4515624698871
 30
0.0
 10
90.54520532675606
 20
-119.4414604736119
 30
0.0
 10
91.01856144642939
 20
-117.7526746667424
 30
0.0
 10
91.01856144642939
 20
-117.7526746667424
 30
0.0
 10
91.57735593413692
 20
-116.5165744066347
 30
0.0
 10
92.48065997036942
 20
-114.880154051141
 30
0.0
 10
92.48065997036942
 20
-114.880154051141
 30
0.0
 10
92.73904213176315
 20
-114.3764810911975
 30
0.0
 10
92.82516951889441
 20
-113.7470621460424
 30
0.0
 10
92.82516951889441
 20
-113.7470621460424
 30
0.0
 10
93.27165389378277
 20
-110.2306531842479
 30
0.0
 10
94.11570228766899
 20
-110.2306531842479
 30
0.0
 10
94.11570228766899
 20
-110.2306531842479
 30
0.0
 10
96.64922550752173
 20
-109.8530707190645
 30
0.0
 10
98.80930037677337
 20
-110.2306531842479
 30
0.0
 10
99.63956838871858
 20
-110.3760362137254
 30
0.0
 10
99.88485918726837
 20
-113.7470621460424
 30
0.0
 10
99.88485918726837
 20
-113.7470621460424
 30
0.0
 10
99.97064206485109
 20
-114.3764810911975
 30
0.0
 10
100.2286797166963
 20
-114.880154051141
 30
0.0
 10
100.2286797166963
 20
-114.880154051141
 30
0.0
 10
101.1319837529288
 20
-116.5165744066347
 30
0.0
 10
101.6914672597334
 20
-117.7526746667424
 30
0.0
 10
101.6914672597334
 20
-117.7526746667424
 30
0.0
 10
102.1644788698581
 20
-119.4414604736119
 30
0.0
 10
100.5163451897146
 20
-120.5507812198623
 30
0.0
 10
100.5163451897146
 20
-120.5507812198623
 30
0.0
  0
SPLINE
  5
68
330
60
100
AcDbEntity
  8
Text
 62
   250
370
     9
100
AcDbSpline
210
0.0
220
0.0
230
1.0
 70
     8
 71
     3
 72
    26
 73
    22
 74
     0
 42
0.000000001
 43
0.0000000001
 40
0.0
 40
0.0
 40
0.0
 40
0.0
 40
1.0
 40
1.0
 40
1.0
 40
2.0
 40
2.0
 40
2.0
 40
3.0
 40
3.0
 40
3.0
 40
4.0
 40
4.0
 40
4.0
 40
5.0
 40
5.0
 40
5.0
 40
6.0
 40
6.0
 40
6.0
 40
7.0
 40
7.0
 40
7.0
 40
7.0
 10
96.35501435308139
 20
-121.0330945877973
 30
0.0
 10
96.35501435308139
 20
-121.0330945877973
 30
0.0
 10
99.28231198689818
 20
-120.8904676347079
 30
0.0
 10
99.28231198689818
 20
-120.8904676347079
 30
0.0
 10
100.3148071038275
 20
-120.8484374697879
 30
0.0
 10
100.3148071038275
 20
-120.6420762502214
 30
0.0
 10
100.3148071038275
 20
-120.6420762502214
 30
0.0
 10
100.9600734882148
 20
-120.4353705211064
 30
0.0
 10
101.7341864437505
 20
-119.3377630995058
 30
0.0
 10
101.7341864437505
 20
-119.3377630995058
 30
0.0
 10
102.831104846254
 20
-117.6420871016659
 30
0.0
 10
100.3148071038275
 20
-114.4185112561176
 30
0.0
 10
100.3148071038275
 20
-114.4185112561176
 30
0.0
 10
100.3148071038275
 20
-114.4185112561176
 30
0.0
 10
100.1642564311221
 20
-114.27312822664
 30
0.0
 10
100.0998331455479
 20
-113.7887478014139
 30
0.0
 10
100.0998331455479
 20
-113.7887478014139
 30
0.0
 10
99.82835962131026
 20
-110.4511392953039
 30
0.0
 10
99.18309323692298
 20
-110.1748426373868
 30
0.0
 10
99.18309323692298
 20
-110.1748426373868
 30
0.0
 10
98.98155515103587
 20
-109.8282660315707
 30
0.0
 10
96.35501435308139
 20
-109.8282660315707
 30
0.0
  0
SPLINE
  5
69
330
60
100
AcDbEntity
  8
Text
 62
   250
370
     9
100
AcDbSpline
210
0.0
220
0.0
230
1.0
 70
     8
 71
     3
 72
    11
 73
     7
 74
     0
 42
0.000000001
 43
0.0000000001
 40
0.0
 40
0.0
 40
0.0
 40
0.0
 40
1.0
 40
1.0
 40
1.0
 40
2.0
 40
2.0
 40
2.0
 40
2.0
 10
99.88485918726837
 20
-120.250713403097
 30
0.0
 10
99.88485918726837
 20
-120.250713403097
 30
0.0
 10
99.34673527247234
 20
-117.1973252745201
 30
0.0
 10
98.80930037677337
 20
-115.6353189815078
 30
0.0
 10
98.80930037677337
 20
-115.6353189815078
 30
0.0
 10
99.06733802861859
 20
-115.2632486691008
 30
0.0
 10
99.34673527247234
 20
-115.155761689961
 30
0.0
  0
SPLINE
  5
6A
330
60
100
AcDbEntity
  8
Text
 62
   250
370
     9
100
AcDbSpline
210
0.0
220
0.0
230
1.0
 70
     8
 71
     3
 72
     8
 73
     4
 74
     0
 42
0.000000001
 43
0.0000000001
 40
0.0
 40
0.0
 40
0.0
 40
0.0
 40
1.0
 40
1.0
 40
1.0
 40
1.0
 10
96.35501435308139
 20
-115.155761689961
 30
0.0
 10
96.35501435308139
 20
-115.155761689961
 30
0.0
 10
97.94871552455797
 20
-115.2577365163244
 30
0.0
 10
98.80930037677337
 20
-115.6353189815078
 30
0.0
  0
ENDBLK
  5
63
330
60
100
AcDbEntity
  8
0
100
AcDbBlockEnd
  0
BLOCK
  5
71
330
6F
100
AcDbEntity
  8
0
100
AcDbBlockBegin
  2
block 9
 70
     0
 10
0.0
 20
0.0
 30
0.0
  3
block 9
  1

  0
SPLINE
  5
73
330
6F
100
AcDbEntity
  8
Text
 62
   250
370
     9
100
AcDbSpline
210
0.0
220
0.0
230
1.0
 70
     8
 71
     3
 72
    35
 73
    31
 74
     0
 42
0.000000001
 43
0.0000000001
 40
0.0
 40
0.0
 40
0.0
 40
0.0
 40
1.0
 40
1.0
 40
1.0
 40
2.0
 40
2.0
 40
2.0
 40
3.0
 40
3.0
 40
3.0
 40
4.0
 40
4.0
 40
4.0
 40
5.0
 40
5.0
 40
5.0
 40
6.0
 40
6.0
 40
6.0
 40
7.0
 40
7.0
 40
7.0
 40
8.0
 40
8.0
 40
8.0
 40
9.0
 40
9.0
 40
9.0
 40
10.0
 40
10.0
 40
10.0
 40
10.0
 10
165.4079914951063
 20
-88.63937850431586
 30
0.0
 10
164.5660101585113
 20
-89.53940969983738
 30
0.0
 10
165.2088649760589
 20
-89.80829940246112
 30
0.0
 10
165.2088649760589
 20
-89.80829940246112
 30
0.0
 10
165.5127223978579
 20
-89.97194143801049
 30
0.0
 10
166.0508463126539
 20
-89.92526039418535
 30
0.0
 10
166.0508463126539
 20
-89.92526039418535
 30
0.0
 10
166.4015570330524
 20
-89.73819170933628
 30
0.0
 10
167.126405123149
 20
-89.71476506003659
 30
0.0
 10
167.126405123149
 20
-89.71476506003659
 30
0.0
 10
172.5262477867295
 20
-90.25254446528409
 30
0.0
 10
172.0956108510733
 20
-89.97194143801049
 30
0.0
 10
172.0956108510733
 20
-89.97194143801049
 30
0.0
 10
173.9194444009646
 20
-89.76161835863598
 30
0.0
 10
174.6904567705635
 20
-87.21345348297095
 30
0.0
 10
174.6904567705635
 20
-87.21345348297095
 30
0.0
 10
174.6904567705635
 20
-87.21345348297095
 30
0.0
 10
175.9995930549584
 20
-82.67798527663954
 30
0.0
 10
175.9995930549584
 20
-82.67798527663954
 30
0.0
 10
176.420583723256
 20
-81.53231877301969
 30
0.0
 10
176.1167263014569
 20
-80.8544962362968
 30
0.0
 10
176.1167263014569
 20
-80.8544962362968
 30
0.0
 10
176.1167263014569
 20
-80.8544962362968
 30
0.0
 10
176.187006249356
 20
-80.74924856922242
 30
0.0
 10
176.0581596782077
 20
-80.74924856922242
 30
0.0
 10
176.0581596782077
 20
-80.74924856922242
 30
0.0
 10
175.5792914057579
 20
-80.5912909412237
 30
0.0
 10
175.1817273867601
 20
-80.64400090214803
 30
0.0
 10
175.1817273867601
 20
-80.64400090214803
 30
0.0
 10
173.5776909288278
 20
-80.85552976494238
 30
0.0
 10
171.6725531254846
 20
-86.58317326394449
 30
0.0
  0
SPLINE
  5
74
330
6F
100
AcDbEntity
  8
Text
 62
   250
370
     9
100
AcDbSpline
210
0.0
220
0.0
230
1.0
 70
     8
 71
     3
 72
    11
 73
     7
 74
     0
 42
0.000000001
 43
0.0000000001
 40
0.0
 40
0.0
 40
0.0
 40
0.0
 40
1.0
 40
1.0
 40
1.0
 40
2.0
 40
2.0
 40
2.0
 40
2.0
 10
165.3377115472072
 20
-88.95494925076475
 30
0.0
 10
165.3377115472072
 20
-88.95494925076475
 30
0.0
 10
165.6298556443564
 20
-86.80434839409754
 30
0.0
 10
167.8271375448487
 20
-86.4650064888004
 30
0.0
 10
167.8271375448487
 20
-86.4650064888004
 30
0.0
 10
170.2841796449289
 20
-85.90414494380175
 30
0.0
 10
173.4398871094178
 20
-87.08477916659687
 30
0.0
  0
SPLINE
  5
75
330
6F
100
AcDbEntity
  8
Text
 62
   250
370
     9
100
AcDbSpline
210
0.0
220
0.0
230
1.0
 70
     8
 71
     3
 72
    29
 73
    25
 74
     0
 42
0.000000001
 43
0.0000000001
 40
0.0
 40
0.0
 40
0.0
 40
0.0
 40
1.0
 40
1.0
 40
1.0
 40
2.0
 40
2.0
 40
2.0
 40
3.0
 40
3.0
 40
3.0
 40
4.0
 40
4.0
 40
4.0
 40
5.0
 40
5.0
 40
5.0
 40
6.0
 40
6.0
 40
6.0
 40
7.0
 40
7.0
 40
7.0
 40
8.0
 40
8.0
 40
8.0
 40
8.0
 10
176.131195702495
 20
-80.77749835220146
 30
0.0
 10
176.131195702495
 20
-80.77749835220146
 30
0.0
 10
175.8948621522068
 20
-81.00642494719631
 30
0.0
 10
175.8480088536074
 20
-81.43895668536943
 30
0.0
 10
175.8480088536074
 20
-81.43895668536943
 30
0.0
 10
174.5622992185122
 20
-86.83931611327281
 30
0.0
 10
173.9897243488637
 20
-87.33006996514665
 30
0.0
 10
173.9897243488637
 20
-87.33006996514665
 30
0.0
 10
173.884304427015
 20
-87.70420733484478
 30
0.0
 10
173.4398871094178
 20
-87.57570527324496
 30
0.0
 10
173.4398871094178
 20
-87.57570527324496
 30
0.0
 10
172.5166015193708
 20
-87.21345348297095
 30
0.0
 10
170.9973144103757
 20
-87.00278589404792
 30
0.0
 10
169.4773382822834
 20
-86.79263506944769
 30
0.0
 10
168.0028374145965
 20
-86.8977104817478
 30
0.0
 10
167.1022894547522
 20
-87.16660018437154
 30
0.0
 10
167.1022894547522
 20
-87.16660018437154
 30
0.0
 10
166.3195637605034
 20
-87.40034991304574
 30
0.0
 10
166.0625596373038
 20
-88.42888317016708
 30
0.0
 10
165.8048664950071
 20
-89.45776093683695
 30
0.0
 10
166.0625596373038
 20
-88.48744979341633
 30
0.0
 10
166.0625596373038
 20
-88.48744979341633
 30
0.0
 10
166.0625596373038
 20
-88.48744979341633
 30
0.0
 10
165.6408799499092
 20
-90.13696151175395
 30
0.0
 10
165.0627929274843
 20
-89.69219968460819
 30
0.0
  0
POLYLINE
  5
76
330
6F
100
AcDbEntity
  8
Text
 62
   250
370
     9
100
AcDb2dPolyline
 66
     1
 10
0.0
 20
0.0
 30
0.0
  0
VERTEX
  5
77
330
76
100
AcDbEntity
  8
Text
 62
   250
370
     9
100
AcDbVertex
100
AcDb2dVertex
 10
169.0212076400364
 20
-92.36817760277601
 30
0.0
  0
VERTEX
  5
78
330
76
100
AcDbEntity
  8
Text
 62
   250
370
     9
100
AcDbVertex
100
AcDb2dVertex
 10
169.7674153221415
 20
-92.36817760277601
 30
0.0
  0
VERTEX
  5
79
330
76
100
AcDbEntity
  8
Text
 62
   250
370
     9
100
AcDbVertex
100
AcDb2dVertex
 10
169.7674153221415
 20
-89.9838270174346
 30
0.0
  0
VERTEX
  5
7A
330
76
100
AcDbEntity
  8
Text
 62
   250
370
     9
100
AcDbVertex
100
AcDb2dVertex
 10
169.0212076400364
 20
-89.93128931128454
 30
0.0
  0
VERTEX
  5
7B
330
76
100
AcDbEntity
  8
Text
 62
   250
370
     9
100
AcDbVertex
100
AcDb2dVertex
 10
169.0212076400364
 20
-92.36817760277601
 30
0.0
  0
SEQEND
  5
7C
330
76
100
AcDbEntity
  8
Text
370
     9
  0
POLYLINE
  5
7D
330
6F
100
AcDbEntity
  8
Text
 62
   250
370
     9
100
AcDb2dPolyline
 66
     1
 10
0.0
 20
0.0
 30
0.0
  0
VERTEX
  5
7E
330
7D
100
AcDbEntity
  8
Text
 62
   250
370
     9
100
AcDbVertex
100
AcDb2dVertex
 10
172.9920246963353
 20
-93.18259817548907
 30
0.0
  0
VERTEX
  5
7F
330
7D
100
AcDbEntity
  8
Text
 62
   250
370
     9
100
AcDbVertex
100
AcDb2dVertex
 10
169.8562987856609
 20
-93.18259817548907
 30
0.0
  0
VERTEX
  5
80
330
7D
100
AcDbEntity
  8
Text
 62
   250
370
     9
100
AcDbVertex
100
AcDb2dVertex
 10
169.8562987856609
 20
-92.36817760277601
 30
0.0
  0
VERTEX
  5
81
330
7D
100
AcDbEntity
  8
Text
 62
   250
370
     9
100
AcDbVertex
100
AcDb2dVertex
 10
172.7736056425705
 20
-92.36817760277601
 30
0.0
  0
VERTEX
  5
82
330
7D
100
AcDbEntity
  8
Text
 62
   250
370
     9
100
AcDbVertex
100
AcDb2dVertex
 10
172.9920246963353
 20
-93.18259817548907
 30
0.0
  0
SEQEND
  5
83
330
7D
100
AcDbEntity
  8
Text
370
     9
  0
POLYLINE
  5
84
330
6F
100
AcDbEntity
  8
Text
 62
   250
370
     9
100
AcDb2dPolyline
 66
     1
 10
0.0
 20
0.0
 30
0.0
  0
VERTEX
  5
85
330
84
100
AcDbEntity
  8
Text
 62
   250
370
     9
100
AcDbVertex
100
AcDb2dVertex
 10
168.9605739594959
 20
-93.18259817548907
 30
0.0
  0
VERTEX
  5
86
330
84
100
AcDbEntity
  8
Text
 62
   250
370
     9
100
AcDbVertex
100
AcDb2dVertex
 10
165.7972872849396
 20
-93.18259817548907
 30
0.0
  0
VERTEX
  5
87
330
84
100
AcDbEntity
  8
Text
 62
   250
370
     9
100
AcDbVertex
100
AcDb2dVertex
 10
166.1032117640298
 20
-92.36817760277601
 30
0.0
  0
VERTEX
  5
88
330
84
100
AcDbEntity
  8
Text
 62
   250
370
     9
100
AcDbVertex
100
AcDb2dVertex
 10
168.9605739594959
 20
-92.36817760277601
 30
0.0
  0
VERTEX
  5
89
330
84
100
AcDbEntity
  8
Text
 62
   250
370
     9
100
AcDbVertex
100
AcDb2dVertex
 10
168.9605739594959
 20
-93.18259817548907
 30
0.0
  0
SEQEND
  5
8A
330
84
100
AcDbEntity
  8
Text
370
     9
  0
POLYLINE
  5
8B
330
6F
100
AcDbEntity
  8
Text
 62
   250
370
     9
100
AcDb2dPolyline
 66
     1
 10
0.0
 20
0.0
 30
0.0
  0
VERTEX
  5
8C
330
8B
100
AcDbEntity
  8
Text
 62
   250
370
     9
100
AcDbVertex
100
AcDb2dVertex
 10
169.9982367196532
 20
-93.18259817548907
 30
0.0
  0
VERTEX
  5
8D
330
8B
100
AcDbEntity
  8
Text
 62
   250
370
     9
100
AcDbVertex
100
AcDb2dVertex
 10
168.7752278223895
 20
-93.18259817548907
 30
0.0
  0
SEQEND
  5
8E
330
8B
100
AcDbEntity
  8
Text
370
     9
  0
ENDBLK
  5
72
330
6F
100
AcDbEntity
  8
0
100
AcDbBlockEnd
  0
BLOCK
  5
93
330
91
100
AcDbEntity
  8
0
100
AcDbBlockBegin
  2
block 10
 70
     0
 10
0.0
 20
0.0
 30
0.0
  3
block 10
  1

  0
SPLINE
  5
95
330
91
100
AcDbEntity
  8
Text
 62
   250
370
     9
100
AcDbSpline
210
0.0
220
0.0
230
1.0
 70
     8
 71
     3
 72
    11
 73
     7
 74
     0
 42
0.000000001
 43
0.0000000001
 40
0.0
 40
0.0
 40
0.0
 40
0.0
 40
1.0
 40
1.0
 40
1.0
 40
2.0
 40
2.0
 40
2.0
 40
2.0
 10
165.3377115472072
 20
-116.8052734082987
 30
0.0
 10
165.3377115472072
 20
-116.8052734082987
 30
0.0
 10
165.6298556443564
 20
-114.6548448064057
 30
0.0
 10
167.8271375448487
 20
-114.3158474106571
 30
0.0
 10
167.8271375448487
 20
-114.3158474106571
 30
0.0
 10
170.2841796449289
 20
-113.7542968465614
 30
0.0
 10
173.4398871094178
 20
-114.9352755789051
 30
0.0
  0
SPLINE
  5
96
330
91
100
AcDbEntity
  8
Text
 62
   250
370
     9
100
AcDbSpline
210
0.0
220
0.0
230
1.0
 70
     8
 71
     3
 72
    29
 73
    25
 74
     0
 42
0.000000001
 43
0.0000000001
 40
0.0
 40
0.0
 40
0.0
 40
0.0
 40
1.0
 40
1.0
 40
1.0
 40
2.0
 40
2.0
 40
2.0
 40
3.0
 40
3.0
 40
3.0
 40
4.0
 40
4.0
 40
4.0
 40
5.0
 40
5.0
 40
5.0
 40
6.0
 40
6.0
 40
6.0
 40
7.0
 40
7.0
 40
7.0
 40
8.0
 40
8.0
 40
8.0
 40
8.0
 10
175.9334472216416
 20
-105.6169813104013
 30
0.0
 10
175.9334472216416
 20
-105.6169813104013
 30
0.0
 10
175.7777289057083
 20
-107.9761826987004
 30
0.0
 10
175.7308756071089
 20
-108.4085421820992
 30
0.0
 10
175.7308756071089
 20
-108.4085421820992
 30
0.0
 10
174.5622992185122
 20
-114.6899847803553
 30
0.0
 10
173.9890353297666
 20
-115.1805663774548
 30
0.0
 10
173.9890353297666
 20
-115.1805663774548
 30
0.0
 10
173.884304427015
 20
-115.554703747153
 30
0.0
 10
173.4398871094178
 20
-115.4258571760046
 30
0.0
 10
173.4398871094178
 20
-115.4258571760046
 30
0.0
 10
172.5166015193708
 20
-115.0637776405049
 30
0.0
 10
170.9966253912786
 20
-114.8532823063561
 30
0.0
 10
169.4773382822834
 20
-114.6431314817559
 30
0.0
 10
168.0028374145965
 20
-114.748206894056
 30
0.0
 10
167.1022894547522
 20
-115.017268851454
 30
0.0
 10
167.1022894547522
 20
-115.017268851454
 30
0.0
 10
166.3195637605034
 20
-115.2508463253539
 30
0.0
 10
166.0625596373038
 20
-116.2795518372495
 30
0.0
 10
165.8048664950071
 20
-117.3082573491451
 30
0.0
 10
166.0625596373038
 20
-116.3381184604988
 30
0.0
 10
166.0625596373038
 20
-116.3381184604988
 30
0.0
 10
166.0625596373038
 20
-116.3381184604988
 30
0.0
 10
165.6408799499092
 20
-117.9876301788364
 30
0.0
 10
165.0627929274843
 20
-117.5425238421421
 30
0.0
  0
POLYLINE
  5
97
330
91
100
AcDbEntity
  8
Text
 62
   250
370
     9
100
AcDb2dPolyline
 66
     1
 10
0.0
 20
0.0
 30
0.0
  0
VERTEX
  5
98
330
97
100
AcDbEntity
  8
Text
 62
   250
370
     9
100
AcDbVertex
100
AcDb2dVertex
 10
169.0212076400364
 20
-120.2186740150842
 30
0.0
  0
VERTEX
  5
99
330
97
100
AcDbEntity
  8
Text
 62
   250
370
     9
100
AcDbVertex
100
AcDb2dVertex
 10
169.7674153221415
 20
-120.2186740150842
 30
0.0
  0
VERTEX
  5
9A
330
97
100
AcDbEntity
  8
Text
 62
   250
370
     9
100
AcDbVertex
100
AcDb2dVertex
 10
169.7674153221415
 20
-117.8339789201943
 30
0.0
  0
VERTEX
  5
9B
330
97
100
AcDbEntity
  8
Text
 62
   250
370
     9
100
AcDbVertex
100
AcDb2dVertex
 10
169.0212076400364
 20
-117.7816134688185
 30
0.0
  0
VERTEX
  5
9C
330
97
100
AcDbEntity
  8
Text
 62
   250
370
     9
100
AcDbVertex
100
AcDb2dVertex
 10
169.0212076400364
 20
-120.2186740150842
 30
0.0
  0
SEQEND
  5
9D
330
97
100
AcDbEntity
  8
Text
370
     9
  0
POLYLINE
  5
9E
330
91
100
AcDbEntity
  8
Text
 62
   250
370
     9
100
AcDb2dPolyline
 66
     1
 10
0.0
 20
0.0
 30
0.0
  0
VERTEX
  5
9F
330
9E
100
AcDbEntity
  8
Text
 62
   250
370
     9
100
AcDbVertex
100
AcDb2dVertex
 10
172.9920246963353
 20
-121.0330945877973
 30
0.0
  0
VERTEX
  5
A0
330
9E
100
AcDbEntity
  8
Text
 62
   250
370
     9
100
AcDbVertex
100
AcDb2dVertex
 10
169.8562987856609
 20
-121.0330945877973
 30
0.0
  0
VERTEX
  5
A1
330
9E
100
AcDbEntity
  8
Text
 62
   250
370
     9
100
AcDbVertex
100
AcDb2dVertex
 10
169.8562987856609
 20
-120.2186740150842
 30
0.0
  0
VERTEX
  5
A2
330
9E
100
AcDbEntity
  8
Text
 62
   250
370
     9
100
AcDbVertex
100
AcDb2dVertex
 10
172.7736056425705
 20
-120.2186740150842
 30
0.0
  0
VERTEX
  5
A3
330
9E
100
AcDbEntity
  8
Text
 62
   250
370
     9
100
AcDbVertex
100
AcDb2dVertex
 10
172.9920246963353
 20
-121.0330945877973
 30
0.0
  0
SEQEND
  5
A4
330
9E
100
AcDbEntity
  8
Text
370
     9
  0
POLYLINE
  5
A5
330
91
100
AcDbEntity
  8
Text
 62
   250
370
     9
100
AcDb2dPolyline
 66
     1
 10
0.0
 20
0.0
 30
0.0
  0
VERTEX
  5
A6
330
A5
100
AcDbEntity
  8
Text
 62
   250
370
     9
100
AcDbVertex
100
AcDb2dVertex
 10
168.9605739594959
 20
-121.0330945877973
 30
0.0
  0
VERTEX
  5
A7
330
A5
100
AcDbEntity
  8
Text
 62
   250
370
     9
100
AcDbVertex
100
AcDb2dVertex
 10
165.7965982658425
 20
-121.0330945877973
 30
0.0
  0
VERTEX
  5
A8
330
A5
100
AcDbEntity
  8
Text
 62
   250
370
     9
100
AcDbVertex
100
AcDb2dVertex
 10
166.1032117640298
 20
-120.2186740150842
 30
0.0
  0
VERTEX
  5
A9
330
A5
100
AcDbEntity
  8
Text
 62
   250
370
     9
100
AcDbVertex
100
AcDb2dVertex
 10
168.9605739594959
 20
-120.2186740150842
 30
0.0
  0
VERTEX
  5
AA
330
A5
100
AcDbEntity
  8
Text
 62
   250
370
     9
100
AcDbVertex
100
AcDb2dVertex
 10
168.9605739594959
 20
-121.0330945877973
 30
0.0
  0
SEQEND
  5
AB
330
A5
100
AcDbEntity
  8
Text
370
     9
  0
POLYLINE
  5
AC
330
91
100
AcDbEntity
  8
Text
 62
   250
370
     9
100
AcDb2dPolyline
 66
     1
 10
0.0
 20
0.0
 30
0.0
  0
VERTEX
  5
AD
330
AC
100
AcDbEntity
  8
Text
 62
   250
370
     9
100
AcDbVertex
100
AcDb2dVertex
 10
169.9982367196532
 20
-121.0330945877973
 30
0.0
  0
VERTEX
  5
AE
330
AC
100
AcDbEntity
  8
Text
 62
   250
370
     9
100
AcDbVertex
100
AcDb2dVertex
 10
168.7745388032924
 20
-121.0330945877973
 30
0.0
  0
SEQEND
  5
AF
330
AC
100
AcDbEntity
  8
Text
370
     9
  0
SPLINE
  5
B0
330
91
100
AcDbEntity
  8
Text
 62
   250
370
     9
100
AcDbSpline
210
0.0
220
0.0
230
1.0
 70
     8
 71
     3
 72
    35
 73
    31
 74
     0
 42
0.000000001
 43
0.0000000001
 40
0.0
 40
0.0
 40
0.0
 40
0.0
 40
1.0
 40
1.0
 40
1.0
 40
2.0
 40
2.0
 40
2.0
 40
3.0
 40
3.0
 40
3.0
 40
4.0
 40
4.0
 40
4.0
 40
5.0
 40
5.0
 40
5.0
 40
6.0
 40
6.0
 40
6.0
 40
7.0
 40
7.0
 40
7.0
 40
8.0
 40
8.0
 40
8.0
 40
9.0
 40
9.0
 40
9.0
 40
10.0
 40
10.0
 40
10.0
 40
10.0
 10
165.4079914951063
 20
-116.4897026618498
 30
0.0
 10
164.5660101585113
 20
-117.3899061121456
 30
0.0
 10
165.2088649760589
 20
-117.6589680695436
 30
0.0
 10
165.2088649760589
 20
-117.6589680695436
 30
0.0
 10
165.5127223978579
 20
-117.8222655955444
 30
0.0
 10
166.0508463126539
 20
-117.775412296945
 30
0.0
 10
166.0508463126539
 20
-117.775412296945
 30
0.0
 10
166.4015570330524
 20
-117.5886881216445
 30
0.0
 10
167.1257161040519
 20
-117.5652614723448
 30
0.0
 10
167.1257161040519
 20
-117.5652614723448
 30
0.0
 10
172.5262477867295
 20
-118.1030408775923
 30
0.0
 10
172.0956108510733
 20
-117.8222655955444
 30
0.0
 10
172.0956108510733
 20
-117.8222655955444
 30
0.0
 10
173.9194444009646
 20
-117.6121147709442
 30
0.0
 10
174.6904567705635
 20
-115.0637776405049
 30
0.0
 10
174.6904567705635
 20
-115.0637776405049
 30
0.0
 10
174.6904567705635
 20
-115.0637776405049
 30
0.0
 10
175.8824598084599
 20
-109.6477430281436
 30
0.0
 10
175.8824598084599
 20
-109.6477430281436
 30
0.0
 10
175.8824598084599
 20
-109.6477430281436
 30
0.0
 10
176.4109374558973
 20
-107.6027343480993
 30
0.0
 10
176.1057019959041
 20
-105.6900173346886
 30
0.0
 10
176.1057019959041
 20
-105.6900173346886
 30
0.0
 10
174.9488389319572
 20
-105.047162517141
 30
0.0
 10
174.4244953991022
 20
-106.4451822650553
 30
0.0
 10
173.9001518662472
 20
-107.8425129938727
 30
0.0
 10
173.9180663627705
 20
-108.5211968044669
 30
0.0
 10
173.7471896267021
 20
-108.7823350422488
 30
0.0
 10
173.1718586806653
 20
-109.6518771427259
 30
0.0
 10
172.0466904951828
 20
-112.0889376889916
 30
0.0
 10
171.6511935334761
 20
-114.3840603012651
 30
0.0
  0
ENDBLK
  5
94
330
91
100
AcDbEntity
  8
0
100
AcDbBlockEnd
  0
BLOCK
  5
B3
330
B1
100
AcDbEntity
  8
0
100
AcDbBlockBegin
  2
block 11
 70
     0
 10
0.0
 20
0.0
 30
0.0
  3
block 11
  1

  0
ENDBLK
  5
B4
330
B1
100
AcDbEntity
  8
0
100
AcDbBlockEnd
  0
BLOCK
  5
B7
330
B5
100
AcDbEntity
  8
0
100
AcDbBlockBegin
  2
block 12
 70
     0
 10
0.0
 20
0.0
 30
0.0
  3
block 12
  1

  0
INSERT
  5
BA
330
B5
100
AcDbEntity
  8
Text
100
AcDbBlockReference
  2
block 13
 10
0.0
 20
0.0
 30
0.0
  0
INSERT
  5
BE
330
B5
100
AcDbEntity
  8
Text
100
AcDbBlockReference
  2
block 14
 10
0.0
 20
0.0
 30
0.0
  0
ENDBLK
  5
B8
330
B5
100
AcDbEntity
  8
0
100
AcDbBlockEnd
  0
BLOCK
  5
BB
330
B9
100
AcDbEntity
  8
0
100
AcDbBlockBegin
  2
block 13
 70
     0
 10
0.0
 20
0.0
 30
0.0
  3
block 13
  1

  0
ENDBLK
  5
BC
330
B9
100
AcDbEntity
  8
0
100
AcDbBlockEnd
  0
BLOCK
  5
BF
330
BD
100
AcDbEntity
  8
0
100
AcDbBlockBegin
  2
block 14
 70
     0
 10
0.0
 20
0.0
 30
0.0
  3
block 14
  1

  0
ENDBLK
  5
C0
330
BD
100
AcDbEntity
  8
0
100
AcDbBlockEnd
  0
BLOCK
  5
C8
330
C6
100
AcDbEntity
  8
0
100
AcDbBlockBegin
  2
block 15
 70
     0
 10
0.0
 20
0.0
 30
0.0
  3
block 15
  1

  0
SPLINE
  5
CA
330
C6
100
AcDbEntity
  8
Text
 62
   250
370
     9
100
AcDbSpline
210
0.0
220
0.0
230
1.0
 70
     8
 71
     3
 72
    11
 73
     7
 74
     0
 42
0.000000001
 43
0.0000000001
 40
0.0
 40
0.0
 40
0.0
 40
0.0
 40
1.0
 40
1.0
 40
1.0
 40
2.0
 40
2.0
 40
2.0
 40
2.0
 10
129.2039998049385
 20
-89.7271674037835
 30
0.0
 10
129.2039998049385
 20
-89.7271674037835
 30
0.0
 10
130.0566609375379
 20
-87.42963322467037
 30
0.0
 10
130.5313950954053
 20
-87.34660642347584
 30
0.0
 10
130.5313950954053
 20
-87.34660642347584
 30
0.0
 10
129.9508965061408
 20
-86.57335474181152
 30
0.0
 10
129.6246459636876
 20
-86.42711043846267
 30
0.0
  0
POLYLINE
  5
CB
330
C6
100
AcDbEntity
  8
Text
 62
   250
370
     9
100
AcDb2dPolyline
 66
     1
 10
0.0
 20
0.0
 30
0.0
  0
VERTEX
  5
CC
330
CB
100
AcDbEntity
  8
Text
 62
   250
370
     9
100
AcDbVertex
100
AcDb2dVertex
 10
133.5710028420413
 20
-92.36387123341947
 30
0.0
  0
VERTEX
  5
CD
330
CB
100
AcDbEntity
  8
Text
 62
   250
370
     9
100
AcDbVertex
100
AcDb2dVertex
 10
132.8210055549024
 20
-92.36387123341947
 30
0.0
  0
VERTEX
  5
CE
330
CB
100
AcDbEntity
  8
Text
 62
   250
370
     9
100
AcDbVertex
100
AcDb2dVertex
 10
132.8210055549024
 20
-89.96642928523408
 30
0.0
  0
VERTEX
  5
CF
330
CB
100
AcDbEntity
  8
Text
 62
   250
370
     9
100
AcDbVertex
100
AcDb2dVertex
 10
133.5710028420413
 20
-89.9659125209113
 30
0.0
  0
VERTEX
  5
D0
330
CB
100
AcDbEntity
  8
Text
 62
   250
370
     9
100
AcDbVertex
100
AcDb2dVertex
 10
133.5710028420413
 20
-92.36387123341947
 30
0.0
  0
SEQEND
  5
D1
330
CB
100
AcDbEntity
  8
Text
370
     9
  0
POLYLINE
  5
D2
330
C6
100
AcDbEntity
  8
Text
 62
   250
370
     9
100
AcDb2dPolyline
 66
     1
 10
0.0
 20
0.0
 30
0.0
  0
VERTEX
  5
D3
330
D2
100
AcDbEntity
  8
Text
 62
   250
370
     9
100
AcDbVertex
100
AcDb2dVertex
 10
129.5874389324469
 20
-93.18259817548907
 30
0.0
  0
VERTEX
  5
D4
330
D2
100
AcDbEntity
  8
Text
 62
   250
370
     9
100
AcDbVertex
100
AcDb2dVertex
 10
132.7397013014505
 20
-93.18259817548907
 30
0.0
  0
VERTEX
  5
D5
330
D2
100
AcDbEntity
  8
Text
 62
   250
370
     9
100
AcDbVertex
100
AcDb2dVertex
 10
132.7397013014505
 20
-92.36387123341947
 30
0.0
  0
VERTEX
  5
D6
330
D2
100
AcDbEntity
  8
Text
 62
   250
370
     9
100
AcDbVertex
100
AcDb2dVertex
 10
129.8065470053088
 20
-92.36387123341947
 30
0.0
  0
VERTEX
  5
D7
330
D2
100
AcDbEntity
  8
Text
 62
   250
370
     9
100
AcDbVertex
100
AcDb2dVertex
 10
129.5874389324469
 20
-93.18259817548907
 30
0.0
  0
SEQEND
  5
D8
330
D2
100
AcDbEntity
  8
Text
370
     9
  0
POLYLINE
  5
D9
330
C6
100
AcDbEntity
  8
Text
 62
   250
370
     9
100
AcDb2dPolyline
 66
     1
 10
0.0
 20
0.0
 30
0.0
  0
VERTEX
  5
DA
330
D9
100
AcDbEntity
  8
Text
 62
   250
370
     9
100
AcDbVertex
100
AcDb2dVertex
 10
133.6399047517463
 20
-93.18259817548907
 30
0.0
  0
VERTEX
  5
DB
330
D9
100
AcDbEntity
  8
Text
 62
   250
370
     9
100
AcDbVertex
100
AcDb2dVertex
 10
136.8207614132774
 20
-93.18259817548907
 30
0.0
  0
VERTEX
  5
DC
330
D9
100
AcDbEntity
  8
Text
 62
   250
370
     9
100
AcDbVertex
100
AcDb2dVertex
 10
136.5127698768961
 20
-92.36387123341947
 30
0.0
  0
VERTEX
  5
DD
330
D9
100
AcDbEntity
  8
Text
 62
   250
370
     9
100
AcDbVertex
100
AcDb2dVertex
 10
133.6399047517463
 20
-92.36387123341947
 30
0.0
  0
VERTEX
  5
DE
330
D9
100
AcDbEntity
  8
Text
 62
   250
370
     9
100
AcDbVertex
100
AcDb2dVertex
 10
133.6399047517463
 20
-93.18259817548907
 30
0.0
  0
SEQEND
  5
DF
330
D9
100
AcDbEntity
  8
Text
370
     9
  0
POLYLINE
  5
E0
330
C6
100
AcDbEntity
  8
Text
 62
   250
370
     9
100
AcDb2dPolyline
 66
     1
 10
0.0
 20
0.0
 30
0.0
  0
VERTEX
  5
E1
330
E0
100
AcDbEntity
  8
Text
 62
   250
370
     9
100
AcDbVertex
100
AcDb2dVertex
 10
132.5970743483611
 20
-93.18259817548907
 30
0.0
  0
VERTEX
  5
E2
330
E0
100
AcDbEntity
  8
Text
 62
   250
370
     9
100
AcDbVertex
100
AcDb2dVertex
 10
133.8269734365953
 20
-93.18259817548907
 30
0.0
  0
SEQEND
  5
E3
330
E0
100
AcDbEntity
  8
Text
370
     9
  0
SPLINE
  5
E4
330
C6
100
AcDbEntity
  8
Text
 62
   250
370
     9
100
AcDbSpline
210
0.0
220
0.0
230
1.0
 70
     8
 71
     3
 72
    26
 73
    22
 74
     0
 42
0.000000001
 43
0.0000000001
 40
0.0
 40
0.0
 40
0.0
 40
0.0
 40
1.0
 40
1.0
 40
1.0
 40
2.0
 40
2.0
 40
2.0
 40
3.0
 40
3.0
 40
3.0
 40
4.0
 40
4.0
 40
4.0
 40
5.0
 40
5.0
 40
5.0
 40
6.0
 40
6.0
 40
6.0
 40
7.0
 40
7.0
 40
7.0
 40
7.0
 10
136.9284206471915
 20
-86.34925128049601
 30
0.0
 10
136.5895955062172
 20
-85.68176403022887
 30
0.0
 10
136.3580850896084
 20
-82.41822507705171
 30
0.0
 10
136.31450463172
 20
-81.91834172214194
 30
0.0
 10
136.31450463172
 20
-81.91834172214194
 30
0.0
 10
136.1410440740376
 20
-81.22742782257509
 30
0.0
 10
135.6833631388222
 20
-80.92736000580982
 30
0.0
 10
135.6833631388222
 20
-80.92736000580982
 30
0.0
 10
135.0172539267491
 20
-80.62264131013948
 30
0.0
 10
133.1532850144547
 20
-80.62264131013948
 30
0.0
 10
133.1532850144547
 20
-80.62264131013948
 30
0.0
 10
133.1136664163743
 20
-80.62264131013948
 30
0.0
 10
133.1136664163743
 20
-80.62264131013948
 30
0.0
 10
131.2495252493057
 20
-80.62264131013948
 30
0.0
 10
130.4270087022022
 20
-80.9986734823545
 30
0.0
 10
130.4270087022022
 20
-80.9986734823545
 30
0.0
 10
129.9693277669868
 20
-81.29874129911977
 30
0.0
 10
129.7567653755469
 20
-81.98965519868663
 30
0.0
 10
129.7567653755469
 20
-81.98965519868663
 30
0.0
 10
129.7130126628842
 20
-82.49298364908161
 30
0.0
 10
129.6299858616897
 20
-85.61182859187828
 30
0.0
 10
129.2884046443272
 20
-86.25141056871493
 30
0.0
  0
SPLINE
  5
E5
330
C6
100
AcDbEntity
  8
Text
 62
   250
370
     9
100
AcDbSpline
210
0.0
220
0.0
230
1.0
 70
     8
 71
     3
 72
    38
 73
    34
 74
     0
 42
0.000000001
 43
0.0000000001
 40
0.0
 40
0.0
 40
0.0
 40
0.0
 40
1.0
 40
1.0
 40
1.0
 40
2.0
 40
2.0
 40
2.0
 40
3.0
 40
3.0
 40
3.0
 40
4.0
 40
4.0
 40
4.0
 40
5.0
 40
5.0
 40
5.0
 40
6.0
 40
6.0
 40
6.0
 40
7.0
 40
7.0
 40
7.0
 40
8.0
 40
8.0
 40
8.0
 40
9.0
 40
9.0
 40
9.0
 40
10.0
 40
10.0
 40
10.0
 40
11.0
 40
11.0
 40
11.0
 40
11.0
 10
129.6246459636876
 20
-86.42711043846267
 30
0.0
 10
129.5843383465101
 20
-86.40885143239085
 30
0.0
 10
129.3142428604665
 20
-86.26243487426773
 30
0.0
 10
129.2884046443272
 20
-86.25141056871493
 30
0.0
 10
127.7801418408848
 20
-85.62354191652813
 30
0.0
 10
126.5908948793766
 20
-85.71397567301595
 30
0.0
 10
127.8890068582187
 20
-88.77046438752961
 30
0.0
 10
128.1591023442623
 20
-89.40642901410674
 30
0.0
 10
128.4825968103272
 20
-89.46585691122729
 30
0.0
 10
129.0096964195705
 20
-89.69013262731705
 30
0.0
 10
129.0096964195705
 20
-89.69013262731705
 30
0.0
 10
129.9588202257568
 20
-89.90820717153336
 30
0.0
 10
130.8018350909974
 20
-89.95368243193867
 30
0.0
 10
130.8018350909974
 20
-89.95368243193867
 30
0.0
 10
133.1930758673093
 20
-89.9659125209113
 30
0.0
 10
133.1930758673093
 20
-89.9659125209113
 30
0.0
 10
133.1930758673093
 20
-89.9659125209113
 30
0.0
 10
133.2385511277147
 20
-89.9659125209113
 30
0.0
 10
133.2385511277147
 20
-89.9659125209113
 30
0.0
 10
133.2385511277147
 20
-89.9659125209113
 30
0.0
 10
135.629447394478
 20
-89.95368243193867
 30
0.0
 10
135.629447394478
 20
-89.95368243193867
 30
0.0
 10
136.4728067692672
 20
-89.90820717153336
 30
0.0
 10
137.421586065905
 20
-89.69013262731705
 30
0.0
 10
137.421586065905
 20
-89.69013262731705
 30
0.0
 10
137.9486856751482
 20
-89.46585691122729
 30
0.0
 10
138.2835489563145
 20
-89.21281464783568
 30
0.0
 10
138.5426201368053
 20
-88.77046438752961
 30
0.0
 10
139.3942477407591
 20
-85.67849118951789
 30
0.0
 10
138.6514851541392
 20
-85.62354191652813
 30
0.0
 10
137.1432223506968
 20
-86.25141056871493
 30
0.0
 10
137.0963690520974
 20
-86.27018633910955
 30
0.0
 10
136.8069810313364
 20
-86.40437280826002
 30
0.0
 10
136.7677069428046
 20
-86.42711043846267
 30
0.0
  0
SPLINE
  5
E6
330
C6
100
AcDbEntity
  8
Text
 62
   250
370
     9
100
AcDbSpline
210
0.0
220
0.0
230
1.0
 70
     8
 71
     3
 72
    11
 73
     7
 74
     0
 42
0.000000001
 43
0.0000000001
 40
0.0
 40
0.0
 40
0.0
 40
0.0
 40
1.0
 40
1.0
 40
1.0
 40
2.0
 40
2.0
 40
2.0
 40
2.0
 10
137.1880085920051
 20
-89.7271674037835
 30
0.0
 10
137.1880085920051
 20
-89.7271674037835
 30
0.0
 10
136.3356919689542
 20
-87.42963322467037
 30
0.0
 10
135.8606133015383
 20
-87.34660642347584
 30
0.0
 10
135.8606133015383
 20
-87.34660642347584
 30
0.0
 10
136.2874606321608
 20
-86.71150307077004
 30
0.0
 10
136.7677069428046
 20
-86.42711043846267
 30
0.0
  0
SPLINE
  5
E7
330
C6
100
AcDbEntity
  8
Text
 62
   250
370
     9
100
AcDbSpline
210
0.0
220
0.0
230
1.0
 70
     8
 71
     3
 72
    14
 73
    10
 74
     0
 42
0.000000001
 43
0.0000000001
 40
0.0
 40
0.0
 40
0.0
 40
0.0
 40
1.0
 40
1.0
 40
1.0
 40
2.0
 40
2.0
 40
2.0
 40
3.0
 40
3.0
 40
3.0
 40
3.0
 10
135.8606133015383
 20
-87.34867348076701
 30
0.0
 10
135.1808959622985
 20
-87.05394556200387
 30
0.0
 10
133.2178805548031
 20
-87.09959307718344
 30
0.0
 10
133.2178805548031
 20
-87.09959307718344
 30
0.0
 10
133.2178805548031
 20
-87.09959307718344
 30
0.0
 10
133.1737833325919
 20
-87.09959307718344
 30
0.0
 10
133.1737833325919
 20
-87.09959307718344
 30
0.0
 10
133.1737833325919
 20
-87.09959307718344
 30
0.0
 10
131.2114569441936
 20
-87.05394556200387
 30
0.0
 10
130.5313950954053
 20
-87.34867348076701
 30
0.0
  0
POLYLINE
  5
E8
330
C6
100
AcDbEntity
  8
Text
 62
   250
370
     9
100
AcDb2dPolyline
 66
     1
 10
0.0
 20
0.0
 30
0.0
  0
VERTEX
  5
E9
330
E8
100
AcDbEntity
  8
Text
 62
   250
370
     9
100
AcDbVertex
100
AcDb2dVertex
 10
132.7397013014505
 20
-92.36387123341947
 30
0.0
  0
VERTEX
  5
EA
330
E8
100
AcDbEntity
  8
Text
 62
   250
370
     9
100
AcDbVertex
100
AcDb2dVertex
 10
132.8210055549024
 20
-92.36387123341947
 30
0.0
  0
SEQEND
  5
EB
330
E8
100
AcDbEntity
  8
Text
370
     9
  0
POLYLINE
  5
EC
330
C6
100
AcDbEntity
  8
Text
 62
   250
370
     9
100
AcDb2dPolyline
 66
     1
 10
0.0
 20
0.0
 30
0.0
  0
VERTEX
  5
ED
330
EC
100
AcDbEntity
  8
Text
 62
   250
370
     9
100
AcDbVertex
100
AcDb2dVertex
 10
133.5710028420413
 20
-92.36387123341947
 30
0.0
  0
VERTEX
  5
EE
330
EC
100
AcDbEntity
  8
Text
 62
   250
370
     9
100
AcDbVertex
100
AcDb2dVertex
 10
133.6399047517463
 20
-92.36387123341947
 30
0.0
  0
SEQEND
  5
EF
330
EC
100
AcDbEntity
  8
Text
370
     9
  0
ENDBLK
  5
C9
330
C6
100
AcDbEntity
  8
0
100
AcDbBlockEnd
  0
BLOCK
  5
F2
330
F0
100
AcDbEntity
  8
0
100
AcDbBlockBegin
  2
block 16
 70
     0
 10
0.0
 20
0.0
 30
0.0
  3
block 16
  1

  0
SPLINE
  5
F4
330
F0
100
AcDbEntity
  8
Text
 62
   250
370
     9
100
AcDbSpline
210
0.0
220
0.0
230
1.0
 70
     8
 71
     3
 72
    11
 73
     7
 74
     0
 42
0.000000001
 43
0.0000000001
 40
0.0
 40
0.0
 40
0.0
 40
0.0
 40
1.0
 40
1.0
 40
1.0
 40
2.0
 40
2.0
 40
2.0
 40
2.0
 10
129.2039998049385
 20
-117.5776638160917
 30
0.0
 10
129.2039998049385
 20
-117.5776638160917
 30
0.0
 10
130.0566609375379
 20
-115.2801296369786
 30
0.0
 10
130.5313950954053
 20
-115.197102835784
 30
0.0
 10
130.5313950954053
 20
-115.197102835784
 30
0.0
 10
129.9508965061408
 20
-114.424023408894
 30
0.0
 10
129.6246459636876
 20
-114.2776068507709
 30
0.0
  0
POLYLINE
  5
F5
330
F0
100
AcDbEntity
  8
Text
 62
   250
370
     9
100
AcDb2dPolyline
 66
     1
 10
0.0
 20
0.0
 30
0.0
  0
VERTEX
  5
F6
330
F5
100
AcDbEntity
  8
Text
 62
   250
370
     9
100
AcDbVertex
100
AcDb2dVertex
 10
133.5710028420413
 20
-120.2145399005019
 30
0.0
  0
VERTEX
  5
F7
330
F5
100
AcDbEntity
  8
Text
 62
   250
370
     9
100
AcDbVertex
100
AcDb2dVertex
 10
132.8210055549024
 20
-120.2145399005019
 30
0.0
  0
VERTEX
  5
F8
330
F5
100
AcDbEntity
  8
Text
 62
   250
370
     9
100
AcDbVertex
100
AcDb2dVertex
 10
132.8210055549024
 20
-117.816753442768
 30
0.0
  0
VERTEX
  5
F9
330
F5
100
AcDbEntity
  8
Text
 62
   250
370
     9
100
AcDbVertex
100
AcDb2dVertex
 10
133.5710028420413
 20
-117.8164089332195
 30
0.0
  0
VERTEX
  5
FA
330
F5
100
AcDbEntity
  8
Text
 62
   250
370
     9
100
AcDbVertex
100
AcDb2dVertex
 10
133.5710028420413
 20
-120.2145399005019
 30
0.0
  0
SEQEND
  5
FB
330
F5
100
AcDbEntity
  8
Text
370
     9
  0
POLYLINE
  5
FC
330
F0
100
AcDbEntity
  8
Text
 62
   250
370
     9
100
AcDb2dPolyline
 66
     1
 10
0.0
 20
0.0
 30
0.0
  0
VERTEX
  5
FD
330
FC
100
AcDbEntity
  8
Text
 62
   250
370
     9
100
AcDbVertex
100
AcDb2dVertex
 10
129.5874389324469
 20
-121.0330945877973
 30
0.0
  0
VERTEX
  5
FE
330
FC
100
AcDbEntity
  8
Text
 62
   250
370
     9
100
AcDbVertex
100
AcDb2dVertex
 10
132.7397013014505
 20
-121.0330945877973
 30
0.0
  0
VERTEX
  5
FF
330
FC
100
AcDbEntity
  8
Text
 62
   250
370
     9
100
AcDbVertex
100
AcDb2dVertex
 10
132.7397013014505
 20
-120.2145399005019
 30
0.0
  0
VERTEX
  5
100
330
FC
100
AcDbEntity
  8
Text
 62
   250
370
     9
100
AcDbVertex
100
AcDb2dVertex
 10
129.8065470053088
 20
-120.2145399005019
 30
0.0
  0
VERTEX
  5
101
330
FC
100
AcDbEntity
  8
Text
 62
   250
370
     9
100
AcDbVertex
100
AcDb2dVertex
 10
129.5874389324469
 20
-121.0330945877973
 30
0.0
  0
SEQEND
  5
102
330
FC
100
AcDbEntity
  8
Text
370
     9
  0
POLYLINE
  5
103
330
F0
100
AcDbEntity
  8
Text
 62
   250
370
     9
100
AcDb2dPolyline
 66
     1
 10
0.0
 20
0.0
 30
0.0
  0
VERTEX
  5
104
330
103
100
AcDbEntity
  8
Text
 62
   250
370
     9
100
AcDbVertex
100
AcDb2dVertex
 10
133.6399047517463
 20
-121.0330945877973
 30
0.0
  0
VERTEX
  5
105
330
103
100
AcDbEntity
  8
Text
 62
   250
370
     9
100
AcDbVertex
100
AcDb2dVertex
 10
136.8207614132774
 20
-121.0330945877973
 30
0.0
  0
VERTEX
  5
106
330
103
100
AcDbEntity
  8
Text
 62
   250
370
     9
100
AcDbVertex
100
AcDb2dVertex
 10
136.5127698768961
 20
-120.2145399005019
 30
0.0
  0
VERTEX
  5
107
330
103
100
AcDbEntity
  8
Text
 62
   250
370
     9
100
AcDbVertex
100
AcDb2dVertex
 10
133.6399047517463
 20
-120.2145399005019
 30
0.0
  0
VERTEX
  5
108
330
103
100
AcDbEntity
  8
Text
 62
   250
370
     9
100
AcDbVertex
100
AcDb2dVertex
 10
133.6399047517463
 20
-121.0330945877973
 30
0.0
  0
SEQEND
  5
109
330
103
100
AcDbEntity
  8
Text
370
     9
  0
POLYLINE
  5
10A
330
F0
100
AcDbEntity
  8
Text
 62
   250
370
     9
100
AcDb2dPolyline
 66
     1
 10
0.0
 20
0.0
 30
0.0
  0
VERTEX
  5
10B
330
10A
100
AcDbEntity
  8
Text
 62
   250
370
     9
100
AcDbVertex
100
AcDb2dVertex
 10
132.5970743483611
 20
-121.0330945877973
 30
0.0
  0
VERTEX
  5
10C
330
10A
100
AcDbEntity
  8
Text
 62
   250
370
     9
100
AcDbVertex
100
AcDb2dVertex
 10
133.8269734365953
 20
-121.0330945877973
 30
0.0
  0
SEQEND
  5
10D
330
10A
100
AcDbEntity
  8
Text
370
     9
  0
SPLINE
  5
10E
330
F0
100
AcDbEntity
  8
Text
 62
   250
370
     9
100
AcDbSpline
210
0.0
220
0.0
230
1.0
 70
     8
 71
     3
 72
    26
 73
    22
 74
     0
 42
0.000000001
 43
0.0000000001
 40
0.0
 40
0.0
 40
0.0
 40
0.0
 40
1.0
 40
1.0
 40
1.0
 40
2.0
 40
2.0
 40
2.0
 40
3.0
 40
3.0
 40
3.0
 40
4.0
 40
4.0
 40
4.0
 40
5.0
 40
5.0
 40
5.0
 40
6.0
 40
6.0
 40
6.0
 40
7.0
 40
7.0
 40
7.0
 40
7.0
 10
137.5056463957451
 20
-113.9589355183852
 30
0.0
 10
137.1156615868148
 20
-113.2916205228923
 30
0.0
 10
136.9489189653287
 20
-110.2685492345856
 30
0.0
 10
136.8986205712441
 20
-109.7690103892244
 30
0.0
 10
136.8986205712441
 20
-109.7690103892244
 30
0.0
 10
136.676756421994
 20
-106.1468369960327
 30
0.0
 10
136.1500013222993
 20
-105.8467691792674
 30
0.0
 10
136.1500013222993
 20
-105.8467691792674
 30
0.0
 10
135.3834675768312
 20
-105.5418782288228
 30
0.0
 10
133.2385511277147
 20
-105.5418782288228
 30
0.0
 10
133.2385511277147
 20
-105.5418782288228
 30
0.0
 10
133.1930758673093
 20
-105.5418782288228
 30
0.0
 10
133.1930758673093
 20
-105.5418782288228
 30
0.0
 10
131.0478149086443
 20
-105.5418782288228
 30
0.0
 10
130.1014471788461
 20
-105.9180826558121
 30
0.0
 10
130.1014471788461
 20
-105.9180826558121
 30
0.0
 10
129.5746920791515
 20
-106.2181504725774
 30
0.0
 10
129.3524834203528
 20
-109.8399793562205
 30
0.0
 10
129.3524834203528
 20
-109.8399793562205
 30
0.0
 10
129.3021850262682
 20
-110.3436523161641
 30
0.0
 10
129.3273342233105
 20
-113.3226263822596
 30
0.0
 10
128.9342488284435
 20
-113.9623806138705
 30
0.0
  0
SPLINE
  5
10F
330
F0
100
AcDbEntity
  8
Text
 62
   250
370
     9
100
AcDbSpline
210
0.0
220
0.0
230
1.0
 70
     8
 71
     3
 72
    38
 73
    34
 74
     0
 42
0.000000001
 43
0.0000000001
 40
0.0
 40
0.0
 40
0.0
 40
0.0
 40
1.0
 40
1.0
 40
1.0
 40
2.0
 40
2.0
 40
2.0
 40
3.0
 40
3.0
 40
3.0
 40
4.0
 40
4.0
 40
4.0
 40
5.0
 40
5.0
 40
5.0
 40
6.0
 40
6.0
 40
6.0
 40
7.0
 40
7.0
 40
7.0
 40
8.0
 40
8.0
 40
8.0
 40
9.0
 40
9.0
 40
9.0
 40
10.0
 40
10.0
 40
10.0
 40
11.0
 40
11.0
 40
11.0
 40
11.0
 10
129.6246459636876
 20
-114.2776068507709
 30
0.0
 10
129.5843383465101
 20
-114.259347844699
 30
0.0
 10
129.3142428604665
 20
-114.1129312865759
 30
0.0
 10
129.2884046443272
 20
-114.1019069810231
 30
0.0
 10
127.7801418408848
 20
-113.4738660740621
 30
0.0
 10
126.5908948793766
 20
-113.5644720853241
 30
0.0
 10
127.8890068582187
 20
-116.6209607998378
 30
0.0
 10
128.1591023442623
 20
-117.2569254264149
 30
0.0
 10
128.4825968103272
 20
-117.3165255783097
 30
0.0
 10
129.0096964195705
 20
-117.540456784851
 30
0.0
 10
129.0096964195705
 20
-117.540456784851
 30
0.0
 10
129.9588202257568
 20
-117.7588758386158
 30
0.0
 10
130.8018350909974
 20
-117.8043510990211
 30
0.0
 10
130.8018350909974
 20
-117.8043510990211
 30
0.0
 10
133.1930758673093
 20
-117.8164089332195
 30
0.0
 10
133.1930758673093
 20
-117.8164089332195
 30
0.0
 10
133.1930758673093
 20
-117.8164089332195
 30
0.0
 10
133.2385511277147
 20
-117.8164089332195
 30
0.0
 10
133.2385511277147
 20
-117.8164089332195
 30
0.0
 10
133.2385511277147
 20
-117.8164089332195
 30
0.0
 10
135.629447394478
 20
-117.8043510990211
 30
0.0
 10
135.629447394478
 20
-117.8043510990211
 30
0.0
 10
136.4728067692672
 20
-117.7588758386158
 30
0.0
 10
137.421586065905
 20
-117.540456784851
 30
0.0
 10
137.421586065905
 20
-117.540456784851
 30
0.0
 10
137.9486856751482
 20
-117.3165255783097
 30
0.0
 10
138.2835489563145
 20
-117.0633110601439
 30
0.0
 10
138.5426201368053
 20
-116.6209607998378
 30
0.0
 10
139.3942477407591
 20
-113.5289876018261
 30
0.0
 10
138.6514851541392
 20
-113.4738660740621
 30
0.0
 10
137.1432223506968
 20
-114.1019069810231
 30
0.0
 10
137.0963690520974
 20
-114.120855006192
 30
0.0
 10
136.8069810313364
 20
-114.2548692205682
 30
0.0
 10
136.7677069428046
 20
-114.2776068507709
 30
0.0
  0
SPLINE
  5
110
330
F0
100
AcDbEntity
  8
Text
 62
   250
370
     9
100
AcDbSpline
210
0.0
220
0.0
230
1.0
 70
     8
 71
     3
 72
    11
 73
     7
 74
     0
 42
0.000000001
 43
0.0000000001
 40
0.0
 40
0.0
 40
0.0
 40
0.0
 40
1.0
 40
1.0
 40
1.0
 40
2.0
 40
2.0
 40
2.0
 40
2.0
 10
137.1880085920051
 20
-117.5776638160917
 30
0.0
 10
137.1880085920051
 20
-117.5776638160917
 30
0.0
 10
136.3356919689542
 20
-115.2801296369786
 30
0.0
 10
135.8606133015383
 20
-115.197102835784
 30
0.0
 10
135.8606133015383
 20
-115.197102835784
 30
0.0
 10
136.2874606321608
 20
-114.561827228304
 30
0.0
 10
136.7677069428046
 20
-114.2776068507709
 30
0.0
  0
SPLINE
  5
111
330
F0
100
AcDbEntity
  8
Text
 62
   250
370
     9
100
AcDbSpline
210
0.0
220
0.0
230
1.0
 70
     8
 71
     3
 72
    14
 73
    10
 74
     0
 42
0.000000001
 43
0.0000000001
 40
0.0
 40
0.0
 40
0.0
 40
0.0
 40
1.0
 40
1.0
 40
1.0
 40
2.0
 40
2.0
 40
2.0
 40
3.0
 40
3.0
 40
3.0
 40
3.0
 10
135.8606133015383
 20
-115.1991698930752
 30
0.0
 10
135.1808959622985
 20
-114.9042697195378
 30
0.0
 10
133.2178805548031
 20
-114.9500894894916
 30
0.0
 10
133.2178805548031
 20
-114.9500894894916
 30
0.0
 10
133.2178805548031
 20
-114.9500894894916
 30
0.0
 10
133.1737833325919
 20
-114.9500894894916
 30
0.0
 10
133.1737833325919
 20
-114.9500894894916
 30
0.0
 10
133.1737833325919
 20
-114.9500894894916
 30
0.0
 10
131.2114569441936
 20
-114.9042697195378
 30
0.0
 10
130.5313950954053
 20
-115.1991698930752
 30
0.0
  0
POLYLINE
  5
112
330
F0
100
AcDbEntity
  8
Text
 62
   250
370
     9
100
AcDb2dPolyline
 66
     1
 10
0.0
 20
0.0
 30
0.0
  0
VERTEX
  5
113
330
112
100
AcDbEntity
  8
Text
 62
   250
370
     9
100
AcDbVertex
100
AcDb2dVertex
 10
132.7397013014505
 20
-120.2145399005019
 30
0.0
  0
VERTEX
  5
114
330
112
100
AcDbEntity
  8
Text
 62
   250
370
     9
100
AcDbVertex
100
AcDb2dVertex
 10
132.8210055549024
 20
-120.2145399005019
 30
0.0
  0
SEQEND
  5
115
330
112
100
AcDbEntity
  8
Text
370
     9
  0
POLYLINE
  5
116
330
F0
100
AcDbEntity
  8
Text
 62
   250
370
     9
100
AcDb2dPolyline
 66
     1
 10
0.0
 20
0.0
 30
0.0
  0
VERTEX
  5
117
330
116
100
AcDbEntity
  8
Text
 62
   250
370
     9
100
AcDbVertex
100
AcDb2dVertex
 10
133.5710028420413
 20
-120.2145399005019
 30
0.0
  0
VERTEX
  5
118
330
116
100
AcDbEntity
  8
Text
 62
   250
370
     9
100
AcDbVertex
100
AcDb2dVertex
 10
133.6399047517463
 20
-120.2145399005019
 30
0.0
  0
SEQEND
  5
119
330
116
100
AcDbEntity
  8
Text
370
     9
  0
ENDBLK
  5
F3
330
F0
100
AcDbEntity
  8
0
100
AcDbBlockEnd
  0
BLOCK
  5
26E
330
26A
100
AcDbEntity
  8
0
100
AcDbBlockBegin
  2
A$C62247D44
 70
     0
 10
0.0
 20
0.0
 30
0.0
  3
A$C62247D44
  1

  0
TEXT
  5
26B
330
26A
100
AcDbEntity
  8
Text
100
AcDbText
 10
4.196902424751328
 20
68.99695320019964
 30
0.0
 40
192.6907499518273
  1
—
 41
1.000399999999999
100
AcDbText
  0
ENDBLK
  5
26F
330
26A
100
AcDbEntity
  8
0
100
AcDbBlockEnd
  0
ENDSEC
  0
SECTION
  2
ENTITIES
  0
INSERT
  5
3D
330
1F
100
AcDbEntity
  8
Text
100
AcDbBlockReference
  2
block 2
 10
0.0
 20
0.0
 30
0.0
  0
INSERT
  5
41
330
1F
100
AcDbEntity
  8
Text
100
AcDbBlockReference
  2
block 3
 10
0.0
 20
0.0
 30
0.0
  0
INSERT
  5
45
330
1F
100
AcDbEntity
  8
Text
100
AcDbBlockReference
  2
block 4
 10
0.0
 20
0.0
 30
0.0
  0
MTEXT
  5
50
330
1F
100
AcDbEntity
  8
Text
100
AcDbMText
 10
-4891.675595886766
 20
1683.448706036335
 30
0.0
 40
138.3048579510514
 41
0.0
 46
0.0
 71
     7
 72
     1
  1
\fApercu|b0|i0|c0|p34;\W1.0004;Armchairs
 73
     1
 44
1.0
  0
MTEXT
  5
51
330
1F
100
AcDbEntity
  8
Dimensions
100
AcDbMText
 10
-2432.02733614012
 20
1592.724932822708
 30
0.0
 40
105.762538433157
 41
0.0
 46
0.0
 71
     7
 72
     1
  1
\fApercu|b0|i0|c0|p34;\W1.0004;76
 73
     1
 44
1.0
  0
MTEXT
  5
52
330
1F
100
AcDbEntity
  8
Dimensions
100
AcDbMText
 10
-1864.574378324353
 20
1064.926384058718
 30
0.0
 40
105.762538433157
 41
0.0
 46
0.0
 71
     7
 72
     1
  1
\fApercu|b0|i0|c0|p34;\W1.0004;75
 73
     1
 44
1.0
  0
MTEXT
  5
5E
330
1F
100
AcDbEntity
  8
Dimensions
100
AcDbMText
 10
-2432.02733614012
 20
-295.9886325444044
 30
0.0
 40
105.762538433157
 41
0.0
 46
0.0
 71
     7
 72
     1
  1
\fApercu|b0|i0|c0|p34;\W1.0004;76
 73
     1
 44
1.0
  0
MTEXT
  5
5F
330
1F
100
AcDbEntity
  8
Dimensions
100
AcDbMText
 10
-1864.574378324353
 20
-821.3569759216024
 30
0.0
 40
105.762538433157
 41
0.0
 46
0.0
 71
     7
 72
     1
  1
\fApercu|b0|i0|c0|p34;\W1.0004;75
 73
     1
 44
1.0
  0
MTEXT
  5
6B
330
1F
100
AcDbEntity
  8
Text
100
AcDbMText
 10
2488.227245092199
 20
447.794419970661
 30
0.0
 40
105.762538433157
 41
0.0
 46
0.0
 71
     7
 72
     1
  1
\fApercu|b1|i0|c0|p34;\W1.0004;WT76
 73
     1
 44
1.0
  0
MTEXT
  5
6C
330
1F
100
AcDbEntity
  8
Text
100
AcDbMText
 10
2432.239051758045
 20
-1445.405678418221
 30
0.0
 40
105.762538433157
 41
0.0
 46
0.0
 71
     7
 72
     1
  1
\fApercu|b1|i0|c0|p34;\W1.0004;WT76H
 73
     1
 44
1.0
  0
MTEXT
  5
6D
330
1F
100
AcDbEntity
  8
Dimensions
100
AcDbMText
 10
2603.615266245807
 20
1683.43702235659
 30
0.0
 40
105.762538433157
 41
0.0
 46
0.0
 71
     7
 72
     1
  1
\fApercu|b0|i0|c0|p34;\W1.0004;75
 73
     1
 44
1.0
  0
MTEXT
  5
6E
330
1F
100
AcDbEntity
  8
Dimensions
100
AcDbMText
 10
3170.834550466691
 20
1106.54365130752
 30
0.0
 40
105.762538433157
 41
0.0
 46
0.0
 71
     7
 72
     1
  1
\fApercu|b0|i0|c0|p34;\W1.0004;84
 73
     1
 44
1.0
  0
MTEXT
  5
8F
330
1F
100
AcDbEntity
  8
Dimensions
100
AcDbMText
 10
2603.615266245807
 20
-4.43408820791504
 30
0.0
 40
105.762538433157
 41
0.0
 46
0.0
 71
     7
 72
     1
  1
\fApercu|b0|i0|c0|p34;\W1.0004;75
 73
     1
 44
1.0
  0
MTEXT
  5
90
330
1F
100
AcDbEntity
  8
Dimensions
100
AcDbMText
 10
3170.834550466691
 20
-682.7417994365455
 30
0.0
 40
105.762538433157
 41
0.0
 46
0.0
 71
     7
 72
     1
  1
\fApercu|b0|i0|c0|p34;\W1.0004;104
 73
     1
 44
1.0
  0
INSERT
  5
B2
330
1F
100
AcDbEntity
  8
Text
100
AcDbBlockReference
  2
block 11
 10
0.0
 20
0.0
 30
0.0
  0
INSERT
  5
B6
330
1F
100
AcDbEntity
  8
Text
100
AcDbBlockReference
  2
block 12
 10
0.0
 20
0.0
 30
0.0
  0
POLYLINE
  5
11A
330
1F
100
AcDbEntity
  8
0
370
     9
100
AcDb2dPolyline
 66
     1
 10
0.0
 20
0.0
 30
0.0
  0
VERTEX
  5
11B
330
11A
100
AcDbEntity
  8
0
370
     9
100
AcDbVertex
100
AcDb2dVertex
 10
-4891.687279566511
 20
2164.197076470475
 30
0.0
  0
VERTEX
  5
11C
330
11A
100
AcDbEntity
  8
0
370
     9
100
AcDbVertex
100
AcDb2dVertex
 10
4182.272596022935
 20
2164.197076470475
 30
0.0
  0
SEQEND
  5
11D
330
11A
100
AcDbEntity
  8
0
370
     9
  0
MTEXT
  5
11E
330
1F
100
AcDbEntity
  8
Dimensions
100
AcDbMText
 10
639.9041606007467
 20
887.2176151496059
 30
0.0
 40
105.762538433157
 41
0.0
 46
0.0
 71
     7
 72
     1
  1
\fApercu|b0|i0|c0|p34;\W1.0004;40
 73
     1
 44
1.0
  0
MTEXT
  5
11F
330
1F
100
AcDbEntity
  8
Dimensions
100
AcDbMText
 10
639.9041606007467
 20
-1001.636154374436
 30
0.0
 40
105.762538433157
 41
0.0
 46
0.0
 71
     7
 72
     1
  1
\fApercu|b0|i0|c0|p34;\W1.0004;40
 73
     1
 44
1.0
  0
SPLINE
  5
199
330
1F
100
AcDbEntity
  8
Furniture
370
     9
100
AcDbSpline
210
0.0
220
0.0
230
1.0
 70
     8
 71
     3
 72
    26
 73
    22
 74
     0
 42
0.000000001
 43
0.0000000001
 40
0.0
 40
0.0
 40
0.0
 40
0.0
 40
1.0
 40
1.0
 40
1.0
 40
2.0
 40
2.0
 40
2.0
 40
3.0
 40
3.0
 40
3.0
 40
4.0
 40
4.0
 40
4.0
 40
5.0
 40
5.0
 40
5.0
 40
6.0
 40
6.0
 40
6.0
 40
7.0
 40
7.0
 40
7.0
 40
7.0
 10
-2349.622342904356
 20
728.7635504589152
 30
0.0
 10
-2349.622342904356
 20
728.7635504589152
 30
0.0
 10
-2548.198163836589
 20
738.4376372871045
 30
0.0
 10
-2548.198163836589
 20
738.4376372871045
 30
0.0
 10
-2618.230140223259
 20
741.2767714649413
 30
0.0
 10
-2618.230140223259
 20
755.2971871579679
 30
0.0
 10
-2618.230140223259
 20
755.2971871579679
 30
0.0
 10
-2661.99720454499
 20
769.3059191712505
 30
0.0
 10
-2714.527028674864
 20
843.7660101809665
 30
0.0
 10
-2714.527028674864
 20
843.7660101809665
 30
0.0
 10
-2788.928701285858
 20
958.7567862232749
 30
0.0
 10
-2618.230140223259
 20
1177.428536315514
 30
0.0
 10
-2618.230140223259
 20
1177.428536315514
 30
0.0
 10
-2618.230140223259
 20
1177.428536315514
 30
0.0
 10
-2608.018604126837
 20
1187.26619466012
 30
0.0
 10
-2603.648907902511
 20
1220.12070210078
 30
0.0
 10
-2603.648907902511
 20
1220.12070210078
 30
0.0
 10
-2585.212061266181
 20
1446.503680824184
 30
0.0
 10
-2541.468364303937
 20
1465.255986813607
 30
0.0
 10
-2541.468364303937
 20
1465.255986813607
 30
0.0
 10
-2527.775091643748
 20
1488.763550458915
 30
0.0
 10
-2349.622342904356
 20
1488.763550458915
 30
0.0
  0
SPLINE
  5
19A
330
1F
100
AcDbEntity
  8
Furniture
370
     9
100
AcDbSpline
210
0.0
220
0.0
230
1.0
 70
     8
 71
     3
 72
    11
 73
     7
 74
     0
 42
0.000000001
 43
0.0000000001
 40
0.0
 40
0.0
 40
0.0
 40
0.0
 40
1.0
 40
1.0
 40
1.0
 40
2.0
 40
2.0
 40
2.0
 40
2.0
 10
-2589.044308222274
 20
781.8425075367657
 30
0.0
 10
-2589.044308222274
 20
781.8425075367657
 30
0.0
 10
-2552.591227420406
 20
983.2457789670938
 30
0.0
 10
-2516.091411899559
 20
1094.871655243075
 30
0.0
 10
-2516.091411899559
 20
1094.871655243075
 30
0.0
 10
-2533.616931515842
 20
1120.120087170267
 30
0.0
 10
-2552.591227420406
 20
1127.422387010384
 30
0.0
  0
SPLINE
  5
19B
330
1F
100
AcDbEntity
  8
Furniture
370
     9
100
AcDbSpline
210
0.0
220
0.0
230
1.0
 70
     8
 71
     3
 72
     8
 73
     4
 74
     0
 42
0.000000001
 43
0.0000000001
 40
0.0
 40
0.0
 40
0.0
 40
0.0
 40
1.0
 40
1.0
 40
1.0
 40
1.0
 10
-2349.622342904356
 20
1127.422387010384
 30
0.0
 10
-2349.622342904356
 20
1127.422387010384
 30
0.0
 10
-2457.766482616567
 20
1120.505648601825
 30
0.0
 10
-2516.091411899559
 20
1094.871655243075
 30
0.0
  0
SPLINE
  5
19C
330
1F
100
AcDbEntity
  8
Furniture
370
     9
100
AcDbSpline
210
0.0
220
0.0
230
1.0
 70
     8
 71
     3
 72
    32
 73
    28
 74
     0
 42
0.000000001
 43
0.0000000001
 40
0.0
 40
0.0
 40
0.0
 40
0.0
 40
1.0
 40
1.0
 40
1.0
 40
2.0
 40
2.0
 40
2.0
 40
3.0
 40
3.0
 40
3.0
 40
4.0
 40
4.0
 40
4.0
 40
5.0
 40
5.0
 40
5.0
 40
6.0
 40
6.0
 40
6.0
 40
7.0
 40
7.0
 40
7.0
 40
8.0
 40
8.0
 40
8.0
 40
9.0
 40
9.0
 40
9.0
 40
9.0
 10
-2642.649030888613
 20
768.1959695955534
 30
0.0
 10
-2642.649030888613
 20
768.1959695955534
 30
0.0
 10
-2743.689493316359
 20
836.7324349749647
 30
0.0
 10
-2711.582741379328
 20
951.2675475072491
 30
0.0
 10
-2711.582741379328
 20
951.2675475072491
 30
0.0
 10
-2673.680884289178
 20
1035.097949671805
 30
0.0
 10
-2612.411667710652
 20
1146.116274601087
 30
0.0
 10
-2612.411667710652
 20
1146.116274601087
 30
0.0
 10
-2594.886148094369
 20
1180.267670493351
 30
0.0
 10
-2589.044308222274
 20
1222.971519958361
 30
0.0
 10
-2589.044308222274
 20
1222.971519958361
 30
0.0
 10
-2558.760210325337
 20
1461.47047457649
 30
0.0
 10
-2501.510179578812
 20
1461.47047457649
 30
0.0
 10
-2501.510179578812
 20
1461.47047457649
 30
0.0
 10
-2329.666617901281
 20
1487.081100575752
 30
0.0
 10
-2183.153273909152
 20
1461.47047457649
 30
0.0
 10
-2126.837937542161
 20
1451.621132552139
 30
0.0
 10
-2110.200377586436
 20
1222.971519958361
 30
0.0
 10
-2110.200377586436
 20
1222.971519958361
 30
0.0
 10
-2104.381905073831
 20
1180.267670493351
 30
0.0
 10
-2086.879752817035
 20
1146.116274601087
 30
0.0
 10
-2086.879752817035
 20
1146.116274601087
 30
0.0
 10
-2025.610536238509
 20
1035.097949671805
 30
0.0
 10
-1987.661944429383
 20
951.2675475072491
 30
0.0
 10
-1987.661944429383
 20
951.2675475072491
 30
0.0
 10
-1955.578559851841
 20
836.7324349749647
 30
0.0
 10
-2067.36800764424
 20
761.4661700628995
 30
0.0
 10
-2067.36800764424
 20
761.4661700628995
 30
0.0
  0
SPLINE
  5
19D
330
1F
100
AcDbEntity
  8
Furniture
370
     9
100
AcDbSpline
210
0.0
220
0.0
230
1.0
 70
     8
 71
     3
 72
    26
 73
    22
 74
     0
 42
0.000000001
 43
0.0000000001
 40
0.0
 40
0.0
 40
0.0
 40
0.0
 40
1.0
 40
1.0
 40
1.0
 40
2.0
 40
2.0
 40
2.0
 40
3.0
 40
3.0
 40
3.0
 40
4.0
 40
4.0
 40
4.0
 40
5.0
 40
5.0
 40
5.0
 40
6.0
 40
6.0
 40
6.0
 40
7.0
 40
7.0
 40
7.0
 40
7.0
 10
-2349.622342904356
 20
728.7635504589152
 30
0.0
 10
-2349.622342904356
 20
728.7635504589152
 30
0.0
 10
-2151.069889331609
 20
738.4376372871045
 30
0.0
 10
-2151.069889331609
 20
738.4376372871045
 30
0.0
 10
-2081.037912944941
 20
741.2767714649413
 30
0.0
 10
-2081.037912944941
 20
755.2971871579679
 30
0.0
 10
-2081.037912944941
 20
755.2971871579679
 30
0.0
 10
-2037.27084862321
 20
769.3059191712505
 30
0.0
 10
-1984.764391852824
 20
843.7660101809665
 30
0.0
 10
-1984.764391852824
 20
843.7660101809665
 30
0.0
 10
-1910.362719241829
 20
958.7567862232749
 30
0.0
 10
-2081.037912944941
 20
1177.428536315514
 30
0.0
 10
-2081.037912944941
 20
1177.428536315514
 30
0.0
 10
-2081.037912944941
 20
1177.428536315514
 30
0.0
 10
-2091.249449041362
 20
1187.26619466012
 30
0.0
 10
-2095.619145265689
 20
1220.12070210078
 30
0.0
 10
-2095.619145265689
 20
1220.12070210078
 30
0.0
 10
-2114.032624542531
 20
1446.503680824184
 30
0.0
 10
-2157.799688864262
 20
1465.255986813607
 30
0.0
 10
-2157.799688864262
 20
1465.255986813607
 30
0.0
 10
-2171.469594164963
 20
1488.763550458915
 30
0.0
 10
-2349.622342904356
 20
1488.763550458915
 30
0.0
  0
SPLINE
  5
19E
330
1F
100
AcDbEntity
  8
Furniture
370
     9
100
AcDbSpline
210
0.0
220
0.0
230
1.0
 70
     8
 71
     3
 72
    11
 73
     7
 74
     0
 42
0.000000001
 43
0.0000000001
 40
0.0
 40
0.0
 40
0.0
 40
0.0
 40
1.0
 40
1.0
 40
1.0
 40
2.0
 40
2.0
 40
2.0
 40
2.0
 10
-2110.200377586436
 20
781.8425075367657
 30
0.0
 10
-2110.200377586436
 20
781.8425075367657
 30
0.0
 10
-2146.700193107283
 20
988.9240473227703
 30
0.0
 10
-2183.153273909152
 20
1094.871655243075
 30
0.0
 10
-2183.153273909152
 20
1094.871655243075
 30
0.0
 10
-2165.651121652357
 20
1120.120087170267
 30
0.0
 10
-2146.700193107283
 20
1127.422387010384
 30
0.0
  0
SPLINE
  5
19F
330
1F
100
AcDbEntity
  8
Furniture
370
     9
100
AcDbSpline
210
0.0
220
0.0
230
1.0
 70
     8
 71
     3
 72
     8
 73
     4
 74
     0
 42
0.000000001
 43
0.0000000001
 40
0.0
 40
0.0
 40
0.0
 40
0.0
 40
1.0
 40
1.0
 40
1.0
 40
1.0
 10
-2349.622342904356
 20
1127.422387010384
 30
0.0
 10
-2349.622342904356
 20
1127.422387010384
 30
0.0
 10
-2241.52493791112
 20
1120.505648601825
 30
0.0
 10
-2183.153273909152
 20
1094.871655243075
 30
0.0
  0
SPLINE
  5
1A2
330
1F
100
AcDbEntity
  8
Furniture
370
     9
100
AcDbSpline
210
0.0
220
0.0
230
1.0
 70
     8
 71
     3
 72
    26
 73
    22
 74
     0
 42
0.000000001
 43
0.0000000001
 40
0.0
 40
0.0
 40
0.0
 40
0.0
 40
1.0
 40
1.0
 40
1.0
 40
2.0
 40
2.0
 40
2.0
 40
3.0
 40
3.0
 40
3.0
 40
4.0
 40
4.0
 40
4.0
 40
5.0
 40
5.0
 40
5.0
 40
6.0
 40
6.0
 40
6.0
 40
7.0
 40
7.0
 40
7.0
 40
7.0
 10
-2349.622342904356
 20
-1160.277157941034
 30
0.0
 10
-2349.622342904356
 20
-1160.277157941034
 30
0.0
 10
-2548.198163836589
 20
-1150.603071112846
 30
0.0
 10
-2548.198163836589
 20
-1150.603071112846
 30
0.0
 10
-2618.230140223259
 20
-1147.752253255263
 30
0.0
 10
-2618.230140223259
 20
-1133.755204921726
 30
0.0
 10
-2618.230140223259
 20
-1133.755204921726
 30
0.0
 10
-2661.99720454499
 20
-1119.734789228698
 30
0.0
 10
-2714.527028674864
 20
-1045.286381898726
 30
0.0
 10
-2714.527028674864
 20
-1045.286381898726
 30
0.0
 10
-2788.928701285858
 20
-930.2722384969317
 30
0.0
 10
-2618.230140223259
 20
-711.62385576418
 30
0.0
 10
-2618.230140223259
 20
-711.62385576418
 30
0.0
 10
-2618.230140223259
 20
-711.62385576418
 30
0.0
 10
-2608.018604126837
 20
-701.7628300600843
 30
0.0
 10
-2603.648907902511
 20
-668.908322619426
 30
0.0
 10
-2603.648907902511
 20
-668.908322619426
 30
0.0
 10
-2585.212061266181
 20
-442.5253438960218
 30
0.0
 10
-2541.468364303937
 20
-423.7847215863427
 30
0.0
 10
-2541.468364303937
 20
-423.7847215863427
 30
0.0
 10
-2527.775091643748
 20
-400.2771579410349
 30
0.0
 10
-2349.622342904356
 20
-400.2771579410349
 30
0.0
  0
SPLINE
  5
1A3
330
1F
100
AcDbEntity
  8
Furniture
370
     9
100
AcDbSpline
210
0.0
220
0.0
230
1.0
 70
     8
 71
     3
 72
    11
 73
     7
 74
     0
 42
0.000000001
 43
0.0000000001
 40
0.0
 40
0.0
 40
0.0
 40
0.0
 40
1.0
 40
1.0
 40
1.0
 40
2.0
 40
2.0
 40
2.0
 40
2.0
 10
-2589.044308222274
 20
-1107.209884542928
 30
0.0
 10
-2589.044308222274
 20
-1107.209884542928
 30
0.0
 10
-2552.591227420406
 20
-905.8066131125999
 30
0.0
 10
-2516.091411899559
 20
-794.1573694771305
 30
0.0
 10
-2516.091411899559
 20
-794.1573694771305
 30
0.0
 10
-2533.616931515842
 20
-768.9206212296828
 30
0.0
 10
-2552.591227420406
 20
-761.6300050693093
 30
0.0
  0
SPLINE
  5
1A4
330
1F
100
AcDbEntity
  8
Furniture
370
     9
100
AcDbSpline
210
0.0
220
0.0
230
1.0
 70
     8
 71
     3
 72
     8
 73
     4
 74
     0
 42
0.000000001
 43
0.0000000001
 40
0.0
 40
0.0
 40
0.0
 40
0.0
 40
1.0
 40
1.0
 40
1.0
 40
1.0
 10
-2349.622342904356
 20
-761.6300050693093
 30
0.0
 10
-2349.622342904356
 20
-761.6300050693093
 30
0.0
 10
-2457.766482616567
 20
-768.5467434778685
 30
0.0
 10
-2516.091411899559
 20
-794.1573694771305
 30
0.0
  0
SPLINE
  5
1A5
330
1F
100
AcDbEntity
  8
Furniture
370
     9
100
AcDbSpline
210
0.0
220
0.0
230
1.0
 70
     8
 71
     3
 72
    32
 73
    28
 74
     0
 42
0.000000001
 43
0.0000000001
 40
0.0
 40
0.0
 40
0.0
 40
0.0
 40
1.0
 40
1.0
 40
1.0
 40
2.0
 40
2.0
 40
2.0
 40
3.0
 40
3.0
 40
3.0
 40
4.0
 40
4.0
 40
4.0
 40
5.0
 40
5.0
 40
5.0
 40
6.0
 40
6.0
 40
6.0
 40
7.0
 40
7.0
 40
7.0
 40
8.0
 40
8.0
 40
8.0
 40
9.0
 40
9.0
 40
9.0
 40
9.0
 10
-2642.649030888613
 20
-1120.833055124652
 30
0.0
 10
-2642.649030888613
 20
-1120.833055124652
 30
0.0
 10
-2743.689493316359
 20
-1052.319957104729
 30
0.0
 10
-2711.582741379328
 20
-937.7731608927007
 30
0.0
 10
-2711.582741379328
 20
-937.7731608927007
 30
0.0
 10
-2673.680884289178
 20
-853.9310750484009
 30
0.0
 10
-2612.411667710652
 20
-742.9361174786065
 30
0.0
 10
-2612.411667710652
 20
-742.9361174786065
 30
0.0
 10
-2594.886148094369
 20
-708.773037906598
 30
0.0
 10
-2589.044308222274
 20
-666.0808721213324
 30
0.0
 10
-2589.044308222274
 20
-666.0808721213324
 30
0.0
 10
-2558.760210325337
 20
-427.5702338234603
 30
0.0
 10
-2501.510179578812
 20
-427.5702338234603
 30
0.0
 10
-2501.510179578812
 20
-427.5702338234603
 30
0.0
 10
-2329.666617901281
 20
-401.9596078241983
 30
0.0
 10
-2183.153273909152
 20
-427.5702338234603
 30
0.0
 10
-2126.837937542161
 20
-437.431259527555
 30
0.0
 10
-2110.200377586436
 20
-666.0808721213324
 30
0.0
 10
-2110.200377586436
 20
-666.0808721213324
 30
0.0
 10
-2104.381905073831
 20
-708.773037906598
 30
0.0
 10
-2086.879752817035
 20
-742.9361174786065
 30
0.0
 10
-2086.879752817035
 20
-742.9361174786065
 30
0.0
 10
-2025.610536238509
 20
-853.9310750484009
 30
0.0
 10
-1987.661944429383
 20
-937.7731608927007
 30
0.0
 10
-1987.661944429383
 20
-937.7731608927007
 30
0.0
 10
-1955.578559851841
 20
-1052.319957104729
 30
0.0
 10
-2067.36800764424
 20
-1127.562854657305
 30
0.0
 10
-2067.36800764424
 20
-1127.562854657305
 30
0.0
  0
SPLINE
  5
1A6
330
1F
100
AcDbEntity
  8
Furniture
370
     9
100
AcDbSpline
210
0.0
220
0.0
230
1.0
 70
     8
 71
     3
 72
    26
 73
    22
 74
     0
 42
0.000000001
 43
0.0000000001
 40
0.0
 40
0.0
 40
0.0
 40
0.0
 40
1.0
 40
1.0
 40
1.0
 40
2.0
 40
2.0
 40
2.0
 40
3.0
 40
3.0
 40
3.0
 40
4.0
 40
4.0
 40
4.0
 40
5.0
 40
5.0
 40
5.0
 40
6.0
 40
6.0
 40
6.0
 40
7.0
 40
7.0
 40
7.0
 40
7.0
 10
-2349.622342904356
 20
-1160.277157941034
 30
0.0
 10
-2349.622342904356
 20
-1160.277157941034
 30
0.0
 10
-2151.069889331609
 20
-1150.603071112846
 30
0.0
 10
-2151.069889331609
 20
-1150.603071112846
 30
0.0
 10
-2081.037912944941
 20
-1147.752253255263
 30
0.0
 10
-2081.037912944941
 20
-1133.755204921726
 30
0.0
 10
-2081.037912944941
 20
-1133.755204921726
 30
0.0
 10
-2037.27084862321
 20
-1119.734789228698
 30
0.0
 10
-1984.764391852824
 20
-1045.286381898726
 30
0.0
 10
-1984.764391852824
 20
-1045.286381898726
 30
0.0
 10
-1910.362719241829
 20
-930.2722384969317
 30
0.0
 10
-2081.037912944941
 20
-711.62385576418
 30
0.0
 10
-2081.037912944941
 20
-711.62385576418
 30
0.0
 10
-2081.037912944941
 20
-711.62385576418
 30
0.0
 10
-2091.249449041362
 20
-701.7628300600843
 30
0.0
 10
-2095.619145265689
 20
-668.908322619426
 30
0.0
 10
-2095.619145265689
 20
-668.908322619426
 30
0.0
 10
-2114.032624542531
 20
-442.5253438960218
 30
0.0
 10
-2157.799688864262
 20
-423.7847215863427
 30
0.0
 10
-2157.799688864262
 20
-423.7847215863427
 30
0.0
 10
-2171.469594164963
 20
-400.2771579410349
 30
0.0
 10
-2349.622342904356
 20
-400.2771579410349
 30
0.0
  0
SPLINE
  5
1A7
330
1F
100
AcDbEntity
  8
Furniture
370
     9
100
AcDbSpline
210
0.0
220
0.0
230
1.0
 70
     8
 71
     3
 72
    11
 73
     7
 74
     0
 42
0.000000001
 43
0.0000000001
 40
0.0
 40
0.0
 40
0.0
 40
0.0
 40
1.0
 40
1.0
 40
1.0
 40
2.0
 40
2.0
 40
2.0
 40
2.0
 10
-2110.200377586436
 20
-1107.209884542928
 30
0.0
 10
-2110.200377586436
 20
-1107.209884542928
 30
0.0
 10
-2146.700193107283
 20
-900.1049773974363
 30
0.0
 10
-2183.153273909152
 20
-794.1573694771305
 30
0.0
 10
-2183.153273909152
 20
-794.1573694771305
 30
0.0
 10
-2165.651121652357
 20
-768.9206212296828
 30
0.0
 10
-2146.700193107283
 20
-761.6300050693093
 30
0.0
  0
SPLINE
  5
1A8
330
1F
100
AcDbEntity
  8
Furniture
370
     9
100
AcDbSpline
210
0.0
220
0.0
230
1.0
 70
     8
 71
     3
 72
     8
 73
     4
 74
     0
 42
0.000000001
 43
0.0000000001
 40
0.0
 40
0.0
 40
0.0
 40
0.0
 40
1.0
 40
1.0
 40
1.0
 40
1.0
 10
-2349.622342904356
 20
-761.6300050693093
 30
0.0
 10
-2349.622342904356
 20
-761.6300050693093
 30
0.0
 10
-2241.52493791112
 20
-768.5467434778685
 30
0.0
 10
-2183.153273909152
 20
-794.1573694771305
 30
0.0
  0
SPLINE
  5
1A9
330
1F
100
AcDbEntity
  8
Furniture
370
     9
100
AcDbSpline
210
0.0
220
0.0
230
1.0
 70
     8
 71
     3
 72
    11
 73
     7
 74
     0
 42
0.000000001
 43
0.0000000001
 40
0.0
 40
0.0
 40
0.0
 40
0.0
 40
1.0
 40
1.0
 40
1.0
 40
2.0
 40
2.0
 40
2.0
 40
2.0
 10
-121.5446156875338
 20
-925.9025422726045
 30
0.0
 10
-121.5446156875338
 20
-925.9025422726045
 30
0.0
 10
-63.71040095379854
 20
-770.065621844613
 30
0.0
 10
-31.51017957881344
 20
-764.4340882079148
 30
0.0
 10
-31.51017957881344
 20
-764.4340882079148
 30
0.0
 10
-70.88418031672762
 20
-711.9977335159942
 30
0.0
 10
-93.01306975222365
 20
-702.0666057334342
 30
0.0
  0
POLYLINE
  5
1AA
330
1F
100
AcDbEntity
  8
Furniture
370
     9
100
AcDb2dPolyline
 66
     1
 10
0.0
 20
0.0
 30
0.0
  0
VERTEX
  5
1AB
330
1AA
100
AcDbEntity
  8
Furniture
370
     9
100
AcDbVertex
100
AcDb2dVertex
 10
174.6600331871444
 20
-1104.756311796649
 30
0.0
  0
VERTEX
  5
1AC
330
1AA
100
AcDbEntity
  8
Furniture
370
     9
100
AcDbVertex
100
AcDb2dVertex
 10
123.7892915809466
 20
-1104.756311796649
 30
0.0
  0
VERTEX
  5
1AD
330
1AA
100
AcDbEntity
  8
Furniture
370
     9
100
AcDbVertex
100
AcDb2dVertex
 10
123.7892915809466
 20
-942.1194897575388
 30
0.0
  0
VERTEX
  5
1AE
330
1AA
100
AcDbEntity
  8
Furniture
370
     9
100
AcDbVertex
100
AcDb2dVertex
 10
174.6600331871444
 20
-942.0961223980507
 30
0.0
  0
VERTEX
  5
1AF
330
1AA
100
AcDbEntity
  8
Furniture
370
     9
100
AcDbVertex
100
AcDb2dVertex
 10
174.6600331871444
 20
-1104.756311796649
 30
0.0
  0
SEQEND
  5
1B0
330
1AA
100
AcDbEntity
  8
Furniture
370
     9
  0
POLYLINE
  5
1B1
330
1F
100
AcDbEntity
  8
Furniture
370
     9
100
AcDb2dPolyline
 66
     1
 10
0.0
 20
0.0
 30
0.0
  0
VERTEX
  5
1B2
330
1B1
100
AcDbEntity
  8
Furniture
370
     9
100
AcDbVertex
100
AcDb2dVertex
 10
-95.53674457696752
 20
-1160.277157941034
 30
0.0
  0
VERTEX
  5
1B3
330
1B1
100
AcDbEntity
  8
Furniture
370
     9
100
AcDbVertex
100
AcDb2dVertex
 10
118.2745947416901
 20
-1160.277157941034
 30
0.0
  0
VERTEX
  5
1B4
330
1B1
100
AcDbEntity
  8
Furniture
370
     9
100
AcDbVertex
100
AcDb2dVertex
 10
118.2745947416901
 20
-1104.756311796649
 30
0.0
  0
VERTEX
  5
1B5
330
1B1
100
AcDbEntity
  8
Furniture
370
     9
100
AcDbVertex
100
AcDb2dVertex
 10
-80.67510394236055
 20
-1104.756311796649
 30
0.0
  0
VERTEX
  5
1B6
330
1B1
100
AcDbEntity
  8
Furniture
370
     9
100
AcDbVertex
100
AcDb2dVertex
 10
-95.53674457696752
 20
-1160.277157941034
 30
0.0
  0
SEQEND
  5
1B7
330
1B1
100
AcDbEntity
  8
Furniture
370
     9
  0
POLYLINE
  5
1B8
330
1F
100
AcDbEntity
  8
Furniture
370
     9
100
AcDb2dPolyline
 66
     1
 10
0.0
 20
0.0
 30
0.0
  0
VERTEX
  5
1B9
330
1B8
100
AcDbEntity
  8
Furniture
370
     9
100
AcDbVertex
100
AcDb2dVertex
 10
179.3335050848215
 20
-1160.277157941034
 30
0.0
  0
VERTEX
  5
1BA
330
1B8
100
AcDbEntity
  8
Furniture
370
     9
100
AcDbVertex
100
AcDb2dVertex
 10
395.0843352410133
 20
-1160.277157941034
 30
0.0
  0
VERTEX
  5
1BB
330
1B8
100
AcDbEntity
  8
Furniture
370
     9
100
AcDbVertex
100
AcDb2dVertex
 10
374.1939158584029
 20
-1104.756311796649
 30
0.0
  0
VERTEX
  5
1BC
330
1B8
100
AcDbEntity
  8
Furniture
370
     9
100
AcDbVertex
100
AcDb2dVertex
 10
179.3335050848215
 20
-1104.756311796649
 30
0.0
  0
VERTEX
  5
1BD
330
1B8
100
AcDbEntity
  8
Furniture
370
     9
100
AcDbVertex
100
AcDb2dVertex
 10
179.3335050848215
 20
-1160.277157941034
 30
0.0
  0
SEQEND
  5
1BE
330
1B8
100
AcDbEntity
  8
Furniture
370
     9
  0
POLYLINE
  5
1BF
330
1F
100
AcDbEntity
  8
Furniture
370
     9
100
AcDb2dPolyline
 66
     1
 10
0.0
 20
0.0
 30
0.0
  0
VERTEX
  5
1C0
330
1BF
100
AcDbEntity
  8
Furniture
370
     9
100
AcDbVertex
100
AcDb2dVertex
 10
108.6005079135016
 20
-1160.277157941034
 30
0.0
  0
VERTEX
  5
1C1
330
1BF
100
AcDbEntity
  8
Furniture
370
     9
100
AcDbVertex
100
AcDb2dVertex
 10
192.0219812870107
 20
-1160.277157941034
 30
0.0
  0
SEQEND
  5
1C2
330
1BF
100
AcDbEntity
  8
Furniture
370
     9
  0
SPLINE
  5
1C3
330
1F
100
AcDbEntity
  8
Furniture
370
     9
100
AcDbSpline
210
0.0
220
0.0
230
1.0
 70
     8
 71
     3
 72
    26
 73
    22
 74
     0
 42
0.000000001
 43
0.0000000001
 40
0.0
 40
0.0
 40
0.0
 40
0.0
 40
1.0
 40
1.0
 40
1.0
 40
2.0
 40
2.0
 40
2.0
 40
3.0
 40
3.0
 40
3.0
 40
4.0
 40
4.0
 40
4.0
 40
5.0
 40
5.0
 40
5.0
 40
6.0
 40
6.0
 40
6.0
 40
7.0
 40
7.0
 40
7.0
 40
7.0
 10
441.5386459039075
 20
-680.4517982066841
 30
0.0
 10
415.0867949630643
 20
-635.1892228776964
 30
0.0
 10
403.7769929706896
 20
-430.1406433671814
 30
0.0
 10
400.3653584853863
 20
-396.2579721090337
 30
0.0
 10
400.3653584853863
 20
-396.2579721090337
 30
0.0
 10
385.3167789748704
 20
-150.5735544482299
 30
0.0
 10
349.5880863171412
 20
-130.2205843338528
 30
0.0
 10
349.5880863171412
 20
-130.2205843338528
 30
0.0
 10
297.5957114555022
 20
-109.5404711866377
 30
0.0
 10
152.1105312808614
 20
-109.5404711866377
 30
0.0
 10
152.1105312808614
 20
-109.5404711866377
 30
0.0
 10
149.0260398283943
 20
-109.5404711866377
 30
0.0
 10
149.0260398283943
 20
-109.5404711866377
 30
0.0
 10
3.517492294267164
 20
-109.5404711866377
 30
0.0
 10
-60.67264422030772
 20
-135.057627747947
 30
0.0
 10
-60.67264422030772
 20
-135.057627747947
 30
0.0
 10
-96.40133687803697
 20
-155.4105978623232
 30
0.0
 10
-111.473283748041
 20
-401.0716481636397
 30
0.0
 10
-111.473283748041
 20
-401.0716481636397
 30
0.0
 10
-114.8849182333443
 20
-435.2347277356482
 30
0.0
 10
-113.1791009906918
 20
-637.2922852316506
 30
0.0
 10
-139.8412581669322
 20
-680.6854718015686
 30
0.0
  0
SPLINE
  5
1C4
330
1F
100
AcDbEntity
  8
Furniture
370
     9
100
AcDbSpline
210
0.0
220
0.0
230
1.0
 70
     8
 71
     3
 72
    38
 73
    34
 74
     0
 42
0.000000001
 43
0.0000000001
 40
0.0
 40
0.0
 40
0.0
 40
0.0
 40
1.0
 40
1.0
 40
1.0
 40
2.0
 40
2.0
 40
2.0
 40
3.0
 40
3.0
 40
3.0
 40
4.0
 40
4.0
 40
4.0
 40
5.0
 40
5.0
 40
5.0
 40
6.0
 40
6.0
 40
6.0
 40
7.0
 40
7.0
 40
7.0
 40
8.0
 40
8.0
 40
8.0
 40
9.0
 40
9.0
 40
9.0
 40
10.0
 40
10.0
 40
10.0
 40
11.0
 40
11.0
 40
11.0
 40
11.0
 10
-93.01306975222365
 20
-702.0666057334342
 30
0.0
 10
-95.74705081236283
 20
-700.8281356805495
 30
0.0
 10
-114.0670606512512
 20
-690.8970078979893
 30
0.0
 10
-115.8196126128801
 20
-690.1492523943608
 30
0.0
 10
-218.1219124529973
 20
-647.5505560470477
 30
0.0
 10
-298.7860374068773
 20
-653.696171592492
 30
0.0
 10
-210.7378268546711
 20
-861.0113849733792
 30
0.0
 10
-192.4178170157808
 20
-904.1475305889246
 30
0.0
 10
-170.4758664561956
 20
-908.1900837804148
 30
0.0
 10
-134.7238064389763
 20
-923.3788674478597
 30
0.0
 10
-134.7238064389763
 20
-923.3788674478597
 30
0.0
 10
-70.34673104849616
 20
-938.1937733634913
 30
0.0
 10
-13.16680238043685
 20
-941.2782648159566
 30
0.0
 10
-13.16680238043685
 20
-941.2782648159566
 30
0.0
 10
149.0260398283943
 20
-942.0961223980507
 30
0.0
 10
149.0260398283943
 20
-942.0961223980507
 30
0.0
 10
149.0260398283943
 20
-942.0961223980507
 30
0.0
 10
152.1105312808614
 20
-942.0961223980507
 30
0.0
 10
152.1105312808614
 20
-942.0961223980507
 30
0.0
 10
152.1105312808614
 20
-942.0961223980507
 30
0.0
 10
314.2800061302025
 20
-941.2782648159566
 30
0.0
 10
314.2800061302025
 20
-941.2782648159566
 30
0.0
 10
371.48330215775
 20
-938.1937733634913
 30
0.0
 10
435.8370101887421
 20
-923.3788674478597
 30
0.0
 10
435.8370101887421
 20
-923.3788674478597
 30
0.0
 10
471.5890702059613
 20
-908.1900837804148
 30
0.0
 10
494.3021436286651
 20
-891.0150745564566
 30
0.0
 10
511.8743979639231
 20
-861.0113849733792
 30
0.0
 10
569.6385106191956
 20
-651.289333565189
 30
0.0
 10
519.2584835622511
 20
-647.5505560470477
 30
0.0
 10
416.956183722134
 20
-690.1492523943608
 30
0.0
 10
413.7782228317142
 20
-691.4344571662218
 30
0.0
 10
394.1496408614776
 20
-700.5243600072015
 30
0.0
 10
391.4857618798028
 20
-702.0666057334342
 30
0.0
  0
SPLINE
  5
1C5
330
1F
100
AcDbEntity
  8
Furniture
370
     9
100
AcDbSpline
210
0.0
220
0.0
230
1.0
 70
     8
 71
     3
 72
    11
 73
     7
 74
     0
 42
0.000000001
 43
0.0000000001
 40
0.0
 40
0.0
 40
0.0
 40
0.0
 40
1.0
 40
1.0
 40
1.0
 40
2.0
 40
2.0
 40
2.0
 40
2.0
 10
419.993940455623
 20
-925.9025422726045
 30
0.0
 10
419.993940455623
 20
-925.9025422726045
 30
0.0
 10
362.1830930813759
 20
-770.065621844613
 30
0.0
 10
329.9595043469044
 20
-764.4340882079148
 30
0.0
 10
329.9595043469044
 20
-764.4340882079148
 30
0.0
 10
358.9116627530034
 20
-721.3446773113457
 30
0.0
 10
391.4857618798028
 20
-702.0666057334342
 30
0.0
  0
SPLINE
  5
1C6
330
1F
100
AcDbEntity
  8
Furniture
370
     9
100
AcDbSpline
210
0.0
220
0.0
230
1.0
 70
     8
 71
     3
 72
    14
 73
    10
 74
     0
 42
0.000000001
 43
0.0000000001
 40
0.0
 40
0.0
 40
0.0
 40
0.0
 40
1.0
 40
1.0
 40
1.0
 40
2.0
 40
2.0
 40
2.0
 40
3.0
 40
3.0
 40
3.0
 40
3.0
 10
329.9595043469044
 20
-764.5742923648437
 30
0.0
 10
283.8557040763345
 20
-744.5718326427927
 30
0.0
 10
150.7084897115568
 20
-747.6796914547471
 30
0.0
 10
150.7084897115568
 20
-747.6796914547471
 30
0.0
 10
150.7084897115568
 20
-747.6796914547471
 30
0.0
 10
147.7174676970442
 20
-747.6796914547471
 30
0.0
 10
147.7174676970442
 20
-747.6796914547471
 30
0.0
 10
147.7174676970442
 20
-747.6796914547471
 30
0.0
 10
14.61698805124468
 20
-744.5718326427927
 30
0.0
 10
-31.51017957881344
 20
-764.5742923648437
 30
0.0
  0
POLYLINE
  5
1C7
330
1F
100
AcDbEntity
  8
Furniture
370
     9
100
AcDb2dPolyline
 66
     1
 10
0.0
 20
0.0
 30
0.0
  0
VERTEX
  5
1C8
330
1C7
100
AcDbEntity
  8
Furniture
370
     9
100
AcDbVertex
100
AcDb2dVertex
 10
118.2745947416901
 20
-1104.756311796649
 30
0.0
  0
VERTEX
  5
1C9
330
1C7
100
AcDbEntity
  8
Furniture
370
     9
100
AcDbVertex
100
AcDb2dVertex
 10
123.7892915809466
 20
-1104.756311796649
 30
0.0
  0
SEQEND
  5
1CA
330
1C7
100
AcDbEntity
  8
Furniture
370
     9
  0
POLYLINE
  5
1CB
330
1F
100
AcDbEntity
  8
Furniture
370
     9
100
AcDb2dPolyline
 66
     1
 10
0.0
 20
0.0
 30
0.0
  0
VERTEX
  5
1CC
330
1CB
100
AcDbEntity
  8
Furniture
370
     9
100
AcDbVertex
100
AcDb2dVertex
 10
174.6600331871444
 20
-1104.756311796649
 30
0.0
  0
VERTEX
  5
1CD
330
1CB
100
AcDbEntity
  8
Furniture
370
     9
100
AcDbVertex
100
AcDb2dVertex
 10
179.3335050848215
 20
-1104.756311796649
 30
0.0
  0
SEQEND
  5
1CE
330
1CB
100
AcDbEntity
  8
Furniture
370
     9
  0
SPLINE
  5
1CF
330
1F
100
AcDbEntity
  8
Furniture
370
     9
100
AcDbSpline
210
0.0
220
0.0
230
1.0
 70
     8
 71
     3
 72
    11
 73
     7
 74
     0
 42
0.000000001
 43
0.0000000001
 40
0.0
 40
0.0
 40
0.0
 40
0.0
 40
1.0
 40
1.0
 40
1.0
 40
2.0
 40
2.0
 40
2.0
 40
2.0
 10
-121.5446156875338
 20
963.1381661273444
 30
0.0
 10
-121.5446156875338
 20
963.1381661273444
 30
0.0
 10
-63.71040095379854
 20
1118.975086555336
 30
0.0
 10
-31.51017957881344
 20
1124.606620192036
 30
0.0
 10
-31.51017957881344
 20
1124.606620192036
 30
0.0
 10
-70.88418031672762
 20
1177.054658563699
 30
0.0
 10
-93.01306975222365
 20
1186.974102666515
 30
0.0
  0
POLYLINE
  5
1D0
330
1F
100
AcDbEntity
  8
Furniture
370
     9
100
AcDb2dPolyline
 66
     1
 10
0.0
 20
0.0
 30
0.0
  0
VERTEX
  5
1D1
330
1D0
100
AcDbEntity
  8
Furniture
370
     9
100
AcDbVertex
100
AcDb2dVertex
 10
174.6600331871444
 20
784.296080283045
 30
0.0
  0
VERTEX
  5
1D2
330
1D0
100
AcDbEntity
  8
Furniture
370
     9
100
AcDbVertex
100
AcDb2dVertex
 10
123.7892915809466
 20
784.296080283045
 30
0.0
  0
VERTEX
  5
1D3
330
1D0
100
AcDbEntity
  8
Furniture
370
     9
100
AcDbVertex
100
AcDb2dVertex
 10
123.7892915809466
 20
946.9095349626668
 30
0.0
  0
VERTEX
  5
1D4
330
1D0
100
AcDbEntity
  8
Furniture
370
     9
100
AcDbVertex
100
AcDb2dVertex
 10
174.6600331871444
 20
946.9445860018991
 30
0.0
  0
VERTEX
  5
1D5
330
1D0
100
AcDbEntity
  8
Furniture
370
     9
100
AcDbVertex
100
AcDb2dVertex
 10
174.6600331871444
 20
784.296080283045
 30
0.0
  0
SEQEND
  5
1D6
330
1D0
100
AcDbEntity
  8
Furniture
370
     9
  0
POLYLINE
  5
1D7
330
1F
100
AcDbEntity
  8
Furniture
370
     9
100
AcDb2dPolyline
 66
     1
 10
0.0
 20
0.0
 30
0.0
  0
VERTEX
  5
1D8
330
1D7
100
AcDbEntity
  8
Furniture
370
     9
100
AcDbVertex
100
AcDb2dVertex
 10
-95.53674457696752
 20
728.7635504589152
 30
0.0
  0
VERTEX
  5
1D9
330
1D7
100
AcDbEntity
  8
Furniture
370
     9
100
AcDbVertex
100
AcDb2dVertex
 10
118.2745947416901
 20
728.7635504589152
 30
0.0
  0
VERTEX
  5
1DA
330
1D7
100
AcDbEntity
  8
Furniture
370
     9
100
AcDbVertex
100
AcDb2dVertex
 10
118.2745947416901
 20
784.296080283045
 30
0.0
  0
VERTEX
  5
1DB
330
1D7
100
AcDbEntity
  8
Furniture
370
     9
100
AcDbVertex
100
AcDb2dVertex
 10
-80.67510394236055
 20
784.296080283045
 30
0.0
  0
VERTEX
  5
1DC
330
1D7
100
AcDbEntity
  8
Furniture
370
     9
100
AcDbVertex
100
AcDb2dVertex
 10
-95.53674457696752
 20
728.7635504589152
 30
0.0
  0
SEQEND
  5
1DD
330
1D7
100
AcDbEntity
  8
Furniture
370
     9
  0
POLYLINE
  5
1DE
330
1F
100
AcDbEntity
  8
Furniture
370
     9
100
AcDb2dPolyline
 66
     1
 10
0.0
 20
0.0
 30
0.0
  0
VERTEX
  5
1DF
330
1DE
100
AcDbEntity
  8
Furniture
370
     9
100
AcDbVertex
100
AcDb2dVertex
 10
179.3335050848215
 20
728.7635504589152
 30
0.0
  0
VERTEX
  5
1E0
330
1DE
100
AcDbEntity
  8
Furniture
370
     9
100
AcDbVertex
100
AcDb2dVertex
 10
395.0843352410133
 20
728.7635504589152
 30
0.0
  0
VERTEX
  5
1E1
330
1DE
100
AcDbEntity
  8
Furniture
370
     9
100
AcDbVertex
100
AcDb2dVertex
 10
374.1939158584029
 20
784.296080283045
 30
0.0
  0
VERTEX
  5
1E2
330
1DE
100
AcDbEntity
  8
Furniture
370
     9
100
AcDbVertex
100
AcDb2dVertex
 10
179.3335050848215
 20
784.296080283045
 30
0.0
  0
VERTEX
  5
1E3
330
1DE
100
AcDbEntity
  8
Furniture
370
     9
100
AcDbVertex
100
AcDb2dVertex
 10
179.3335050848215
 20
728.7635504589152
 30
0.0
  0
SEQEND
  5
1E4
330
1DE
100
AcDbEntity
  8
Furniture
370
     9
  0
POLYLINE
  5
1E5
330
1F
100
AcDbEntity
  8
Furniture
370
     9
100
AcDb2dPolyline
 66
     1
 10
0.0
 20
0.0
 30
0.0
  0
VERTEX
  5
1E6
330
1E5
100
AcDbEntity
  8
Furniture
370
     9
100
AcDbVertex
100
AcDb2dVertex
 10
108.6005079135016
 20
728.7635504589152
 30
0.0
  0
VERTEX
  5
1E7
330
1E5
100
AcDbEntity
  8
Furniture
370
     9
100
AcDbVertex
100
AcDb2dVertex
 10
192.0219812870107
 20
728.7635504589152
 30
0.0
  0
SEQEND
  5
1E8
330
1E5
100
AcDbEntity
  8
Furniture
370
     9
  0
SPLINE
  5
1E9
330
1F
100
AcDbEntity
  8
Furniture
370
     9
100
AcDbSpline
210
0.0
220
0.0
230
1.0
 70
     8
 71
     3
 72
    26
 73
    22
 74
     0
 42
0.000000001
 43
0.0000000001
 40
0.0
 40
0.0
 40
0.0
 40
0.0
 40
1.0
 40
1.0
 40
1.0
 40
2.0
 40
2.0
 40
2.0
 40
3.0
 40
3.0
 40
3.0
 40
4.0
 40
4.0
 40
4.0
 40
5.0
 40
5.0
 40
5.0
 40
6.0
 40
6.0
 40
6.0
 40
7.0
 40
7.0
 40
7.0
 40
7.0
 10
402.38663508113
 20
1192.25512591089
 30
0.0
 10
379.4048370243114
 20
1237.529384919621
 30
0.0
 10
363.7019714481213
 20
1458.888381353024
 30
0.0
 10
360.7460004728419
 20
1492.79441997066
 30
0.0
 10
360.7460004728419
 20
1492.79441997066
 30
0.0
 10
348.9805349704433
 20
1539.657659424602
 30
0.0
 10
317.9369978901325
 20
1560.010629538979
 30
0.0
 10
317.9369978901325
 20
1560.010629538979
 30
0.0
 10
272.7562083193551
 20
1580.679059006449
 30
0.0
 10
146.3271098074883
 20
1580.679059006449
 30
0.0
 10
146.3271098074883
 20
1580.679059006449
 30
0.0
 10
143.6398634663236
 20
1580.679059006449
 30
0.0
 10
143.6398634663236
 20
1580.679059006449
 30
0.0
 10
17.19908127471169
 20
1580.679059006449
 30
0.0
 10
-38.5904895037917
 20
1555.173586124884
 30
0.0
 10
-38.5904895037917
 20
1555.173586124884
 30
0.0
 10
-69.63402658410069
 20
1534.820616010508
 30
0.0
 10
-84.05168738842887
 20
1487.957376556566
 30
0.0
 10
-84.05168738842887
 20
1487.957376556566
 30
0.0
 10
-87.01934204345517
 20
1453.817664344045
 30
0.0
 10
-92.65087568015252
 20
1242.272958895762
 30
0.0
 10
-115.8196126128801
 20
1198.891456005588
 30
0.0
  0
SPLINE
  5
1EA
330
1F
100
AcDbEntity
  8
Furniture
370
     9
100
AcDbSpline
210
0.0
220
0.0
230
1.0
 70
     8
 71
     3
 72
    38
 73
    34
 74
     0
 42
0.000000001
 43
0.0000000001
 40
0.0
 40
0.0
 40
0.0
 40
0.0
 40
1.0
 40
1.0
 40
1.0
 40
2.0
 40
2.0
 40
2.0
 40
3.0
 40
3.0
 40
3.0
 40
4.0
 40
4.0
 40
4.0
 40
5.0
 40
5.0
 40
5.0
 40
6.0
 40
6.0
 40
6.0
 40
7.0
 40
7.0
 40
7.0
 40
8.0
 40
8.0
 40
8.0
 40
9.0
 40
9.0
 40
9.0
 40
10.0
 40
10.0
 40
10.0
 40
11.0
 40
11.0
 40
11.0
 40
11.0
 10
-93.01306975222365
 20
1186.974102666515
 30
0.0
 10
-95.74705081236283
 20
1188.2125727194
 30
0.0
 10
-114.0670606512512
 20
1198.14370050196
 30
0.0
 10
-115.8196126128801
 20
1198.891456005588
 30
0.0
 10
-218.1219124529973
 20
1241.478468673157
 30
0.0
 10
-298.7860374068773
 20
1235.344536807458
 30
0.0
 10
-210.7378268546711
 20
1028.02932342657
 30
0.0
 10
-192.4178170157808
 20
984.8931778110241
 30
0.0
 10
-170.4758664561956
 20
980.8623082992792
 30
0.0
 10
-134.7238064389763
 20
965.6501572723451
 30
0.0
 10
-134.7238064389763
 20
965.6501572723451
 30
0.0
 10
-70.34673104849616
 20
950.8586187162025
 30
0.0
 10
-13.16680238043685
 20
947.7741272637363
 30
0.0
 10
-13.16680238043685
 20
947.7741272637363
 30
0.0
 10
149.0260398283943
 20
946.9445860018991
 30
0.0
 10
149.0260398283943
 20
946.9445860018991
 30
0.0
 10
149.0260398283943
 20
946.9445860018991
 30
0.0
 10
152.1105312808614
 20
946.9445860018991
 30
0.0
 10
152.1105312808614
 20
946.9445860018991
 30
0.0
 10
152.1105312808614
 20
946.9445860018991
 30
0.0
 10
314.2800061302025
 20
947.7741272637363
 30
0.0
 10
314.2800061302025
 20
947.7741272637363
 30
0.0
 10
371.48330215775
 20
950.8586187162025
 30
0.0
 10
435.8370101887421
 20
965.6501572723451
 30
0.0
 10
435.8370101887421
 20
965.6501572723451
 30
0.0
 10
471.5890702059613
 20
980.8623082992792
 30
0.0
 10
494.3021436286651
 20
998.0256338434932
 30
0.0
 10
511.8743979639231
 20
1028.02932342657
 30
0.0
 10
569.6385106191956
 20
1237.751374834761
 30
0.0
 10
519.2584835622511
 20
1241.478468673157
 30
0.0
 10
416.956183722134
 20
1198.891456005588
 30
0.0
 10
413.7782228317142
 20
1197.617934913472
 30
0.0
 10
394.1496408614776
 20
1188.516348392749
 30
0.0
 10
391.4857618798028
 20
1186.974102666515
 30
0.0
  0
SPLINE
  5
1EB
330
1F
100
AcDbEntity
  8
Furniture
370
     9
100
AcDbSpline
210
0.0
220
0.0
230
1.0
 70
     8
 71
     3
 72
    11
 73
     7
 74
     0
 42
0.000000001
 43
0.0000000001
 40
0.0
 40
0.0
 40
0.0
 40
0.0
 40
1.0
 40
1.0
 40
1.0
 40
2.0
 40
2.0
 40
2.0
 40
2.0
 10
419.993940455623
 20
963.1381661273444
 30
0.0
 10
419.993940455623
 20
963.1381661273444
 30
0.0
 10
362.1830930813759
 20
1118.975086555336
 30
0.0
 10
329.9595043469044
 20
1124.606620192036
 30
0.0
 10
329.9595043469044
 20
1124.606620192036
 30
0.0
 10
358.9116627530034
 20
1167.68434740886
 30
0.0
 10
391.4857618798028
 20
1186.974102666515
 30
0.0
  0
SPLINE
  5
1EC
330
1F
100
AcDbEntity
  8
Furniture
370
     9
100
AcDbSpline
210
0.0
220
0.0
230
1.0
 70
     8
 71
     3
 72
    14
 73
    10
 74
     0
 42
0.000000001
 43
0.0000000001
 40
0.0
 40
0.0
 40
0.0
 40
0.0
 40
1.0
 40
1.0
 40
1.0
 40
2.0
 40
2.0
 40
2.0
 40
3.0
 40
3.0
 40
3.0
 40
3.0
 10
329.9595043469044
 20
1124.466416035105
 30
0.0
 10
283.8557040763345
 20
1144.457192077413
 30
0.0
 10
150.7084897115568
 20
1141.361016945201
 30
0.0
 10
150.7084897115568
 20
1141.361016945201
 30
0.0
 10
150.7084897115568
 20
1141.361016945201
 30
0.0
 10
147.7174676970442
 20
1141.361016945201
 30
0.0
 10
147.7174676970442
 20
1141.361016945201
 30
0.0
 10
147.7174676970442
 20
1141.361016945201
 30
0.0
 10
14.61698805124468
 20
1144.457192077413
 30
0.0
 10
-31.51017957881344
 20
1124.466416035105
 30
0.0
  0
POLYLINE
  5
1ED
330
1F
100
AcDbEntity
  8
Furniture
370
     9
100
AcDb2dPolyline
 66
     1
 10
0.0
 20
0.0
 30
0.0
  0
VERTEX
  5
1EE
330
1ED
100
AcDbEntity
  8
Furniture
370
     9
100
AcDbVertex
100
AcDb2dVertex
 10
118.2745947416901
 20
784.296080283045
 30
0.0
  0
VERTEX
  5
1EF
330
1ED
100
AcDbEntity
  8
Furniture
370
     9
100
AcDbVertex
100
AcDb2dVertex
 10
123.7892915809466
 20
784.296080283045
 30
0.0
  0
SEQEND
  5
1F0
330
1ED
100
AcDbEntity
  8
Furniture
370
     9
  0
POLYLINE
  5
1F1
330
1F
100
AcDbEntity
  8
Furniture
370
     9
100
AcDb2dPolyline
 66
     1
 10
0.0
 20
0.0
 30
0.0
  0
VERTEX
  5
1F2
330
1F1
100
AcDbEntity
  8
Furniture
370
     9
100
AcDbVertex
100
AcDb2dVertex
 10
174.6600331871444
 20
784.296080283045
 30
0.0
  0
VERTEX
  5
1F3
330
1F1
100
AcDbEntity
  8
Furniture
370
     9
100
AcDbVertex
100
AcDb2dVertex
 10
179.3335050848215
 20
784.296080283045
 30
0.0
  0
SEQEND
  5
1F4
330
1F1
100
AcDbEntity
  8
Furniture
370
     9
  0
SPLINE
  5
1F5
330
1F
100
AcDbEntity
  8
Furniture
370
     9
100
AcDbSpline
210
0.0
220
0.0
230
1.0
 70
     8
 71
     3
 72
    35
 73
    31
 74
     0
 42
0.000000001
 43
0.0000000001
 40
0.0
 40
0.0
 40
0.0
 40
0.0
 40
1.0
 40
1.0
 40
1.0
 40
2.0
 40
2.0
 40
2.0
 40
3.0
 40
3.0
 40
3.0
 40
4.0
 40
4.0
 40
4.0
 40
5.0
 40
5.0
 40
5.0
 40
6.0
 40
6.0
 40
6.0
 40
7.0
 40
7.0
 40
7.0
 40
8.0
 40
8.0
 40
8.0
 40
9.0
 40
9.0
 40
9.0
 40
10.0
 40
10.0
 40
10.0
 40
10.0
 10
2334.096141906858
 20
1036.920603711897
 30
0.0
 10
2276.986315317263
 20
975.8733770485108
 30
0.0
 10
2320.589808122575
 20
957.6351529678328
 30
0.0
 10
2320.589808122575
 20
957.6351529678328
 30
0.0
 10
2341.199819191326
 20
946.5356572108525
 30
0.0
 10
2377.699634712172
 20
949.7019344215274
 30
0.0
 10
2377.699634712172
 20
949.7019344215274
 30
0.0
 10
2401.487606671341
 20
962.3904106237166
 30
0.0
 10
2450.652531034888
 20
963.9793910689265
 30
0.0
 10
2450.652531034888
 20
963.9793910689265
 30
0.0
 10
2816.91252365572
 20
927.5029429075686
 30
0.0
 10
2787.703324295249
 20
946.5356572108525
 30
0.0
 10
2787.703324295249
 20
946.5356572108525
 30
0.0
 10
2911.41012542672
 20
960.8014301785075
 30
0.0
 10
2963.70627596171
 20
1133.638104634293
 30
0.0
 10
2963.70627596171
 20
1133.638104634293
 30
0.0
 10
2963.70627596171
 20
1133.638104634293
 30
0.0
 10
3052.502242017545
 20
1441.269392298787
 30
0.0
 10
3052.502242017545
 20
1441.269392298787
 30
0.0
 10
3081.057155312344
 20
1518.977546277387
 30
0.0
 10
3060.447144243593
 20
1564.952826070771
 30
0.0
 10
3060.447144243593
 20
1564.952826070771
 30
0.0
 10
3060.447144243593
 20
1564.952826070771
 30
0.0
 10
3065.214085579225
 20
1572.09155439447
 30
0.0
 10
3056.47469313057
 20
1572.09155439447
 30
0.0
 10
3056.47469313057
 20
1572.09155439447
 30
0.0
 10
3023.994063441725
 20
1582.805488719892
 30
0.0
 10
2997.028130592137
 20
1579.230282718169
 30
0.0
 10
2997.028130592137
 20
1579.230282718169
 30
0.0
 10
2888.229704814251
 20
1564.882723992305
 30
0.0
 10
2759.00820684352
 20
1176.38868881828
 30
0.0
  0
SPLINE
  5
1F6
330
1F
100
AcDbEntity
  8
Furniture
370
     9
100
AcDbSpline
210
0.0
220
0.0
230
1.0
 70
     8
 71
     3
 72
    11
 73
     7
 74
     0
 42
0.000000001
 43
0.0000000001
 40
0.0
 40
0.0
 40
0.0
 40
0.0
 40
1.0
 40
1.0
 40
1.0
 40
2.0
 40
2.0
 40
2.0
 40
2.0
 10
2329.32920057123
 20
1015.516102420543
 30
0.0
 10
2329.32920057123
 20
1015.516102420543
 30
0.0
 10
2349.144721417374
 20
1161.386844026742
 30
0.0
 10
2498.181740234246
 20
1184.403693122794
 30
0.0
 10
2498.181740234246
 20
1184.403693122794
 30
0.0
 10
2664.837748105358
 20
1222.445754369874
 30
0.0
 10
2878.882761018899
 20
1142.365813403203
 30
0.0
  0
SPLINE
  5
1F7
330
1F
100
AcDbEntity
  8
Furniture
370
     9
100
AcDbSpline
210
0.0
220
0.0
230
1.0
 70
     8
 71
     3
 72
    29
 73
    25
 74
     0
 42
0.000000001
 43
0.0000000001
 40
0.0
 40
0.0
 40
0.0
 40
0.0
 40
1.0
 40
1.0
 40
1.0
 40
2.0
 40
2.0
 40
2.0
 40
3.0
 40
3.0
 40
3.0
 40
4.0
 40
4.0
 40
4.0
 40
5.0
 40
5.0
 40
5.0
 40
6.0
 40
6.0
 40
6.0
 40
7.0
 40
7.0
 40
7.0
 40
8.0
 40
8.0
 40
8.0
 40
8.0
 10
3061.428573342106
 20
1570.175430916423
 30
0.0
 10
3061.428573342106
 20
1570.175430916423
 30
0.0
 10
3045.398564733079
 20
1554.647820536396
 30
0.0
 10
3042.220603842659
 20
1525.310100698738
 30
0.0
 10
3042.220603842659
 20
1525.310100698738
 30
0.0
 10
2955.013618232033
 20
1159.015057038672
 30
0.0
 10
2916.17706676235
 20
1125.728253447478
 30
0.0
 10
2916.17706676235
 20
1125.728253447478
 30
0.0
 10
2909.026654758907
 20
1100.351301043099
 30
0.0
 10
2878.882761018899
 20
1109.067326132265
 30
0.0
 10
2878.882761018899
 20
1109.067326132265
 30
0.0
 10
2816.258237590046
 20
1133.638104634293
 30
0.0
 10
2713.2081822463
 20
1147.927244961437
 30
0.0
 10
2610.111392183578
 20
1162.181334249346
 30
0.0
 10
2510.099093573319
 20
1155.054289605392
 30
0.0
 10
2449.016815870701
 20
1136.816065524713
 30
0.0
 10
2449.016815870701
 20
1136.816065524713
 30
0.0
 10
2395.926175113106
 20
1120.961312111849
 30
0.0
 10
2378.494124934777
 20
1051.198060359297
 30
0.0
 10
2361.01534003747
 20
981.4114412472564
 30
0.0
 10
2378.494124934777
 20
1047.225609246273
 30
0.0
 10
2378.494124934777
 20
1047.225609246273
 30
0.0
 10
2378.494124934777
 20
1047.225609246273
 30
0.0
 10
2349.892476921001
 20
935.3426920159195
 30
0.0
 10
2310.682047699503
 20
965.509953115416
 30
0.0
  0
POLYLINE
  5
1F8
330
1F
100
AcDbEntity
  8
Furniture
370
     9
100
AcDb2dPolyline
 66
     1
 10
0.0
 20
0.0
 30
0.0
  0
VERTEX
  5
1F9
330
1F8
100
AcDbEntity
  8
Furniture
370
     9
100
AcDbVertex
100
AcDb2dVertex
 10
2579.173008220964
 20
784.0039882894402
 30
0.0
  0
VERTEX
  5
1FA
330
1F8
100
AcDbEntity
  8
Furniture
370
     9
100
AcDbVertex
100
AcDb2dVertex
 10
2629.786708872791
 20
784.0039882894402
 30
0.0
  0
VERTEX
  5
1FB
330
1F8
100
AcDbEntity
  8
Furniture
370
     9
100
AcDbVertex
100
AcDb2dVertex
 10
2629.786708872791
 20
945.7294833085034
 30
0.0
  0
VERTEX
  5
1FC
330
1F8
100
AcDbEntity
  8
Furniture
370
     9
100
AcDbVertex
100
AcDb2dVertex
 10
2579.173008220964
 20
949.2930056304809
 30
0.0
  0
VERTEX
  5
1FD
330
1F8
100
AcDbEntity
  8
Furniture
370
     9
100
AcDbVertex
100
AcDb2dVertex
 10
2579.173008220964
 20
784.0039882894402
 30
0.0
  0
SEQEND
  5
1FE
330
1F8
100
AcDbEntity
  8
Furniture
370
     9
  0
POLYLINE
  5
1FF
330
1F
100
AcDbEntity
  8
Furniture
370
     9
100
AcDb2dPolyline
 66
     1
 10
0.0
 20
0.0
 30
0.0
  0
VERTEX
  5
200
330
1FF
100
AcDbEntity
  8
Furniture
370
     9
100
AcDbVertex
100
AcDb2dVertex
 10
2848.505193684007
 20
728.7635504589152
 30
0.0
  0
VERTEX
  5
201
330
1FF
100
AcDbEntity
  8
Furniture
370
     9
100
AcDbVertex
100
AcDb2dVertex
 10
2635.815487620793
 20
728.7635504589152
 30
0.0
  0
VERTEX
  5
202
330
1FF
100
AcDbEntity
  8
Furniture
370
     9
100
AcDbVertex
100
AcDb2dVertex
 10
2635.815487620793
 20
784.0039882894402
 30
0.0
  0
VERTEX
  5
203
330
1FF
100
AcDbEntity
  8
Furniture
370
     9
100
AcDbVertex
100
AcDb2dVertex
 10
2833.690287768374
 20
784.0039882894402
 30
0.0
  0
VERTEX
  5
204
330
1FF
100
AcDbEntity
  8
Furniture
370
     9
100
AcDbVertex
100
AcDb2dVertex
 10
2848.505193684007
 20
728.7635504589152
 30
0.0
  0
SEQEND
  5
205
330
1FF
100
AcDbEntity
  8
Furniture
370
     9
  0
POLYLINE
  5
206
330
1F
100
AcDbEntity
  8
Furniture
370
     9
100
AcDb2dPolyline
 66
     1
 10
0.0
 20
0.0
 30
0.0
  0
VERTEX
  5
207
330
206
100
AcDbEntity
  8
Furniture
370
     9
100
AcDbVertex
100
AcDb2dVertex
 10
2575.060352951011
 20
728.7635504589152
 30
0.0
  0
VERTEX
  5
208
330
206
100
AcDbEntity
  8
Furniture
370
     9
100
AcDbVertex
100
AcDb2dVertex
 10
2360.501258128726
 20
728.7635504589152
 30
0.0
  0
VERTEX
  5
209
330
206
100
AcDbEntity
  8
Furniture
370
     9
100
AcDbVertex
100
AcDb2dVertex
 10
2381.251473354406
 20
784.0039882894402
 30
0.0
  0
VERTEX
  5
20A
330
206
100
AcDbEntity
  8
Furniture
370
     9
100
AcDbVertex
100
AcDb2dVertex
 10
2575.060352951011
 20
784.0039882894402
 30
0.0
  0
VERTEX
  5
20B
330
206
100
AcDbEntity
  8
Furniture
370
     9
100
AcDbVertex
100
AcDb2dVertex
 10
2575.060352951011
 20
728.7635504589152
 30
0.0
  0
SEQEND
  5
20C
330
206
100
AcDbEntity
  8
Furniture
370
     9
  0
POLYLINE
  5
20D
330
1F
100
AcDbEntity
  8
Furniture
370
     9
100
AcDb2dPolyline
 66
     1
 10
0.0
 20
0.0
 30
0.0
  0
VERTEX
  5
20E
330
20D
100
AcDbEntity
  8
Furniture
370
     9
100
AcDbVertex
100
AcDb2dVertex
 10
2645.442839730005
 20
728.7635504589152
 30
0.0
  0
VERTEX
  5
20F
330
20D
100
AcDbEntity
  8
Furniture
370
     9
100
AcDbVertex
100
AcDb2dVertex
 10
2562.488713546262
 20
728.7635504589152
 30
0.0
  0
SEQEND
  5
210
330
20D
100
AcDbEntity
  8
Furniture
370
     9
  0
SPLINE
  5
211
330
1F
100
AcDbEntity
  8
Furniture
370
     9
100
AcDbSpline
210
0.0
220
0.0
230
1.0
 70
     8
 71
     3
 72
    11
 73
     7
 74
     0
 42
0.000000001
 43
0.0000000001
 40
0.0
 40
0.0
 40
0.0
 40
0.0
 40
1.0
 40
1.0
 40
1.0
 40
2.0
 40
2.0
 40
2.0
 40
2.0
 10
2329.32920057123
 20
-873.5129222996622
 30
0.0
 10
2329.32920057123
 20
-873.5129222996622
 30
0.0
 10
2349.144721417374
 20
-727.653864373207
 30
0.0
 10
2498.181740234246
 20
-704.6603826366443
 30
0.0
 10
2498.181740234246
 20
-704.6603826366443
 30
0.0
 10
2664.837748105358
 20
-666.5715866705884
 30
0.0
 10
2878.882761018899
 20
-746.6748949967469
 30
0.0
  0
SPLINE
  5
212
330
1F
100
AcDbEntity
  8
Furniture
370
     9
100
AcDbSpline
210
0.0
220
0.0
230
1.0
 70
     8
 71
     3
 72
    29
 73
    25
 74
     0
 42
0.000000001
 43
0.0000000001
 40
0.0
 40
0.0
 40
0.0
 40
0.0
 40
1.0
 40
1.0
 40
1.0
 40
2.0
 40
2.0
 40
2.0
 40
3.0
 40
3.0
 40
3.0
 40
4.0
 40
4.0
 40
4.0
 40
5.0
 40
5.0
 40
5.0
 40
6.0
 40
6.0
 40
6.0
 40
7.0
 40
7.0
 40
7.0
 40
8.0
 40
8.0
 40
8.0
 40
8.0
 10
3048.015708995777
 20
-114.6345555551045
 30
0.0
 10
3048.015708995777
 20
-114.6345555551045
 30
0.0
 10
3037.453662507031
 20
-274.6542333315152
 30
0.0
 10
3034.27570161661
 20
-303.9802694894293
 30
0.0
 10
3034.27570161661
 20
-303.9802694894293
 30
0.0
 10
2955.013618232033
 20
-730.0373350410219
 30
0.0
 10
2916.130332043373
 20
-763.3124549524718
 30
0.0
 10
2916.130332043373
 20
-763.3124549524718
 30
0.0
 10
2909.026654758907
 20
-788.6894073568503
 30
0.0
 10
2878.882761018899
 20
-779.9500149081977
 30
0.0
 10
2878.882761018899
 20
-779.9500149081977
 30
0.0
 10
2816.258237590046
 20
-755.3909200859123
 30
0.0
 10
2713.161447527323
 20
-741.1134634385131
 30
0.0
 10
2610.111392183578
 20
-726.8593741506021
 30
0.0
 10
2510.099093573319
 20
-733.9864187945575
 30
0.0
 10
2449.016815870701
 20
-752.2363265549806
 30
0.0
 10
2449.016815870701
 20
-752.2363265549806
 30
0.0
 10
2395.926175113106
 20
-768.0793962881015
 30
0.0
 10
2378.494124934777
 20
-837.8543317203964
 30
0.0
 10
2361.01534003747
 20
-907.6292671526934
 30
0.0
 10
2378.494124934777
 20
-841.8267828334213
 30
0.0
 10
2378.494124934777
 20
-841.8267828334213
 30
0.0
 10
2378.494124934777
 20
-841.8267828334213
 30
0.0
 10
2349.892476921001
 20
-953.7097000637741
 30
0.0
 10
2310.682047699503
 20
-923.5190716047897
 30
0.0
  0
POLYLINE
  5
213
330
1F
100
AcDbEntity
  8
Furniture
370
     9
100
AcDb2dPolyline
 66
     1
 10
0.0
 20
0.0
 30
0.0
  0
VERTEX
  5
214
330
213
100
AcDbEntity
  8
Furniture
370
     9
100
AcDbVertex
100
AcDb2dVertex
 10
2579.173008220964
 20
-1105.03672011051
 30
0.0
  0
VERTEX
  5
215
330
213
100
AcDbEntity
  8
Furniture
370
     9
100
AcDbVertex
100
AcDb2dVertex
 10
2629.786708872791
 20
-1105.03672011051
 30
0.0
  0
VERTEX
  5
216
330
213
100
AcDbEntity
  8
Furniture
370
     9
100
AcDbVertex
100
AcDb2dVertex
 10
2629.786708872791
 20
-943.2878577319572
 30
0.0
  0
VERTEX
  5
217
330
213
100
AcDbEntity
  8
Furniture
370
     9
100
AcDbVertex
100
AcDb2dVertex
 10
2579.173008220964
 20
-939.7360190897249
 30
0.0
  0
VERTEX
  5
218
330
213
100
AcDbEntity
  8
Furniture
370
     9
100
AcDbVertex
100
AcDb2dVertex
 10
2579.173008220964
 20
-1105.03672011051
 30
0.0
  0
SEQEND
  5
219
330
213
100
AcDbEntity
  8
Furniture
370
     9
  0
POLYLINE
  5
21A
330
1F
100
AcDbEntity
  8
Furniture
370
     9
100
AcDb2dPolyline
 66
     1
 10
0.0
 20
0.0
 30
0.0
  0
VERTEX
  5
21B
330
21A
100
AcDbEntity
  8
Furniture
370
     9
100
AcDbVertex
100
AcDb2dVertex
 10
2848.505193684007
 20
-1160.277157941034
 30
0.0
  0
VERTEX
  5
21C
330
21A
100
AcDbEntity
  8
Furniture
370
     9
100
AcDbVertex
100
AcDb2dVertex
 10
2635.815487620793
 20
-1160.277157941034
 30
0.0
  0
VERTEX
  5
21D
330
21A
100
AcDbEntity
  8
Furniture
370
     9
100
AcDbVertex
100
AcDb2dVertex
 10
2635.815487620793
 20
-1105.03672011051
 30
0.0
  0
VERTEX
  5
21E
330
21A
100
AcDbEntity
  8
Furniture
370
     9
100
AcDbVertex
100
AcDb2dVertex
 10
2833.690287768374
 20
-1105.03672011051
 30
0.0
  0
VERTEX
  5
21F
330
21A
100
AcDbEntity
  8
Furniture
370
     9
100
AcDbVertex
100
AcDb2dVertex
 10
2848.505193684007
 20
-1160.277157941034
 30
0.0
  0
SEQEND
  5
220
330
21A
100
AcDbEntity
  8
Furniture
370
     9
  0
POLYLINE
  5
221
330
1F
100
AcDbEntity
  8
Furniture
370
     9
100
AcDb2dPolyline
 66
     1
 10
0.0
 20
0.0
 30
0.0
  0
VERTEX
  5
222
330
221
100
AcDbEntity
  8
Furniture
370
     9
100
AcDbVertex
100
AcDb2dVertex
 10
2575.060352951011
 20
-1160.277157941034
 30
0.0
  0
VERTEX
  5
223
330
221
100
AcDbEntity
  8
Furniture
370
     9
100
AcDbVertex
100
AcDb2dVertex
 10
2360.454523409748
 20
-1160.277157941034
 30
0.0
  0
VERTEX
  5
224
330
221
100
AcDbEntity
  8
Furniture
370
     9
100
AcDbVertex
100
AcDb2dVertex
 10
2381.251473354406
 20
-1105.03672011051
 30
0.0
  0
VERTEX
  5
225
330
221
100
AcDbEntity
  8
Furniture
370
     9
100
AcDbVertex
100
AcDb2dVertex
 10
2575.060352951011
 20
-1105.03672011051
 30
0.0
  0
VERTEX
  5
226
330
221
100
AcDbEntity
  8
Furniture
370
     9
100
AcDbVertex
100
AcDb2dVertex
 10
2575.060352951011
 20
-1160.277157941034
 30
0.0
  0
SEQEND
  5
227
330
221
100
AcDbEntity
  8
Furniture
370
     9
  0
POLYLINE
  5
228
330
1F
100
AcDbEntity
  8
Furniture
370
     9
100
AcDb2dPolyline
 66
     1
 10
0.0
 20
0.0
 30
0.0
  0
VERTEX
  5
229
330
228
100
AcDbEntity
  8
Furniture
370
     9
100
AcDbVertex
100
AcDb2dVertex
 10
2645.442839730005
 20
-1160.277157941034
 30
0.0
  0
VERTEX
  5
22A
330
228
100
AcDbEntity
  8
Furniture
370
     9
100
AcDbVertex
100
AcDb2dVertex
 10
2562.441978827286
 20
-1160.277157941034
 30
0.0
  0
SEQEND
  5
22B
330
228
100
AcDbEntity
  8
Furniture
370
     9
  0
SPLINE
  5
22C
330
1F
100
AcDbEntity
  8
Furniture
370
     9
100
AcDbSpline
210
0.0
220
0.0
230
1.0
 70
     8
 71
     3
 72
    35
 73
    31
 74
     0
 42
0.000000001
 43
0.0000000001
 40
0.0
 40
0.0
 40
0.0
 40
0.0
 40
1.0
 40
1.0
 40
1.0
 40
2.0
 40
2.0
 40
2.0
 40
3.0
 40
3.0
 40
3.0
 40
4.0
 40
4.0
 40
4.0
 40
5.0
 40
5.0
 40
5.0
 40
6.0
 40
6.0
 40
6.0
 40
7.0
 40
7.0
 40
7.0
 40
8.0
 40
8.0
 40
8.0
 40
9.0
 40
9.0
 40
9.0
 40
10.0
 40
10.0
 40
10.0
 40
10.0
 10
2334.096141906858
 20
-852.1084210083076
 30
0.0
 10
2276.986315317263
 20
-913.167331351439
 30
0.0
 10
2320.589808122575
 20
-931.4172391118619
 30
0.0
 10
2320.589808122575
 20
-931.4172391118619
 30
0.0
 10
2341.199819191326
 20
-942.493367509353
 30
0.0
 10
2377.699634712172
 20
-939.3154066189334
 30
0.0
 10
2377.699634712172
 20
-939.3154066189334
 30
0.0
 10
2401.487606671341
 20
-926.6502977762323
 30
0.0
 10
2450.605796315911
 20
-925.0613173310233
 30
0.0
 10
2450.605796315911
 20
-925.0613173310233
 30
0.0
 10
2816.91252365572
 20
-961.5377654923811
 30
0.0
 10
2787.703324295249
 20
-942.493367509353
 30
0.0
 10
2787.703324295249
 20
-942.493367509353
 30
0.0
 10
2911.41012542672
 20
-928.2392782214431
 30
0.0
 10
2963.70627596171
 20
-755.3909200859123
 30
0.0
 10
2963.70627596171
 20
-755.3909200859123
 30
0.0
 10
2963.70627596171
 20
-755.3909200859123
 30
0.0
 10
3044.557339791496
 20
-388.0326615691244
 30
0.0
 10
3044.557339791496
 20
-388.0326615691244
 30
0.0
 10
3044.557339791496
 20
-388.0326615691244
 30
0.0
 10
3080.40286924667
 20
-249.3240156461139
 30
0.0
 10
3059.699388739965
 20
-119.5884357666395
 30
0.0
 10
3059.699388739965
 20
-119.5884357666395
 30
0.0
 10
2981.231795577994
 20
-75.98494296132709
 30
0.0
 10
2945.666674436682
 20
-170.8096877651644
 30
0.0
 10
2910.101553295372
 20
-265.5876978500255
 30
0.0
 10
2911.316655988768
 20
-311.6213960421291
 30
0.0
 10
2899.726445682531
 20
-329.3338545343188
 30
0.0
 10
2860.70295533694
 20
-388.3130698829851
 30
0.0
 10
2784.385159247899
 20
-553.6137709037697
 30
0.0
 10
2757.559430555241
 20
-709.2871198153424
 30
0.0
  0
TEXT
  5
27A
330
1F
100
AcDbEntity
  8
Text
100
AcDbText
 10
-4903.996709315107
 20
3584.651051878215
 30
0.0
 40
156.0795074609801
  1
WINSTON
 41
1.000399999999999
100
AcDbText
  0
TEXT
  5
27B
330
1F
100
AcDbEntity
  8
Text
100
AcDbText
 10
-4903.996709315107
 20
3096.5264475105
 30
0.0
 40
156.0795074609801
  1
—
 41
1.000399999999999
100
AcDbText
  0
TEXT
  5
27C
330
1F
100
AcDbEntity
  8
Text
100
AcDbText
 10
-4903.996709315107
 20
2549.800329648945
 30
0.0
 40
189.5251162026187
  1
DIMENSIONS
 41
1.000399999999999
100
AcDbText
  0
ENDSEC
  0
SECTION
  2
OBJECTS
  0
DICTIONARY
  5
C
330
0
100
AcDbDictionary
281
     1
  3
ACAD_CIP_PREVIOUS_PRODUCT_INFO
350
261
  3
ACAD_COLOR
350
13E
  3
ACAD_DETAILVIEWSTYLE
350
25A
  3
ACAD_GROUP
350
D
  3
ACAD_LAYOUT
350
1A
  3
ACAD_MATERIAL
350
122
  3
ACAD_MLEADERSTYLE
350
162
  3
ACAD_MLINESTYLE
350
17
  3
ACAD_PLOTSETTINGS
350
19
  3
ACAD_PLOTSTYLENAME
350
E
  3
ACAD_SCALELIST
350
140
  3
ACAD_SECTIONVIEWSTYLE
350
258
  3
ACAD_TABLESTYLE
350
120
  3
ACAD_VISUALSTYLE
350
2A
  3
ACDB_RECOMPOSE_DATA
350
36B
  3
AcDbVariableDictionary
350
176
  3
AEC_PROPERTY_SET_DEFS
350
270
  0
DICTIONARY
  5
16E
330
2
100
AcDbDictionary
280
     1
281
     1
  3
ACAD_LAYERSTATES
360
16F
  0
DICTIONARY
  5
167
330
10
100
AcDbDictionary
280
     1
281
     1
  3
ADSK_XREC_LAYER_RECONCILED
360
168
  0
DICTIONARY
  5
169
330
3B
100
AcDbDictionary
280
     1
281
     1
  3
ADSK_XREC_LAYER_RECONCILED
360
16A
  0
DICTIONARY
  5
1A0
330
1F
100
AcDbDictionary
280
     1
281
     1
  3
ACAD_SORTENTS
360
1A1
  0
DICTIONARY
  5
26C
330
26A
100
AcDbDictionary
280
     1
281
     1
  3
ACAD_SORTENTS
360
26D
  0
XRECORD
  5
261
102
{ACAD_REACTORS
330
C
102
}
330
C
100
AcDbXrecord
280
     1
300
AMECH_PP
300
2018
300
PDSP_F_S
  0
DICTIONARY
  5
13E
102
{ACAD_REACTORS
330
C
102
}
330
C
100
AcDbDictionary
281
     1
  0
DICTIONARY
  5
25A
102
{ACAD_REACTORS
330
C
102
}
330
C
100
AcDbDictionary
281
     1
  3
Imperial24
350
25B
  0
DICTIONARY
  5
D
102
{ACAD_REACTORS
330
C
102
}
330
C
100
AcDbDictionary
281
     1
  0
DICTIONARY
  5
1A
102
{ACAD_REACTORS
330
C
102
}
330
C
100
AcDbDictionary
281
     1
  3
Layout1
350
1E
  3
Layout2
350
26
  3
Model
350
22
  0
DICTIONARY
  5
122
102
{ACAD_REACTORS
330
C
102
}
330
C
100
AcDbDictionary
281
     1
  3
ByBlock
350
12B
  3
ByLayer
350
123
  3
Global
350
133
  0
DICTIONARY
  5
162
102
{ACAD_REACTORS
330
C
102
}
330
C
100
AcDbDictionary
281
     1
  3
Standard
350
163
  0
DICTIONARY
  5
17
102
{ACAD_REACTORS
330
C
102
}
330
C
100
AcDbDictionary
281
     1
  3
Standard
350
18
  0
DICTIONARY
  5
19
102
{ACAD_REACTORS
330
C
102
}
330
C
100
AcDbDictionary
281
     1
  0
ACDBDICTIONARYWDFLT
  5
E
102
{ACAD_REACTORS
330
C
102
}
330
C
100
AcDbDictionary
281
     1
  3
Normal
350
F
100
AcDbDictionaryWithDefault
340
F
  0
DICTIONARY
  5
140
102
{ACAD_REACTORS
330
C
102
}
330
C
100
AcDbDictionary
281
     1
  3
A0
350
141
  3
A1
350
142
  3
A2
350
143
  3
A3
350
144
  3
A4
350
145
  3
A5
350
146
  3
A6
350
147
  3
A7
350
148
  3
A8
350
149
  3
A9
350
14A
  3
B0
350
14B
  3
B1
350
14C
  3
B2
350
14D
  3
B3
350
14E
  3
B4
350
14F
  3
B5
350
150
  3
B6
350
151
  3
B7
350
152
  3
B8
350
153
  3
B9
350
154
  3
C0
350
155
  3
C1
350
156
  3
C2
350
157
  3
C3
350
158
  3
C4
350
159
  3
C5
350
15A
  3
C6
350
15B
  3
C7
350
15C
  3
C8
350
15D
  3
C9
350
15E
  3
D0
350
15F
  3
D1
350
160
  3
D2
350
161
  0
DICTIONARY
  5
258
102
{ACAD_REACTORS
330
C
102
}
330
C
100
AcDbDictionary
281
     1
  3
Imperial24
350
259
  0
DICTIONARY
  5
120
102
{ACAD_REACTORS
330
C
102
}
330
C
100
AcDbDictionary
281
     1
  3
Standard
350
13F
  0
DICTIONARY
  5
2A
102
{ACAD_REACTORS
330
C
102
}
330
C
100
AcDbDictionary
281
     1
  3
2dWireframe
350
2F
  3
3D Hidden
350
31
  3
3dWireframe
350
30
  3
Basic
350
32
  3
Brighten
350
36
  3
ColorChange
350
3A
  3
Conceptual
350
34
  3
Dim
350
35
  3
EdgeColorOff
350
13D
  3
Facepattern
350
39
  3
Flat
350
2B
  3
FlatWithEdges
350
2C
  3
Gouraud
350
2D
  3
GouraudWithEdges
350
2E
  3
Hidden
350
252
  3
JitterOff
350
13B
  3
Linepattern
350
38
  3
OverhangOff
350
13C
  3
Realistic
350
33
  3
Shaded
350
257
  3
Shaded with edges
350
256
  3
Shades of Gray
350
253
  3
Sketchy
350
254
  3
Thicken
350
37
  3
Wireframe
350
251
  3
X-Ray
350
255
  0
XRECORD
  5
36B
102
{ACAD_REACTORS
330
C
102
}
330
C
100
AcDbXrecord
280
     1
 90
        1
330
13F
  0
DICTIONARY
  5
176
102
{ACAD_REACTORS
330
C
102
}
330
C
100
AcDbDictionary
281
     1
  3
CANNOSCALE
350
17A
  3
CMLEADERSTYLE
350
178
  3
CTABLESTYLE
350
177
  3
CVIEWDETAILSTYLE
350
357
  3
CVIEWSECTIONSTYLE
350
358
  3
LAYEREVAL
350
17C
  3
LAYERNOTIFY
350
17D
  3
LIGHTINGUNITS
350
17B
  3
MSLTSCALE
350
179
  0
DICTIONARY
  5
270
102
{ACAD_REACTORS
330
C
102
}
330
C
100
AcDbDictionary
281
     1
  0
DICTIONARY
  5
16F
102
{ACAD_REACTORS
330
16E
102
}
330
16E
100
AcDbDictionary
281
     1
  0
XRECORD
  5
168
102
{ACAD_REACTORS
330
167
102
}
330
167
100
AcDbXrecord
280
     1
290
     1
  0
XRECORD
  5
16A
102
{ACAD_REACTORS
330
169
102
}
330
169
100
AcDbXrecord
280
     1
290
     1
  0
SORTENTSTABLE
  5
1A1
102
{ACAD_REACTORS
330
1A0
102
}
330
1A0
100
AcDbSortentsTable
330
1F
331
1A4
  5
B6
331
1F8
  5
19E
331
6D
  5
11F
331
5E
  5
70
331
21A
  5
1B8
331
90
  5
1A7
331
1C6
  5
212
331
199
  5
5E
331
1A8
  5
F1
331
B2
  5
1C5
331
19D
  5
6C
331
1F5
  5
19B
331
213
  5
1B1
331
B6
  5
1C6
331
3D
  5
3D
331
1BF
  5
1FF
331
50
  5
50
331
41
  5
41
331
1C3
  5
206
331
6E
  5
199
331
5F
  5
8F
331
1A5
  5
C1
331
1B8
  5
1F8
331
1A9
  5
1F5
331
45
  5
45
331
1C7
  5
213
331
19A
  5
5F
331
1CB
  5
21A
331
19E
  5
6D
331
1F6
  5
19C
331
1B1
  5
1F7
331
6B
  5
11A
331
1A2
  5
92
331
51
  5
51
331
1C4
  5
20D
331
1A6
  5
C5
331
20D
  5
1A3
331
11A
  5
221
331
19B
  5
61
331
1AA
  5
1F6
331
211
  5
1A9
331
11E
  5
228
331
19F
  5
6E
331
206
  5
1A2
331
1F7
  5
19D
331
6C
  5
11E
331
1A3
  5
B2
331
228
  5
1C3
331
8F
  5
1A6
331
52
  5
52
331
1A7
  5
C7
331
1C5
  5
211
331
22C
  5
1C4
331
1FF
  5
19F
331
19C
  5
6B
331
221
  5
1BF
331
212
  5
1AA
331
11F
  5
22C
  0
SORTENTSTABLE
  5
26D
102
{ACAD_REACTORS
330
26C
102
}
330
26C
100
AcDbSortentsTable
330
26A
  0
ACDBDETAILVIEWSTYLE
  5
25B
102
{ACAD_REACTORS
330
25A
102
}
330
25A
100
AcDbModelDocViewStyle
 70
     0
  3
Imperial24
290
     0
300
Imperial24
 90
        0
100
AcDbDetailViewStyle
 70
     0
 71
     0
 90
        3
 71
     1
340
11
 62
   256
 40
0.24
340
0
 62
   256
 40
0.24
300

 40
0.36
280
     3
 71
     2
340
16
 90
       25
 62
   256
 71
     3
340
11
 62
   256
 40
0.24
 90
        1
 40
0.75
 90
        1
300
%<\AcVar ViewType \f "%tc1">% %<\AcVar ViewDetailId>%\PSCALE %<\AcVar ViewScale \f "%sn">%
 71
     4
340
16
 90
       25
 62
   256
340
16
 90
       25
 62
   256
280
     0
  0
LAYOUT
  5
1E
102
{ACAD_REACTORS
330
1A
102
}
330
1A
100
AcDbPlotSettings
  1

  2
none_device
  4

  6

 40
0.0
 41
0.0
 42
0.0
 43
0.0
 44
0.0
 45
0.0
 46
0.0
 47
0.0
 48
0.0
 49
0.0
140
0.0
141
0.0
142
1.0
143
1.0
 70
   688
 72
     0
 73
     0
 74
     5
  7

 75
    16
147
1.0
 76
     0
 77
     2
 78
   300
148
0.0
149
0.0
100
AcDbLayout
  1
Layout1
 70
     1
 71
     1
 10
0.0
 20
0.0
 11
12.0
 21
9.0
 12
0.0
 22
0.0
 32
0.0
 14
1.000000000000000E+20
 24
1.000000000000000E+20
 34
1.000000000000000E+20
 15
-1.000000000000000E+20
 25
-1.000000000000000E+20
 35
-1.000000000000000E+20
146
0.0
 13
0.0
 23
0.0
 33
0.0
 16
1.0
 26
0.0
 36
0.0
 17
0.0
 27
1.0
 37
0.0
 76
     0
330
1B
  0
LAYOUT
  5
26
102
{ACAD_REACTORS
330
1A
102
}
330
1A
100
AcDbPlotSettings
  1

  2
none_device
  4

  6

 40
0.0
 41
0.0
 42
0.0
 43
0.0
 44
0.0
 45
0.0
 46
0.0
 47
0.0
 48
0.0
 49
0.0
140
0.0
141
0.0
142
1.0
143
1.0
 70
   688
 72
     0
 73
     0
 74
     5
  7

 75
    16
147
1.0
 76
     0
 77
     2
 78
   300
148
0.0
149
0.0
100
AcDbLayout
  1
Layout2
 70
     1
 71
     2
 10
0.0
 20
0.0
 11
0.0
 21
0.0
 12
0.0
 22
0.0
 32
0.0
 14
0.0
 24
0.0
 34
0.0
 15
0.0
 25
0.0
 35
0.0
146
0.0
 13
0.0
 23
0.0
 33
0.0
 16
1.0
 26
0.0
 36
0.0
 17
0.0
 27
1.0
 37
0.0
 76
     0
330
23
  0
LAYOUT
  5
22
102
{ACAD_XDICTIONARY
360
174
102
}
102
{ACAD_REACTORS
330
1A
102
}
330
1A
100
AcDbPlotSettings
  1

  2
none_device
  4

  6

 40
0.0
 41
0.0
 42
0.0
 43
0.0
 44
0.0
 45
0.0
 46
0.0
 47
0.0
 48
0.0
 49
0.0
140
0.0
141
0.0
142
1.0
143
1.0
 70
  1712
 72
     0
 73
     0
 74
     0
  7

 75
     0
147
1.0
 76
     0
 77
     2
 78
   300
148
0.0
149
0.0
100
AcDbLayout
  1
Model
 70
     1
 71
     0
 10
0.0
 20
0.0
 11
12.0
 21
9.0
 12
0.0
 22
0.0
 32
0.0
 14
1.000000000000000E+20
 24
1.000000000000000E+20
 34
1.000000000000000E+20
 15
-1.000000000000000E+20
 25
-1.000000000000000E+20
 35
-1.000000000000000E+20
146
0.0
 13
0.0
 23
0.0
 33
0.0
 16
1.0
 26
0.0
 36
0.0
 17
0.0
 27
1.0
 37
0.0
 76
     0
330
1F
331
29
  0
MATERIAL
  5
12B
102
{ACAD_XDICTIONARY
360
12C
102
}
102
{ACAD_REACTORS
330
122
102
}
330
122
100
AcDbMaterial
  1
ByBlock
 72
     0
 43
0.0208333333333333
 43
0.0
 43
0.0
 43
0.0
 43
0.0
 43
0.0208333333333333
 43
0.0
 43
0.0
 43
0.0
 43
0.0
 43
1.0
 43
0.0
 43
0.0
 43
0.0
 43
0.0
 43
1.0
 77
     0
 47
0.0208333333333333
 47
0.0
 47
0.0
 47
0.0
 47
0.0
 47
0.0208333333333333
 47
0.0
 47
0.0
 47
0.0
 47
0.0
 47
1.0
 47
0.0
 47
0.0
 47
0.0
 47
0.0
 47
1.0
171
     0
 49
0.0208333333333333
 49
0.0
 49
0.0
 49
0.0
 49
0.0
 49
0.0208333333333333
 49
0.0
 49
0.0
 49
0.0
 49
0.0
 49
1.0
 49
0.0
 49
0.0
 49
0.0
 49
0.0
 49
1.0
175
     0
142
0.0208333333333333
142
0.0
142
0.0
142
0.0
142
0.0
142
0.0208333333333333
142
0.0
142
0.0
142
0.0
142
0.0
142
1.0
142
0.0
142
0.0
142
0.0
142
0.0
142
1.0
179
     0
144
0.0208333333333333
144
0.0
144
0.0
144
0.0
144
0.0
144
0.0208333333333333
144
0.0
144
0.0
144
0.0
144
0.0
144
1.0
144
0.0
144
0.0
144
0.0
144
0.0
144
1.0
147
0.0208333333333333
147
0.0
147
0.0
147
0.0
147
0.0
147
0.0208333333333333
147
0.0
147
0.0
147
0.0
147
0.0
147
1.0
147
0.0
147
0.0
147
0.0
147
0.0
147
1.0
  0
MATERIAL
  5
123
102
{ACAD_XDICTIONARY
360
124
102
}
102
{ACAD_REACTORS
330
122
102
}
330
122
100
AcDbMaterial
  1
ByLayer
 72
     0
 43
0.0208333333333333
 43
0.0
 43
0.0
 43
0.0
 43
0.0
 43
0.0208333333333333
 43
0.0
 43
0.0
 43
0.0
 43
0.0
 43
1.0
 43
0.0
 43
0.0
 43
0.0
 43
0.0
 43
1.0
 77
     0
 47
0.0208333333333333
 47
0.0
 47
0.0
 47
0.0
 47
0.0
 47
0.0208333333333333
 47
0.0
 47
0.0
 47
0.0
 47
0.0
 47
1.0
 47
0.0
 47
0.0
 47
0.0
 47
0.0
 47
1.0
171
     0
 49
0.0208333333333333
 49
0.0
 49
0.0
 49
0.0
 49
0.0
 49
0.0208333333333333
 49
0.0
 49
0.0
 49
0.0
 49
0.0
 49
1.0
 49
0.0
 49
0.0
 49
0.0
 49
0.0
 49
1.0
175
     0
142
0.0208333333333333
142
0.0
142
0.0
142
0.0
142
0.0
142
0.0208333333333333
142
0.0
142
0.0
142
0.0
142
0.0
142
1.0
142
0.0
142
0.0
142
0.0
142
0.0
142
1.0
179
     0
144
0.0208333333333333
144
0.0
144
0.0
144
0.0
144
0.0
144
0.0208333333333333
144
0.0
144
0.0
144
0.0
144
0.0
144
1.0
144
0.0
144
0.0
144
0.0
144
0.0
144
1.0
147
0.0208333333333333
147
0.0
147
0.0
147
0.0
147
0.0
147
0.0208333333333333
147
0.0
147
0.0
147
0.0
147
0.0
147
1.0
147
0.0
147
0.0
147
0.0
147
0.0
147
1.0
  0
MATERIAL
  5
133
102
{ACAD_XDICTIONARY
360
134
102
}
102
{ACAD_REACTORS
330
122
102
}
330
122
100
AcDbMaterial
  1
Global
 72
     0
 43
0.0208333333333333
 43
0.0
 43
0.0
 43
0.0
 43
0.0
 43
0.0208333333333333
 43
0.0
 43
0.0
 43
0.0
 43
0.0
 43
1.0
 43
0.0
 43
0.0
 43
0.0
 43
0.0
 43
1.0
 77
     0
 47
0.0208333333333333
 47
0.0
 47
0.0
 47
0.0
 47
0.0
 47
0.0208333333333333
 47
0.0
 47
0.0
 47
0.0
 47
0.0
 47
1.0
 47
0.0
 47
0.0
 47
0.0
 47
0.0
 47
1.0
171
     0
 49
0.0208333333333333
 49
0.0
 49
0.0
 49
0.0
 49
0.0
 49
0.0208333333333333
 49
0.0
 49
0.0
 49
0.0
 49
0.0
 49
1.0
 49
0.0
 49
0.0
 49
0.0
 49
0.0
 49
1.0
175
     0
142
0.0208333333333333
142
0.0
142
0.0
142
0.0
142
0.0
142
0.0208333333333333
142
0.0
142
0.0
142
0.0
142
0.0
142
1.0
142
0.0
142
0.0
142
0.0
142
0.0
142
1.0
179
     0
144
0.0208333333333333
144
0.0
144
0.0
144
0.0
144
0.0
144
0.0208333333333333
144
0.0
144
0.0
144
0.0
144
0.0
144
1.0
144
0.0
144
0.0
144
0.0
144
0.0
144
1.0
147
0.0208333333333333
147
0.0
147
0.0
147
0.0
147
0.0
147
0.0208333333333333
147
0.0
147
0.0
147
0.0
147
0.0
147
1.0
147
0.0
147
0.0
147
0.0
147
0.0
147
1.0
  0
MLEADERSTYLE
  5
163
102
{ACAD_REACTORS
330
162
102
}
330
162
100
AcDbMLeaderStyle
179
     2
170
     2
171
     1
172
     0
 90
        2
 40
0.0
 41
0.0
173
     1
 91
-1056964608
340
14
 92
       -2
290
     1
 42
0.09
291
     1
 43
0.36
  3
Standard
 44
0.18
300

342
11
174
     1
178
     6
175
     1
176
     0
 93
-1056964608
 45
0.18
292
     0
297
     0
 46
0.18
 94
-1056964608
 47
1.0
 49
1.0
140
1.0
293
     1
141
0.0
294
     1
177
     0
142
1.0
295
     0
296
     0
143
0.125
271
     0
272
     9
273
     9
298
     0
  0
MLINESTYLE
  5
18
102
{ACAD_REACTORS
330
17
102
}
330
17
100
AcDbMlineStyle
  2
STANDARD
 70
     0
  3

 62
   256
 51
90.0
 52
90.0
 71
     2
 49
0.5
 62
   256
  6
BYLAYER
 49
-0.5
 62
   256
  6
BYLAYER
  0
ACDBPLACEHOLDER
  5
F
102
{ACAD_REACTORS
330
E
102
}
330
E
  0
SCALE
  5
141
102
{ACAD_REACTORS
330
140
102
}
330
140
100
AcDbScale
 70
     0
300
1:1
140
1.0
141
1.0
290
     1
  0
SCALE
  5
142
102
{ACAD_REACTORS
330
140
102
}
330
140
100
AcDbScale
 70
     0
300
1:2
140
1.0
141
2.0
290
     0
  0
SCALE
  5
143
102
{ACAD_REACTORS
330
140
102
}
330
140
100
AcDbScale
 70
     0
300
1:4
140
1.0
141
4.0
290
     0
  0
SCALE
  5
144
102
{ACAD_REACTORS
330
140
102
}
330
140
100
AcDbScale
 70
     0
300
1:5
140
1.0
141
5.0
290
     0
  0
SCALE
  5
145
102
{ACAD_REACTORS
330
140
102
}
330
140
100
AcDbScale
 70
     0
300
1:8
140
1.0
141
8.0
290
     0
  0
SCALE
  5
146
102
{ACAD_REACTORS
330
140
102
}
330
140
100
AcDbScale
 70
     0
300
1:10
140
1.0
141
10.0
290
     0
  0
SCALE
  5
147
102
{ACAD_REACTORS
330
140
102
}
330
140
100
AcDbScale
 70
     0
300
1:16
140
1.0
141
16.0
290
     0
  0
SCALE
  5
148
102
{ACAD_REACTORS
330
140
102
}
330
140
100
AcDbScale
 70
     0
300
1:20
140
1.0
141
20.0
290
     0
  0
SCALE
  5
149
102
{ACAD_REACTORS
330
140
102
}
330
140
100
AcDbScale
 70
     0
300
1:30
140
1.0
141
30.0
290
     0
  0
SCALE
  5
14A
102
{ACAD_REACTORS
330
140
102
}
330
140
100
AcDbScale
 70
     0
300
1:40
140
1.0
141
40.0
290
     0
  0
SCALE
  5
14B
102
{ACAD_REACTORS
330
140
102
}
330
140
100
AcDbScale
 70
     0
300
1:50
140
1.0
141
50.0
290
     0
  0
SCALE
  5
14C
102
{ACAD_REACTORS
330
140
102
}
330
140
100
AcDbScale
 70
     0
300
1:100
140
1.0
141
100.0
290
     0
  0
SCALE
  5
14D
102
{ACAD_REACTORS
330
140
102
}
330
140
100
AcDbScale
 70
     0
300
2:1
140
2.0
141
1.0
290
     0
  0
SCALE
  5
14E
102
{ACAD_REACTORS
330
140
102
}
330
140
100
AcDbScale
 70
     0
300
4:1
140
4.0
141
1.0
290
     0
  0
SCALE
  5
14F
102
{ACAD_REACTORS
330
140
102
}
330
140
100
AcDbScale
 70
     0
300
8:1
140
8.0
141
1.0
290
     0
  0
SCALE
  5
150
102
{ACAD_REACTORS
330
140
102
}
330
140
100
AcDbScale
 70
     0
300
10:1
140
10.0
141
1.0
290
     0
  0
SCALE
  5
151
102
{ACAD_REACTORS
330
140
102
}
330
140
100
AcDbScale
 70
     0
300
100:1
140
100.0
141
1.0
290
     0
  0
SCALE
  5
152
102
{ACAD_REACTORS
330
140
102
}
330
140
100
AcDbScale
 70
     0
300
1/128" = 1'-0"
140
0.0078125
141
12.0
290
     0
  0
SCALE
  5
153
102
{ACAD_REACTORS
330
140
102
}
330
140
100
AcDbScale
 70
     0
300
1/64" = 1'-0"
140
0.015625
141
12.0
290
     0
  0
SCALE
  5
154
102
{ACAD_REACTORS
330
140
102
}
330
140
100
AcDbScale
 70
     0
300
1/32" = 1'-0"
140
0.03125
141
12.0
290
     0
  0
SCALE
  5
155
102
{ACAD_REACTORS
330
140
102
}
330
140
100
AcDbScale
 70
     0
300
1/16" = 1'-0"
140
0.0625
141
12.0
290
     0
  0
SCALE
  5
156
102
{ACAD_REACTORS
330
140
102
}
330
140
100
AcDbScale
 70
     0
300
3/32" = 1'-0"
140
0.09375
141
12.0
290
     0
  0
SCALE
  5
157
102
{ACAD_REACTORS
330
140
102
}
330
140
100
AcDbScale
 70
     0
300
1/8" = 1'-0"
140
0.125
141
12.0
290
     0
  0
SCALE
  5
158
102
{ACAD_REACTORS
330
140
102
}
330
140
100
AcDbScale
 70
     0
300
3/16" = 1'-0"
140
0.1875
141
12.0
290
     0
  0
SCALE
  5
159
102
{ACAD_REACTORS
330
140
102
}
330
140
100
AcDbScale
 70
     0
300
1/4" = 1'-0"
140
0.25
141
12.0
290
     0
  0
SCALE
  5
15A
102
{ACAD_REACTORS
330
140
102
}
330
140
100
AcDbScale
 70
     0
300
3/8" = 1'-0"
140
0.375
141
12.0
290
     0
  0
SCALE
  5
15B
102
{ACAD_REACTORS
330
140
102
}
330
140
100
AcDbScale
 70
     0
300
1/2" = 1'-0"
140
0.5
141
12.0
290
     0
  0
SCALE
  5
15C
102
{ACAD_REACTORS
330
140
102
}
330
140
100
AcDbScale
 70
     0
300
3/4" = 1'-0"
140
0.75
141
12.0
290
     0
  0
SCALE
  5
15D
102
{ACAD_REACTORS
330
140
102
}
330
140
100
AcDbScale
 70
     0
300
1" = 1'-0"
140
1.0
141
12.0
290
     0
  0
SCALE
  5
15E
102
{ACAD_REACTORS
330
140
102
}
330
140
100
AcDbScale
 70
     0
300
1-1/2" = 1'-0"
140
1.5
141
12.0
290
     0
  0
SCALE
  5
15F
102
{ACAD_REACTORS
330
140
102
}
330
140
100
AcDbScale
 70
     0
300
3" = 1'-0"
140
3.0
141
12.0
290
     0
  0
SCALE
  5
160
102
{ACAD_REACTORS
330
140
102
}
330
140
100
AcDbScale
 70
     0
300
6" = 1'-0"
140
6.0
141
12.0
290
     0
  0
SCALE
  5
161
102
{ACAD_REACTORS
330
140
102
}
330
140
100
AcDbScale
 70
     0
300
1'-0" = 1'-0"
140
12.0
141
12.0
290
     0
  0
ACDBSECTIONVIEWSTYLE
  5
259
102
{ACAD_REACTORS
330
258
102
}
330
258
100
AcDbModelDocViewStyle
 70
     0
  3
Imperial24
290
     0
300
Imperial24
 90
        0
100
AcDbSectionViewStyle
 70
     0
 71
     0
 90
       78
 71
     1
340
11
 62
   256
 40
0.24
340
0
340
0
 62
   256
 40
0.24
300
I, O, Q, S, X, Z
 40
0.48
 90
        3
 40
0.18
 90
        1
 71
     2
340
16
 90
       25
 62
   256
340
16
 90
       50
 62
   256
 40
0.24
 40
0.0
 40
0.24
 71
     3
340
11
 62
   256
 40
0.24
 90
        1
 40
0.75
 90
        1
300
%<\AcVar ViewType \f "%tc1">% %<\AcVar ViewSectionStartId>%-%<\AcVar ViewSectionEndId>%\PSCALE %<\AcVar ViewScale \f "%sn">%
 71
     4
 62
   256
 62
   257
300
ANSI31
 40
1.0
 90
        0
290
     0
290
     0
 90
        6
 40
0.0
 40
1.570796326794896
 40
0.2617993877991494
 40
1.308996938995747
 40
-0.2617993877991494
 40
1.832595714594046
  0
TABLESTYLE
  5
13F
102
{ACAD_XDICTIONARY
360
369
102
}
102
{ACAD_REACTORS
330
120
102
}
330
120
100
AcDbTableStyle
280
     0
  3
Standard
 70
     0
 71
     0
 40
0.06
 41
0.06
280
     0
281
     0
  7
Standard
140
0.18
170
     2
 62
     0
 63
     7
283
     0
 90
      512
 91
        0
  1

274
    -2
284
     1
 64
     0
275
    -2
285
     1
 65
     0
276
    -2
286
     1
 66
     0
277
    -2
287
     1
 67
     0
278
    -2
288
     1
 68
     0
279
    -2
289
     1
 69
     0
  7
Standard
140
0.25
170
     5
 62
     0
 63
     7
283
     0
 90
      512
 91
        0
  1

274
    -2
284
     1
 64
     0
275
    -2
285
     1
 65
     0
276
    -2
286
     1
 66
     0
277
    -2
287
     1
 67
     0
278
    -2
288
     1
 68
     0
279
    -2
289
     1
 69
     0
  7
Standard
140
0.18
170
     5
 62
     0
 63
     7
283
     0
 90
      512
 91
        0
  1

274
    -2
284
     1
 64
     0
275
    -2
285
     1
 65
     0
276
    -2
286
     1
 66
     0
277
    -2
287
     1
 67
     0
278
    -2
288
     1
 68
     0
279
    -2
289
     1
 69
     0
  0
VISUALSTYLE
  5
2F
102
{ACAD_REACTORS
330
2A
102
}
330
2A
100
AcDbVisualStyle
  2
2dWireframe
 70
     4
177
     3
291
     0
 70
    58
 90
        0
176
     1
 90
        2
176
     1
 90
        0
176
     1
 90
        0
176
     1
 40
0.6
176
     1
 40
30.0
176
     1
 62
     7
420
 16777215
176
     1
 90
        1
176
     1
 90
        4
176
     1
 62
     7
176
     1
 62
   257
176
     1
 90
        1
176
     1
 90
        1
176
     1
 40
1.0
176
     1
 90
        0
176
     1
 62
   257
176
     1
 40
1.0
176
     1
 90
        1
176
     1
 90
        6
176
     1
 90
        2
176
     1
 62
     7
176
     1
 90
        5
176
     1
 90
        0
176
     1
 90
        0
176
     1
290
     0
176
     1
 90
        1
176
     1
 40
0.0
176
     1
 90
        0
176
     1
290
     1
176
     1
290
     1
176
     1
290
     0
176
     1
290
     0
176
     1
290
     0
176
     1
290
     0
176
     1
290
     0
176
     1
290
     0
176
     1
290
     0
176
     1
 90
       50
176
     1
 40
0.0
176
     1
 40
1.0
176
     1
 90
        0
176
     1
 62
    18
420
        0
176
     1
 90
       50
176
     1
 90
        3
176
     1
 62
     5
420
      255
176
     1
290
     0
176
     1
 90
       50
176
     1
 90
       50
176
     1
 90
       50
176
     1
290
     0
176
     1
 90
       50
176
     1
 62
   256
176
     0
 40
1.0
176
     0
 90
        2
176
     1
  1
strokes_ogs.tif
176
     1
290
     0
176
     1
 40
1.0
176
     1
 40
1.0
176
     1
  0
VISUALSTYLE
  5
31
102
{ACAD_REACTORS
330
2A
102
}
330
2A
100
AcDbVisualStyle
  2
3D Hidden
 70
     6
177
     3
291
     0
 70
    58
 90
        1
176
     1
 90
        2
176
     1
 90
        2
176
     1
 90
        0
176
     1
 40
0.6
176
     1
 40
30.0
176
     1
 62
     7
420
 16777215
176
     1
 90
        2
176
     1
 90
        2
176
     1
 62
     7
176
     1
 62
   257
176
     1
 90
        2
176
     1
 90
        1
176
     1
 40
40.0
176
     1
 90
        0
176
     1
 62
   257
176
     1
 40
1.0
176
     1
 90
        1
176
     1
 90
        6
176
     1
 90
        2
176
     1
 62
     7
176
     1
 90
        3
176
     1
 90
        0
176
     1
 90
        0
176
     1
290
     0
176
     1
 90
        1
176
     1
 40
0.0
176
     1
 90
        0
176
     1
290
     0
176
     1
290
     1
176
     1
290
     1
176
     1
290
     0
176
     1
290
     0
176
     1
290
     0
176
     1
290
     0
176
     1
290
     0
176
     1
290
     0
176
     1
 90
       50
176
     1
 40
0.0
176
     1
 40
1.0
176
     1
 90
        0
176
     1
 62
    18
420
        0
176
     1
 90
       50
176
     1
 90
        3
176
     1
 62
     5
420
      255
176
     1
290
     0
176
     1
 90
       50
176
     1
 90
       50
176
     1
 90
       50
176
     1
290
     0
176
     1
 90
       50
176
     1
 62
   256
176
     0
 40
1.0
176
     0
 90
        2
176
     1
  1
strokes_ogs.tif
176
     1
290
     0
176
     1
 40
1.0
176
     1
 40
1.0
176
     1
  0
VISUALSTYLE
  5
30
102
{ACAD_REACTORS
330
2A
102
}
330
2A
100
AcDbVisualStyle
  2
3dWireframe
 70
     5
177
     3
291
     0
 70
    58
 90
        0
176
     1
 90
        2
176
     1
 90
        0
176
     1
 90
        0
176
     1
 40
0.6
176
     1
 40
30.0
176
     1
 62
     7
420
 16777215
176
     1
 90
        1
176
     1
 90
        4
176
     1
 62
     7
176
     1
 62
   257
176
     1
 90
        1
176
     1
 90
        1
176
     1
 40
1.0
176
     1
 90
        0
176
     1
 62
   257
176
     1
 40
1.0
176
     1
 90
        1
176
     1
 90
        6
176
     1
 90
        2
176
     1
 62
     7
176
     1
 90
        5
176
     1
 90
        0
176
     1
 90
        0
176
     1
290
     0
176
     1
 90
        1
176
     1
 40
0.0
176
     1
 90
        0
176
     1
290
     0
176
     1
290
     1
176
     1
290
     1
176
     1
290
     0
176
     1
290
     0
176
     1
290
     0
176
     1
290
     0
176
     1
290
     0
176
     1
290
     0
176
     1
 90
       50
176
     1
 40
0.0
176
     1
 40
1.0
176
     1
 90
        0
176
     1
 62
    18
420
        0
176
     1
 90
       50
176
     1
 90
        3
176
     1
 62
     5
420
      255
176
     1
290
     0
176
     1
 90
       50
176
     1
 90
       50
176
     1
 90
       50
176
     1
290
     0
176
     1
 90
       50
176
     1
 62
   256
176
     0
 40
1.0
176
     0
 90
        2
176
     1
  1
strokes_ogs.tif
176
     1
290
     0
176
     1
 40
1.0
176
     1
 40
1.0
176
     1
  0
VISUALSTYLE
  5
32
102
{ACAD_REACTORS
330
2A
102
}
330
2A
100
AcDbVisualStyle
  2
Basic
 70
     7
177
     3
291
     1
 70
    58
 90
        1
176
     1
 90
        0
176
     1
 90
        1
176
     1
 90
        0
176
     1
 40
0.6
176
     1
 40
30.0
176
     1
 62
     7
420
 16777215
176
     1
 90
        0
176
     1
 90
        4
176
     1
 62
     7
176
     1
 62
   257
176
     1
 90
        1
176
     1
 90
        1
176
     1
 40
1.0
176
     1
 90
        8
176
     1
 62
     7
176
     1
 40
1.0
176
     1
 90
        1
176
     1
 90
        6
176
     1
 90
        2
176
     1
 62
     7
176
     1
 90
        5
176
     1
 90
        0
176
     1
 90
        0
176
     1
290
     0
176
     1
 90
        1
176
     1
 40
0.0
176
     1
 90
        0
176
     1
290
     0
176
     1
290
     1
176
     1
290
     1
176
     1
290
     0
176
     1
290
     0
176
     1
290
     0
176
     1
290
     0
176
     1
290
     0
176
     1
290
     0
176
     1
 90
       50
176
     1
 40
0.0
176
     1
 40
1.0
176
     1
 90
        0
176
     1
 62
    18
420
        0
176
     1
 90
       50
176
     1
 90
        3
176
     1
 62
     5
420
      255
176
     1
290
     0
176
     1
 90
       50
176
     1
 90
       50
176
     1
 90
       50
176
     1
290
     0
176
     1
 90
       50
176
     1
 62
   256
176
     0
 40
1.0
176
     0
 90
        2
176
     1
  1
strokes_ogs.tif
176
     1
290
     0
176
     1
 40
1.0
176
     1
 40
1.0
176
     1
  0
VISUALSTYLE
  5
36
102
{ACAD_REACTORS
330
2A
102
}
330
2A
100
AcDbVisualStyle
  2
Brighten
 70
    12
177
     3
291
     1
 70
    58
 90
        2
176
     1
 90
        2
176
     1
 90
        0
176
     1
 90
        0
176
     1
 40
0.6
176
     1
 40
30.0
176
     1
 62
     7
420
 16777215
176
     1
 90
        1
176
     1
 90
        4
176
     1
 62
     7
176
     1
 62
   257
176
     1
 90
        1
176
     1
 90
        1
176
     1
 40
1.0
176
     1
 90
        8
176
     1
 62
     7
176
     1
 40
1.0
176
     1
 90
        1
176
     1
 90
        6
176
     1
 90
        2
176
     1
 62
     7
176
     1
 90
        5
176
     1
 90
        0
176
     1
 90
        0
176
     1
290
     0
176
     1
 90
        1
176
     1
 40
50.0
176
     1
 90
        0
176
     1
290
     0
176
     1
290
     1
176
     1
290
     1
176
     1
290
     0
176
     1
290
     0
176
     1
290
     0
176
     1
290
     0
176
     1
290
     0
176
     1
290
     0
176
     1
 90
       50
176
     1
 40
0.0
176
     1
 40
1.0
176
     1
 90
        0
176
     1
 62
    18
420
        0
176
     1
 90
       50
176
     1
 90
        3
176
     1
 62
     5
420
      255
176
     1
290
     0
176
     1
 90
       50
176
     1
 90
       50
176
     1
 90
       50
176
     1
290
     0
176
     1
 90
       50
176
     1
 62
   256
176
     0
 40
1.0
176
     0
 90
        2
176
     1
  1
strokes_ogs.tif
176
     1
290
     0
176
     1
 40
1.0
176
     1
 40
1.0
176
     1
  0
VISUALSTYLE
  5
3A
102
{ACAD_REACTORS
330
2A
102
}
330
2A
100
AcDbVisualStyle
  2
ColorChange
 70
    16
177
     3
291
     1
 70
    58
 90
        2
176
     1
 90
        2
176
     1
 90
        3
176
     1
 90
        0
176
     1
 40
0.6
176
     1
 40
30.0
176
     1
 62
     8
420
  8421504
176
     1
 90
        1
176
     1
 90
        4
176
     1
 62
     7
176
     1
 62
   257
176
     1
 90
        1
176
     1
 90
        1
176
     1
 40
1.0
176
     1
 90
        8
176
     1
 62
     8
420
  8421504
176
     1
 40
1.0
176
     1
 90
        1
176
     1
 90
        6
176
     1
 90
        2
176
     1
 62
     7
176
     1
 90
        5
176
     1
 90
        0
176
     1
 90
        0
176
     1
290
     0
176
     1
 90
        1
176
     1
 40
0.0
176
     1
 90
        0
176
     1
290
     0
176
     1
290
     1
176
     1
290
     1
176
     1
290
     0
176
     1
290
     0
176
     1
290
     0
176
     1
290
     0
176
     1
290
     0
176
     1
290
     0
176
     1
 90
       50
176
     1
 40
0.0
176
     1
 40
1.0
176
     1
 90
        0
176
     1
 62
    18
420
        0
176
     1
 90
       50
176
     1
 90
        3
176
     1
 62
     5
420
      255
176
     1
290
     0
176
     1
 90
       50
176
     1
 90
       50
176
     1
 90
       50
176
     1
290
     0
176
     1
 90
       50
176
     1
 62
   256
176
     0
 40
1.0
176
     0
 90
        2
176
     1
  1
strokes_ogs.tif
176
     1
290
     0
176
     1
 40
1.0
176
     1
 40
1.0
176
     1
  0
VISUALSTYLE
  5
34
102
{ACAD_REACTORS
330
2A
102
}
330
2A
100
AcDbVisualStyle
  2
Conceptual
 70
     9
177
     3
291
     0
 70
    58
 90
        3
176
     1
 90
        2
176
     1
 90
        0
176
     1
 90
        0
176
     1
 40
0.6
176
     1
 40
30.0
176
     1
 62
     7
420
 16777215
176
     1
 90
        2
176
     1
 90
        2
176
     1
 62
     7
176
     1
 62
   257
176
     1
 90
        1
176
     1
 90
        1
176
     1
 40
40.0
176
     1
 90
        8
176
     1
 62
     7
176
     1
 40
1.0
176
     1
 90
        1
176
     1
 90
        6
176
     1
 90
        2
176
     1
 62
     7
176
     1
 90
        3
176
     1
 90
        0
176
     1
 90
        0
176
     1
290
     0
176
     1
 90
        1
176
     1
 40
0.0
176
     1
 90
        0
176
     1
290
     0
176
     1
290
     1
176
     1
290
     1
176
     1
290
     0
176
     1
290
     0
176
     1
290
     0
176
     1
290
     0
176
     1
290
     0
176
     1
290
     0
176
     1
 90
       50
176
     1
 40
0.0
176
     1
 40
1.0
176
     1
 90
        0
176
     1
 62
    18
420
        0
176
     1
 90
       50
176
     1
 90
        3
176
     1
 62
     5
420
      255
176
     1
290
     0
176
     1
 90
       50
176
     1
 90
       50
176
     1
 90
       50
176
     1
290
     0
176
     1
 90
       50
176
     1
 62
   256
176
     0
 40
1.0
176
     0
 90
        2
176
     1
  1
strokes_ogs.tif
176
     1
290
     0
176
     1
 40
1.0
176
     1
 40
1.0
176
     1
  0
VISUALSTYLE
  5
35
102
{ACAD_REACTORS
330
2A
102
}
330
2A
100
AcDbVisualStyle
  2
Dim
 70
    11
177
     3
291
     1
 70
    58
 90
        2
176
     1
 90
        2
176
     1
 90
        0
176
     1
 90
        0
176
     1
 40
0.6
176
     1
 40
30.0
176
     1
 62
     7
420
 16777215
176
     1
 90
        1
176
     1
 90
        4
176
     1
 62
     7
176
     1
 62
   257
176
     1
 90
        1
176
     1
 90
        1
176
     1
 40
1.0
176
     1
 90
        8
176
     1
 62
     7
176
     1
 40
1.0
176
     1
 90
        1
176
     1
 90
        6
176
     1
 90
        2
176
     1
 62
     7
176
     1
 90
        5
176
     1
 90
        0
176
     1
 90
        0
176
     1
290
     0
176
     1
 90
        1
176
     1
 40
-50.0
176
     1
 90
        0
176
     1
290
     0
176
     1
290
     1
176
     1
290
     1
176
     1
290
     0
176
     1
290
     0
176
     1
290
     0
176
     1
290
     0
176
     1
290
     0
176
     1
290
     0
176
     1
 90
       50
176
     1
 40
0.0
176
     1
 40
1.0
176
     1
 90
        0
176
     1
 62
    18
420
        0
176
     1
 90
       50
176
     1
 90
        3
176
     1
 62
     5
420
      255
176
     1
290
     0
176
     1
 90
       50
176
     1
 90
       50
176
     1
 90
       50
176
     1
290
     0
176
     1
 90
       50
176
     1
 62
   256
176
     0
 40
1.0
176
     0
 90
        2
176
     1
  1
strokes_ogs.tif
176
     1
290
     0
176
     1
 40
1.0
176
     1
 40
1.0
176
     1
  0
VISUALSTYLE
  5
13D
102
{ACAD_REACTORS
330
2A
102
}
330
2A
100
AcDbVisualStyle
  2
EdgeColorOff
 70
    22
177
     3
291
     1
 70
    58
 90
        2
176
     0
 90
        2
176
     0
 90
        0
176
     0
 90
        0
176
     0
 40
0.6
176
     0
 40
30.0
176
     0
 62
     7
420
 16777215
176
     0
 90
        1
176
     0
 90
        4
176
     0
 62
     7
176
     0
 62
   257
176
     0
 90
        1
176
     0
 90
        1
176
     0
 40
1.0
176
     0
 90
        8
176
     2
 62
     7
176
     0
 40
1.0
176
     0
 90
        1
176
     0
 90
        6
176
     0
 90
        2
176
     0
 62
     7
176
     0
 90
        5
176
     0
 90
        0
176
     0
 90
        0
176
     0
290
     0
176
     0
 90
        1
176
     0
 40
0.0
176
     0
 90
        0
176
     0
290
     0
176
     1
290
     1
176
     1
290
     1
176
     1
290
     0
176
     1
290
     0
176
     1
290
     0
176
     1
290
     0
176
     1
290
     0
176
     1
290
     0
176
     1
 90
       50
176
     1
 40
0.0
176
     1
 40
1.0
176
     1
 90
        0
176
     1
 62
    18
420
        0
176
     1
 90
       50
176
     1
 90
        3
176
     1
 62
     5
420
      255
176
     1
290
     0
176
     1
 90
       50
176
     1
 90
       50
176
     1
 90
       50
176
     1
290
     0
176
     1
 90
       50
176
     1
 62
   256
176
     0
 40
1.0
176
     0
 90
        2
176
     1
  1
strokes_ogs.tif
176
     1
290
     0
176
     1
 40
1.0
176
     1
 40
1.0
176
     1
  0
VISUALSTYLE
  5
39
102
{ACAD_REACTORS
330
2A
102
}
330
2A
100
AcDbVisualStyle
  2
Facepattern
 70
    15
177
     3
291
     1
 70
    58
 90
        2
176
     1
 90
        2
176
     1
 90
        0
176
     1
 90
        0
176
     1
 40
0.6
176
     1
 40
30.0
176
     1
 62
     7
420
 16777215
176
     1
 90
        1
176
     1
 90
        4
176
     1
 62
     7
176
     1
 62
   257
176
     1
 90
        1
176
     1
 90
        1
176
     1
 40
1.0
176
     1
 90
        8
176
     1
 62
     7
176
     1
 40
1.0
176
     1
 90
        1
176
     1
 90
        6
176
     1
 90
        2
176
     1
 62
     7
176
     1
 90
        5
176
     1
 90
        0
176
     1
 90
        0
176
     1
290
     0
176
     1
 90
        1
176
     1
 40
0.0
176
     1
 90
        0
176
     1
290
     0
176
     1
290
     1
176
     1
290
     1
176
     1
290
     0
176
     1
290
     0
176
     1
290
     0
176
     1
290
     0
176
     1
290
     0
176
     1
290
     0
176
     1
 90
       50
176
     1
 40
0.0
176
     1
 40
1.0
176
     1
 90
        0
176
     1
 62
    18
420
        0
176
     1
 90
       50
176
     1
 90
        3
176
     1
 62
     5
420
      255
176
     1
290
     0
176
     1
 90
       50
176
     1
 90
       50
176
     1
 90
       50
176
     1
290
     0
176
     1
 90
       50
176
     1
 62
   256
176
     0
 40
1.0
176
     0
 90
        2
176
     1
  1
strokes_ogs.tif
176
     1
290
     0
176
     1
 40
1.0
176
     1
 40
1.0
176
     1
  0
VISUALSTYLE
  5
2B
102
{ACAD_REACTORS
330
2A
102
}
330
2A
100
AcDbVisualStyle
  2
Flat
 70
     0
177
     3
291
     1
 70
    58
 90
        2
176
     1
 90
        1
176
     1
 90
        1
176
     1
 90
        2
176
     1
 40
0.6
176
     1
 40
30.0
176
     1
 62
     7
420
 16777215
176
     1
 90
        0
176
     1
 90
        4
176
     1
 62
     7
176
     1
 62
   257
176
     1
 90
        1
176
     1
 90
        1
176
     1
 40
1.0
176
     1
 90
        8
176
     1
 62
     7
176
     1
 40
1.0
176
     1
 90
        1
176
     1
 90
        6
176
     1
 90
        2
176
     1
 62
     7
176
     1
 90
        5
176
     1
 90
        0
176
     1
 90
        0
176
     1
290
     0
176
     1
 90
       13
176
     1
 40
0.0
176
     1
 90
        0
176
     1
290
     0
176
     1
290
     1
176
     1
290
     1
176
     1
290
     0
176
     1
290
     0
176
     1
290
     0
176
     1
290
     0
176
     1
290
     0
176
     1
290
     0
176
     1
 90
       50
176
     1
 40
0.0
176
     1
 40
1.0
176
     1
 90
        0
176
     1
 62
    18
420
        0
176
     1
 90
       50
176
     1
 90
        3
176
     1
 62
     5
420
      255
176
     1
290
     0
176
     1
 90
       50
176
     1
 90
       50
176
     1
 90
       50
176
     1
290
     0
176
     1
 90
       50
176
     1
 62
   256
176
     0
 40
1.0
176
     0
 90
        2
176
     1
  1
strokes_ogs.tif
176
     1
290
     0
176
     1
 40
1.0
176
     1
 40
1.0
176
     1
  0
VISUALSTYLE
  5
2C
102
{ACAD_REACTORS
330
2A
102
}
330
2A
100
AcDbVisualStyle
  2
FlatWithEdges
 70
     1
177
     3
291
     1
 70
    58
 90
        2
176
     1
 90
        1
176
     1
 90
        1
176
     1
 90
        2
176
     1
 40
0.6
176
     1
 40
30.0
176
     1
 62
     7
420
 16777215
176
     1
 90
        1
176
     1
 90
        4
176
     1
 62
     7
176
     1
 62
   257
176
     1
 90
        1
176
     1
 90
        1
176
     1
 40
1.0
176
     1
 90
        0
176
     1
 62
   257
176
     1
 40
1.0
176
     1
 90
        1
176
     1
 90
        6
176
     1
 90
        2
176
     1
 62
     7
176
     1
 90
        5
176
     1
 90
        0
176
     1
 90
        0
176
     1
290
     0
176
     1
 90
       13
176
     1
 40
0.0
176
     1
 90
        0
176
     1
290
     0
176
     1
290
     1
176
     1
290
     1
176
     1
290
     0
176
     1
290
     0
176
     1
290
     0
176
     1
290
     0
176
     1
290
     0
176
     1
290
     0
176
     1
 90
       50
176
     1
 40
0.0
176
     1
 40
1.0
176
     1
 90
        0
176
     1
 62
    18
420
        0
176
     1
 90
       50
176
     1
 90
        3
176
     1
 62
     5
420
      255
176
     1
290
     0
176
     1
 90
       50
176
     1
 90
       50
176
     1
 90
       50
176
     1
290
     0
176
     1
 90
       50
176
     1
 62
   256
176
     0
 40
1.0
176
     0
 90
        2
176
     1
  1
strokes_ogs.tif
176
     1
290
     0
176
     1
 40
1.0
176
     1
 40
1.0
176
     1
  0
VISUALSTYLE
  5
2D
102
{ACAD_REACTORS
330
2A
102
}
330
2A
100
AcDbVisualStyle
  2
Gouraud
 70
     2
177
     3
291
     1
 70
    58
 90
        2
176
     1
 90
        2
176
     1
 90
        1
176
     1
 90
        2
176
     1
 40
0.6
176
     1
 40
30.0
176
     1
 62
     7
420
 16777215
176
     1
 90
        0
176
     1
 90
        4
176
     1
 62
     7
176
     1
 62
   257
176
     1
 90
        1
176
     1
 90
        1
176
     1
 40
1.0
176
     1
 90
        0
176
     1
 62
     7
176
     1
 40
1.0
176
     1
 90
        1
176
     1
 90
        6
176
     1
 90
        2
176
     1
 62
     7
176
     1
 90
        5
176
     1
 90
        0
176
     1
 90
        0
176
     1
290
     0
176
     1
 90
       13
176
     1
 40
0.0
176
     1
 90
        0
176
     1
290
     0
176
     1
290
     1
176
     1
290
     1
176
     1
290
     0
176
     1
290
     0
176
     1
290
     0
176
     1
290
     0
176
     1
290
     0
176
     1
290
     0
176
     1
 90
       50
176
     1
 40
0.0
176
     1
 40
1.0
176
     1
 90
        0
176
     1
 62
    18
420
        0
176
     1
 90
       50
176
     1
 90
        3
176
     1
 62
     5
420
      255
176
     1
290
     0
176
     1
 90
       50
176
     1
 90
       50
176
     1
 90
       50
176
     1
290
     0
176
     1
 90
       50
176
     1
 62
   256
176
     0
 40
1.0
176
     0
 90
        2
176
     1
  1
strokes_ogs.tif
176
     1
290
     0
176
     1
 40
1.0
176
     1
 40
1.0
176
     1
  0
VISUALSTYLE
  5
2E
102
{ACAD_REACTORS
330
2A
102
}
330
2A
100
AcDbVisualStyle
  2
GouraudWithEdges
 70
     3
177
     3
291
     1
 70
    58
 90
        2
176
     1
 90
        2
176
     1
 90
        1
176
     1
 90
        2
176
     1
 40
0.6
176
     1
 40
30.0
176
     1
 62
     7
420
 16777215
176
     1
 90
        1
176
     1
 90
        4
176
     1
 62
     7
176
     1
 62
   257
176
     1
 90
        1
176
     1
 90
        1
176
     1
 40
1.0
176
     1
 90
        0
176
     1
 62
   257
176
     1
 40
1.0
176
     1
 90
        1
176
     1
 90
        6
176
     1
 90
        2
176
     1
 62
     7
176
     1
 90
        5
176
     1
 90
        0
176
     1
 90
        0
176
     1
290
     0
176
     1
 90
       13
176
     1
 40
0.0
176
     1
 90
        0
176
     1
290
     0
176
     1
290
     1
176
     1
290
     1
176
     1
290
     0
176
     1
290
     0
176
     1
290
     0
176
     1
290
     0
176
     1
290
     0
176
     1
290
     0
176
     1
 90
       50
176
     1
 40
0.0
176
     1
 40
1.0
176
     1
 90
        0
176
     1
 62
    18
420
        0
176
     1
 90
       50
176
     1
 90
        3
176
     1
 62
     5
420
      255
176
     1
290
     0
176
     1
 90
       50
176
     1
 90
       50
176
     1
 90
       50
176
     1
290
     0
176
     1
 90
       50
176
     1
 62
   256
176
     0
 40
1.0
176
     0
 90
        2
176
     1
  1
strokes_ogs.tif
176
     1
290
     0
176
     1
 40
1.0
176
     1
 40
1.0
176
     1
  0
VISUALSTYLE
  5
252
102
{ACAD_REACTORS
330
2A
102
}
330
2A
100
AcDbVisualStyle
  2
Hidden
 70
     6
177
     3
291
     0
 70
    58
 90
        1
176
     1
 90
        2
176
     1
 90
        2
176
     1
 90
        0
176
     1
 40
0.6
176
     1
 40
30.0
176
     1
 62
     7
420
 16777215
176
     1
 90
        2
176
     1
 90
        2
176
     1
 62
     7
176
     1
 62
   257
176
     1
 90
        2
176
     1
 90
        1
176
     1
 40
40.0
176
     1
 90
        0
176
     1
 62
   257
176
     1
 40
1.0
176
     1
 90
        1
176
     1
 90
        6
176
     1
 90
        2
176
     1
 62
     7
176
     1
 90
        3
176
     1
 90
        0
176
     1
 90
        0
176
     1
290
     0
176
     1
 90
        1
176
     1
 40
0.0
176
     1
 90
        0
176
     1
290
     0
176
     1
290
     1
176
     1
290
     1
176
     1
290
     0
176
     1
290
     0
176
     1
290
     0
176
     1
290
     0
176
     1
290
     0
176
     1
290
     0
176
     1
 90
       50
176
     1
 40
0.0
176
     1
 40
1.0
176
     1
 90
        0
176
     1
 62
    18
420
        0
176
     1
 90
       50
176
     1
 90
        3
176
     1
 62
     5
420
      255
176
     1
290
     0
176
     1
 90
       50
176
     1
 90
       50
176
     1
 90
       50
176
     1
290
     0
176
     1
 90
       50
176
     1
 62
   256
176
     0
 40
1.0
176
     0
 90
        2
176
     1
  1
strokes_ogs.tif
176
     1
290
     0
176
     1
 40
1.0
176
     1
 40
1.0
176
     1
  0
VISUALSTYLE
  5
13B
102
{ACAD_REACTORS
330
2A
102
}
330
2A
100
AcDbVisualStyle
  2
JitterOff
 70
    20
177
     3
291
     1
 70
    58
 90
        2
176
     0
 90
        2
176
     0
 90
        0
176
     0
 90
        0
176
     0
 40
0.6
176
     0
 40
30.0
176
     0
 62
     7
420
 16777215
176
     0
 90
        1
176
     0
 90
        4
176
     0
 62
     7
176
     0
 62
   257
176
     0
 90
        1
176
     0
 90
        1
176
     0
 40
1.0
176
     0
 90
       10
176
     2
 62
     7
176
     0
 40
1.0
176
     0
 90
        1
176
     0
 90
        6
176
     0
 90
        2
176
     0
 62
     7
176
     0
 90
        5
176
     0
 90
        0
176
     0
 90
        0
176
     0
290
     0
176
     0
 90
        1
176
     0
 40
0.0
176
     0
 90
        0
176
     0
290
     0
176
     1
290
     1
176
     1
290
     1
176
     1
290
     0
176
     1
290
     0
176
     1
290
     0
176
     1
290
     0
176
     1
290
     0
176
     1
290
     0
176
     1
 90
       50
176
     1
 40
0.0
176
     1
 40
1.0
176
     1
 90
        0
176
     1
 62
    18
420
        0
176
     1
 90
       50
176
     1
 90
        3
176
     1
 62
     5
420
      255
176
     1
290
     0
176
     1
 90
       50
176
     1
 90
       50
176
     1
 90
       50
176
     1
290
     0
176
     1
 90
       50
176
     1
 62
   256
176
     0
 40
1.0
176
     0
 90
        2
176
     1
  1
strokes_ogs.tif
176
     1
290
     0
176
     1
 40
1.0
176
     1
 40
1.0
176
     1
  0
VISUALSTYLE
  5
38
102
{ACAD_REACTORS
330
2A
102
}
330
2A
100
AcDbVisualStyle
  2
Linepattern
 70
    14
177
     3
291
     1
 70
    58
 90
        2
176
     1
 90
        2
176
     1
 90
        0
176
     1
 90
        0
176
     1
 40
0.6
176
     1
 40
30.0
176
     1
 62
     7
420
 16777215
176
     1
 90
        1
176
     1
 90
        4
176
     1
 62
     7
176
     1
 62
   257
176
     1
 90
        7
176
     1
 90
        7
176
     1
 40
1.0
176
     1
 90
        8
176
     1
 62
     7
176
     1
 40
1.0
176
     1
 90
        1
176
     1
 90
        6
176
     1
 90
        2
176
     1
 62
     7
176
     1
 90
        5
176
     1
 90
        0
176
     1
 90
        0
176
     1
290
     0
176
     1
 90
        1
176
     1
 40
0.0
176
     1
 90
        0
176
     1
290
     0
176
     1
290
     1
176
     1
290
     1
176
     1
290
     0
176
     1
290
     0
176
     1
290
     0
176
     1
290
     0
176
     1
290
     0
176
     1
290
     0
176
     1
 90
       50
176
     1
 40
0.0
176
     1
 40
1.0
176
     1
 90
        0
176
     1
 62
    18
420
        0
176
     1
 90
       50
176
     1
 90
        3
176
     1
 62
     5
420
      255
176
     1
290
     0
176
     1
 90
       50
176
     1
 90
       50
176
     1
 90
       50
176
     1
290
     0
176
     1
 90
       50
176
     1
 62
   256
176
     0
 40
1.0
176
     0
 90
        2
176
     1
  1
strokes_ogs.tif
176
     1
290
     0
176
     1
 40
1.0
176
     1
 40
1.0
176
     1
  0
VISUALSTYLE
  5
13C
102
{ACAD_REACTORS
330
2A
102
}
330
2A
100
AcDbVisualStyle
  2
OverhangOff
 70
    21
177
     3
291
     1
 70
    58
 90
        2
176
     0
 90
        2
176
     0
 90
        0
176
     0
 90
        0
176
     0
 40
0.6
176
     0
 40
30.0
176
     0
 62
     7
420
 16777215
176
     0
 90
        1
176
     0
 90
        4
176
     0
 62
     7
176
     0
 62
   257
176
     0
 90
        1
176
     0
 90
        1
176
     0
 40
1.0
176
     0
 90
        9
176
     2
 62
     7
176
     0
 40
1.0
176
     0
 90
        1
176
     0
 90
        6
176
     0
 90
        2
176
     0
 62
     7
176
     0
 90
        5
176
     0
 90
        0
176
     0
 90
        0
176
     0
290
     0
176
     0
 90
        1
176
     0
 40
0.0
176
     0
 90
        0
176
     0
290
     0
176
     1
290
     1
176
     1
290
     1
176
     1
290
     0
176
     1
290
     0
176
     1
290
     0
176
     1
290
     0
176
     1
290
     0
176
     1
290
     0
176
     1
 90
       50
176
     1
 40
0.0
176
     1
 40
1.0
176
     1
 90
        0
176
     1
 62
    18
420
        0
176
     1
 90
       50
176
     1
 90
        3
176
     1
 62
     5
420
      255
176
     1
290
     0
176
     1
 90
       50
176
     1
 90
       50
176
     1
 90
       50
176
     1
290
     0
176
     1
 90
       50
176
     1
 62
   256
176
     0
 40
1.0
176
     0
 90
        2
176
     1
  1
strokes_ogs.tif
176
     1
290
     0
176
     1
 40
1.0
176
     1
 40
1.0
176
     1
  0
VISUALSTYLE
  5
33
102
{ACAD_REACTORS
330
2A
102
}
330
2A
100
AcDbVisualStyle
  2
Realistic
 70
     8
177
     3
291
     0
 70
    58
 90
        2
176
     1
 90
        2
176
     1
 90
        0
176
     1
 90
        0
176
     1
 40
0.6
176
     1
 40
30.0
176
     1
 62
     7
420
 16777215
176
     1
 90
        1
176
     1
 90
        0
176
     1
 62
     7
176
     1
 62
   257
176
     1
 90
        1
176
     1
 90
        1
176
     1
 40
1.0
176
     1
 90
        8
176
     1
 62
     8
420
  7895160
176
     1
 40
1.0
176
     1
 90
        1
176
     1
 90
        6
176
     1
 90
        2
176
     1
 62
     7
176
     1
 90
        5
176
     1
 90
        0
176
     1
 90
        0
176
     1
290
     0
176
     1
 90
       13
176
     1
 40
0.0
176
     1
 90
        0
176
     1
290
     0
176
     1
290
     1
176
     1
290
     1
176
     1
290
     0
176
     1
290
     0
176
     1
290
     0
176
     1
290
     0
176
     1
290
     0
176
     1
290
     0
176
     1
 90
       50
176
     1
 40
0.0
176
     1
 40
1.0
176
     1
 90
        0
176
     1
 62
    18
420
        0
176
     1
 90
       50
176
     1
 90
        3
176
     1
 62
     5
420
      255
176
     1
290
     0
176
     1
 90
       50
176
     1
 90
       50
176
     1
 90
       50
176
     1
290
     0
176
     1
 90
       50
176
     1
 62
   256
176
     0
 40
1.0
176
     0
 90
        2
176
     1
  1
strokes_ogs.tif
176
     1
290
     0
176
     1
 40
1.0
176
     1
 40
1.0
176
     1
  0
VISUALSTYLE
  5
257
102
{ACAD_REACTORS
330
2A
102
}
330
2A
100
AcDbVisualStyle
  2
Shaded
 70
    27
177
     3
291
     0
 70
    58
 90
        2
176
     1
 90
        2
176
     1
 90
        1
176
     1
 90
        2
176
     1
 40
0.6
176
     1
 40
30.0
176
     1
 62
     7
420
 16777215
176
     1
 90
        0
176
     1
 90
        4
176
     1
 62
     7
176
     1
 62
   257
176
     1
 90
        1
176
     1
 90
        1
176
     1
 40
1.0
176
     1
 90
        8
176
     1
 62
   257
176
     1
 40
1.0
176
     1
 90
        1
176
     1
 90
        6
176
     1
 90
        2
176
     1
 62
     8
420
  7895160
176
     1
 90
        3
176
     1
 90
        0
176
     1
 90
        0
176
     1
290
     0
176
     1
 90
        5
176
     1
 40
0.0
176
     1
 90
        0
176
     1
290
     0
176
     1
290
     1
176
     1
290
     1
176
     1
290
     0
176
     1
290
     0
176
     1
290
     0
176
     1
290
     0
176
     1
290
     0
176
     1
290
     0
176
     1
 90
       50
176
     1
 40
0.0
176
     1
 40
1.0
176
     1
 90
        0
176
     1
 62
    18
420
        0
176
     1
 90
       50
176
     1
 90
        3
176
     1
 62
     5
420
      255
176
     1
290
     0
176
     1
 90
       50
176
     1
 90
       50
176
     1
 90
       50
176
     1
290
     0
176
     1
 90
       50
176
     1
 62
   256
176
     0
 40
1.0
176
     0
 90
        2
176
     1
  1
strokes_ogs.tif
176
     1
290
     0
176
     1
 40
1.0
176
     1
 40
1.0
176
     1
  0
VISUALSTYLE
  5
256
102
{ACAD_REACTORS
330
2A
102
}
330
2A
100
AcDbVisualStyle
  2
Shaded with edges
 70
    26
177
     3
291
     0
 70
    58
 90
        2
176
     1
 90
        2
176
     1
 90
        1
176
     1
 90
        2
176
     1
 40
0.6
176
     1
 40
30.0
176
     1
 62
     7
420
 16777215
176
     1
 90
        1
176
     1
 90
        2
176
     1
 62
     7
176
     1
 62
   257
176
     1
 90
        2
176
     1
 90
        1
176
     1
 40
1.0
176
     1
 90
        8
176
     1
 62
   257
176
     1
 40
1.0
176
     1
 90
        1
176
     1
 90
        6
176
     1
 90
        2
176
     1
 62
     7
176
     1
 90
        3
176
     1
 90
        0
176
     1
 90
        0
176
     1
290
     0
176
     1
 90
        5
176
     1
 40
0.0
176
     1
 90
        0
176
     1
290
     0
176
     1
290
     1
176
     1
290
     1
176
     1
290
     0
176
     1
290
     0
176
     1
290
     0
176
     1
290
     0
176
     1
290
     0
176
     1
290
     0
176
     1
 90
       50
176
     1
 40
0.0
176
     1
 40
1.0
176
     1
 90
        0
176
     1
 62
    18
420
        0
176
     1
 90
       50
176
     1
 90
        3
176
     1
 62
     5
420
      255
176
     1
290
     0
176
     1
 90
       50
176
     1
 90
       50
176
     1
 90
       50
176
     1
290
     0
176
     1
 90
       50
176
     1
 62
   256
176
     0
 40
1.0
176
     0
 90
        2
176
     1
  1
strokes_ogs.tif
176
     1
290
     0
176
     1
 40
1.0
176
     1
 40
1.0
176
     1
  0
VISUALSTYLE
  5
253
102
{ACAD_REACTORS
330
2A
102
}
330
2A
100
AcDbVisualStyle
  2
Shades of Gray
 70
    23
177
     3
291
     0
 70
    58
 90
        2
176
     1
 90
        2
176
     1
 90
        3
176
     1
 90
        0
176
     1
 40
0.6
176
     1
 40
30.0
176
     1
 62
     7
420
 16777215
176
     1
 90
        2
176
     1
 90
        2
176
     1
 62
     7
176
     1
 62
     7
176
     1
 90
        1
176
     1
 90
        1
176
     1
 40
40.0
176
     1
 90
        8
176
     1
 62
     7
176
     1
 40
1.0
176
     1
 90
        1
176
     1
 90
        6
176
     1
 90
        2
176
     1
 62
     7
176
     1
 90
        3
176
     1
 90
        0
176
     1
 90
        0
176
     1
290
     0
176
     1
 90
        1
176
     1
 40
0.0
176
     1
 90
        0
176
     1
290
     0
176
     1
290
     1
176
     1
290
     1
176
     1
290
     0
176
     1
290
     0
176
     1
290
     0
176
     1
290
     0
176
     1
290
     0
176
     1
290
     0
176
     1
 90
       50
176
     1
 40
0.0
176
     1
 40
1.0
176
     1
 90
        0
176
     1
 62
    18
420
        0
176
     1
 90
       50
176
     1
 90
        3
176
     1
 62
     5
420
      255
176
     1
290
     0
176
     1
 90
       50
176
     1
 90
       50
176
     1
 90
       50
176
     1
290
     0
176
     1
 90
       50
176
     1
 62
   256
176
     0
 40
1.0
176
     0
 90
        2
176
     1
  1
strokes_ogs.tif
176
     1
290
     0
176
     1
 40
1.0
176
     1
 40
1.0
176
     1
  0
VISUALSTYLE
  5
254
102
{ACAD_REACTORS
330
2A
102
}
330
2A
100
AcDbVisualStyle
  2
Sketchy
 70
    24
177
     3
291
     0
 70
    58
 90
        1
176
     1
 90
        2
176
     1
 90
        2
176
     1
 90
        0
176
     1
 40
0.6
176
     1
 40
30.0
176
     1
 62
     7
420
 16777215
176
     1
 90
        2
176
     1
 90
        2
176
     1
 62
     7
176
     1
 62
     7
176
     1
 90
        1
176
     1
 90
        1
176
     1
 40
40.0
176
     1
 90
       11
176
     1
 62
     7
176
     1
 40
1.0
176
     1
 90
        1
176
     1
 90
        6
176
     1
 90
        2
176
     1
 62
     7
176
     1
 90
        6
176
     1
 90
        0
176
     1
 90
        0
176
     1
290
     0
176
     1
 90
        1
176
     1
 40
0.0
176
     1
 90
        0
176
     1
290
     0
176
     1
290
     1
176
     1
290
     1
176
     1
290
     0
176
     1
290
     0
176
     1
290
     0
176
     1
290
     0
176
     1
290
     0
176
     1
290
     0
176
     1
 90
       50
176
     1
 40
0.0
176
     1
 40
1.0
176
     1
 90
        0
176
     1
 62
    18
420
        0
176
     1
 90
       50
176
     1
 90
        3
176
     1
 62
     5
420
      255
176
     1
290
     0
176
     1
 90
       50
176
     1
 90
       50
176
     1
 90
       50
176
     1
290
     0
176
     1
 90
       50
176
     1
 62
   256
176
     0
 40
1.0
176
     0
 90
        2
176
     1
  1
strokes_ogs.tif
176
     1
290
     0
176
     1
 40
1.0
176
     1
 40
1.0
176
     1
  0
VISUALSTYLE
  5
37
102
{ACAD_REACTORS
330
2A
102
}
330
2A
100
AcDbVisualStyle
  2
Thicken
 70
    13
177
     3
291
     1
 70
    58
 90
        2
176
     1
 90
        2
176
     1
 90
        0
176
     1
 90
        0
176
     1
 40
0.6
176
     1
 40
30.0
176
     1
 62
     7
420
 16777215
176
     1
 90
        1
176
     1
 90
        4
176
     1
 62
     7
176
     1
 62
   257
176
     1
 90
        1
176
     1
 90
        1
176
     1
 40
1.0
176
     1
 90
       12
176
     1
 62
     7
176
     1
 40
1.0
176
     1
 90
        1
176
     1
 90
        6
176
     1
 90
        2
176
     1
 62
     7
176
     1
 90
        5
176
     1
 90
        0
176
     1
 90
        0
176
     1
290
     0
176
     1
 90
        1
176
     1
 40
0.0
176
     1
 90
        0
176
     1
290
     0
176
     1
290
     1
176
     1
290
     1
176
     1
290
     0
176
     1
290
     0
176
     1
290
     0
176
     1
290
     0
176
     1
290
     0
176
     1
290
     0
176
     1
 90
       50
176
     1
 40
0.0
176
     1
 40
1.0
176
     1
 90
        0
176
     1
 62
    18
420
        0
176
     1
 90
       50
176
     1
 90
        3
176
     1
 62
     5
420
      255
176
     1
290
     0
176
     1
 90
       50
176
     1
 90
       50
176
     1
 90
       50
176
     1
290
     0
176
     1
 90
       50
176
     1
 62
   256
176
     0
 40
1.0
176
     0
 90
        2
176
     1
  1
strokes_ogs.tif
176
     1
290
     0
176
     1
 40
1.0
176
     1
 40
1.0
176
     1
  0
VISUALSTYLE
  5
251
102
{ACAD_REACTORS
330
2A
102
}
330
2A
100
AcDbVisualStyle
  2
Wireframe
 70
     5
177
     3
291
     0
 70
    58
 90
        0
176
     1
 90
        2
176
     1
 90
        0
176
     1
 90
        0
176
     1
 40
0.6
176
     1
 40
30.0
176
     1
 62
     7
420
 16777215
176
     1
 90
        1
176
     1
 90
        4
176
     1
 62
     7
176
     1
 62
   257
176
     1
 90
        1
176
     1
 90
        1
176
     1
 40
1.0
176
     1
 90
        0
176
     1
 62
   257
176
     1
 40
1.0
176
     1
 90
        1
176
     1
 90
        6
176
     1
 90
        2
176
     1
 62
     7
176
     1
 90
        3
176
     1
 90
        0
176
     1
 90
        0
176
     1
290
     0
176
     1
 90
        1
176
     1
 40
0.0
176
     1
 90
        0
176
     1
290
     0
176
     1
290
     1
176
     1
290
     1
176
     1
290
     0
176
     1
290
     0
176
     1
290
     0
176
     1
290
     0
176
     1
290
     0
176
     1
290
     0
176
     1
 90
       50
176
     1
 40
0.0
176
     1
 40
1.0
176
     1
 90
        0
176
     1
 62
    18
420
        0
176
     1
 90
       50
176
     1
 90
        3
176
     1
 62
     5
420
      255
176
     1
290
     0
176
     1
 90
       50
176
     1
 90
       50
176
     1
 90
       50
176
     1
290
     0
176
     1
 90
       50
176
     1
 62
   256
176
     0
 40
1.0
176
     0
 90
        2
176
     1
  1
strokes_ogs.tif
176
     1
290
     0
176
     1
 40
1.0
176
     1
 40
1.0
176
     1
  0
VISUALSTYLE
  5
255
102
{ACAD_REACTORS
330
2A
102
}
330
2A
100
AcDbVisualStyle
  2
X-Ray
 70
    25
177
     3
291
     0
 70
    58
 90
        2
176
     1
 90
        2
176
     1
 90
        1
176
     1
 90
        1
176
     1
 40
0.5
176
     1
 40
30.0
176
     1
 62
     7
420
 16777215
176
     1
 90
        1
176
     1
 90
        0
176
     1
 62
     7
176
     1
 62
   257
176
     1
 90
        1
176
     1
 90
        1
176
     1
 40
1.0
176
     1
 90
        8
176
     1
 62
     7
176
     1
 40
1.0
176
     1
 90
        1
176
     1
 90
        6
176
     1
 90
        2
176
     1
 62
     7
176
     1
 90
        3
176
     1
 90
        0
176
     1
 90
        0
176
     1
290
     0
176
     1
 90
       13
176
     1
 40
0.0
176
     1
 90
        0
176
     1
290
     0
176
     1
290
     1
176
     1
290
     1
176
     1
290
     0
176
     1
290
     0
176
     1
290
     0
176
     1
290
     0
176
     1
290
     0
176
     1
290
     0
176
     1
 90
       50
176
     1
 40
0.0
176
     1
 40
1.0
176
     1
 90
        0
176
     1
 62
    18
420
        0
176
     1
 90
       50
176
     1
 90
        3
176
     1
 62
     5
420
      255
176
     1
290
     0
176
     1
 90
       50
176
     1
 90
       50
176
     1
 90
       50
176
     1
290
     0
176
     1
 90
       50
176
     1
 62
   256
176
     0
 40
1.0
176
     0
 90
        2
176
     1
  1
strokes_ogs.tif
176
     1
290
     0
176
     1
 40
1.0
176
     1
 40
1.0
176
     1
  0
DICTIONARYVAR
  5
17A
102
{ACAD_REACTORS
330
176
102
}
330
176
100
DictionaryVariables
280
     0
  1
1:1
  0
DICTIONARYVAR
  5
178
102
{ACAD_REACTORS
330
176
102
}
330
176
100
DictionaryVariables
280
     0
  1
STANDARD
  0
DICTIONARYVAR
  5
177
102
{ACAD_REACTORS
330
176
102
}
330
176
100
DictionaryVariables
280
     0
  1
STANDARD
  0
DICTIONARYVAR
  5
357
102
{ACAD_REACTORS
330
176
102
}
330
176
100
DictionaryVariables
280
     0
  1
Imperial24
  0
DICTIONARYVAR
  5
358
102
{ACAD_REACTORS
330
176
102
}
330
176
100
DictionaryVariables
280
     0
  1
Imperial24
  0
DICTIONARYVAR
  5
17C
102
{ACAD_REACTORS
330
176
102
}
330
176
100
DictionaryVariables
280
     0
  1
1
  0
DICTIONARYVAR
  5
17D
102
{ACAD_REACTORS
330
176
102
}
330
176
100
DictionaryVariables
280
     0
  1
15
  0
DICTIONARYVAR
  5
17B
102
{ACAD_REACTORS
330
176
102
}
330
176
100
DictionaryVariables
280
     0
  1
0
  0
DICTIONARYVAR
  5
179
102
{ACAD_REACTORS
330
176
102
}
330
176
100
DictionaryVariables
280
     0
  1
0
  0
DICTIONARY
  5
174
330
22
100
AcDbDictionary
280
     1
281
     1
  0
DICTIONARY
  5
12C
330
12B
100
AcDbDictionary
280
     1
281
     1
  3
BUMPTILE
360
12E
  3
DIFFUSETILE
360
12D
  3
OPACITYTILE
360
131
  3
REFLECTIONTILE
360
130
  3
REFRACTIONTILE
360
132
  3
SPECULARTILE
360
12F
  0
DICTIONARY
  5
124
330
123
100
AcDbDictionary
280
     1
281
     1
  3
BUMPTILE
360
126
  3
DIFFUSETILE
360
125
  3
OPACITYTILE
360
129
  3
REFLECTIONTILE
360
128
  3
REFRACTIONTILE
360
12A
  3
SPECULARTILE
360
127
  0
DICTIONARY
  5
134
330
133
100
AcDbDictionary
280
     1
281
     1
  3
BUMPTILE
360
136
  3
DIFFUSETILE
360
135
  3
OPACITYTILE
360
139
  3
REFLECTIONTILE
360
138
  3
REFRACTIONTILE
360
13A
  3
SPECULARTILE
360
137
  0
DICTIONARY
  5
369
330
13F
100
AcDbDictionary
280
     1
281
     1
  3
ACAD_ROUNDTRIP_2008_TABLESTYLE_CELLSTYLEMAP
360
36A
  0
XRECORD
  5
12E
102
{ACAD_REACTORS
330
12C
102
}
330
12C
100
AcDbXrecord
280
     1
270
     1
271
     1
  0
XRECORD
  5
12D
102
{ACAD_REACTORS
330
12C
102
}
330
12C
100
AcDbXrecord
280
     1
270
     1
271
     1
  0
XRECORD
  5
131
102
{ACAD_REACTORS
330
12C
102
}
330
12C
100
AcDbXrecord
280
     1
270
     1
271
     1
  0
XRECORD
  5
130
102
{ACAD_REACTORS
330
12C
102
}
330
12C
100
AcDbXrecord
280
     1
270
     1
271
     1
  0
XRECORD
  5
132
102
{ACAD_REACTORS
330
12C
102
}
330
12C
100
AcDbXrecord
280
     1
270
     1
271
     1
  0
XRECORD
  5
12F
102
{ACAD_REACTORS
330
12C
102
}
330
12C
100
AcDbXrecord
280
     1
270
     1
271
     1
  0
XRECORD
  5
126
102
{ACAD_REACTORS
330
124
102
}
330
124
100
AcDbXrecord
280
     1
270
     1
271
     1
  0
XRECORD
  5
125
102
{ACAD_REACTORS
330
124
102
}
330
124
100
AcDbXrecord
280
     1
270
     1
271
     1
  0
XRECORD
  5
129
102
{ACAD_REACTORS
330
124
102
}
330
124
100
AcDbXrecord
280
     1
270
     1
271
     1
  0
XRECORD
  5
128
102
{ACAD_REACTORS
330
124
102
}
330
124
100
AcDbXrecord
280
     1
270
     1
271
     1
  0
XRECORD
  5
12A
102
{ACAD_REACTORS
330
124
102
}
330
124
100
AcDbXrecord
280
     1
270
     1
271
     1
  0
XRECORD
  5
127
102
{ACAD_REACTORS
330
124
102
}
330
124
100
AcDbXrecord
280
     1
270
     1
271
     1
  0
XRECORD
  5
136
102
{ACAD_REACTORS
330
134
102
}
330
134
100
AcDbXrecord
280
     1
270
     1
271
     1
  0
XRECORD
  5
135
102
{ACAD_REACTORS
330
134
102
}
330
134
100
AcDbXrecord
280
     1
270
     1
271
     1
  0
XRECORD
  5
139
102
{ACAD_REACTORS
330
134
102
}
330
134
100
AcDbXrecord
280
     1
270
     1
271
     1
  0
XRECORD
  5
138
102
{ACAD_REACTORS
330
134
102
}
330
134
100
AcDbXrecord
280
     1
270
     1
271
     1
  0
XRECORD
  5
13A
102
{ACAD_REACTORS
330
134
102
}
330
134
100
AcDbXrecord
280
     1
270
     1
271
     1
  0
XRECORD
  5
137
102
{ACAD_REACTORS
330
134
102
}
330
134
100
AcDbXrecord
280
     1
270
     1
271
     1
  0
CELLSTYLEMAP
  5
36A
102
{ACAD_REACTORS
330
369
102
}
330
369
100
AcDbCellStyleMap
 90
        3
300
CELLSTYLE
  1
TABLEFORMAT_BEGIN
 90
        5
170
     1
 91
        0
 92
    32768
 62
   257
 93
        1
300
CONTENTFORMAT
  1
CONTENTFORMAT_BEGIN
 90
        0
 91
        0
 92
      512
 93
        0
300

 40
0.0
140
1.0
 94
        5
 62
     0
340
11
144
0.25
309
CONTENTFORMAT_END
171
     0
 94
        0
309
TABLEFORMAT_END
  1
CELLSTYLE_BEGIN
 90
        1
 91
        1
300
_TITLE
309
CELLSTYLE_END
300
CELLSTYLE
  1
TABLEFORMAT_BEGIN
 90
        5
170
     1
 91
        0
 92
        0
 62
   257
 93
        1
300
CONTENTFORMAT
  1
CONTENTFORMAT_BEGIN
 90
        0
 91
        0
 92
      512
 93
        0
300

 40
0.0
140
1.0
 94
        5
 62
     0
340
11
144
0.18
309
CONTENTFORMAT_END
171
     0
 94
        0
309
TABLEFORMAT_END
  1
CELLSTYLE_BEGIN
 90
        2
 91
        1
300
_HEADER
309
CELLSTYLE_END
300
CELLSTYLE
  1
TABLEFORMAT_BEGIN
 90
        5
170
     1
 91
        0
 92
        0
 62
   257
 93
        1
300
CONTENTFORMAT
  1
CONTENTFORMAT_BEGIN
 90
        0
 91
        0
 92
      512
 93
        0
300

 40
0.0
140
1.0
 94
        2
 62
     0
340
11
144
0.18
309
CONTENTFORMAT_END
171
     0
 94
        0
309
TABLEFORMAT_END
  1
CELLSTYLE_BEGIN
 90
        3
 91
        2
300
_DATA
309
CELLSTYLE_END
  0
ENDSEC
  0
SECTION
  2
ACDSDATA
 70
     2
 71
     8
  0
ACDSSCHEMA
 90
        0
  1
AcDb_Thumbnail_Schema
  2
AcDbDs::ID
280
    10
 91
        8
  2
Thumbnail_Data
280
    15
 91
        0
101
ACDSRECORD
 95
        0
 90
        1
  2
AcDbDs::TreatedAsObjectData
280
     1
291
     1
101
ACDSRECORD
 95
        0
 90
        2
  2
AcDbDs::Legacy
280
     1
291
     1
101
ACDSRECORD
  1
AcDbDs::ID
 90
        3
  2
AcDs:Indexable
280
     1
291
     1
101
ACDSRECORD
  1
AcDbDs::ID
 90
        4
  2
AcDbDs::HandleAttribute
280
     7
282
     1
  0
ACDSSCHEMA
 90
        1
  1
AcDbDs::TreatedAsObjectDataSchema
  2
AcDbDs::TreatedAsObjectData
280
     1
 91
        0
  0
ACDSSCHEMA
 90
        2
  1
AcDbDs::LegacySchema
  2
AcDbDs::Legacy
280
     1
 91
        0
  0
ACDSSCHEMA
 90
        3
  1
AcDbDs::IndexedPropertySchema
  2
AcDs:Indexable
280
     1
 91
        0
  0
ACDSSCHEMA
 90
        4
  1
AcDbDs::HandleAttributeSchema
  2
AcDbDs::HandleAttribute
280
     7
 91
        1
284
     1
  0
ACDSRECORD
 90
        0
  2
AcDbDs::ID
280
    10
320
22
  2
Thumbnail_Data
280
    15
 94
     1195
310
89504E470D0A1A0A0000000D49484452000001000000006F08030000003479EE6F00000300504C5445212830FFFFFF2128300000000000000000000000000000000000000000000000000000330000660000990000CC0000FF0033000033330033660033990033CC0033FF0066000066330066660066990066CC0066FF0099
310
000099330099660099990099CC0099FF00CC0000CC3300CC6600CC9900CCCC00CCFF00FF0000FF3300FF6600FF9900FFCC00FFFF3300003300333300663300993300CC3300FF3333003333333333663333993333CC3333FF3366003366333366663366993366CC3366FF3399003399333399663399993399CC3399FF33CC00
310
33CC3333CC6633CC9933CCCC33CCFF33FF0033FF3333FF6633FF9933FFCC33FFFF6600006600336600666600996600CC6600FF6633006633336633666633996633CC6633FF6666006666336666666666996666CC6666FF6699006699336699666699996699CC6699FF66CC0066CC3366CC6666CC9966CCCC66CCFF66FF0066
310
FF3366FF6666FF9966FFCC66FFFF9900009900339900669900999900CC9900FF9933009933339933669933999933CC9933FF9966009966339966669966999966CC9966FF9999009999339999669999999999CC9999FF99CC0099CC3399CC6699CC9999CCCC99CCFF99FF0099FF3399FF6699FF9999FFCC99FFFFCC0000CC00
310
33CC0066CC0099CC00CCCC00FFCC3300CC3333CC3366CC3399CC33CCCC33FFCC6600CC6633CC6666CC6699CC66CCCC66FFCC9900CC9933CC9966CC9999CC99CCCC99FFCCCC00CCCC33CCCC66CCCC99CCCCCCCCCCFFCCFF00CCFF33CCFF66CCFF99CCFFCCCCFFFFFF0000FF0033FF0066FF0099FF00CCFF00FFFF3300FF3333
310
FF3366FF3399FF33CCFF33FFFF6600FF6633FF6666FF6699FF66CCFF66FFFF9900FF9933FF9966FF9999FF99CCFF99FFFFCC00FFCC33FFCC66FFCC99FFCCCCFFCCFFFFFF00FFFF33FFFF66FFFF99FFFFCCFFFFFF0000000D0D0D1A1A1A2828283535354343435050505D5D5D6B6B6B787878868686939393A1A1A1AEAEAEBB
310
BBBBC9C9C9D6D6D6E4E4E4F1F1F1FFFFFF0000000000000000000000000000000000000000000000000000000000002E4550F1000001664944415478DAED99C19283201404F9FFFF9D7BAA122398830E154C1CE9BEEC85CA2EBD324F32A5000000000000007C85B6200001080000982C04118000040000F07DC094B7220420
310
0001730B00005E842E05FF1200F8630822E067BF364CC068370850DE49F16DDE5183B5AF6589BD2B15056DDF50A0D22540254780B733952E03CA3902A708504E0608014E68D78C384C8B77A268FC7C3DF95D61EF0F563306E57D5C88002DE3EA195A7B02E48D37B5472542400DC15D01E6116896C52480BCB9651E95B89BE7
310
E6093027E6D1A31D7515509D02F2C2B28C5876D12930A5008053CE1402100000306D0C220001779DF0336B90BA7615762336167DFC3C5E8F0004245D5E34BC1B0C12606D8C7214013D025EE5A842BA31E3BDA5A31C6D222043402362B71B5CC3D2EC0F6204F8EDF05B93F740A595831AD20ED70F482C47BD07C52947834680
310
DD0E6FF342371981B4C3EE18A41DA61D06187ABB46000200000000000000561EC1D092257CEEB6E90000000049454E44AE426082
  0
ENDSEC
  0
EOF
