  0
SECTION
  2
HEADER
  9
$ACADVER
  1
AC1032
  9
$ACADMAINTVER
 90
       55
  9
$DWGCODEPAGE
  3
ANSI_1252
  9
$LASTSAVEDBY
  1
angus.staples
  9
$REQUIREDVERSIONS
160
                 0
  9
$INSBASE
 10
0.0
 20
0.0
 30
0.0
  9
$EXTMIN
 10
0.0
 20
-399.6404538300493
 30
0.0
  9
$EXTMAX
 10
15647.77091392855
 20
3646.516982904014
 30
0.0
  9
$LIMMIN
 10
0.0
 20
0.0
  9
$LIMMAX
 10
12.0
 20
9.0
  9
$ORTHOMODE
 70
     0
  9
$REGENMODE
 70
     1
  9
$FILLMODE
 70
     1
  9
$QTEXTMODE
 70
     0
  9
$MIRRTEXT
 70
     1
  9
$LTSCALE
 40
1.0
  9
$ATTMODE
 70
     1
  9
$TEXTSIZE
 40
0.2
  9
$TRACEWID
 40
0.05
  9
$TEXTSTYLE
  7
Standard
  9
$CLAYER
  8
Dimensions
  9
$CELTYPE
  6
ByLayer
  9
$CECOLOR
 62
   256
  9
$CELTSCALE
 40
1.0
  9
$DISPSILH
 70
     0
  9
$DIMSCALE
 40
1.0
  9
$DIMASZ
 40
0.18
  9
$DIMEXO
 40
0.0625
  9
$DIMDLI
 40
0.38
  9
$DIMRND
 40
0.0
  9
$DIMDLE
 40
0.0
  9
$DIMEXE
 40
0.18
  9
$DIMTP
 40
0.0
  9
$DIMTM
 40
0.0
  9
$DIMTXT
 40
0.18
  9
$DIMCEN
 40
0.09
  9
$DIMTSZ
 40
0.0
  9
$DIMTOL
 70
     0
  9
$DIMLIM
 70
     0
  9
$DIMTIH
 70
     1
  9
$DIMTOH
 70
     1
  9
$DIMSE1
 70
     0
  9
$DIMSE2
 70
     0
  9
$DIMTAD
 70
     0
  9
$DIMZIN
 70
     0
  9
$DIMBLK
  1

  9
$DIMASO
 70
     1
  9
$DIMSHO
 70
     1
  9
$DIMPOST
  1

  9
$DIMAPOST
  1

  9
$DIMALT
 70
     0
  9
$DIMALTD
 70
     2
  9
$DIMALTF
 40
25.4
  9
$DIMLFAC
 40
1.0
  9
$DIMTOFL
 70
     0
  9
$DIMTVP
 40
0.0
  9
$DIMTIX
 70
     0
  9
$DIMSOXD
 70
     0
  9
$DIMSAH
 70
     0
  9
$DIMBLK1
  1

  9
$DIMBLK2
  1

  9
$DIMSTYLE
  2
Standard
  9
$DIMCLRD
 70
     0
  9
$DIMCLRE
 70
     0
  9
$DIMCLRT
 70
     0
  9
$DIMTFAC
 40
1.0
  9
$DIMGAP
 40
0.09
  9
$DIMJUST
 70
     0
  9
$DIMSD1
 70
     0
  9
$DIMSD2
 70
     0
  9
$DIMTOLJ
 70
     1
  9
$DIMTZIN
 70
     0
  9
$DIMALTZ
 70
     0
  9
$DIMALTTZ
 70
     0
  9
$DIMUPT
 70
     0
  9
$DIMDEC
 70
     4
  9
$DIMTDEC
 70
     4
  9
$DIMALTU
 70
     2
  9
$DIMALTTD
 70
     2
  9
$DIMTXSTY
  7
Standard
  9
$DIMAUNIT
 70
     0
  9
$DIMADEC
 70
     0
  9
$DIMALTRND
 40
0.0
  9
$DIMAZIN
 70
     0
  9
$DIMDSEP
 70
    46
  9
$DIMATFIT
 70
     3
  9
$DIMFRAC
 70
     0
  9
$DIMLDRBLK
  1

  9
$DIMLUNIT
 70
     2
  9
$DIMLWD
 70
    -2
  9
$DIMLWE
 70
    -2
  9
$DIMTMOVE
 70
     0
  9
$DIMFXL
 40
1.0
  9
$DIMFXLON
 70
     0
  9
$DIMJOGANG
 40
0.7853981633974483
  9
$DIMTFILL
 70
     0
  9
$DIMTFILLCLR
 70
     0
  9
$DIMARCSYM
 70
     0
  9
$DIMLTYPE
  6

  9
$DIMLTEX1
  6

  9
$DIMLTEX2
  6

  9
$DIMTXTDIRECTION
 70
     0
  9
$LUNITS
 70
     2
  9
$LUPREC
 70
     4
  9
$SKETCHINC
 40
0.1
  9
$FILLETRAD
 40
0.5
  9
$AUNITS
 70
     0
  9
$AUPREC
 70
     0
  9
$MENU
  1
.
  9
$ELEVATION
 40
0.0
  9
$PELEVATION
 40
0.0
  9
$THICKNESS
 40
0.0
  9
$LIMCHECK
 70
     0
  9
$CHAMFERA
 40
0.5
  9
$CHAMFERB
 40
0.5
  9
$CHAMFERC
 40
1.0
  9
$CHAMFERD
 40
0.0
  9
$SKPOLY
 70
     0
  9
$TDCREATE
 40
2456463.637916666
  9
$TDUCREATE
 40
2456463.221251088
  9
$TDUPDATE
 40
2458729.695405093
  9
$TDUUPDATE
 40
2458729.278738426
  9
$TDINDWG
 40
0.8330285764
  9
$TDUSRTIMER
 40
0.8330285764
  9
$USRTIMER
 70
     1
  9
$ANGBASE
 50
0.0
  9
$ANGDIR
 70
     0
  9
$PDMODE
 70
     0
  9
$PDSIZE
 40
0.0
  9
$PLINEWID
 40
0.0
  9
$SPLFRAME
 70
     0
  9
$SPLINETYPE
 70
     6
  9
$SPLINESEGS
 70
     8
  9
$HANDSEED
  5
473
  9
$SURFTAB1
 70
     6
  9
$SURFTAB2
 70
     6
  9
$SURFTYPE
 70
     6
  9
$SURFU
 70
     6
  9
$SURFV
 70
     6
  9
$UCSBASE
  2

  9
$UCSNAME
  2

  9
$UCSORG
 10
-201.9365098458445
 20
0.0000000000000247
 30
0.0
  9
$UCSXDIR
 10
1.0
 20
0.0
 30
0.0
  9
$UCSYDIR
 10
0.0
 20
1.0
 30
0.0
  9
$UCSORTHOREF
  2

  9
$UCSORTHOVIEW
 70
     0
  9
$UCSORGTOP
 10
0.0
 20
0.0
 30
0.0
  9
$UCSORGBOTTOM
 10
0.0
 20
0.0
 30
0.0
  9
$UCSORGLEFT
 10
0.0
 20
0.0
 30
0.0
  9
$UCSORGRIGHT
 10
0.0
 20
0.0
 30
0.0
  9
$UCSORGFRONT
 10
0.0
 20
0.0
 30
0.0
  9
$UCSORGBACK
 10
0.0
 20
0.0
 30
0.0
  9
$PUCSBASE
  2

  9
$PUCSNAME
  2

  9
$PUCSORG
 10
0.0
 20
0.0
 30
0.0
  9
$PUCSXDIR
 10
1.0
 20
0.0
 30
0.0
  9
$PUCSYDIR
 10
0.0
 20
1.0
 30
0.0
  9
$PUCSORTHOREF
  2

  9
$PUCSORTHOVIEW
 70
     0
  9
$PUCSORGTOP
 10
0.0
 20
0.0
 30
0.0
  9
$PUCSORGBOTTOM
 10
0.0
 20
0.0
 30
0.0
  9
$PUCSORGLEFT
 10
0.0
 20
0.0
 30
0.0
  9
$PUCSORGRIGHT
 10
0.0
 20
0.0
 30
0.0
  9
$PUCSORGFRONT
 10
0.0
 20
0.0
 30
0.0
  9
$PUCSORGBACK
 10
0.0
 20
0.0
 30
0.0
  9
$USERI1
 70
     0
  9
$USERI2
 70
     0
  9
$USERI3
 70
     0
  9
$USERI4
 70
     0
  9
$USERI5
 70
     0
  9
$USERR1
 40
0.0
  9
$USERR2
 40
0.0
  9
$USERR3
 40
0.0
  9
$USERR4
 40
0.0
  9
$USERR5
 40
0.0
  9
$WORLDVIEW
 70
     1
  9
$SHADEDGE
 70
     3
  9
$SHADEDIF
 70
    70
  9
$TILEMODE
 70
     1
  9
$MAXACTVP
 70
    64
  9
$PINSBASE
 10
0.0
 20
0.0
 30
0.0
  9
$PLIMCHECK
 70
     0
  9
$PEXTMIN
 10
1.000000000000000E+20
 20
1.000000000000000E+20
 30
1.000000000000000E+20
  9
$PEXTMAX
 10
-1.000000000000000E+20
 20
-1.000000000000000E+20
 30
-1.000000000000000E+20
  9
$PLIMMIN
 10
0.0
 20
0.0
  9
$PLIMMAX
 10
12.0
 20
9.0
  9
$UNITMODE
 70
     0
  9
$VISRETAIN
 70
     1
  9
$PLINEGEN
 70
     0
  9
$PSLTSCALE
 70
     1
  9
$TREEDEPTH
 70
  3020
  9
$CMLSTYLE
  2
Standard
  9
$CMLJUST
 70
     0
  9
$CMLSCALE
 40
1.0
  9
$PROXYGRAPHICS
 70
     1
  9
$MEASUREMENT
 70
     0
  9
$CELWEIGHT
370
    -1
  9
$ENDCAPS
280
     0
  9
$JOINSTYLE
280
     0
  9
$LWDISPLAY
290
     1
  9
$INSUNITS
 70
     1
  9
$HYPERLINKBASE
  1

  9
$STYLESHEET
  1

  9
$XEDIT
290
     1
  9
$CEPSNTYPE
380
     0
  9
$PSTYLEMODE
290
     1
  9
$FINGERPRINTGUID
  2
{9DB5D820-5053-4F0B-B060-41A16BCE1091}
  9
$VERSIONGUID
  2
{3981279F-2F67-A54D-BF52-DAA1BEF9A2C8}
  9
$EXTNAMES
290
     1
  9
$PSVPSCALE
 40
0.0
  9
$OLESTARTUP
290
     0
  9
$SORTENTS
280
   127
  9
$INDEXCTL
280
     0
  9
$HIDETEXT
280
     1
  9
$XCLIPFRAME
280
     0
  9
$HALOGAP
280
     0
  9
$OBSCOLOR
 70
   257
  9
$OBSLTYPE
280
     0
  9
$INTERSECTIONDISPLAY
280
     0
  9
$INTERSECTIONCOLOR
 70
   257
  9
$DIMASSOC
280
     2
  9
$PROJECTNAME
  1

  9
$CAMERADISPLAY
290
     0
  9
$LENSLENGTH
 40
50.0
  9
$CAMERAHEIGHT
 40
0.0
  9
$STEPSPERSEC
 40
2.0
  9
$STEPSIZE
 40
6.0
  9
$3DDWFPREC
 40
2.0
  9
$PSOLWIDTH
 40
0.25
  9
$PSOLHEIGHT
 40
4.0
  9
$LOFTANG1
 40
1.570796326794896
  9
$LOFTANG2
 40
1.570796326794896
  9
$LOFTMAG1
 40
0.0
  9
$LOFTMAG2
 40
0.0
  9
$LOFTPARAM
 70
     7
  9
$LOFTNORMALS
280
     1
  9
$LATITUDE
 40
37.795
  9
$LONGITUDE
 40
-122.394
  9
$NORTHDIRECTION
 40
0.0
  9
$TIMEZONE
 70
 -8000
  9
$LIGHTGLYPHDISPLAY
280
     1
  9
$TILEMODELIGHTSYNCH
280
     1
  9
$CMATERIAL
347
15A
  9
$SOLIDHIST
280
     1
  9
$SHOWHIST
280
     1
  9
$DWFFRAME
280
     2
  9
$DGNFRAME
280
     0
  9
$REALWORLDSCALE
290
     1
  9
$INTERFERECOLOR
 62
     1
  9
$INTERFEREOBJVS
345
33
  9
$INTERFEREVPVS
346
2B8
  9
$CSHADOW
280
     0
  9
$SHADOWPLANELOCATION
 40
0.0
  0
ENDSEC
  0
SECTION
  2
CLASSES
  0
CLASS
  1
ACDBDICTIONARYWDFLT
  2
AcDbDictionaryWithDefault
  3
ObjectDBX Classes
 90
        0
 91
        1
280
     0
281
     0
  0
CLASS
  1
VISUALSTYLE
  2
AcDbVisualStyle
  3
ObjectDBX Classes
 90
     4095
 91
       26
280
     0
281
     0
  0
CLASS
  1
MATERIAL
  2
AcDbMaterial
  3
ObjectDBX Classes
 90
     1153
 91
        3
280
     0
281
     0
  0
CLASS
  1
TABLESTYLE
  2
AcDbTableStyle
  3
ObjectDBX Classes
 90
     4095
 91
        1
280
     0
281
     0
  0
CLASS
  1
SCALE
  2
AcDbScale
  3
ObjectDBX Classes
 90
     1153
 91
       33
280
     0
281
     0
  0
CLASS
  1
MLEADERSTYLE
  2
AcDbMLeaderStyle
  3
ACDB_MLEADERSTYLE_CLASS
 90
     4095
 91
        1
280
     0
281
     0
  0
CLASS
  1
DICTIONARYVAR
  2
AcDbDictionaryVar
  3
ObjectDBX Classes
 90
        0
 91
        9
280
     0
281
     0
  0
CLASS
  1
EXACXREFPANELOBJECT
  2
ExAcXREFPanelObject
  3
EXAC_ESW
 90
     1025
 91
        0
280
     0
281
     0
  0
CLASS
  1
NPOCOLLECTION
  2
AcDbImpNonPersistentObjectsCollection
  3
ObjectDBX Classes
 90
     1153
 91
        0
280
     0
281
     0
  0
CLASS
  1
SORTENTSTABLE
  2
AcDbSortentsTable
  3
ObjectDBX Classes
 90
        0
 91
        2
280
     0
281
     0
  0
CLASS
  1
ACDBSECTIONVIEWSTYLE
  2
AcDbSectionViewStyle
  3
ObjectDBX Classes
 90
     1025
 91
        1
280
     0
281
     0
  0
CLASS
  1
ACDBDETAILVIEWSTYLE
  2
AcDbDetailViewStyle
  3
ObjectDBX Classes
 90
     1025
 91
        1
280
     0
281
     0
  0
CLASS
  1
CELLSTYLEMAP
  2
AcDbCellStyleMap
  3
ObjectDBX Classes
 90
     1152
 91
        2
280
     0
281
     0
  0
ENDSEC
  0
SECTION
  2
TABLES
  0
TABLE
  2
VPORT
  5
8
330
0
100
AcDbSymbolTable
 70
     1
  0
VPORT
  5
29
330
8
100
AcDbSymbolTableRecord
100
AcDbViewportTableRecord
  2
*Active
 70
     0
 10
0.0
 20
0.0
 11
1.0
 21
1.0
 12
9803.724911437742
 22
1255.316009358847
 13
0.0
 23
0.0
 14
0.5
 24
0.5
 15
0.5
 25
0.5
 16
0.0
 26
0.0
 36
1.0
 17
148.4999796178229
 27
-105.0008259828643
 37
0.0
 40
9691.766520741852
 41
2.292712066905615
 42
50.0
 43
0.0
 44
0.0
 50
0.0
 51
0.0
 71
     0
 72
   100
 73
     1
 74
     3
 75
     0
 76
     0
 77
     0
 78
     0
281
     0
 65
     1
110
-201.9365098458445
120
0.0000000000000247
130
0.0
111
1.0
121
0.0
131
0.0
112
0.0
122
1.0
132
0.0
 79
     0
146
0.0
348
2F
 60
     3
 61
     5
292
     1
282
     1
141
0.0
142
0.0
 63
   250
421
  3355443
1001
ACAD_NAV_VCDISPLAY
1070
     3
  0
ENDTAB
  0
TABLE
  2
LTYPE
  5
5
330
0
100
AcDbSymbolTable
 70
     2
  0
LTYPE
  5
14
330
5
100
AcDbSymbolTableRecord
100
AcDbLinetypeTableRecord
  2
ByBlock
 70
     0
  3

 72
    65
 73
     0
 40
0.0
  0
LTYPE
  5
15
330
5
100
AcDbSymbolTableRecord
100
AcDbLinetypeTableRecord
  2
ByLayer
 70
     0
  3

 72
    65
 73
     0
 40
0.0
  0
LTYPE
  5
16
330
5
100
AcDbSymbolTableRecord
100
AcDbLinetypeTableRecord
  2
Continuous
 70
     0
  3
Solid line
 72
    65
 73
     0
 40
0.0
  0
ENDTAB
  0
TABLE
  2
LAYER
  5
2
102
{ACAD_XDICTIONARY
360
1A5
102
}
330
0
100
AcDbSymbolTable
 70
     4
  0
LAYER
  5
10
102
{ACAD_XDICTIONARY
360
19E
102
}
330
2
100
AcDbSymbolTableRecord
100
AcDbLayerTableRecord
  2
0
 70
     0
 62
     7
  6
Continuous
370
    -3
390
F
347
16A
348
0
  0
LAYER
  5
3B
102
{ACAD_XDICTIONARY
360
1A0
102
}
330
2
100
AcDbSymbolTableRecord
100
AcDbLayerTableRecord
  2
Furniture
 70
     0
 62
     7
  6
Continuous
370
    -3
390
F
347
16A
348
0
  0
LAYER
  5
2C9
330
2
100
AcDbSymbolTableRecord
100
AcDbLayerTableRecord
  2
Text
 70
     0
 62
     7
  6
Continuous
370
    -3
390
F
347
16A
348
0
1001
AcAecLayerStandard
1000

1000

1001
AcCmTransparency
1071
        0
  0
LAYER
  5
2CC
330
2
100
AcDbSymbolTableRecord
100
AcDbLayerTableRecord
  2
Dimensions
 70
     0
 62
     7
  6
Continuous
370
    -3
390
F
347
16A
348
0
1001
AcAecLayerStandard
1000

1000

1001
AcCmTransparency
1071
        0
  0
ENDTAB
  0
TABLE
  2
STYLE
  5
3
330
0
100
AcDbSymbolTable
 70
     1
  0
STYLE
  5
11
330
3
100
AcDbSymbolTableRecord
100
AcDbTextStyleTableRecord
  2
Standard
 70
     0
 40
0.0
 41
1.000099999999999
 50
0.0
 71
     0
 42
0.2
  3

  4

1001
ACAD
1000
Apercu
1071
        2
  0
ENDTAB
  0
TABLE
  2
VIEW
  5
6
330
0
100
AcDbSymbolTable
 70
     3
  0
ENDTAB
  0
TABLE
  2
UCS
  5
7
330
0
100
AcDbSymbolTable
 70
     0
  0
ENDTAB
  0
TABLE
  2
APPID
  5
9
330
0
100
AcDbSymbolTable
 70
     7
  0
APPID
  5
12
330
9
100
AcDbSymbolTableRecord
100
AcDbRegAppTableRecord
  2
ACAD
 70
     0
  0
APPID
  5
1B9
330
9
100
AcDbSymbolTableRecord
100
AcDbRegAppTableRecord
  2
ACAD_EXEMPT_FROM_CAD_STANDARDS
 70
     0
  0
APPID
  5
2CA
330
9
100
AcDbSymbolTableRecord
100
AcDbRegAppTableRecord
  2
AcAecLayerStandard
 70
     0
  0
APPID
  5
2CB
330
9
100
AcDbSymbolTableRecord
100
AcDbRegAppTableRecord
  2
AcCmTransparency
 70
     0
  0
APPID
  5
2D4
330
9
100
AcDbSymbolTableRecord
100
AcDbRegAppTableRecord
  2
ACAD_NAV_VCDISPLAY
 70
     0
  0
APPID
  5
31F
330
9
100
AcDbSymbolTableRecord
100
AcDbRegAppTableRecord
  2
ACAD_PSEXT
 70
     0
  0
APPID
  5
32D
330
9
100
AcDbSymbolTableRecord
100
AcDbRegAppTableRecord
  2
AcadAnnoPO
 70
     0
  0
ENDTAB
  0
TABLE
  2
DIMSTYLE
  5
A
330
0
100
AcDbSymbolTable
 70
     2
100
AcDbDimStyleTable
 71
     1
340
27
  0
DIMSTYLE
105
27
330
A
100
AcDbSymbolTableRecord
100
AcDbDimStyleTableRecord
  2
Standard
 70
     0
340
11
  0
ENDTAB
  0
TABLE
  2
BLOCK_RECORD
  5
1
330
0
100
AcDbSymbolTable
 70
    14
  0
BLOCK_RECORD
  5
1F
102
{ACAD_XDICTIONARY
360
1D6
102
}
330
1
100
AcDbSymbolTableRecord
100
AcDbBlockTableRecord
  2
*Model_Space
340
22
 70
     0
280
     1
281
     0
  0
BLOCK_RECORD
  5
1B
330
1
100
AcDbSymbolTableRecord
100
AcDbBlockTableRecord
  2
*Paper_Space
340
1E
 70
     0
280
     1
281
     0
  0
BLOCK_RECORD
  5
23
330
1
100
AcDbSymbolTableRecord
100
AcDbBlockTableRecord
  2
*Paper_Space0
340
26
 70
     0
280
     1
281
     0
  0
BLOCK_RECORD
  5
3C
330
1
100
AcDbSymbolTableRecord
100
AcDbBlockTableRecord
  2
block 2
340
0
102
{BLKREFS
331
3D
102
}
 70
     0
280
     1
281
     0
  0
BLOCK_RECORD
  5
40
330
1
100
AcDbSymbolTableRecord
100
AcDbBlockTableRecord
  2
block 3
340
0
102
{BLKREFS
331
41
102
}
 70
     0
280
     1
281
     0
  0
BLOCK_RECORD
  5
44
330
1
100
AcDbSymbolTableRecord
100
AcDbBlockTableRecord
  2
block 4
340
0
102
{BLKREFS
331
45
102
}
 70
     0
280
     1
281
     0
  0
BLOCK_RECORD
  5
48
330
1
100
AcDbSymbolTableRecord
100
AcDbBlockTableRecord
  2
block 5
340
0
102
{BLKREFS
331
49
102
}
 70
     0
280
     1
281
     0
  0
BLOCK_RECORD
  5
4C
330
1
100
AcDbSymbolTableRecord
100
AcDbBlockTableRecord
  2
block 6
340
0
102
{BLKREFS
331
4D
102
}
 70
     0
280
     1
281
     0
  0
BLOCK_RECORD
  5
52
330
1
100
AcDbSymbolTableRecord
100
AcDbBlockTableRecord
  2
block 7
340
0
 70
     0
280
     1
281
     0
  0
BLOCK_RECORD
  5
B4
330
1
100
AcDbSymbolTableRecord
100
AcDbBlockTableRecord
  2
block 8
340
0
 70
     0
280
     1
281
     0
  0
BLOCK_RECORD
  5
DE
330
1
100
AcDbSymbolTableRecord
100
AcDbBlockTableRecord
  2
block 9
340
0
 70
     0
280
     1
281
     0
  0
BLOCK_RECORD
  5
103
330
1
100
AcDbSymbolTableRecord
100
AcDbBlockTableRecord
  2
block 10
340
0
 70
     0
280
     1
281
     0
  0
BLOCK_RECORD
  5
125
330
1
100
AcDbSymbolTableRecord
100
AcDbBlockTableRecord
  2
block 11
340
0
 70
     0
280
     1
281
     0
  0
BLOCK_RECORD
  5
145
330
1
100
AcDbSymbolTableRecord
100
AcDbBlockTableRecord
  2
block 12
340
0
 70
     0
280
     1
281
     0
  0
BLOCK_RECORD
  5
320
102
{ACAD_XDICTIONARY
360
326
102
}
330
1
100
AcDbSymbolTableRecord
100
AcDbBlockTableRecord
  2
A$C399D1CF9
340
0
 70
     1
280
     1
281
     0
  0
ENDTAB
  0
ENDSEC
  0
SECTION
  2
BLOCKS
  0
BLOCK
  5
20
330
1F
100
AcDbEntity
  8
0
100
AcDbBlockBegin
  2
*Model_Space
 70
     0
 10
0.0
 20
0.0
 30
0.0
  3
*Model_Space
  1

  0
ENDBLK
  5
21
330
1F
100
AcDbEntity
  8
0
100
AcDbBlockEnd
  0
BLOCK
  5
1C
330
1B
100
AcDbEntity
 67
     1
  8
0
100
AcDbBlockBegin
  2
*Paper_Space
 70
     0
 10
0.0
 20
0.0
 30
0.0
  3
*Paper_Space
  1

  0
ENDBLK
  5
1D
330
1B
100
AcDbEntity
 67
     1
  8
0
100
AcDbBlockEnd
  0
BLOCK
  5
24
330
23
100
AcDbEntity
 67
     1
  8
0
100
AcDbBlockBegin
  2
*Paper_Space0
 70
     0
 10
0.0
 20
0.0
 30
0.0
  3
*Paper_Space0
  1

  0
ENDBLK
  5
25
330
23
100
AcDbEntity
 67
     1
  8
0
100
AcDbBlockEnd
  0
BLOCK
  5
3E
330
3C
100
AcDbEntity
  8
0
100
AcDbBlockBegin
  2
block 2
 70
     0
 10
0.0
 20
0.0
 30
0.0
  3
block 2
  1

  0
ENDBLK
  5
3F
330
3C
100
AcDbEntity
  8
0
100
AcDbBlockEnd
  0
BLOCK
  5
42
330
40
100
AcDbEntity
  8
0
100
AcDbBlockBegin
  2
block 3
 70
     0
 10
0.0
 20
0.0
 30
0.0
  3
block 3
  1

  0
ENDBLK
  5
43
330
40
100
AcDbEntity
  8
0
100
AcDbBlockEnd
  0
BLOCK
  5
46
330
44
100
AcDbEntity
  8
0
100
AcDbBlockBegin
  2
block 4
 70
     0
 10
0.0
 20
0.0
 30
0.0
  3
block 4
  1

  0
INSERT
  5
49
330
44
100
AcDbEntity
  8
Furniture
100
AcDbBlockReference
  2
block 5
 10
0.0
 20
0.0
 30
0.0
  0
INSERT
  5
4D
330
44
100
AcDbEntity
  8
Furniture
100
AcDbBlockReference
  2
block 6
 10
0.0
 20
0.0
 30
0.0
  0
ENDBLK
  5
47
330
44
100
AcDbEntity
  8
0
100
AcDbBlockEnd
  0
BLOCK
  5
4A
330
48
100
AcDbEntity
  8
0
100
AcDbBlockBegin
  2
block 5
 70
     0
 10
0.0
 20
0.0
 30
0.0
  3
block 5
  1

  0
ENDBLK
  5
4B
330
48
100
AcDbEntity
  8
0
100
AcDbBlockEnd
  0
BLOCK
  5
4E
330
4C
100
AcDbEntity
  8
0
100
AcDbBlockBegin
  2
block 6
 70
     0
 10
0.0
 20
0.0
 30
0.0
  3
block 6
  1

  0
ENDBLK
  5
4F
330
4C
100
AcDbEntity
  8
0
100
AcDbBlockEnd
  0
BLOCK
  5
54
330
52
100
AcDbEntity
  8
0
100
AcDbBlockBegin
  2
block 7
 70
     0
 10
0.0
 20
0.0
 30
0.0
  3
block 7
  1

  0
SPLINE
  5
56
330
52
100
AcDbEntity
  8
Furniture
 62
   250
370
     9
100
AcDbSpline
210
0.0
220
0.0
230
1.0
 70
     8
 71
     3
 72
     8
 73
     4
 74
     0
 42
0.000000001
 43
0.0000000001
 40
0.0
 40
0.0
 40
0.0
 40
0.0
 40
1.0
 40
1.0
 40
1.0
 40
1.0
 10
63.25126409008996
 20
-83.69359942569118
 30
0.0
 10
63.27796358010065
 20
-83.69359942569118
 30
0.0
 10
63.30001219120624
 20
-83.71909313228204
 30
0.0
 10
63.30001219120624
 20
-83.75096026552061
 30
0.0
  0
POLYLINE
  5
57
330
52
100
AcDbEntity
  8
Furniture
 62
   250
370
     9
100
AcDb2dPolyline
 66
     1
 10
0.0
 20
0.0
 30
0.0
  0
VERTEX
  5
58
330
57
100
AcDbEntity
  8
Furniture
 62
   250
370
     9
100
AcDbVertex
100
AcDb2dVertex
 10
63.30001219120624
 20
-83.94991452979377
 30
0.0
  0
VERTEX
  5
59
330
57
100
AcDbEntity
  8
Furniture
 62
   250
370
     9
100
AcDbVertex
100
AcDb2dVertex
 10
63.31069198721053
 20
-90.97050236441015
 30
0.0
  0
VERTEX
  5
5A
330
57
100
AcDbEntity
  8
Furniture
 62
   250
370
     9
100
AcDbVertex
100
AcDb2dVertex
 10
62.7684339578322
 20
-90.97050236441015
 30
0.0
  0
VERTEX
  5
5B
330
57
100
AcDbEntity
  8
Furniture
 62
   250
370
     9
100
AcDbVertex
100
AcDb2dVertex
 10
62.7684339578322
 20
-88.53275279904737
 30
0.0
  0
SEQEND
  5
5C
330
57
100
AcDbEntity
  8
Furniture
370
     9
  0
POLYLINE
  5
5D
330
52
100
AcDbEntity
  8
Furniture
 62
   250
370
     9
100
AcDb2dPolyline
 66
     1
 10
0.0
 20
0.0
 30
0.0
  0
VERTEX
  5
5E
330
5D
100
AcDbEntity
  8
Furniture
 62
   250
370
     9
100
AcDbVertex
100
AcDb2dVertex
 10
55.51047904428211
 20
-84.44531926057271
 30
0.0
  0
VERTEX
  5
5F
330
5D
100
AcDbEntity
  8
Furniture
 62
   250
370
     9
100
AcDbVertex
100
AcDb2dVertex
 10
62.43443195053723
 20
-84.44531926057271
 30
0.0
  0
SEQEND
  5
60
330
5D
100
AcDbEntity
  8
Furniture
370
     9
  0
POLYLINE
  5
61
330
52
100
AcDbEntity
  8
Furniture
 62
   250
370
     9
100
AcDb2dPolyline
 66
     1
 10
0.0
 20
0.0
 30
0.0
  0
VERTEX
  5
62
330
61
100
AcDbEntity
  8
Furniture
 62
   250
370
     9
100
AcDbVertex
100
AcDb2dVertex
 10
55.51047904428211
 20
-88.91860349339536
 30
0.0
  0
VERTEX
  5
63
330
61
100
AcDbEntity
  8
Furniture
 62
   250
370
     9
100
AcDbVertex
100
AcDb2dVertex
 10
55.51047904428211
 20
-90.97050236441015
 30
0.0
  0
VERTEX
  5
64
330
61
100
AcDbEntity
  8
Furniture
 62
   250
370
     9
100
AcDbVertex
100
AcDb2dVertex
 10
54.9787285561338
 20
-90.97050236441015
 30
0.0
  0
SEQEND
  5
65
330
61
100
AcDbEntity
  8
Furniture
370
     9
  0
POLYLINE
  5
66
330
52
100
AcDbEntity
  8
Furniture
 62
   250
370
     9
100
AcDb2dPolyline
 66
     1
 10
0.0
 20
0.0
 30
0.0
  0
VERTEX
  5
67
330
66
100
AcDbEntity
  8
Furniture
 62
   250
370
     9
100
AcDbVertex
100
AcDb2dVertex
 10
55.51047904428211
 20
-88.91860349339536
 30
0.0
  0
VERTEX
  5
68
330
66
100
AcDbEntity
  8
Furniture
 62
   250
370
     9
100
AcDbVertex
100
AcDb2dVertex
 10
55.51047904428211
 20
-84.44531926057271
 30
0.0
  0
SEQEND
  5
69
330
66
100
AcDbEntity
  8
Furniture
370
     9
  0
POLYLINE
  5
6A
330
52
100
AcDbEntity
  8
Furniture
 62
   250
370
     9
100
AcDb2dPolyline
 66
     1
 10
0.0
 20
0.0
 30
0.0
  0
VERTEX
  5
6B
330
6A
100
AcDbEntity
  8
Furniture
 62
   250
370
     9
100
AcDbVertex
100
AcDb2dVertex
 10
62.83371851727768
 20
-84.22879500932475
 30
0.0
  0
VERTEX
  5
6C
330
6A
100
AcDbEntity
  8
Furniture
 62
   250
370
     9
100
AcDbVertex
100
AcDb2dVertex
 10
62.83371851727768
 20
-84.03741995511913
 30
0.0
  0
SEQEND
  5
6D
330
6A
100
AcDbEntity
  8
Furniture
370
     9
  0
POLYLINE
  5
6E
330
52
100
AcDbEntity
  8
Furniture
 62
   250
370
     9
100
AcDb2dPolyline
 66
     1
 10
0.0
 20
0.0
 30
0.0
  0
VERTEX
  5
6F
330
6E
100
AcDbEntity
  8
Furniture
 62
   250
370
     9
100
AcDbVertex
100
AcDb2dVertex
 10
62.7684339578322
 20
-84.44531926057271
 30
0.0
  0
VERTEX
  5
70
330
6E
100
AcDbEntity
  8
Furniture
 62
   250
370
     9
100
AcDbVertex
100
AcDb2dVertex
 10
62.779458263385
 20
-84.44531926057271
 30
0.0
  0
VERTEX
  5
71
330
6E
100
AcDbEntity
  8
Furniture
 62
   250
370
     9
100
AcDbVertex
100
AcDb2dVertex
 10
62.779458263385
 20
-84.43257240727728
 30
0.0
  0
VERTEX
  5
72
330
6E
100
AcDbEntity
  8
Furniture
 62
   250
370
     9
100
AcDbVertex
100
AcDb2dVertex
 10
62.779458263385
 20
-84.41982555398185
 30
0.0
  0
VERTEX
  5
73
330
6E
100
AcDbEntity
  8
Furniture
 62
   250
370
     9
100
AcDbVertex
100
AcDb2dVertex
 10
62.78996580461501
 20
-84.40707870068642
 30
0.0
  0
VERTEX
  5
74
330
6E
100
AcDbEntity
  8
Furniture
 62
   250
370
     9
100
AcDbVertex
100
AcDb2dVertex
 10
62.78996580461501
 20
-84.39433184739099
 30
0.0
  0
VERTEX
  5
75
330
6E
100
AcDbEntity
  8
Furniture
 62
   250
370
     9
100
AcDbVertex
100
AcDb2dVertex
 10
62.80081785539355
 20
-84.38158499409558
 30
0.0
  0
VERTEX
  5
76
330
6E
100
AcDbEntity
  8
Furniture
 62
   250
370
     9
100
AcDbVertex
100
AcDb2dVertex
 10
62.80081785539355
 20
-84.36883814080015
 30
0.0
  0
VERTEX
  5
77
330
6E
100
AcDbEntity
  8
Furniture
 62
   250
370
     9
100
AcDbVertex
100
AcDb2dVertex
 10
62.81184216094635
 20
-84.35626354227899
 30
0.0
  0
VERTEX
  5
78
330
6E
100
AcDbEntity
  8
Furniture
 62
   250
370
     9
100
AcDbVertex
100
AcDb2dVertex
 10
62.81184216094635
 20
-84.34334443420929
 30
0.0
  0
VERTEX
  5
79
330
6E
100
AcDbEntity
  8
Furniture
 62
   250
370
     9
100
AcDbVertex
100
AcDb2dVertex
 10
62.82269421172489
 20
-84.31785072761845
 30
0.0
  0
VERTEX
  5
7A
330
6E
100
AcDbEntity
  8
Furniture
 62
   250
370
     9
100
AcDbVertex
100
AcDb2dVertex
 10
62.82269421172489
 20
-84.30510387432304
 30
0.0
  0
VERTEX
  5
7B
330
6E
100
AcDbEntity
  8
Furniture
 62
   250
370
     9
100
AcDbVertex
100
AcDb2dVertex
 10
62.83371851727768
 20
-84.27978242250643
 30
0.0
  0
VERTEX
  5
7C
330
6E
100
AcDbEntity
  8
Furniture
 62
   250
370
     9
100
AcDbVertex
100
AcDb2dVertex
 10
62.83371851727768
 20
-84.26703556921102
 30
0.0
  0
VERTEX
  5
7D
330
6E
100
AcDbEntity
  8
Furniture
 62
   250
370
     9
100
AcDbVertex
100
AcDb2dVertex
 10
62.83371851727768
 20
-84.24136960784592
 30
0.0
  0
VERTEX
  5
7E
330
6E
100
AcDbEntity
  8
Furniture
 62
   250
370
     9
100
AcDbVertex
100
AcDb2dVertex
 10
62.83371851727768
 20
-84.22879500932475
 30
0.0
  0
SEQEND
  5
7F
330
6E
100
AcDbEntity
  8
Furniture
370
     9
  0
POLYLINE
  5
80
330
52
100
AcDbEntity
  8
Furniture
 62
   250
370
     9
100
AcDb2dPolyline
 66
     1
 10
0.0
 20
0.0
 30
0.0
  0
VERTEX
  5
81
330
80
100
AcDbEntity
  8
Furniture
 62
   250
370
     9
100
AcDbVertex
100
AcDb2dVertex
 10
55.51047904428211
 20
-84.44531926057271
 30
0.0
  0
VERTEX
  5
82
330
80
100
AcDbEntity
  8
Furniture
 62
   250
370
     9
100
AcDbVertex
100
AcDb2dVertex
 10
55.51047904428211
 20
-84.44531926057271
 30
0.0
  0
VERTEX
  5
83
330
80
100
AcDbEntity
  8
Furniture
 62
   250
370
     9
100
AcDbVertex
100
AcDb2dVertex
 10
55.51047904428211
 20
-84.43257240727728
 30
0.0
  0
VERTEX
  5
84
330
80
100
AcDbEntity
  8
Furniture
 62
   250
370
     9
100
AcDbVertex
100
AcDb2dVertex
 10
55.49945473872931
 20
-84.43257240727728
 30
0.0
  0
VERTEX
  5
85
330
80
100
AcDbEntity
  8
Furniture
 62
   250
370
     9
100
AcDbVertex
100
AcDb2dVertex
 10
55.49945473872931
 20
-84.41982555398185
 30
0.0
  0
VERTEX
  5
86
330
80
100
AcDbEntity
  8
Furniture
 62
   250
370
     9
100
AcDbVertex
100
AcDb2dVertex
 10
55.49945473872931
 20
-84.40707870068642
 30
0.0
  0
VERTEX
  5
87
330
80
100
AcDbEntity
  8
Furniture
 62
   250
370
     9
100
AcDbVertex
100
AcDb2dVertex
 10
55.48877494272502
 20
-84.39433184739099
 30
0.0
  0
VERTEX
  5
88
330
80
100
AcDbEntity
  8
Furniture
 62
   250
370
     9
100
AcDbVertex
100
AcDb2dVertex
 10
55.48877494272502
 20
-84.38158499409558
 30
0.0
  0
VERTEX
  5
89
330
80
100
AcDbEntity
  8
Furniture
 62
   250
370
     9
100
AcDbVertex
100
AcDb2dVertex
 10
55.47775063717223
 20
-84.36883814080015
 30
0.0
  0
VERTEX
  5
8A
330
80
100
AcDbEntity
  8
Furniture
 62
   250
370
     9
100
AcDbVertex
100
AcDb2dVertex
 10
55.47775063717223
 20
-84.35626354227899
 30
0.0
  0
VERTEX
  5
8B
330
80
100
AcDbEntity
  8
Furniture
 62
   250
370
     9
100
AcDbVertex
100
AcDb2dVertex
 10
55.46707084116796
 20
-84.34334443420929
 30
0.0
  0
VERTEX
  5
8C
330
80
100
AcDbEntity
  8
Furniture
 62
   250
370
     9
100
AcDbVertex
100
AcDb2dVertex
 10
55.46707084116796
 20
-84.31785072761845
 30
0.0
  0
VERTEX
  5
8D
330
80
100
AcDbEntity
  8
Furniture
 62
   250
370
     9
100
AcDbVertex
100
AcDb2dVertex
 10
55.45621879038942
 20
-84.30510387432304
 30
0.0
  0
VERTEX
  5
8E
330
80
100
AcDbEntity
  8
Furniture
 62
   250
370
     9
100
AcDbVertex
100
AcDb2dVertex
 10
55.45621879038942
 20
-84.27978242250643
 30
0.0
  0
VERTEX
  5
8F
330
80
100
AcDbEntity
  8
Furniture
 62
   250
370
     9
100
AcDbVertex
100
AcDb2dVertex
 10
55.45621879038942
 20
-84.26703556921102
 30
0.0
  0
VERTEX
  5
90
330
80
100
AcDbEntity
  8
Furniture
 62
   250
370
     9
100
AcDbVertex
100
AcDb2dVertex
 10
55.44536673961088
 20
-84.24136960784592
 30
0.0
  0
VERTEX
  5
91
330
80
100
AcDbEntity
  8
Furniture
 62
   250
370
     9
100
AcDbVertex
100
AcDb2dVertex
 10
55.44536673961088
 20
-84.22879500932475
 30
0.0
  0
SEQEND
  5
92
330
80
100
AcDbEntity
  8
Furniture
370
     9
  0
SPLINE
  5
93
330
52
100
AcDbEntity
  8
Furniture
 62
   250
370
     9
100
AcDbSpline
210
0.0
220
0.0
230
1.0
 70
     8
 71
     3
 72
    14
 73
    10
 74
     0
 42
0.000000001
 43
0.0000000001
 40
0.0
 40
0.0
 40
0.0
 40
0.0
 40
1.0
 40
1.0
 40
1.0
 40
2.0
 40
2.0
 40
2.0
 40
3.0
 40
3.0
 40
3.0
 40
3.0
 10
55.51874727344671
 20
-88.60492754946335
 30
0.0
 10
59.13144665405394
 20
-87.99325084605724
 30
0.0
 10
62.7684339578322
 20
-88.63128252992551
 30
0.0
 10
62.7684339578322
 20
-88.53275279904737
 30
0.0
 10
62.7684339578322
 20
-88.53275279904737
 30
0.0
 10
62.7684339578322
 20
-87.71712644291447
 30
0.0
 10
62.7684339578322
 20
-87.71712644291447
 30
0.0
 10
62.7684339578322
 20
-87.71712644291447
 30
0.0
 10
62.7684339578322
 20
-84.23792451236066
 30
0.0
 10
62.7684339578322
 20
-84.23792451236066
 30
0.0
  0
SPLINE
  5
94
330
52
100
AcDbEntity
  8
Furniture
 62
   250
370
     9
100
AcDbSpline
210
0.0
220
0.0
230
1.0
 70
     8
 71
     3
 72
     8
 73
     4
 74
     0
 42
0.000000001
 43
0.0000000001
 40
0.0
 40
0.0
 40
0.0
 40
0.0
 40
1.0
 40
1.0
 40
1.0
 40
1.0
 10
62.50591768185616
 20
-83.86034204717729
 30
0.0
 10
62.22944876916486
 20
-84.90162215759404
 30
0.0
 10
62.37310925089978
 20
-88.04251571149633
 30
0.0
 10
62.60341388408873
 20
-88.53275279904737
 30
0.0
  0
SPLINE
  5
95
330
52
100
AcDbEntity
  8
Furniture
 62
   250
370
     9
100
AcDbSpline
210
0.0
220
0.0
230
1.0
 70
     8
 71
     3
 72
     8
 73
     4
 74
     0
 42
0.000000001
 43
0.0000000001
 40
0.0
 40
0.0
 40
0.0
 40
0.0
 40
1.0
 40
1.0
 40
1.0
 40
1.0
 10
55.67446558938
 20
-88.5532511171846
 30
0.0
 10
56.02552081932696
 20
-88.00754799232104
 30
0.0
 10
55.98142359711576
 20
-85.08765731379753
 30
0.0
 10
55.80365667007686
 20
-83.96524520470313
 30
0.0
  0
POLYLINE
  5
96
330
52
100
AcDbEntity
  8
Furniture
 62
   250
370
     9
100
AcDb2dPolyline
 66
     1
 10
0.0
 20
0.0
 30
0.0
  0
VERTEX
  5
97
330
96
100
AcDbEntity
  8
Furniture
 62
   250
370
     9
100
AcDbVertex
100
AcDb2dVertex
 10
62.43443195053723
 20
-84.44531926057271
 30
0.0
  0
VERTEX
  5
98
330
96
100
AcDbEntity
  8
Furniture
 62
   250
370
     9
100
AcDbVertex
100
AcDb2dVertex
 10
62.7684339578322
 20
-84.44531926057271
 30
0.0
  0
SEQEND
  5
99
330
96
100
AcDbEntity
  8
Furniture
370
     9
  0
POLYLINE
  5
9A
330
52
100
AcDbEntity
  8
Furniture
 62
   250
370
     9
100
AcDb2dPolyline
 66
     1
 10
0.0
 20
0.0
 30
0.0
  0
VERTEX
  5
9B
330
9A
100
AcDbEntity
  8
Furniture
 62
   250
370
     9
100
AcDbVertex
100
AcDb2dVertex
 10
62.47887368229695
 20
-88.10297713726246
 30
0.0
  0
VERTEX
  5
14E
330
9A
100
AcDbEntity
  8
0
100
AcDbVertex
100
AcDb2dVertex
 10
62.47887368229695
 20
-88.10297713726246
 30
0.0
  0
SEQEND
  5
9C
330
9A
100
AcDbEntity
  8
Furniture
370
     9
  0
POLYLINE
  5
9D
330
52
100
AcDbEntity
  8
Furniture
 62
   250
370
     9
100
AcDb2dPolyline
 66
     1
 10
0.0
 20
0.0
 30
0.0
  0
VERTEX
  5
9E
330
9D
100
AcDbEntity
  8
Furniture
 62
   250
370
     9
100
AcDbVertex
100
AcDb2dVertex
 10
62.78996580461501
 20
-88.09040253874128
 30
0.0
  0
VERTEX
  5
14F
330
9D
100
AcDbEntity
  8
0
100
AcDbVertex
100
AcDb2dVertex
 10
62.78996580461501
 20
-88.09040253874128
 30
0.0
  0
SEQEND
  5
9F
330
9D
100
AcDbEntity
  8
Furniture
370
     9
  0
POLYLINE
  5
A0
330
52
100
AcDbEntity
  8
Furniture
 62
   250
370
     9
100
AcDb2dPolyline
 66
     1
 10
0.0
 20
0.0
 30
0.0
  0
VERTEX
  5
A1
330
A0
100
AcDbEntity
  8
Furniture
 62
   250
370
     9
100
AcDbVertex
100
AcDb2dVertex
 10
62.72416448084674
 20
-87.88938121717697
 30
0.0
  0
VERTEX
  5
A2
330
A0
100
AcDbEntity
  8
Furniture
 62
   250
370
     9
100
AcDbVertex
100
AcDb2dVertex
 10
62.47887368229695
 20
-87.88300779052924
 30
0.0
  0
SEQEND
  5
A3
330
A0
100
AcDbEntity
  8
Furniture
370
     9
  0
POLYLINE
  5
A4
330
52
100
AcDbEntity
  8
Furniture
 62
   250
370
     9
100
AcDb2dPolyline
 66
     1
 10
0.0
 20
0.0
 30
0.0
  0
VERTEX
  5
A5
330
A4
100
AcDbEntity
  8
Furniture
 62
   250
370
     9
100
AcDbVertex
100
AcDb2dVertex
 10
55.83018390531329
 20
-87.88300779052924
 30
0.0
  0
VERTEX
  5
A6
330
A4
100
AcDbEntity
  8
Furniture
 62
   250
370
     9
100
AcDbVertex
100
AcDb2dVertex
 10
55.51874727344671
 20
-87.88300779052924
 30
0.0
  0
SEQEND
  5
A7
330
A4
100
AcDbEntity
  8
Furniture
370
     9
  0
SPLINE
  5
A8
330
52
100
AcDbEntity
  8
Furniture
 62
   250
370
     9
100
AcDbSpline
210
0.0
220
0.0
230
1.0
 70
     8
 71
     3
 72
    17
 73
    13
 74
     0
 42
0.000000001
 43
0.0000000001
 40
0.0
 40
0.0
 40
0.0
 40
0.0
 40
1.0
 40
1.0
 40
1.0
 40
2.0
 40
2.0
 40
2.0
 40
3.0
 40
3.0
 40
3.0
 40
4.0
 40
4.0
 40
4.0
 40
4.0
 10
63.05747746904466
 20
-83.39008651344068
 30
0.0
 10
63.05747746904466
 20
-83.39008651344068
 30
0.0
 10
63.30001219120624
 20
-83.43332246178055
 30
0.0
 10
63.62953557437039
 20
-81.36075301785426
 30
0.0
 10
63.69103052878211
 20
-80.97386879486071
 30
0.0
 10
63.64348821108566
 20
-81.20400117327539
 30
0.0
 10
63.59852971500314
 20
-80.96077743201675
 30
0.0
 10
63.53290064600914
 20
-80.60593259703601
 30
0.0
 10
63.09692381235077
 20
-80.34806719996508
 30
0.0
 10
62.92053492350598
 20
-80.6803466595174
 30
0.0
 10
62.72898761452609
 20
-81.0413926663716
 30
0.0
 10
62.00913491288313
 20
-80.97283526621513
 30
0.0
 10
61.37041420991781
 20
-82.47816973849504
 30
0.0
  0
SPLINE
  5
A9
330
52
100
AcDbEntity
  8
Furniture
 62
   250
370
     9
100
AcDbSpline
210
0.0
220
0.0
230
1.0
 70
     9
 71
     3
 72
    41
 73
    37
 74
     0
 42
0.000000001
 43
0.0000000001
 40
0.0
 40
0.0
 40
0.0
 40
0.0
 40
1.0
 40
1.0
 40
1.0
 40
2.0
 40
2.0
 40
2.0
 40
3.0
 40
3.0
 40
3.0
 40
4.0
 40
4.0
 40
4.0
 40
5.0
 40
5.0
 40
5.0
 40
6.0
 40
6.0
 40
6.0
 40
7.0
 40
7.0
 40
7.0
 40
8.0
 40
8.0
 40
8.0
 40
9.0
 40
9.0
 40
9.0
 40
10.0
 40
10.0
 40
10.0
 40
11.0
 40
11.0
 40
11.0
 40
12.0
 40
12.0
 40
12.0
 40
12.0
 10
54.51450193949638
 20
-83.93647865740129
 30
0.0
 10
54.2342434217713
 20
-83.58249509629187
 30
0.0
 10
54.9787285561338
 20
-83.58042803900074
 30
0.0
 10
55.18336722795763
 20
-83.40472816925299
 30
0.0
 10
55.27449000354248
 20
-83.32635224696355
 30
0.0
 10
55.78401962581094
 20
-82.78667803919917
 30
0.0
 10
56.0799533279939
 20
-82.62975393984604
 30
0.0
 10
56.77827418285405
 20
-82.25854490131037
 30
0.0
 10
57.35463865753634
 20
-82.19653318257588
 30
0.0
 10
58.1406371924961
 20
-82.16776663527403
 30
0.0
 10
58.92405190584191
 20
-82.13917234274646
 30
0.0
 10
59.79600557315864
 20
-82.12676999899956
 30
0.0
 10
60.57166882166264
 20
-82.16552732320861
 30
0.0
 10
61.31460366305677
 20
-82.2032511187721
 30
0.0
 10
62.00999618675445
 20
-82.4719685666216
 30
0.0
 10
62.62649602383991
 20
-82.79442950404098
 30
0.0
 10
63.03956297252136
 20
-83.01060924574041
 30
0.0
 10
63.36426322200615
 20
-83.52392847304264
 30
0.0
 10
63.46658255791808
 20
-83.60385468830044
 30
0.0
 10
63.58147649235116
 20
-83.69359942569118
 30
0.0
 10
64.00763480387657
 20
-83.95180933231065
 30
0.0
 10
63.9854139379967
 20
-84.03741995511913
 30
0.0
 10
63.89980331518824
 20
-84.29683564515844
 30
0.0
 10
62.17053763636709
 20
-84.59655895237517
 30
0.0
 10
61.49392088306402
 20
-84.64754636555687
 30
0.0
 10
60.68587373699867
 20
-84.70766328177447
 30
0.0
 10
59.91658391514238
 20
-84.6198133469006
 30
0.0
 10
59.10784774997998
 20
-84.6198133469006
 30
0.0
 10
58.28085257874576
 20
-84.6198133469006
 30
0.0
 10
57.46591524170991
 20
-84.63169892632471
 30
0.0
 10
56.63788654183012
 20
-84.63169892632471
 30
0.0
 10
56.17899982319483
 20
-84.63169892632471
 30
0.0
 10
55.46879338891058
 20
-84.66477184298311
 30
0.0
 10
54.93101398366309
 20
-84.47546384606864
 30
0.0
 10
54.72396374499957
 20
-84.4026000765556
 30
0.0
 10
54.51450193949638
 20
-83.93647865740129
 30
0.0
 10
54.51450193949638
 20
-83.93647865740129
 30
0.0
  0
POLYLINE
  5
AA
330
52
100
AcDbEntity
  8
Furniture
 62
   250
370
     9
100
AcDb2dPolyline
 66
     1
 10
0.0
 20
0.0
 30
0.0
  0
VERTEX
  5
AB
330
AA
100
AcDbEntity
  8
Furniture
 62
   250
370
     9
100
AcDbVertex
100
AcDb2dVertex
 10
54.9787285561338
 20
-90.97050236441015
 30
0.0
  0
VERTEX
  5
AC
330
AA
100
AcDbEntity
  8
Furniture
 62
   250
370
     9
100
AcDbVertex
100
AcDb2dVertex
 10
54.9787285561338
 20
-84.50268010040211
 30
0.0
  0
SEQEND
  5
AD
330
AA
100
AcDbEntity
  8
Furniture
370
     9
  0
SPLINE
  5
AE
330
52
100
AcDbEntity
  8
Furniture
 62
   250
370
     9
100
AcDbSpline
210
0.0
220
0.0
230
1.0
 70
     8
 71
     3
 72
    20
 73
    16
 74
     0
 42
0.000000001
 43
0.0000000001
 40
0.0
 40
0.0
 40
0.0
 40
0.0
 40
1.0
 40
1.0
 40
1.0
 40
2.0
 40
2.0
 40
2.0
 40
3.0
 40
3.0
 40
3.0
 40
4.0
 40
4.0
 40
4.0
 40
5.0
 40
5.0
 40
5.0
 40
5.0
 10
54.9787285561338
 20
-88.04165443762501
 30
0.0
 10
54.80337319593457
 20
-88.04458276878746
 30
0.0
 10
54.43371445036727
 20
-87.96396753443262
 30
0.0
 10
54.26576604546134
 20
-87.8988552297614
 30
0.0
 10
54.09058294003639
 20
-87.83081459392771
 30
0.0
 10
53.56193303782479
 20
-87.43101126286447
 30
0.0
 10
53.56193303782479
 20
-87.43101126286447
 30
0.0
 10
53.45496282300779
 20
-87.11578502596411
 30
0.0
 10
53.81549206553918
 20
-86.79521889106162
 30
0.0
 10
54.05888806157208
 20
-86.42142603091199
 30
0.0
 10
54.33794079587732
 20
-85.99320066209545
 30
0.0
 10
54.52914359530868
 20
-85.79062904756275
 30
0.0
 10
54.84040797240101
 20
-85.70312362223742
 30
0.0
 10
54.90069714339288
 20
-85.68624265435969
 30
0.0
 10
54.91464978010814
 20
-85.69330510010445
 30
0.0
 10
54.9787285561338
 20
-85.68934324029642
 30
0.0
  0
ENDBLK
  5
55
330
52
100
AcDbEntity
  8
0
100
AcDbBlockEnd
  0
BLOCK
  5
B6
330
B4
100
AcDbEntity
  8
0
100
AcDbBlockBegin
  2
block 8
 70
     0
 10
0.0
 20
0.0
 30
0.0
  3
block 8
  1

  0
SPLINE
  5
B8
330
B4
100
AcDbEntity
  8
Furniture
 62
   250
370
     9
100
AcDbSpline
210
0.0
220
0.0
230
1.0
 70
     9
 71
     3
 72
    17
 73
    13
 74
     0
 42
0.000000001
 43
0.0000000001
 40
0.0
 40
0.0
 40
0.0
 40
0.0
 40
1.0
 40
1.0
 40
1.0
 40
2.0
 40
2.0
 40
2.0
 40
3.0
 40
3.0
 40
3.0
 40
4.0
 40
4.0
 40
4.0
 40
4.0
 10
109.7726277394839
 20
-89.92767196102503
 30
0.0
 10
109.7726277394839
 20
-90.07598332166503
 30
0.0
 10
109.8942396101132
 20
-90.196044899326
 30
0.0
 10
110.0444457732701
 20
-90.196044899326
 30
0.0
 10
110.194651936427
 20
-90.196044899326
 30
0.0
 10
110.3166083166049
 20
-90.07598332166503
 30
0.0
 10
110.3166083166049
 20
-89.9278442157993
 30
0.0
 10
110.3166083166049
 20
-89.78004961948206
 30
0.0
 10
110.194651936427
 20
-89.6596435322726
 30
0.0
 10
110.0451347923672
 20
-89.6596435322726
 30
0.0
 10
109.8949286292103
 20
-89.6596435322726
 30
0.0
 10
109.7726277394839
 20
-89.77953285515928
 30
0.0
 10
109.7726277394839
 20
-89.92767196102503
 30
0.0
  0
SPLINE
  5
B9
330
B4
100
AcDbEntity
  8
Furniture
 62
   250
370
     9
100
AcDbSpline
210
0.0
220
0.0
230
1.0
 70
     9
 71
     3
 72
    17
 73
    13
 74
     0
 42
0.000000001
 43
0.0000000001
 40
0.0
 40
0.0
 40
0.0
 40
0.0
 40
1.0
 40
1.0
 40
1.0
 40
2.0
 40
2.0
 40
2.0
 40
3.0
 40
3.0
 40
3.0
 40
4.0
 40
4.0
 40
4.0
 40
4.0
 10
119.1615464654353
 20
-89.92767196102503
 30
0.0
 10
119.1615464654353
 20
-90.07598332166503
 30
0.0
 10
119.2831583360646
 20
-90.196044899326
 30
0.0
 10
119.43370900877
 20
-90.196044899326
 30
0.0
 10
119.5839151719269
 20
-90.196044899326
 30
0.0
 10
119.7058715521048
 20
-90.07598332166503
 30
0.0
 10
119.7058715521048
 20
-89.9278442157993
 30
0.0
 10
119.7058715521048
 20
-89.78004961948206
 30
0.0
 10
119.5839151719269
 20
-89.6596435322726
 30
0.0
 10
119.43370900877
 20
-89.6596435322726
 30
0.0
 10
119.2841918647102
 20
-89.6596435322726
 30
0.0
 10
119.1615464654353
 20
-89.77953285515928
 30
0.0
 10
119.1615464654353
 20
-89.92767196102503
 30
0.0
  0
SPLINE
  5
BA
330
B4
100
AcDbEntity
  8
Furniture
 62
   250
370
     9
100
AcDbSpline
210
0.0
220
0.0
230
1.0
 70
     8
 71
     3
 72
    14
 73
    10
 74
     0
 42
0.000000001
 43
0.0000000001
 40
0.0
 40
0.0
 40
0.0
 40
0.0
 40
1.0
 40
1.0
 40
1.0
 40
2.0
 40
2.0
 40
2.0
 40
3.0
 40
3.0
 40
3.0
 40
3.0
 10
110.2373711204441
 20
-82.2509656912428
 30
0.0
 10
110.2859469667861
 20
-82.20256209967507
 30
0.0
 10
110.3166083166049
 20
-82.13555499248695
 30
0.0
 10
110.3166083166049
 20
-82.06148543955407
 30
0.0
 10
110.3166083166049
 20
-81.91334633368834
 30
0.0
 10
110.194651936427
 20
-81.79345701080164
 30
0.0
 10
110.0451347923672
 20
-81.79311250125312
 30
0.0
 10
109.9242119408349
 20
-81.79311250125312
 30
0.0
 10
109.821892604923
 20
-81.87045489489698
 30
0.0
 10
109.7860636118764
 20
-81.97776961926249
 30
0.0
  0
POLYLINE
  5
BB
330
B4
100
AcDbEntity
  8
Furniture
 62
   250
370
     9
100
AcDb2dPolyline
 66
     1
 10
0.0
 20
0.0
 30
0.0
  0
VERTEX
  5
BC
330
BB
100
AcDbEntity
  8
Furniture
 62
   250
370
     9
100
AcDbVertex
100
AcDb2dVertex
 10
109.7726277394839
 20
-82.06148543955407
 30
0.0
  0
VERTEX
  5
150
330
BB
100
AcDbEntity
  8
0
100
AcDbVertex
100
AcDb2dVertex
 10
109.7726277394839
 20
-82.06148543955407
 30
0.0
  0
SEQEND
  5
BD
330
BB
100
AcDbEntity
  8
Furniture
370
     9
  0
SPLINE
  5
BE
330
B4
100
AcDbEntity
  8
Furniture
 62
   250
370
     9
100
AcDbSpline
210
0.0
220
0.0
230
1.0
 70
     8
 71
     3
 72
    11
 73
     7
 74
     0
 42
0.000000001
 43
0.0000000001
 40
0.0
 40
0.0
 40
0.0
 40
0.0
 40
1.0
 40
1.0
 40
1.0
 40
2.0
 40
2.0
 40
2.0
 40
2.0
 10
119.6845119600962
 20
-81.95727130112528
 30
0.0
 10
119.6428263047247
 20
-81.86080862753827
 30
0.0
 10
119.5463636311377
 20
-81.79345701080164
 30
0.0
 10
119.43370900877
 20
-81.79311250125312
 30
0.0
 10
119.2841918647102
 20
-81.79311250125312
 30
0.0
 10
119.1615464654353
 20
-81.91334633368834
 30
0.0
 10
119.1615464654353
 20
-82.06148543955407
 30
0.0
  0
SPLINE
  5
BF
330
B4
100
AcDbEntity
  8
Furniture
 62
   250
370
     9
100
AcDbSpline
210
0.0
220
0.0
230
1.0
 70
     8
 71
     3
 72
     8
 73
     4
 74
     0
 42
0.000000001
 43
0.0000000001
 40
0.0
 40
0.0
 40
0.0
 40
0.0
 40
1.0
 40
1.0
 40
1.0
 40
1.0
 10
119.1615464654353
 20
-82.06148543955407
 30
0.0
 10
119.1615464654353
 20
-82.10696069995938
 30
0.0
 10
119.1732597900851
 20
-82.14985213875072
 30
0.0
 10
119.1939303629967
 20
-82.18757593431423
 30
0.0
  0
SPLINE
  5
C0
330
B4
100
AcDbEntity
  8
Furniture
 62
   250
370
     9
100
AcDbSpline
210
0.0
220
0.0
230
1.0
 70
     8
 71
     3
 72
     8
 73
     4
 74
     0
 42
0.000000001
 43
0.0000000001
 40
0.0
 40
0.0
 40
0.0
 40
0.0
 40
1.0
 40
1.0
 40
1.0
 40
1.0
 10
111.0920993103346
 20
-83.64674612709178
 30
0.0
 10
111.104157144533
 20
-83.68980982065741
 30
0.0
 10
111.1148369405372
 20
-83.73511282628845
 30
0.0
 10
111.1138034118917
 20
-83.74286429113025
 30
0.0
  0
SPLINE
  5
C1
330
B4
100
AcDbEntity
  8
Furniture
 62
   250
370
     9
100
AcDbSpline
210
0.0
220
0.0
230
1.0
 70
     8
 71
     3
 72
    32
 73
    28
 74
     0
 42
0.000000001
 43
0.0000000001
 40
0.0
 40
0.0
 40
0.0
 40
0.0
 40
1.0
 40
1.0
 40
1.0
 40
2.0
 40
2.0
 40
2.0
 40
3.0
 40
3.0
 40
3.0
 40
4.0
 40
4.0
 40
4.0
 40
5.0
 40
5.0
 40
5.0
 40
6.0
 40
6.0
 40
6.0
 40
7.0
 40
7.0
 40
7.0
 40
8.0
 40
8.0
 40
8.0
 40
9.0
 40
9.0
 40
9.0
 40
9.0
 10
118.7491685358509
 20
-82.66334362082721
 30
0.0
 10
118.9228013483075
 20
-82.42304821073105
 30
0.0
 10
119.1432874593635
 20
-82.03581947818896
 30
0.0
 10
119.2390611138534
 20
-81.82446287016889
 30
0.0
 10
119.351026717124
 20
-81.58072236458746
 30
0.0
 10
119.7003593993284
 20
-81.43378904214156
 30
0.0
 10
119.7427340737969
 20
-81.1599039510642
 30
0.0
 10
119.8019897161432
 20
-80.7731919828449
 30
0.0
 10
118.6237670601878
 20
-80.89445934392569
 30
0.0
 10
118.2782239830172
 20
-80.83554821112793
 30
0.0
 10
117.7432006541579
 20
-80.74442543554306
 30
0.0
 10
116.352071097214
 20
-80.65071883834427
 30
0.0
 10
116.0378783889593
 20
-80.60748289000438
 30
0.0
 10
115.7188625470251
 20
-80.56441919643877
 30
0.0
 10
115.2455064273518
 20
-80.52600638177823
 30
0.0
 10
114.8944511974048
 20
-80.52652314610101
 30
0.0
 10
114.0820976819829
 20
-80.52772892952084
 30
0.0
 10
113.5784247220394
 20
-80.60403779451913
 30
0.0
 10
113.2308145875777
 20
-80.6331488513695
 30
0.0
 10
112.4374090973246
 20
-80.69912242991202
 30
0.0
 10
111.7721611591229
 20
-80.76630179187439
 30
0.0
 10
111.0983004822081
 20
-80.93183862994065
 30
0.0
 10
110.5405395231461
 20
-81.06912568502785
 30
0.0
 10
109.6599731171162
 20
-80.72909476063371
 30
0.0
 10
109.7908867455557
 20
-81.31682805041732
 30
0.0
 10
109.8618557125519
 20
-81.64152829990213
 30
0.0
 10
110.277334228073
 20
-81.69165443921251
 30
0.0
 10
110.4609578174368
 20
-82.3341647472116
 30
0.0
  0
SPLINE
  5
C2
330
B4
100
AcDbEntity
  8
Furniture
 62
   250
370
     9
100
AcDbSpline
210
0.0
220
0.0
230
1.0
 70
     8
 71
     3
 72
    20
 73
    16
 74
     0
 42
0.000000001
 43
0.0000000001
 40
0.0
 40
0.0
 40
0.0
 40
0.0
 40
1.0
 40
1.0
 40
1.0
 40
2.0
 40
2.0
 40
2.0
 40
3.0
 40
3.0
 40
3.0
 40
4.0
 40
4.0
 40
4.0
 40
5.0
 40
5.0
 40
5.0
 40
5.0
 10
111.1138034118917
 20
-83.74286429113025
 30
0.0
 10
111.4066365281379
 20
-84.27892114863514
 30
0.0
 10
112.0815307336983
 20
-84.22035452538588
 30
0.0
 10
112.6330905208869
 20
-84.28908418031662
 30
0.0
 10
113.1278062325687
 20
-84.35075138950258
 30
0.0
 10
113.635268797546
 20
-84.38347979661246
 30
0.0
 10
114.1351521524558
 20
-84.39140351622853
 30
0.0
 10
114.6650078380872
 20
-84.39967174539313
 30
0.0
 10
115.2324150645078
 20
-84.39209253532558
 30
0.0
 10
115.7691609411098
 20
-84.39209253532558
 30
0.0
 10
116.2749009583444
 20
-84.39209253532558
 30
0.0
 10
116.7847750901614
 20
-84.34575600104897
 30
0.0
 10
117.2877590310079
 20
-84.28615584915416
 30
0.0
 10
117.9216566002939
 20
-84.21122502234998
 30
0.0
 10
117.9826347903828
 20
-84.31630043465009
 30
0.0
 10
118.3684854847308
 20
-83.80091415005672
 30
0.0
  0
SPLINE
  5
C3
330
B4
100
AcDbEntity
  8
Furniture
 62
   250
370
     9
100
AcDbSpline
210
0.0
220
0.0
230
1.0
 70
     8
 71
     3
 72
    26
 73
    22
 74
     0
 42
0.000000001
 43
0.0000000001
 40
0.0
 40
0.0
 40
0.0
 40
0.0
 40
1.0
 40
1.0
 40
1.0
 40
2.0
 40
2.0
 40
2.0
 40
3.0
 40
3.0
 40
3.0
 40
4.0
 40
4.0
 40
4.0
 40
5.0
 40
5.0
 40
5.0
 40
6.0
 40
6.0
 40
6.0
 40
7.0
 40
7.0
 40
7.0
 40
7.0
 10
109.7864081214249
 20
-81.97776961926249
 30
0.0
 10
109.5786688636643
 20
-81.85788029637581
 30
0.0
 10
109.3354451224057
 20
-81.68338621004791
 30
0.0
 10
109.2052205130633
 20
-81.62464733202439
 30
0.0
 10
109.0715508082356
 20
-81.56435816103252
 30
0.0
 10
108.9585516763194
 20
-81.46014402260371
 30
0.0
 10
108.7986992458038
 20
-81.48270939803209
 30
0.0
 10
108.5198187662728
 20
-82.12814803719366
 30
0.0
 10
108.4016519911287
 20
-82.75911727531717
 30
0.0
 10
108.3069118652844
 20
-83.44159069094516
 30
0.0
 10
108.1940849881424
 20
-84.25635577320674
 30
0.0
 10
108.3591050618859
 20
-85.03219127648501
 30
0.0
 10
108.3591050618859
 20
-85.84730086829512
 30
0.0
 10
108.3591050618859
 20
-86.68187524959689
 30
0.0
 10
108.3360229221347
 20
-87.50370277760325
 30
0.0
 10
108.3360229221347
 20
-88.33879392322781
 30
0.0
 10
108.3360229221347
 20
-88.8012979921226
 30
0.0
 10
108.1978745931762
 20
-89.71734888165052
 30
0.0
 10
108.6279947645097
 20
-90.05979137288436
 30
0.0
 10
108.6457370062587
 20
-90.07391626437389
 30
0.0
 10
108.6622734645879
 20
-90.08494056992669
 30
0.0
 10
108.6791544324656
 20
-90.09699840412507
 30
0.0
  0
POLYLINE
  5
C4
330
B4
100
AcDbEntity
  8
Furniture
 62
   250
370
     9
100
AcDb2dPolyline
 66
     1
 10
0.0
 20
0.0
 30
0.0
  0
VERTEX
  5
C5
330
C4
100
AcDbEntity
  8
Furniture
 62
   250
370
     9
100
AcDbVertex
100
AcDb2dVertex
 10
110.0444457732701
 20
-82.09438610143822
 30
0.0
  0
VERTEX
  5
151
330
C4
100
AcDbEntity
  8
0
100
AcDbVertex
100
AcDb2dVertex
 10
110.0444457732701
 20
-82.09438610143822
 30
0.0
  0
SEQEND
  5
C6
330
C4
100
AcDbEntity
  8
Furniture
370
     9
  0
SPLINE
  5
C7
330
B4
100
AcDbEntity
  8
Furniture
 62
   250
370
     9
100
AcDbSpline
210
0.0
220
0.0
230
1.0
 70
     8
 71
     3
 72
    26
 73
    22
 74
     0
 42
0.000000001
 43
0.0000000001
 40
0.0
 40
0.0
 40
0.0
 40
0.0
 40
1.0
 40
1.0
 40
1.0
 40
2.0
 40
2.0
 40
2.0
 40
3.0
 40
3.0
 40
3.0
 40
4.0
 40
4.0
 40
4.0
 40
5.0
 40
5.0
 40
5.0
 40
6.0
 40
6.0
 40
6.0
 40
7.0
 40
7.0
 40
7.0
 40
7.0
 10
108.6340236816088
 20
-90.05427922010795
 30
0.0
 10
108.9864569497499
 20
-90.39172632288819
 30
0.0
 10
109.6896009382894
 20
-89.76299639683009
 30
0.0
 10
110.0248087290042
 20
-89.64104001665225
 30
0.0
 10
110.2194566239208
 20
-89.5700710496561
 30
0.0
 10
110.3858547358584
 20
-89.5397542093859
 30
0.0
 10
110.5777465543868
 20
-89.54044322848295
 30
0.0
 10
110.9170884596839
 20
-89.54268254054836
 30
0.0
 10
110.8905612244475
 20
-89.42072616037052
 30
0.0
 10
111.0156181905621
 20
-89.12737627980149
 30
0.0
 10
111.3353230515932
 20
-88.38047957859933
 30
0.0
 10
111.2405829257488
 20
-87.60016545119023
 30
0.0
 10
111.2936373962217
 20
-86.80762123480851
 30
0.0
 10
111.3466918666946
 20
-86.01714407571794
 30
0.0
 10
111.283302109766
 20
-85.27231443180692
 30
0.0
 10
111.2099215759301
 20
-84.49027775665522
 30
0.0
 10
111.1399861375796
 20
-83.74096948861337
 30
0.0
 10
111.0452460117352
 20
-83.18424205819701
 30
0.0
 10
110.5829141976147
 20
-82.53708087129281
 30
0.0
 10
110.4309854867151
 20
-82.32382946075585
 30
0.0
 10
110.3503702523603
 20
-82.31108260746042
 30
0.0
 10
110.2380601395412
 20
-82.24993216259724
 30
0.0
  0
SPLINE
  5
C8
330
B4
100
AcDbEntity
  8
Furniture
 62
   250
370
     9
100
AcDbSpline
210
0.0
220
0.0
230
1.0
 70
     8
 71
     3
 72
    26
 73
    22
 74
     0
 42
0.000000001
 43
0.0000000001
 40
0.0
 40
0.0
 40
0.0
 40
0.0
 40
1.0
 40
1.0
 40
1.0
 40
2.0
 40
2.0
 40
2.0
 40
3.0
 40
3.0
 40
3.0
 40
4.0
 40
4.0
 40
4.0
 40
5.0
 40
5.0
 40
5.0
 40
6.0
 40
6.0
 40
6.0
 40
7.0
 40
7.0
 40
7.0
 40
7.0
 10
119.715862329012
 20
-81.94435219305558
 30
0.0
 10
119.9373819687135
 20
-81.82980276817103
 30
0.0
 10
120.2016207924322
 20
-81.66771102559001
 30
0.0
 10
120.3297783444835
 20
-81.60966116666356
 30
0.0
 10
120.4631035397627
 20
-81.54902748612316
 30
0.0
 10
120.5767916907759
 20
-81.44429658337157
 30
0.0
 10
120.7366441212915
 20
-81.4666897040257
 30
0.0
 10
121.0146633269512
 20
-82.11591794822103
 30
0.0
 10
121.1335191211923
 20
-82.75050453660403
 30
0.0
 10
121.2282592470367
 20
-83.43625079294303
 30
0.0
 10
121.3405693598558
 20
-84.25514998978691
 30
0.0
 10
121.1762383052094
 20
-85.03511960764747
 30
0.0
 10
121.1762383052094
 20
-85.85470782358841
 30
0.0
 10
121.1762383052094
 20
-86.69358857424674
 30
0.0
 10
121.1986314258635
 20
-87.51989472638392
 30
0.0
 10
121.1986314258635
 20
-88.35894773181651
 30
0.0
 10
121.1986314258635
 20
-88.82420787709952
 30
0.0
 10
121.336779754822
 20
-89.74508190030679
 30
0.0
 10
120.9068318382628
 20
-90.08924693928324
 30
0.0
 10
120.8896063608366
 20
-90.10354408554702
 30
0.0
 10
120.8720363738618
 20
-90.1142238815513
 30
0.0
 10
120.8561889346297
 20
-90.12662622529822
 30
0.0
  0
SPLINE
  5
C9
330
B4
100
AcDbEntity
  8
Furniture
 62
   250
370
     9
100
AcDbSpline
210
0.0
220
0.0
230
1.0
 70
     8
 71
     3
 72
    29
 73
    25
 74
     0
 42
0.000000001
 43
0.0000000001
 40
0.0
 40
0.0
 40
0.0
 40
0.0
 40
1.0
 40
1.0
 40
1.0
 40
2.0
 40
2.0
 40
2.0
 40
3.0
 40
3.0
 40
3.0
 40
4.0
 40
4.0
 40
4.0
 40
5.0
 40
5.0
 40
5.0
 40
6.0
 40
6.0
 40
6.0
 40
7.0
 40
7.0
 40
7.0
 40
8.0
 40
8.0
 40
8.0
 40
8.0
 10
120.9009751759379
 20
-90.08339027695832
 30
0.0
 10
120.5485419077969
 20
-90.42273218225544
 30
0.0
 10
119.8453979192574
 20
-89.79072941548635
 30
0.0
 10
119.5095011094455
 20
-89.66808401621145
 30
0.0
 10
119.3148532145289
 20
-89.59694279444105
 30
0.0
 10
119.1494886312369
 20
-89.56645369939659
 30
0.0
 10
118.9575968127085
 20
-89.5673149732679
 30
0.0
 10
118.6179103978629
 20
-89.56938203055903
 30
0.0
 10
118.6444376330993
 20
-89.44708114083267
 30
0.0
 10
118.5193806669847
 20
-89.15200871252102
 30
0.0
 10
118.2000203155021
 20
-88.40097789673656
 30
0.0
 10
118.2947604413464
 20
-87.61652965474517
 30
0.0
 10
118.2417059708736
 20
-86.81985132378114
 30
0.0
 10
118.1886515004007
 20
-86.02541230488254
 30
0.0
 10
118.2520412573293
 20
-85.27696531071201
 30
0.0
 10
118.3250772816166
 20
-84.49027775665522
 30
0.0
 10
118.3485039309163
 20
-84.23344588822983
 30
0.0
 10
118.3640068606
 20
-83.99573429974759
 30
0.0
 10
118.3919121340305
 20
-83.76801348817258
 30
0.0
 10
118.4456556236004
 20
-83.32773028515765
 30
0.0
 10
118.5483194690608
 20
-82.92517087770621
 30
0.0
 10
118.8525214004084
 20
-82.49660099934112
 30
0.0
 10
118.9851575765905
 20
-82.30918780494354
 30
0.0
 10
119.0995347467008
 20
-82.26440156363528
 30
0.0
 10
119.2028876112583
 20
-82.20256209967507
 30
0.0
  0
SPLINE
  5
CA
330
B4
100
AcDbEntity
  8
Furniture
 62
   250
370
     9
100
AcDbSpline
210
0.0
220
0.0
230
1.0
 70
     8
 71
     3
 72
    23
 73
    19
 74
     0
 42
0.000000001
 43
0.0000000001
 40
0.0
 40
0.0
 40
0.0
 40
0.0
 40
1.0
 40
1.0
 40
1.0
 40
2.0
 40
2.0
 40
2.0
 40
3.0
 40
3.0
 40
3.0
 40
4.0
 40
4.0
 40
4.0
 40
5.0
 40
5.0
 40
5.0
 40
6.0
 40
6.0
 40
6.0
 40
6.0
 10
119.1946193820937
 20
-90.05393471055944
 30
0.0
 10
119.2673108968325
 20
-90.21809351043158
 30
0.0
 10
119.7320542777926
 20
-90.57931177206004
 30
0.0
 10
119.7058715521048
 20
-90.76345212574663
 30
0.0
 10
119.6497164956952
 20
-91.16067163519595
 30
0.0
 10
116.9246459668626
 20
-90.87180037875775
 30
0.0
 10
116.3317450338511
 20
-90.82959795906344
 30
0.0
 10
115.2568752424531
 20
-90.75277232974237
 30
0.0
 10
114.9778225081479
 20
-90.75862899206729
 30
0.0
 10
113.683155624791
 20
-90.83958873597067
 30
0.0
 10
112.7819186458496
 20
-90.89608830192876
 30
0.0
 10
112.1948743751631
 20
-91.00529782881118
 30
0.0
 10
111.2884697529938
 20
-90.9510375749185
 30
0.0
 10
111.029398572503
 20
-90.93553464523486
 30
0.0
 10
109.8535874833873
 20
-91.04922279624812
 30
0.0
 10
109.7726277394839
 20
-90.73313528547643
 30
0.0
 10
109.7409328610196
 20
-90.60773380981336
 30
0.0
 10
110.1998195796549
 20
-90.21240910288092
 30
0.0
 10
110.2611422792923
 20
-90.09940997096473
 30
0.0
  0
POLYLINE
  5
CB
330
B4
100
AcDbEntity
  8
Furniture
 62
   250
370
     9
100
AcDb2dPolyline
 66
     1
 10
0.0
 20
0.0
 30
0.0
  0
VERTEX
  5
CC
330
CB
100
AcDbEntity
  8
Furniture
 62
   250
370
     9
100
AcDbVertex
100
AcDb2dVertex
 10
110.2949042150478
 20
-90.03274737332516
 30
0.0
  0
VERTEX
  5
CD
330
CB
100
AcDbEntity
  8
Furniture
 62
   250
370
     9
100
AcDbVertex
100
AcDb2dVertex
 10
110.3779310162423
 20
-89.55232880790706
 30
0.0
  0
SEQEND
  5
CE
330
CB
100
AcDbEntity
  8
Furniture
370
     9
  0
POLYLINE
  5
CF
330
B4
100
AcDbEntity
  8
Furniture
 62
   250
370
     9
100
AcDb2dPolyline
 66
     1
 10
0.0
 20
0.0
 30
0.0
  0
VERTEX
  5
D0
330
CF
100
AcDbEntity
  8
Furniture
 62
   250
370
     9
100
AcDbVertex
100
AcDb2dVertex
 10
119.1677476373087
 20
-89.98399927220885
 30
0.0
  0
VERTEX
  5
D1
330
CF
100
AcDbEntity
  8
Furniture
 62
   250
370
     9
100
AcDbVertex
100
AcDb2dVertex
 10
119.1191717909667
 20
-89.57523869288397
 30
0.0
  0
SEQEND
  5
D2
330
CF
100
AcDbEntity
  8
Furniture
370
     9
  0
POLYLINE
  5
D3
330
B4
100
AcDbEntity
  8
Furniture
 62
   250
370
     9
100
AcDb2dPolyline
 66
     1
 10
0.0
 20
0.0
 30
0.0
  0
VERTEX
  5
D4
330
D3
100
AcDbEntity
  8
Furniture
 62
   250
370
     9
100
AcDbVertex
100
AcDb2dVertex
 10
119.2028876112583
 20
-82.20256209967507
 30
0.0
  0
VERTEX
  5
D5
330
D3
100
AcDbEntity
  8
Furniture
 62
   250
370
     9
100
AcDbVertex
100
AcDb2dVertex
 10
119.6845119600962
 20
-81.95727130112528
 30
0.0
  0
SEQEND
  5
D6
330
D3
100
AcDbEntity
  8
Furniture
370
     9
  0
POLYLINE
  5
D7
330
B4
100
AcDbEntity
  8
Furniture
 62
   250
370
     9
100
AcDb2dPolyline
 66
     1
 10
0.0
 20
0.0
 30
0.0
  0
VERTEX
  5
D8
330
D7
100
AcDbEntity
  8
Furniture
 62
   250
370
     9
100
AcDbVertex
100
AcDb2dVertex
 10
109.7860636118764
 20
-81.97776961926249
 30
0.0
  0
VERTEX
  5
D9
330
D7
100
AcDbEntity
  8
Furniture
 62
   250
370
     9
100
AcDbVertex
100
AcDb2dVertex
 10
110.2373711204441
 20
-82.2509656912428
 30
0.0
  0
SEQEND
  5
DA
330
D7
100
AcDbEntity
  8
Furniture
370
     9
  0
ENDBLK
  5
B7
330
B4
100
AcDbEntity
  8
0
100
AcDbBlockEnd
  0
BLOCK
  5
E0
330
DE
100
AcDbEntity
  8
0
100
AcDbBlockBegin
  2
block 9
 70
     0
 10
0.0
 20
0.0
 30
0.0
  3
block 9
  1

  0
SPLINE
  5
E2
330
DE
100
AcDbEntity
  8
Furniture
 62
   250
370
     9
100
AcDbSpline
210
0.0
220
0.0
230
1.0
 70
     9
 71
     3
 72
    17
 73
    13
 74
     0
 42
0.000000001
 43
0.0000000001
 40
0.0
 40
0.0
 40
0.0
 40
0.0
 40
1.0
 40
1.0
 40
1.0
 40
2.0
 40
2.0
 40
2.0
 40
3.0
 40
3.0
 40
3.0
 40
4.0
 40
4.0
 40
4.0
 40
4.0
 10
138.2704575934706
 20
-89.85549721060904
 30
0.0
 10
138.2704575934706
 20
-90.00260278782922
 30
0.0
 10
138.386901820872
 20
-90.12145858207032
 30
0.0
 10
138.5298732835099
 20
-90.12145858207032
 30
0.0
 10
138.6731892556963
 20
-90.12145858207032
 30
0.0
 10
138.7892889735492
 20
-90.00260278782922
 30
0.0
 10
138.7892889735492
 20
-89.85549721060904
 30
0.0
 10
138.7892889735492
 20
-89.7087361429374
 30
0.0
 10
138.6738782747933
 20
-89.58953583914775
 30
0.0
 10
138.5298732835099
 20
-89.58953583914775
 30
0.0
 10
138.386901820872
 20
-89.58953583914775
 30
0.0
 10
138.2704575934706
 20
-89.7087361429374
 30
0.0
 10
138.2704575934706
 20
-89.85549721060904
 30
0.0
  0
SPLINE
  5
E3
330
DE
100
AcDbEntity
  8
Furniture
 62
   250
370
     9
100
AcDbSpline
210
0.0
220
0.0
230
1.0
 70
     9
 71
     3
 72
    17
 73
    13
 74
     0
 42
0.000000001
 43
0.0000000001
 40
0.0
 40
0.0
 40
0.0
 40
0.0
 40
1.0
 40
1.0
 40
1.0
 40
2.0
 40
2.0
 40
2.0
 40
3.0
 40
3.0
 40
3.0
 40
4.0
 40
4.0
 40
4.0
 40
4.0
 10
154.9328341626557
 20
-89.85549721060904
 30
0.0
 10
154.9328341626557
 20
-90.00260278782922
 30
0.0
 10
155.047900351863
 20
-90.12145858207032
 30
0.0
 10
155.1919053431465
 20
-90.12145858207032
 30
0.0
 10
155.3352213153328
 20
-90.12145858207032
 30
0.0
 10
155.4502875045402
 20
-90.00260278782922
 30
0.0
 10
155.4502875045402
 20
-89.85549721060904
 30
0.0
 10
155.4502875045402
 20
-89.7087361429374
 30
0.0
 10
155.3352213153328
 20
-89.58953583914775
 30
0.0
 10
155.1919053431465
 20
-89.58953583914775
 30
0.0
 10
155.047900351863
 20
-89.58953583914775
 30
0.0
 10
154.9328341626557
 20
-89.7087361429374
 30
0.0
 10
154.9328341626557
 20
-89.85549721060904
 30
0.0
  0
SPLINE
  5
E4
330
DE
100
AcDbEntity
  8
Furniture
 62
   250
370
     9
100
AcDbSpline
210
0.0
220
0.0
230
1.0
 70
     8
 71
     3
 72
    14
 73
    10
 74
     0
 42
0.000000001
 43
0.0000000001
 40
0.0
 40
0.0
 40
0.0
 40
0.0
 40
1.0
 40
1.0
 40
1.0
 40
2.0
 40
2.0
 40
2.0
 40
3.0
 40
3.0
 40
3.0
 40
3.0
 10
138.7682738910892
 20
-82.15674232972125
 30
0.0
 10
138.7820542730302
 20
-82.12435843215988
 30
0.0
 10
138.7892889735492
 20
-82.08835718433903
 30
0.0
 10
138.7892889735492
 20
-82.05046113400127
 30
0.0
 10
138.7892889735492
 20
-81.90370006632964
 30
0.0
 10
138.6738782747933
 20
-81.78432750776572
 30
0.0
 10
138.5298732835099
 20
-81.78432750776572
 30
0.0
 10
138.4168741515937
 20
-81.78432750776572
 30
0.0
 10
138.3193779493611
 20
-81.86011960844123
 30
0.0
 10
138.2842379754116
 20
-81.96502276596708
 30
0.0
  0
POLYLINE
  5
E5
330
DE
100
AcDbEntity
  8
Furniture
 62
   250
370
     9
100
AcDb2dPolyline
 66
     1
 10
0.0
 20
0.0
 30
0.0
  0
VERTEX
  5
E6
330
E5
100
AcDbEntity
  8
Furniture
 62
   250
370
     9
100
AcDbVertex
100
AcDb2dVertex
 10
138.2704575934706
 20
-82.05046113400127
 30
0.0
  0
VERTEX
  5
152
330
E5
100
AcDbEntity
  8
0
100
AcDbVertex
100
AcDb2dVertex
 10
138.2704575934706
 20
-82.05046113400127
 30
0.0
  0
SEQEND
  5
E7
330
E5
100
AcDbEntity
  8
Furniture
370
     9
  0
SPLINE
  5
E8
330
DE
100
AcDbEntity
  8
Furniture
 62
   250
370
     9
100
AcDbSpline
210
0.0
220
0.0
230
1.0
 70
     8
 71
     3
 72
    11
 73
     7
 74
     0
 42
0.000000001
 43
0.0000000001
 40
0.0
 40
0.0
 40
0.0
 40
0.0
 40
1.0
 40
1.0
 40
1.0
 40
2.0
 40
2.0
 40
2.0
 40
2.0
 10
155.4303059507257
 20
-81.94693601466951
 30
0.0
 10
155.3903428430968
 20
-81.85133461495384
 30
0.0
 10
155.2987033031892
 20
-81.78432750776572
 30
0.0
 10
155.1919053431465
 20
-81.78432750776572
 30
0.0
 10
155.047900351863
 20
-81.78432750776572
 30
0.0
 10
154.9328341626557
 20
-81.90318330200685
 30
0.0
 10
154.9328341626557
 20
-82.05046113400127
 30
0.0
  0
SPLINE
  5
E9
330
DE
100
AcDbEntity
  8
Furniture
 62
   250
370
     9
100
AcDbSpline
210
0.0
220
0.0
230
1.0
 70
     8
 71
     3
 72
     8
 73
     4
 74
     0
 42
0.000000001
 43
0.0000000001
 40
0.0
 40
0.0
 40
0.0
 40
0.0
 40
1.0
 40
1.0
 40
1.0
 40
1.0
 10
154.9328341626557
 20
-82.05046113400127
 30
0.0
 10
154.9328341626557
 20
-82.08163924814279
 30
0.0
 10
154.937657296335
 20
-82.11161157886445
 30
0.0
 10
154.9473035636937
 20
-82.13951685229499
 30
0.0
  0
SPLINE
  5
EA
330
DE
100
AcDbEntity
  8
Furniture
 62
   250
370
     9
100
AcDbSpline
210
0.0
220
0.0
230
1.0
 70
     8
 71
     3
 72
    23
 73
    19
 74
     0
 42
0.000000001
 43
0.0000000001
 40
0.0
 40
0.0
 40
0.0
 40
0.0
 40
1.0
 40
1.0
 40
1.0
 40
2.0
 40
2.0
 40
2.0
 40
3.0
 40
3.0
 40
3.0
 40
4.0
 40
4.0
 40
4.0
 40
5.0
 40
5.0
 40
5.0
 40
6.0
 40
6.0
 40
6.0
 40
6.0
 10
138.7269327452662
 20
-89.52941892293015
 30
0.0
 10
138.7951456358741
 20
-89.71545407913364
 30
0.0
 10
138.8237399284017
 20
-89.86118161815971
 30
0.0
 10
138.7396795985616
 20
-90.02482365370907
 30
0.0
 10
138.6804239562153
 20
-90.13713376652821
 30
0.0
 10
138.2428968295885
 20
-90.52918563274966
 30
0.0
 10
138.2739026889558
 20
-90.65355357976718
 30
0.0
 10
138.3510728278254
 20
-90.96740177847342
 30
0.0
 10
139.4717623891772
 20
-90.85440264655723
 30
0.0
 10
139.7184312259211
 20
-90.86990557624087
 30
0.0
 10
140.5828056831702
 20
-90.9234768110365
 30
0.0
 10
141.1419446804263
 20
-90.81512855802539
 30
0.0
 10
142.0004624753506
 20
-90.7589735016158
 30
0.0
 10
143.2351846972641
 20
-90.67853052203522
 30
0.0
 10
143.5004570496283
 20
-90.67284611448457
 30
0.0
 10
144.5260619755872
 20
-90.74915497948286
 30
0.0
 10
145.0507500179908
 20
-90.78791230369191
 30
0.0
 10
146.5572902736905
 20
-91.13707273112199
 30
0.0
 10
146.8139498873416
 20
-90.87180037875775
 30
0.0
  0
POLYLINE
  5
EB
330
DE
100
AcDbEntity
  8
Furniture
 62
   250
370
     9
100
AcDb2dPolyline
 66
     1
 10
0.0
 20
0.0
 30
0.0
  0
VERTEX
  5
EC
330
EB
100
AcDbEntity
  8
Furniture
 62
   250
370
     9
100
AcDbVertex
100
AcDb2dVertex
 10
139.551688604435
 20
-83.71805960363646
 30
0.0
  0
VERTEX
  5
153
330
EB
100
AcDbEntity
  8
0
100
AcDbVertex
100
AcDb2dVertex
 10
139.551688604435
 20
-83.71805960363646
 30
0.0
  0
SEQEND
  5
ED
330
EB
100
AcDbEntity
  8
Furniture
370
     9
  0
POLYLINE
  5
EE
330
DE
100
AcDbEntity
  8
Furniture
 62
   250
370
     9
100
AcDb2dPolyline
 66
     1
 10
0.0
 20
0.0
 30
0.0
  0
VERTEX
  5
EF
330
EE
100
AcDbEntity
  8
Furniture
 62
   250
370
     9
100
AcDbVertex
100
AcDb2dVertex
 10
139.5189601973251
 20
-83.577327453064
 30
0.0
  0
VERTEX
  5
154
330
EE
100
AcDbEntity
  8
0
100
AcDbVertex
100
AcDb2dVertex
 10
139.5189601973251
 20
-83.577327453064
 30
0.0
  0
SEQEND
  5
F0
330
EE
100
AcDbEntity
  8
Furniture
370
     9
  0
SPLINE
  5
F1
330
DE
100
AcDbEntity
  8
Furniture
 62
   250
370
     9
100
AcDbSpline
210
0.0
220
0.0
230
1.0
 70
     8
 71
     3
 72
    26
 73
    22
 74
     0
 42
0.000000001
 43
0.0000000001
 40
0.0
 40
0.0
 40
0.0
 40
0.0
 40
1.0
 40
1.0
 40
1.0
 40
2.0
 40
2.0
 40
2.0
 40
3.0
 40
3.0
 40
3.0
 40
4.0
 40
4.0
 40
4.0
 40
5.0
 40
5.0
 40
5.0
 40
6.0
 40
6.0
 40
6.0
 40
7.0
 40
7.0
 40
7.0
 40
7.0
 10
146.8408216321266
 20
-80.82504066989791
 30
0.0
 10
146.7757093274554
 20
-80.76940237781112
 30
0.0
 10
146.6072441582267
 20
-80.87361651623993
 30
0.0
 10
146.3805568752972
 20
-80.83330889906251
 30
0.0
 10
145.8706827434802
 20
-80.74270288780043
 30
0.0
 10
144.5453545103046
 20
-80.64985756447295
 30
0.0
 10
144.2452866935393
 20
-80.60696612568159
 30
0.0
 10
143.9414292717403
 20
-80.56373017734172
 30
0.0
 10
143.4904662727211
 20
-80.52635089132675
 30
0.0
 10
143.1556029915548
 20
-80.52652314610101
 30
0.0
 10
142.3814900360192
 20
-80.52790118429511
 30
0.0
 10
141.9015882349239
 20
-80.60334877542208
 30
0.0
 10
141.5694810301458
 20
-80.63228757749817
 30
0.0
 10
140.8132825711335
 20
-80.69774439171792
 30
0.0
 10
140.179729511396
 20
-80.76475149890603
 30
0.0
 10
139.5372192033969
 20
-80.92873804400394
 30
0.0
 10
139.0049519509258
 20
-81.06481931567129
 30
0.0
 10
138.166415709816
 20
-80.72771672243959
 30
0.0
 10
138.2900946377365
 20
-81.31062687854386
 30
0.0
 10
138.35934105699
 20
-81.63274330641474
 30
0.0
 10
138.7544935091481
 20
-81.68252493617659
 30
0.0
 10
138.9301933788959
 20
-82.31986760094782
 30
0.0
  0
SPLINE
  5
F2
330
DE
100
AcDbEntity
  8
Furniture
 62
   250
370
     9
100
AcDbSpline
210
0.0
220
0.0
230
1.0
 70
     8
 71
     3
 72
    20
 73
    16
 74
     0
 42
0.000000001
 43
0.0000000001
 40
0.0
 40
0.0
 40
0.0
 40
0.0
 40
1.0
 40
1.0
 40
1.0
 40
2.0
 40
2.0
 40
2.0
 40
3.0
 40
3.0
 40
3.0
 40
4.0
 40
4.0
 40
4.0
 40
5.0
 40
5.0
 40
5.0
 40
5.0
 10
139.551688604435
 20
-83.71805960363646
 30
0.0
 10
139.8314303578373
 20
-84.2496378370105
 30
0.0
 10
140.4749741944819
 20
-84.19176023285832
 30
0.0
 10
141.0003512559825
 20
-84.25997312346627
 30
0.0
 10
141.4719848279132
 20
-84.32129582310372
 30
0.0
 10
141.9549872149453
 20
-84.35385197543931
 30
0.0
 10
142.4324774492009
 20
-84.3612589307326
 30
0.0
 10
142.9375284473385
 20
-84.3695271598972
 30
0.0
 10
143.4777194194257
 20
-84.36194794982965
 30
0.0
 10
143.9886270798882
 20
-84.36194794982965
 30
0.0
 10
144.4709404478232
 20
-84.36194794982965
 30
0.0
 10
144.957043420792
 20
-84.31612817987582
 30
0.0
 10
145.4376342409843
 20
-84.25687253752952
 30
0.0
 10
146.05292829465
 20
-84.1812526916283
 30
0.0
 10
146.2017564196127
 20
-84.270308409922
 30
0.0
 10
146.8180840019239
 20
-84.02071124201567
 30
0.0
  0
SPLINE
  5
F3
330
DE
100
AcDbEntity
  8
Furniture
 62
   250
370
     9
100
AcDbSpline
210
0.0
220
0.0
230
1.0
 70
     8
 71
     3
 72
    47
 73
    43
 74
     0
 42
0.000000001
 43
0.0000000001
 40
0.0
 40
0.0
 40
0.0
 40
0.0
 40
1.0
 40
1.0
 40
1.0
 40
2.0
 40
2.0
 40
2.0
 40
3.0
 40
3.0
 40
3.0
 40
4.0
 40
4.0
 40
4.0
 40
5.0
 40
5.0
 40
5.0
 40
6.0
 40
6.0
 40
6.0
 40
7.0
 40
7.0
 40
7.0
 40
8.0
 40
8.0
 40
8.0
 40
9.0
 40
9.0
 40
9.0
 40
10.0
 40
10.0
 40
10.0
 40
11.0
 40
11.0
 40
11.0
 40
12.0
 40
12.0
 40
12.0
 40
13.0
 40
13.0
 40
13.0
 40
14.0
 40
14.0
 40
14.0
 40
14.0
 10
137.1880085920051
 20
-89.98003741240083
 30
0.0
 10
137.524594420914
 20
-90.31438392924433
 30
0.0
 10
138.1950100023436
 20
-89.69082164641411
 30
0.0
 10
138.5143703538262
 20
-89.56989879488183
 30
0.0
 10
138.7000610004812
 20
-89.499791101757
 30
0.0
 10
138.8578463737057
 20
-89.46964651626107
 30
0.0
 10
139.0414699630695
 20
-89.47050779013236
 30
0.0
 10
139.3653089386829
 20
-89.47257484742353
 30
0.0
 10
139.3391262129951
 20
-89.35182425066551
 30
0.0
 10
139.4590155358818
 20
-89.06054142738765
 30
0.0
 10
139.7621839385837
 20
-88.31932913373615
 30
0.0
 10
139.6719224368702
 20
-87.54521617820051
 30
0.0
 10
139.7229098500519
 20
-86.75870087891796
 30
0.0
 10
139.7742417727821
 20
-85.97459714647511
 30
0.0
 10
139.7136080922417
 20
-85.23579641966327
 30
0.0
 10
139.6443616729882
 20
-84.45927189728797
 30
0.0
 10
139.5768378014773
 20
-83.7159925463453
 30
0.0
 10
139.4865762997637
 20
-83.16374374005976
 30
0.0
 10
139.0466376062973
 20
-82.5215779416092
 30
0.0
 10
138.8316636480178
 20
-82.20807425245146
 30
0.0
 10
138.8819620421024
 20
-82.15674232972125
 30
0.0
 10
138.5329738694466
 20
-82.08198375769132
 30
0.0
 10
138.3355698981418
 20
-82.04012584754552
 30
0.0
 10
137.9173353062324
 20
-81.70267874476531
 30
0.0
 10
137.7326781882231
 20
-81.61586233853702
 30
0.0
 10
137.6052096552688
 20
-81.55608993186794
 30
0.0
 10
137.4984116952261
 20
-81.45290932208469
 30
0.0
 10
137.3447604365839
 20
-81.47530244273882
 30
0.0
 10
137.0798325937682
 20
-82.11591794822103
 30
0.0
 10
136.966833461852
 20
-82.74189179789091
 30
0.0
 10
136.876916469687
 20
-83.41902531551678
 30
0.0
 10
136.7697740000958
 20
-84.22724471635637
 30
0.0
 10
136.9265258446746
 20
-84.997395812084
 30
0.0
 10
136.9265258446746
 20
-85.80613197724639
 30
0.0
 10
136.9265258446746
 20
-86.63381616757765
 30
0.0
 10
136.9048217431175
 20
-87.4492702689363
 30
0.0
 10
136.9048217431175
 20
-88.27781573313888
 30
0.0
 10
136.9048217431175
 20
-88.7370469613227
 30
0.0
 10
136.773219095581
 20
-89.64551864078307
 30
0.0
 10
137.1828409487772
 20
-89.98554956517722
 30
0.0
 10
137.1990328975579
 20
-89.99950220189248
 30
0.0
 10
137.2155693558871
 20
-90.01052650744529
 30
0.0
 10
137.2317613046677
 20
-90.02241208686939
 30
0.0
  0
SPLINE
  5
F4
330
DE
100
AcDbEntity
  8
Furniture
 62
   250
370
     9
100
AcDbSpline
210
0.0
220
0.0
230
1.0
 70
     8
 71
     3
 72
    32
 73
    28
 74
     0
 42
0.000000001
 43
0.0000000001
 40
0.0
 40
0.0
 40
0.0
 40
0.0
 40
1.0
 40
1.0
 40
1.0
 40
2.0
 40
2.0
 40
2.0
 40
3.0
 40
3.0
 40
3.0
 40
4.0
 40
4.0
 40
4.0
 40
5.0
 40
5.0
 40
5.0
 40
6.0
 40
6.0
 40
6.0
 40
7.0
 40
7.0
 40
7.0
 40
8.0
 40
8.0
 40
8.0
 40
9.0
 40
9.0
 40
9.0
 40
9.0
 10
154.9886447095167
 20
-90.02482365370907
 30
0.0
 10
155.0465223136689
 20
-90.13713376652821
 30
0.0
 10
155.4861164975868
 20
-90.52918563274966
 30
0.0
 10
155.4564886764137
 20
-90.65355357976718
 30
0.0
 10
155.378629518447
 20
-90.96740177847342
 30
0.0
 10
154.2513942756732
 20
-90.85440264655723
 30
0.0
 10
154.0033474007353
 20
-90.86990557624087
 30
0.0
 10
153.1338053002582
 20
-90.9234768110365
 30
0.0
 10
152.5715657170654
 20
-90.81512855802539
 30
0.0
 10
151.7075357693648
 20
-90.7589735016158
 30
0.0
 10
150.4652343373837
 20
-90.67853052203522
 30
0.0
 10
150.1978949277283
 20
-90.67284611448457
 30
0.0
 10
149.1671223585415
 20
-90.74915497948286
 30
0.0
 10
148.5988538582496
 20
-90.79101288962865
 30
0.0
 10
146.8831963065952
 20
-91.19305553275729
 30
0.0
 10
146.8287637979282
 20
-90.79876435447046
 30
0.0
 10
146.8043036199829
 20
-90.61582978420368
 30
0.0
 10
146.8180840019239
 20
-90.46114499691595
 30
0.0
 10
146.8180840019239
 20
-90.25013289844443
 30
0.0
 10
146.8180840019239
 20
-90.02292885119219
 30
0.0
 10
146.7750203083583
 20
-89.77178139031748
 30
0.0
 10
146.7832885375229
 20
-89.49737953491732
 30
0.0
 10
146.7987914672066
 20
-88.9716579638682
 30
0.0
 10
146.8635592623292
 20
-88.51483830252407
 30
0.0
 10
146.8180840019239
 20
-87.99393986515431
 30
0.0
 10
146.7546942449953
 20
-87.25720619563361
 30
0.0
 10
146.8676933769115
 20
-86.46207815763796
 30
0.0
 10
146.8287637979282
 20
-85.7229329212776
 30
0.0
  0
SPLINE
  5
F5
330
DE
100
AcDbEntity
  8
Furniture
 62
   250
370
     9
100
AcDbSpline
210
0.0
220
0.0
230
1.0
 70
     8
 71
     3
 72
     8
 73
     4
 74
     0
 42
0.000000001
 43
0.0000000001
 40
0.0
 40
0.0
 40
0.0
 40
0.0
 40
1.0
 40
1.0
 40
1.0
 40
1.0
 10
154.1604437548627
 20
-83.577327453064
 30
0.0
 10
154.1452853347275
 20
-83.62642006372881
 30
0.0
 10
154.1253037809131
 20
-83.7073798076322
 30
0.0
 10
154.1266818191072
 20
-83.71805960363646
 30
0.0
  0
SPLINE
  5
F6
330
DE
100
AcDbEntity
  8
Furniture
 62
   250
370
     9
100
AcDbSpline
210
0.0
220
0.0
230
1.0
 70
     8
 71
     3
 72
    50
 73
    46
 74
     0
 42
0.000000001
 43
0.0000000001
 40
0.0
 40
0.0
 40
0.0
 40
0.0
 40
1.0
 40
1.0
 40
1.0
 40
2.0
 40
2.0
 40
2.0
 40
3.0
 40
3.0
 40
3.0
 40
4.0
 40
4.0
 40
4.0
 40
5.0
 40
5.0
 40
5.0
 40
6.0
 40
6.0
 40
6.0
 40
7.0
 40
7.0
 40
7.0
 40
8.0
 40
8.0
 40
8.0
 40
9.0
 40
9.0
 40
9.0
 40
10.0
 40
10.0
 40
10.0
 40
11.0
 40
11.0
 40
11.0
 40
12.0
 40
12.0
 40
12.0
 40
13.0
 40
13.0
 40
13.0
 40
14.0
 40
14.0
 40
14.0
 40
15.0
 40
15.0
 40
15.0
 40
15.0
 10
154.1266818191072
 20
-83.71805960363646
 30
0.0
 10
153.847629084802
 20
-84.2496378370105
 30
0.0
 10
153.2033962290602
 20
-84.19176023285832
 30
0.0
 10
152.6783636771082
 20
-84.25997312346627
 30
0.0
 10
152.207074614726
 20
-84.32129582310372
 30
0.0
 10
151.724072227694
 20
-84.35385197543931
 30
0.0
 10
151.2465819934383
 20
-84.3612589307326
 30
0.0
 10
150.7415309953007
 20
-84.3695271598972
 30
0.0
 10
150.2013400232135
 20
-84.36194794982965
 30
0.0
 10
149.6893988341054
 20
-84.36194794982965
 30
0.0
 10
149.2077744852675
 20
-84.36194794982965
 30
0.0
 10
148.7221882766215
 20
-84.31612817987582
 30
0.0
 10
148.2415974564292
 20
-84.25687253752952
 30
0.0
 10
147.625958893215
 20
-84.1812526916283
 30
0.0
 10
147.4764417491552
 20
-84.270308409922
 30
0.0
 10
146.8604586763925
 20
-84.02071124201567
 30
0.0
 10
146.6255031642985
 20
-83.92562660662276
 30
0.0
 10
146.8628702432322
 20
-82.99562308037957
 30
0.0
 10
146.8287637979282
 20
-82.78771156784474
 30
0.0
 10
146.7825995184259
 20
-82.5003906043749
 30
0.0
 10
146.8180840019239
 20
-82.09421384666395
 30
0.0
 10
146.8229071356033
 20
-81.83876001643268
 30
0.0
 10
146.8287637979282
 20
-81.57383217361696
 30
0.0
 10
146.8583916191014
 20
-81.30080835641091
 30
0.0
 10
146.8180840019239
 20
-81.02899032262468
 30
0.0
 10
146.7612399264173
 20
-80.64520668556786
 30
0.0
 10
146.9679456555323
 20
-80.89187552231175
 30
0.0
 10
147.2979858030192
 20
-80.83330889906251
 30
0.0
 10
147.8078599348362
 20
-80.74270288780043
 30
0.0
 10
149.1340494418831
 20
-80.64985756447295
 30
0.0
 10
149.4337727490998
 20
-80.60696612568159
 30
0.0
 10
149.7376301708989
 20
-80.56373017734172
 30
0.0
 10
150.1889376794666
 20
-80.52635089132675
 30
0.0
 10
150.5231119415359
 20
-80.52652314610101
 30
0.0
 10
151.29756940662
 20
-80.52790118429511
 30
0.0
 10
151.7771266981668
 20
-80.60334877542208
 30
0.0
 10
152.1092339029449
 20
-80.63228757749817
 30
0.0
 10
152.8650878524087
 20
-80.69774439171792
 30
0.0
 10
153.4989854216947
 20
-80.76475149890603
 30
0.0
 10
154.1418402392423
 20
-80.92873804400394
 30
0.0
 10
154.6737629821649
 20
-81.06481931567129
 30
0.0
 10
155.6225422788027
 20
-80.76991914213392
 30
0.0
 10
155.4985188413337
 20
-81.35265704346393
 30
0.0
 10
155.4309949698228
 20
-81.66908906378411
 30
0.0
 10
154.9417914109173
 20
-81.68235268140234
 30
0.0
 10
154.758512331102
 20
-82.28748370338648
 30
0.0
  0
SPLINE
  5
F7
330
DE
100
AcDbEntity
  8
Furniture
 62
   250
370
     9
100
AcDbSpline
210
0.0
220
0.0
230
1.0
 70
     8
 71
     3
 72
    59
 73
    55
 74
     0
 42
0.000000001
 43
0.0000000001
 40
0.0
 40
0.0
 40
0.0
 40
0.0
 40
1.0
 40
1.0
 40
1.0
 40
2.0
 40
2.0
 40
2.0
 40
3.0
 40
3.0
 40
3.0
 40
4.0
 40
4.0
 40
4.0
 40
5.0
 40
5.0
 40
5.0
 40
6.0
 40
6.0
 40
6.0
 40
7.0
 40
7.0
 40
7.0
 40
8.0
 40
8.0
 40
8.0
 40
9.0
 40
9.0
 40
9.0
 40
10.0
 40
10.0
 40
10.0
 40
11.0
 40
11.0
 40
11.0
 40
12.0
 40
12.0
 40
12.0
 40
13.0
 40
13.0
 40
13.0
 40
14.0
 40
14.0
 40
14.0
 40
15.0
 40
15.0
 40
15.0
 40
16.0
 40
16.0
 40
16.0
 40
17.0
 40
17.0
 40
17.0
 40
18.0
 40
18.0
 40
18.0
 40
18.0
 10
156.4900173219886
 20
-89.98003741240083
 30
0.0
 10
156.1544650217253
 20
-90.31438392924433
 30
0.0
 10
155.5384819489626
 20
-89.6784193026672
 30
0.0
 10
155.2187770879314
 20
-89.55732419636067
 30
0.0
 10
155.033430950825
 20
-89.48704424846157
 30
0.0
 10
154.8205240498365
 20
-89.46964651626107
 30
0.0
 10
154.6379339891183
 20
-89.47050779013236
 30
0.0
 10
154.3134059944077
 20
-89.47257484742353
 30
0.0
 10
154.3395887200956
 20
-89.35182425066551
 30
0.0
 10
154.219699397209
 20
-89.06054142738765
 30
0.0
 10
153.916530994507
 20
-88.31932913373615
 30
0.0
 10
154.0061034771234
 20
-87.54521617820051
 30
0.0
 10
153.9551160639417
 20
-86.75870087891796
 30
0.0
 10
153.9055066889542
 20
-85.97459714647511
 30
0.0
 10
153.9654513503975
 20
-85.23579641966327
 30
0.0
 10
154.0350422791996
 20
-84.45927189728797
 30
0.0
 10
154.1018771316134
 20
-83.7159925463453
 30
0.0
 10
154.1921386333269
 20
-83.16374374005976
 30
0.0
 10
154.6331108554389
 20
-82.5215779416092
 30
0.0
 10
154.7867621140811
 20
-82.29661320642238
 30
0.0
 10
154.8046766106044
 20
-82.20669621425736
 30
0.0
 10
154.9307671053645
 20
-82.14657929803975
 30
0.0
 10
154.9355902390439
 20
-82.14399547642582
 30
0.0
 10
154.9417914109173
 20
-82.1412394000376
 30
0.0
 10
154.9479925827908
 20
-82.13882783319794
 30
0.0
 10
154.9948458813902
 20
-82.11832951506069
 30
0.0
 10
155.0575466192217
 20
-82.10093178286019
 30
0.0
 10
155.145052044547
 20
-82.08198375769132
 30
0.0
 10
155.2180880688343
 20
-82.06665308278195
 30
0.0
 10
155.3193738761007
 20
-82.01170380979222
 30
0.0
 10
155.4296169316287
 20
-81.9438354287328
 30
0.0
 10
155.4351290844051
 20
-81.93970131415049
 30
0.0
 10
155.4420192753756
 20
-81.93573945434245
 30
0.0
 10
155.4489094663461
 20
-81.93143308498589
 30
0.0
 10
155.6328775652584
 20
-81.81602238623003
 30
0.0
 10
155.8333821225
 20
-81.66891680900986
 30
0.0
 10
155.9456922353191
 20
-81.61586233853702
 30
0.0
 10
156.0738497873704
 20
-81.55608993186794
 30
0.0
 10
156.1813367665102
 20
-81.45290932208469
 30
0.0
 10
156.3342990060553
 20
-81.47530244273882
 30
0.0
 10
156.5988823393225
 20
-82.11591794822103
 30
0.0
 10
156.7118814712387
 20
-82.74189179789091
 30
0.0
 10
156.8021429729522
 20
-83.41902531551678
 30
0.0
 10
156.908940932995
 20
-84.22724471635637
 30
0.0
 10
156.7525335979646
 20
-84.997395812084
 30
0.0
 10
156.7525335979646
 20
-85.80613197724639
 30
0.0
 10
156.7525335979646
 20
-86.63381616757765
 30
0.0
 10
156.7745822090702
 20
-87.4492702689363
 30
0.0
 10
156.7745822090702
 20
-88.27781573313888
 30
0.0
 10
156.7745822090702
 20
-88.7370469613227
 30
0.0
 10
156.9054958375097
 20
-89.64551864078307
 30
0.0
 10
156.495529474765
 20
-89.98554956517722
 30
0.0
 10
156.4789930164358
 20
-89.99950220189248
 30
0.0
 10
156.4631455772037
 20
-90.01052650744529
 30
0.0
 10
156.4472981379715
 20
-90.02241208686939
 30
0.0
  0
POLYLINE
  5
F8
330
DE
100
AcDbEntity
  8
Furniture
 62
   250
370
     9
100
AcDb2dPolyline
 66
     1
 10
0.0
 20
0.0
 30
0.0
  0
VERTEX
  5
F9
330
F8
100
AcDbEntity
  8
Furniture
 62
   250
370
     9
100
AcDbVertex
100
AcDb2dVertex
 10
146.8287637979282
 20
-85.7229329212776
 30
0.0
  0
VERTEX
  5
FA
330
F8
100
AcDbEntity
  8
Furniture
 62
   250
370
     9
100
AcDbVertex
100
AcDb2dVertex
 10
146.8180840019239
 20
-84.02071124201567
 30
0.0
  0
SEQEND
  5
FB
330
F8
100
AcDbEntity
  8
Furniture
370
     9
  0
POLYLINE
  5
FC
330
DE
100
AcDbEntity
  8
Furniture
 62
   250
370
     9
100
AcDb2dPolyline
 66
     1
 10
0.0
 20
0.0
 30
0.0
  0
VERTEX
  5
FD
330
FC
100
AcDbEntity
  8
Furniture
 62
   250
370
     9
100
AcDbVertex
100
AcDb2dVertex
 10
154.9328341626557
 20
-89.85549721060904
 30
0.0
  0
VERTEX
  5
FE
330
FC
100
AcDbEntity
  8
Furniture
 62
   250
370
     9
100
AcDbVertex
100
AcDb2dVertex
 10
154.9004502650943
 20
-89.48411591729911
 30
0.0
  0
SEQEND
  5
FF
330
FC
100
AcDbEntity
  8
Furniture
370
     9
  0
ENDBLK
  5
E1
330
DE
100
AcDbEntity
  8
0
100
AcDbBlockEnd
  0
BLOCK
  5
105
330
103
100
AcDbEntity
  8
0
100
AcDbBlockBegin
  2
block 10
 70
     0
 10
0.0
 20
0.0
 30
0.0
  3
block 10
  1

  0
SPLINE
  5
107
330
103
100
AcDbEntity
  8
Furniture
 62
   250
370
     9
100
AcDbSpline
210
0.0
220
0.0
230
1.0
 70
     9
 71
     3
 72
    17
 73
    13
 74
     0
 42
0.000000001
 43
0.0000000001
 40
0.0
 40
0.0
 40
0.0
 40
0.0
 40
1.0
 40
1.0
 40
1.0
 40
2.0
 40
2.0
 40
2.0
 40
3.0
 40
3.0
 40
3.0
 40
4.0
 40
4.0
 40
4.0
 40
4.0
 10
173.980767100602
 20
-89.87582327397202
 30
0.0
 10
173.980767100602
 20
-90.02292885119219
 30
0.0
 10
174.09101015613
 20
-90.14178464543331
 30
0.0
 10
174.2274359373459
 20
-90.14178464543331
 30
0.0
 10
174.3645507376589
 20
-90.14178464543331
 30
0.0
 10
174.4747937931869
 20
-90.02292885119219
 30
0.0
 10
174.4747937931869
 20
-89.87599552874629
 30
0.0
 10
174.4747937931869
 20
-89.72923446107463
 30
0.0
 10
174.3645507376589
 20
-89.61020641205925
 30
0.0
 10
174.2274359373459
 20
-89.61020641205925
 30
0.0
 10
174.09101015613
 20
-89.61020641205925
 30
0.0
 10
173.980767100602
 20
-89.72923446107463
 30
0.0
 10
173.980767100602
 20
-89.87582327397202
 30
0.0
  0
SPLINE
  5
108
330
103
100
AcDbEntity
  8
Furniture
 62
   250
370
     9
100
AcDbSpline
210
0.0
220
0.0
230
1.0
 70
     9
 71
     3
 72
    17
 73
    13
 74
     0
 42
0.000000001
 43
0.0000000001
 40
0.0
 40
0.0
 40
0.0
 40
0.0
 40
1.0
 40
1.0
 40
1.0
 40
2.0
 40
2.0
 40
2.0
 40
3.0
 40
3.0
 40
3.0
 40
4.0
 40
4.0
 40
4.0
 40
4.0
 10
197.8077364956869
 20
-89.87582327397202
 30
0.0
 10
197.8077364956869
 20
-90.02292885119219
 30
0.0
 10
197.9172905321179
 20
-90.14178464543331
 30
0.0
 10
198.0530272942367
 20
-90.14178464543331
 30
0.0
 10
198.1901420945496
 20
-90.14178464543331
 30
0.0
 10
198.3010741691747
 20
-90.02292885119219
 30
0.0
 10
198.3010741691747
 20
-89.87599552874629
 30
0.0
 10
198.3010741691747
 20
-89.72923446107463
 30
0.0
 10
198.1901420945496
 20
-89.61020641205925
 30
0.0
 10
198.0530272942367
 20
-89.61020641205925
 30
0.0
 10
197.9172905321179
 20
-89.61020641205925
 30
0.0
 10
197.8077364956869
 20
-89.72923446107463
 30
0.0
 10
197.8077364956869
 20
-89.87582327397202
 30
0.0
  0
SPLINE
  5
109
330
103
100
AcDbEntity
  8
Furniture
 62
   250
370
     9
100
AcDbSpline
210
0.0
220
0.0
230
1.0
 70
     8
 71
     3
 72
    14
 73
    10
 74
     0
 42
0.000000001
 43
0.0000000001
 40
0.0
 40
0.0
 40
0.0
 40
0.0
 40
1.0
 40
1.0
 40
1.0
 40
2.0
 40
2.0
 40
2.0
 40
3.0
 40
3.0
 40
3.0
 40
3.0
 10
174.463769487634
 20
-82.14864635533089
 30
0.0
 10
174.4713486977016
 20
-82.12401392261137
 30
0.0
 10
174.4747937931869
 20
-82.09783119692346
 30
0.0
 10
174.4747937931869
 20
-82.07061494258999
 30
0.0
 10
174.4747937931869
 20
-81.92385387491835
 30
0.0
 10
174.3645507376589
 20
-81.8046535711287
 30
0.0
 10
174.2274359373459
 20
-81.8046535711287
 30
0.0
 10
174.1295952255648
 20
-81.8046535711287
 30
0.0
 10
174.0448458766277
 20
-81.8666652898632
 30
0.0
 10
174.0048827689988
 20
-81.95641002725395
 30
0.0
  0
SPLINE
  5
10A
330
103
100
AcDbEntity
  8
Furniture
 62
   250
370
     9
100
AcDbSpline
210
0.0
220
0.0
230
1.0
 70
     8
 71
     3
 72
    11
 73
     7
 74
     0
 42
0.000000001
 43
0.0000000001
 40
0.0
 40
0.0
 40
0.0
 40
0.0
 40
1.0
 40
1.0
 40
1.0
 40
2.0
 40
2.0
 40
2.0
 40
2.0
 10
198.2693792907104
 20
-81.94056258802181
 30
0.0
 10
198.2266601066933
 20
-81.85960284411844
 30
0.0
 10
198.1460448723385
 20
-81.8046535711287
 30
0.0
 10
198.0530272942367
 20
-81.8046535711287
 30
0.0
 10
197.9172905321179
 20
-81.8046535711287
 30
0.0
 10
197.8077364956869
 20
-81.92385387491835
 30
0.0
 10
197.8077364956869
 20
-82.07061494258999
 30
0.0
  0
SPLINE
  5
10B
330
103
100
AcDbEntity
  8
Furniture
 62
   250
370
     9
100
AcDbSpline
210
0.0
220
0.0
230
1.0
 70
     8
 71
     3
 72
     8
 73
     4
 74
     0
 42
0.000000001
 43
0.0000000001
 40
0.0
 40
0.0
 40
0.0
 40
0.0
 40
1.0
 40
1.0
 40
1.0
 40
1.0
 10
197.8077364956869
 20
-82.07061494258999
 30
0.0
 10
197.8077364956869
 20
-82.09748668737494
 30
0.0
 10
197.8111815911722
 20
-82.12349715828857
 30
0.0
 10
197.8180717821427
 20
-82.14795733623384
 30
0.0
  0
SPLINE
  5
10C
330
103
100
AcDbEntity
  8
Furniture
 62
   250
370
     9
100
AcDbSpline
210
0.0
220
0.0
230
1.0
 70
     8
 71
     3
 72
    23
 73
    19
 74
     0
 42
0.000000001
 43
0.0000000001
 40
0.0
 40
0.0
 40
0.0
 40
0.0
 40
1.0
 40
1.0
 40
1.0
 40
2.0
 40
2.0
 40
2.0
 40
3.0
 40
3.0
 40
3.0
 40
4.0
 40
4.0
 40
4.0
 40
5.0
 40
5.0
 40
5.0
 40
6.0
 40
6.0
 40
6.0
 40
6.0
 10
174.4313855900727
 20
-89.50650903795324
 30
0.0
 10
174.5016655379718
 20
-89.70356849970952
 30
0.0
 10
174.5354274737272
 20
-89.85463593673774
 30
0.0
 10
174.4513671438871
 20
-90.02482365370907
 30
0.0
 10
174.3955565970261
 20
-90.13696151175395
 30
0.0
 10
173.9787000433109
 20
-90.52918563274966
 30
0.0
 10
174.008327864484
 20
-90.6533813249929
 30
0.0
 10
174.0806748696743
 20
-90.96705726892491
 30
0.0
 10
175.1493434891987
 20
-90.85423039178298
 30
0.0
 10
175.3842990012928
 20
-90.8697333214666
 30
0.0
 10
176.2083658413646
 20
-90.9234768110365
 30
0.0
 10
176.7409776033842
 20
-90.81512855802539
 30
0.0
 10
177.5602213097766
 20
-90.7589735016158
 30
0.0
 10
178.7363769084409
 20
-90.67853052203522
 30
0.0
 10
178.9899359361553
 20
-90.67284611448457
 30
0.0
 10
179.9676540348692
 20
-90.74932723425712
 30
0.0
 10
180.5057779496652
 20
-90.7911851444029
 30
0.0
 10
181.7873534701782
 20
-90.97050236441015
 30
0.0
 10
182.0912108919772
 20
-90.91314152458075
 30
0.0
  0
SPLINE
  5
10D
330
103
100
AcDbEntity
  8
Furniture
 62
   250
370
     9
100
AcDbSpline
210
0.0
220
0.0
230
1.0
 70
     8
 71
     3
 72
     8
 73
     4
 74
     0
 42
0.000000001
 43
0.0000000001
 40
0.0
 40
0.0
 40
0.0
 40
0.0
 40
1.0
 40
1.0
 40
1.0
 40
1.0
 10
175.19344071141
 20
-83.577327453064
 30
0.0
 10
175.208599131545
 20
-83.62624780895457
 30
0.0
 10
175.2278916662625
 20
-83.70703529808366
 30
0.0
 10
175.2258246089713
 20
-83.71788734886219
 30
0.0
  0
SPLINE
  5
10E
330
103
100
AcDbEntity
  8
Furniture
 62
   250
370
     9
100
AcDbSpline
210
0.0
220
0.0
230
1.0
 70
     8
 71
     3
 72
    50
 73
    46
 74
     0
 42
0.000000001
 43
0.0000000001
 40
0.0
 40
0.0
 40
0.0
 40
0.0
 40
1.0
 40
1.0
 40
1.0
 40
2.0
 40
2.0
 40
2.0
 40
3.0
 40
3.0
 40
3.0
 40
4.0
 40
4.0
 40
4.0
 40
5.0
 40
5.0
 40
5.0
 40
6.0
 40
6.0
 40
6.0
 40
7.0
 40
7.0
 40
7.0
 40
8.0
 40
8.0
 40
8.0
 40
9.0
 40
9.0
 40
9.0
 40
10.0
 40
10.0
 40
10.0
 40
11.0
 40
11.0
 40
11.0
 40
12.0
 40
12.0
 40
12.0
 40
13.0
 40
13.0
 40
13.0
 40
14.0
 40
14.0
 40
14.0
 40
15.0
 40
15.0
 40
15.0
 40
15.0
 10
175.2258246089713
 20
-83.71788734886219
 30
0.0
 10
175.4917859804326
 20
-84.24981009178477
 30
0.0
 10
176.1063910150012
 20
-84.19141572330978
 30
0.0
 10
176.6059298603624
 20
-84.259800868692
 30
0.0
 10
177.0565483498331
 20
-84.32095131355518
 30
0.0
 10
177.5168131066625
 20
-84.35367972066506
 30
0.0
 10
177.9708766916184
 20
-84.36143118550686
 30
0.0
 10
178.4531900595534
 20
-84.36918265034867
 30
0.0
 10
178.9685763441467
 20
-84.36212020460391
 30
0.0
 10
179.455023826664
 20
-84.36212020460391
 30
0.0
 10
179.9152885834934
 20
-84.36212020460391
 30
0.0
 10
180.3776203976139
 20
-84.31595592510157
 30
0.0
 10
180.8351290780551
 20
-84.25670028275527
 30
0.0
 10
181.4228623678387
 20
-84.18108043685405
 30
0.0
 10
181.5909830275189
 20
-84.36108667595835
 30
0.0
 10
182.1787163173025
 20
-84.11183401760052
 30
0.0
 10
182.4019585047467
 20
-84.01657712743336
 30
0.0
 10
182.1504665343235
 20
-82.99545082560531
 30
0.0
 10
182.1828504318848
 20
-82.78771156784474
 30
0.0
 10
182.226947654096
 20
-82.50021834960064
 30
0.0
 10
182.1918076801465
 20
-82.09404159188968
 30
0.0
 10
182.1869845464671
 20
-81.83858776165841
 30
0.0
 10
182.1828504318848
 20
-81.57365991884269
 30
0.0
 10
182.1546006489058
 20
-81.30063610163665
 30
0.0
 10
182.1918076801465
 20
-81.0284735583019
 30
0.0
 10
182.2462401888134
 20
-80.64486217601935
 30
0.0
 10
182.0498697461542
 20
-80.8917032675375
 30
0.0
 10
181.7349880188023
 20
-80.83313664428825
 30
0.0
 10
181.2485405362851
 20
-80.74270288780043
 30
0.0
 10
179.9855685313925
 20
-80.64951305492442
 30
0.0
 10
179.6996256061167
 20
-80.60696612568159
 30
0.0
 10
179.4102375853558
 20
-80.56390243211597
 30
0.0
 10
178.9796006496995
 20
-80.52617863655248
 30
0.0
 10
178.6612738268624
 20
-80.52652314610101
 30
0.0
 10
177.9233343739219
 20
-80.52772892952084
 30
0.0
 10
177.4651366743837
 20
-80.60334877542208
 30
0.0
 10
177.1495659279348
 20
-80.63211532272392
 30
0.0
 10
176.4288519524206
 20
-80.69808890126646
 30
0.0
 10
175.8238931852107
 20
-80.76423473458325
 30
0.0
 10
175.2120442270303
 20
-80.92856578922967
 30
0.0
 10
174.7042371525045
 20
-81.06464706089703
 30
0.0
 10
173.7864637152339
 20
-80.76526826322881
 30
0.0
 10
173.9042859808295
 20
-81.34852292888162
 30
0.0
 10
173.9697427950492
 20
-81.67046710197821
 30
0.0
 10
174.4658365449252
 20
-81.68235268140234
 30
0.0
 10
174.6332681855083
 20
-82.31986760094782
 30
0.0
  0
SPLINE
  5
10F
330
103
100
AcDbEntity
  8
Furniture
 62
   250
370
     9
100
AcDbSpline
210
0.0
220
0.0
230
1.0
 70
     8
 71
     3
 72
    47
 73
    43
 74
     0
 42
0.000000001
 43
0.0000000001
 40
0.0
 40
0.0
 40
0.0
 40
0.0
 40
1.0
 40
1.0
 40
1.0
 40
2.0
 40
2.0
 40
2.0
 40
3.0
 40
3.0
 40
3.0
 40
4.0
 40
4.0
 40
4.0
 40
5.0
 40
5.0
 40
5.0
 40
6.0
 40
6.0
 40
6.0
 40
7.0
 40
7.0
 40
7.0
 40
8.0
 40
8.0
 40
8.0
 40
9.0
 40
9.0
 40
9.0
 40
10.0
 40
10.0
 40
10.0
 40
11.0
 40
11.0
 40
11.0
 40
12.0
 40
12.0
 40
12.0
 40
13.0
 40
13.0
 40
13.0
 40
14.0
 40
14.0
 40
14.0
 40
14.0
 10
172.973421180715
 20
-89.97969290285231
 30
0.0
 10
173.2938150608432
 20
-90.31490069356712
 30
0.0
 10
173.9318467447115
 20
-89.69116615596263
 30
0.0
 10
174.2377712238017
 20
-89.56989879488183
 30
0.0
 10
174.4134710935494
 20
-89.49961884698273
 30
0.0
 10
174.5643662758033
 20
-89.4694742614868
 30
0.0
 10
174.739377126454
 20
-89.47050779013236
 30
0.0
 10
175.0487467010295
 20
-89.47240259264926
 30
0.0
 10
175.0239420135357
 20
-89.35147974111698
 30
0.0
 10
175.1376301645489
 20
-89.06019691783912
 30
0.0
 10
175.4270181853099
 20
-88.31932913373615
 30
0.0
 10
175.3408907981786
 20
-87.54504392342624
 30
0.0
 10
175.3891221349722
 20
-86.75835636936943
 30
0.0
 10
175.4373534717657
 20
-85.97442489170084
 30
0.0
 10
175.3801648867105
 20
-85.23562416488902
 30
0.0
 10
175.3140190533937
 20
-84.4590996425137
 30
0.0
 10
175.249940277368
 20
-83.71582029157105
 30
0.0
 10
175.1631238711398
 20
-83.16357148528551
 30
0.0
 10
174.7435112410363
 20
-82.5215779416092
 30
0.0
 10
174.5388725692125
 20
-82.20790199767719
 30
0.0
 10
174.587103906006
 20
-82.15674232972125
 30
0.0
 10
174.2549967012279
 20
-82.08198375769132
 30
0.0
 10
174.0675835068303
 20
-82.03960908322274
 30
0.0
 10
173.6679524305413
 20
-81.70267874476531
 30
0.0
 10
173.4922525607936
 20
-81.61569008376273
 30
0.0
 10
173.3702961806157
 20
-81.55626218664218
 30
0.0
 10
173.2676323351553
 20
-81.45273706731044
 30
0.0
 10
173.1229383247748
 20
-81.47513018796455
 30
0.0
 10
172.8700683161575
 20
-82.11574569344675
 30
0.0
 10
172.7618923179206
 20
-82.74189179789091
 30
0.0
 10
172.6764539498864
 20
-83.41902531551678
 30
0.0
 10
172.573790104426
 20
-84.22724471635637
 30
0.0
 10
172.7226182293888
 20
-84.99705130253547
 30
0.0
 10
172.7226182293888
 20
-85.80613197724639
 30
0.0
 10
172.7226182293888
 20
-86.63398842235192
 30
0.0
 10
172.7026366755743
 20
-87.44944252371055
 30
0.0
 10
172.7026366755743
 20
-88.27798798791315
 30
0.0
 10
172.7026366755743
 20
-88.7370469613227
 30
0.0
 10
172.5779242190083
 20
-89.64569089555734
 30
0.0
 10
172.9679090279386
 20
-89.98554956517722
 30
0.0
 10
172.9830674480736
 20
-89.99950220189248
 30
0.0
 10
172.9996039064029
 20
-90.01052650744529
 30
0.0
 10
173.0140733074409
 20
-90.02223983209514
 30
0.0
  0
SPLINE
  5
110
330
103
100
AcDbEntity
  8
Furniture
 62
   250
370
     9
100
AcDbSpline
210
0.0
220
0.0
230
1.0
 70
     8
 71
     3
 72
    35
 73
    31
 74
     0
 42
0.000000001
 43
0.0000000001
 40
0.0
 40
0.0
 40
0.0
 40
0.0
 40
1.0
 40
1.0
 40
1.0
 40
2.0
 40
2.0
 40
2.0
 40
3.0
 40
3.0
 40
3.0
 40
4.0
 40
4.0
 40
4.0
 40
5.0
 40
5.0
 40
5.0
 40
6.0
 40
6.0
 40
6.0
 40
7.0
 40
7.0
 40
7.0
 40
8.0
 40
8.0
 40
8.0
 40
9.0
 40
9.0
 40
9.0
 40
10.0
 40
10.0
 40
10.0
 40
10.0
 10
197.8490776415099
 20
-89.50650903795324
 30
0.0
 10
197.7787976936108
 20
-89.70356849970952
 30
0.0
 10
197.7450357578554
 20
-89.85463593673774
 30
0.0
 10
197.8290960876955
 20
-90.02482365370907
 30
0.0
 10
197.8855956536536
 20
-90.13696151175395
 30
0.0
 10
198.3017631882718
 20
-90.52918563274966
 30
0.0
 10
198.2728243861957
 20
-90.6533813249929
 30
0.0
 10
198.1997883619084
 20
-90.96705726892491
 30
0.0
 10
197.1318087614809
 20
-90.85423039178298
 30
0.0
 10
196.8961642302898
 20
-90.8697333214666
 30
0.0
 10
196.0727864093151
 20
-90.9234768110365
 30
0.0
 10
195.5401746472955
 20
-90.81512855802539
 30
0.0
 10
194.720241921806
 20
-90.7589735016158
 30
0.0
 10
193.5433973040447
 20
-90.67853052203522
 30
0.0
 10
193.2905272954274
 20
-90.67284611448457
 30
0.0
 10
192.3141872349075
 20
-90.74932723425712
 30
0.0
 10
191.7753743010145
 20
-90.7911851444029
 30
0.0
 10
190.1492892319765
 20
-91.19288327798303
 30
0.0
 10
190.0983018187949
 20
-90.79859209969619
 30
0.0
 10
190.0748751694952
 20
-90.61565752942943
 30
0.0
 10
190.01768658444
 20
-90.43685707374496
 30
0.0
 10
190.01768658444
 20
-90.2258449752734
 30
0.0
 10
190.01768658444
 20
-89.99881318279545
 30
0.0
 10
190.0259548136046
 20
-89.72268877965268
 30
0.0
 10
190.0548936156807
 20
-89.49737953491732
 30
0.0
 10
190.1210394489975
 20
-88.97630884277329
 30
0.0
 10
190.1306857163562
 20
-88.51483830252407
 30
0.0
 10
190.0879665323391
 20
-87.99393986515431
 30
0.0
 10
190.0280218708958
 20
-87.25686168608509
 30
0.0
 10
190.1348198309385
 20
-86.46225041241221
 30
0.0
 10
190.0983018187949
 20
-85.72310517605187
 30
0.0
  0
POLYLINE
  5
111
330
103
100
AcDbEntity
  8
Furniture
 62
   250
370
     9
100
AcDb2dPolyline
 66
     1
 10
0.0
 20
0.0
 30
0.0
  0
VERTEX
  5
112
330
111
100
AcDbEntity
  8
Furniture
 62
   250
370
     9
100
AcDbVertex
100
AcDb2dVertex
 10
197.0546386226113
 20
-83.71788734886219
 30
0.0
  0
VERTEX
  5
155
330
111
100
AcDbEntity
  8
0
100
AcDbVertex
100
AcDb2dVertex
 10
197.0546386226113
 20
-83.71788734886219
 30
0.0
  0
SEQEND
  5
113
330
111
100
AcDbEntity
  8
Furniture
370
     9
  0
SPLINE
  5
114
330
103
100
AcDbEntity
  8
Furniture
 62
   250
370
     9
100
AcDbSpline
210
0.0
220
0.0
230
1.0
 70
     8
 71
     3
 72
    50
 73
    46
 74
     0
 42
0.000000001
 43
0.0000000001
 40
0.0
 40
0.0
 40
0.0
 40
0.0
 40
1.0
 40
1.0
 40
1.0
 40
2.0
 40
2.0
 40
2.0
 40
3.0
 40
3.0
 40
3.0
 40
4.0
 40
4.0
 40
4.0
 40
5.0
 40
5.0
 40
5.0
 40
6.0
 40
6.0
 40
6.0
 40
7.0
 40
7.0
 40
7.0
 40
8.0
 40
8.0
 40
8.0
 40
9.0
 40
9.0
 40
9.0
 40
10.0
 40
10.0
 40
10.0
 40
11.0
 40
11.0
 40
11.0
 40
12.0
 40
12.0
 40
12.0
 40
13.0
 40
13.0
 40
13.0
 40
14.0
 40
14.0
 40
14.0
 40
15.0
 40
15.0
 40
15.0
 40
15.0
 10
197.0546386226113
 20
-83.71788734886219
 30
0.0
 10
196.78867725115
 20
-84.24981009178477
 30
0.0
 10
196.1754502547756
 20
-84.19141572330978
 30
0.0
 10
195.6745333712202
 20
-84.259800868692
 30
0.0
 10
195.2246039008466
 20
-84.32095131355518
 30
0.0
 10
194.7636501249202
 20
-84.35367972066506
 30
0.0
 10
194.3095865399643
 20
-84.36143118550686
 30
0.0
 10
193.8272731720293
 20
-84.36918265034867
 30
0.0
 10
193.3125759065329
 20
-84.36212020460391
 30
0.0
 10
192.8247503858216
 20
-84.36212020460391
 30
0.0
 10
192.3651746480892
 20
-84.36212020460391
 30
0.0
 10
191.9021538148717
 20
-84.31595592510157
 30
0.0
 10
191.4446451344305
 20
-84.25670028275527
 30
0.0
 10
190.858289882841
 20
-84.18108043685405
 30
0.0
 10
190.7170409679457
 20
-84.27013615514775
 30
0.0
 10
190.1286186590651
 20
-84.02036673246714
 30
0.0
 10
189.9039984334267
 20
-83.92562660662276
 30
0.0
 10
190.1299966972592
 20
-82.99545082560531
 30
0.0
 10
190.0983018187949
 20
-82.78771156784474
 30
0.0
 10
190.0548936156807
 20
-82.50021834960064
 30
0.0
 10
190.0879665323391
 20
-82.09404159188968
 30
0.0
 10
190.0934786851155
 20
-81.83858776165841
 30
0.0
 10
190.0989908378919
 20
-81.57365991884269
 30
0.0
 10
190.1258625826769
 20
-81.30063610163665
 30
0.0
 10
190.0879665323391
 20
-81.0284735583019
 30
0.0
 10
190.0342230427692
 20
-80.64486217601935
 30
0.0
 10
190.2305934854284
 20
-80.8917032675375
 30
0.0
 10
190.5461642318773
 20
-80.83313664428825
 30
0.0
 10
191.0319226952976
 20
-80.74270288780043
 30
0.0
 10
192.2955837192872
 20
-80.64951305492442
 30
0.0
 10
192.5815266445629
 20
-80.60696612568159
 30
0.0
 10
192.8709146653239
 20
-80.56390243211597
 30
0.0
 10
193.3015516009802
 20
-80.52617863655248
 30
0.0
 10
193.6191894047202
 20
-80.52652314610101
 30
0.0
 10
194.3571288576607
 20
-80.52772892952084
 30
0.0
 10
194.8153265571989
 20
-80.60334877542208
 30
0.0
 10
195.1308973036478
 20
-80.63211532272392
 30
0.0
 10
195.8523002982591
 20
-80.69808890126646
 30
0.0
 10
196.456570046372
 20
-80.76423473458325
 30
0.0
 10
197.0677299854553
 20
-80.92856578922967
 30
0.0
 10
197.5762260790781
 20
-81.06464706089703
 30
0.0
 10
198.4939995163487
 20
-80.76526826322881
 30
0.0
 10
198.3754882316561
 20
-81.34852292888162
 30
0.0
 10
198.3107204365334
 20
-81.67046710197821
 30
0.0
 10
197.8160047248515
 20
-81.68235268140234
 30
0.0
 10
197.6478840651714
 20
-82.31986760094782
 30
0.0
  0
SPLINE
  5
115
330
103
100
AcDbEntity
  8
Furniture
 62
   250
370
     9
100
AcDbSpline
210
0.0
220
0.0
230
1.0
 70
     8
 71
     3
 72
    47
 73
    43
 74
     0
 42
0.000000001
 43
0.0000000001
 40
0.0
 40
0.0
 40
0.0
 40
0.0
 40
1.0
 40
1.0
 40
1.0
 40
2.0
 40
2.0
 40
2.0
 40
3.0
 40
3.0
 40
3.0
 40
4.0
 40
4.0
 40
4.0
 40
5.0
 40
5.0
 40
5.0
 40
6.0
 40
6.0
 40
6.0
 40
7.0
 40
7.0
 40
7.0
 40
8.0
 40
8.0
 40
8.0
 40
9.0
 40
9.0
 40
9.0
 40
10.0
 40
10.0
 40
10.0
 40
11.0
 40
11.0
 40
11.0
 40
12.0
 40
12.0
 40
12.0
 40
13.0
 40
13.0
 40
13.0
 40
14.0
 40
14.0
 40
14.0
 40
14.0
 10
199.3077310699647
 20
-89.97969290285231
 30
0.0
 10
198.9873371898365
 20
-90.31490069356712
 30
0.0
 10
198.3486164868712
 20
-89.69116615596263
 30
0.0
 10
198.0440700459751
 20
-89.56989879488183
 30
0.0
 10
197.8663031189362
 20
-89.49961884698273
 30
0.0
 10
197.7160969557793
 20
-89.4694742614868
 30
0.0
 10
197.5417751242256
 20
-89.47050779013236
 30
0.0
 10
197.2330945687473
 20
-89.47240259264926
 30
0.0
 10
197.2578992562411
 20
-89.35147974111698
 30
0.0
 10
197.1435220861308
 20
-89.06019691783912
 30
0.0
 10
196.8534450462727
 20
-88.31932913373615
 30
0.0
 10
196.940261452501
 20
-87.54504392342624
 30
0.0
 10
196.8920301157075
 20
-86.75835636936943
 30
0.0
 10
196.843109759817
 20
-85.97442489170084
 30
0.0
 10
196.9009873639692
 20
-85.23562416488902
 30
0.0
 10
196.967133197286
 20
-84.4590996425137
 30
0.0
 10
197.0312119733116
 20
-83.71582029157105
 30
0.0
 10
197.1173393604429
 20
-83.16357148528551
 30
0.0
 10
197.5369519905463
 20
-82.5215779416092
 30
0.0
 10
197.7415906623701
 20
-82.20790199767719
 30
0.0
 10
197.6933593255767
 20
-82.15674232972125
 30
0.0
 10
198.0261555494518
 20
-82.08198375769132
 30
0.0
 10
198.2135687438494
 20
-82.03960908322274
 30
0.0
 10
198.6131998201383
 20
-81.70267874476531
 30
0.0
 10
198.788210670789
 20
-81.61569008376273
 30
0.0
 10
198.9094780318698
 20
-81.55626218664218
 30
0.0
 10
199.0121418773303
 20
-81.45273706731044
 30
0.0
 10
199.1582139259049
 20
-81.47513018796455
 30
0.0
 10
199.4110839345222
 20
-82.11574569344675
 30
0.0
 10
199.518570913662
 20
-82.74189179789091
 30
0.0
 10
199.6046983007932
 20
-83.41902531551678
 30
0.0
 10
199.7066731271567
 20
-84.22724471635637
 30
0.0
 10
199.5571559830968
 20
-84.99705130253547
 30
0.0
 10
199.5571559830968
 20
-85.80613197724639
 30
0.0
 10
199.5571559830968
 20
-86.63398842235192
 30
0.0
 10
199.5785155751054
 20
-87.44944252371055
 30
0.0
 10
199.5785155751054
 20
-88.27798798791315
 30
0.0
 10
199.5785155751054
 20
-88.7370469613227
 30
0.0
 10
199.7039170507684
 20
-89.64569089555734
 30
0.0
 10
199.3132432227411
 20
-89.98554956517722
 30
0.0
 10
199.2967067644119
 20
-89.99950220189248
 30
0.0
 10
199.2808593251798
 20
-90.01052650744529
 30
0.0
 10
199.2663899241417
 20
-90.02223983209514
 30
0.0
  0
SPLINE
  5
116
330
103
100
AcDbEntity
  8
Furniture
 62
   250
370
     9
100
AcDbSpline
210
0.0
220
0.0
230
1.0
 70
     8
 71
     3
 72
    32
 73
    28
 74
     0
 42
0.000000001
 43
0.0000000001
 40
0.0
 40
0.0
 40
0.0
 40
0.0
 40
1.0
 40
1.0
 40
1.0
 40
2.0
 40
2.0
 40
2.0
 40
3.0
 40
3.0
 40
3.0
 40
4.0
 40
4.0
 40
4.0
 40
5.0
 40
5.0
 40
5.0
 40
6.0
 40
6.0
 40
6.0
 40
7.0
 40
7.0
 40
7.0
 40
8.0
 40
8.0
 40
8.0
 40
9.0
 40
9.0
 40
9.0
 40
9.0
 10
182.2724229145013
 20
-84.1845255323393
 30
0.0
 10
182.199386890214
 20
-84.56762015029907
 30
0.0
 10
182.2104111957668
 20
-85.44353567742383
 30
0.0
 10
182.1787163173025
 20
-85.82818058835199
 30
0.0
 10
182.1428873242559
 20
-86.2414197918077
 30
0.0
 10
182.1980088520199
 20
-87.0928751409872
 30
0.0
 10
182.1511555534205
 20
-87.50387503237751
 30
0.0
 10
182.0843207010067
 20
-88.08936901009571
 30
0.0
 10
182.0698512999686
 20
-88.40872936157838
 30
0.0
 10
182.1173936176651
 20
-88.99146726290839
 30
0.0
 10
182.1401312478677
 20
-89.26586911830854
 30
0.0
 10
182.1408202669648
 20
-89.79107392503488
 30
0.0
 10
182.1173936176651
 20
-89.98227672446624
 30
0.0
 10
182.0856987392008
 20
-90.24083114063424
 30
0.0
 10
182.087765796492
 20
-90.67284611448457
 30
0.0
 10
182.1173936176651
 20
-90.79738631627634
 30
0.0
 10
182.1904296419524
 20
-91.11106226020835
 30
0.0
 10
183.0585937042353
 20
-90.85423039178298
 30
0.0
 10
183.2942382354264
 20
-90.8697333214666
 30
0.0
 10
184.1169270373041
 20
-90.9234768110365
 30
0.0
 10
184.6502278184208
 20
-90.81512855802539
 30
0.0
 10
185.4687825057161
 20
-90.7589735016158
 30
0.0
 10
186.6456271234774
 20
-90.67853052203522
 30
0.0
 10
186.8991861511919
 20
-90.67284611448457
 30
0.0
 10
187.8762152308087
 20
-90.74932723425712
 30
0.0
 10
188.4150281647018
 20
-90.7911851444029
 30
0.0
 10
190.0397351955456
 20
-91.19288327798303
 30
0.0
 10
190.0914116278244
 20
-90.79859209969619
 30
0.0
  0
SPLINE
  5
117
330
103
100
AcDbEntity
  8
Furniture
 62
   250
370
     9
100
AcDbSpline
210
0.0
220
0.0
230
1.0
 70
     8
 71
     3
 72
    23
 73
    19
 74
     0
 42
0.000000001
 43
0.0000000001
 40
0.0
 40
0.0
 40
0.0
 40
0.0
 40
1.0
 40
1.0
 40
1.0
 40
2.0
 40
2.0
 40
2.0
 40
3.0
 40
3.0
 40
3.0
 40
4.0
 40
4.0
 40
4.0
 40
5.0
 40
5.0
 40
5.0
 40
6.0
 40
6.0
 40
6.0
 40
6.0
 10
190.0969237806007
 20
-80.84433320461531
 30
0.0
 10
190.0500704820014
 20
-80.74907631444814
 30
0.0
 10
189.87988276503
 20
-80.87723386649946
 30
0.0
 10
189.6435492147419
 20
-80.83313664428825
 30
0.0
 10
189.1584797704187
 20
-80.74270288780043
 30
0.0
 10
187.894818746429
 20
-80.64951305492442
 30
0.0
 10
187.6088758211533
 20
-80.60696612568159
 30
0.0
 10
187.3194878003923
 20
-80.56390243211597
 30
0.0
 10
186.8888508647361
 20
-80.52617863655248
 30
0.0
 10
186.5698350228019
 20
-80.52652314610101
 30
0.0
 10
185.8325845889585
 20
-80.52772892952084
 30
0.0
 10
185.3750759085173
 20
-80.60334877542208
 30
0.0
 10
185.0581271238743
 20
-80.63211532272392
 30
0.0
 10
184.3374131483601
 20
-80.69808890126646
 30
0.0
 10
183.7338324193443
 20
-80.82056204576709
 30
0.0
 10
183.1026909264465
 20
-80.83951007093595
 30
0.0
 10
182.6224446158027
 20
-80.85415172674826
 30
0.0
 10
182.3440809005945
 20
-80.60352103019635
 30
0.0
 10
182.2000759093111
 20
-80.88532984088978
 30
0.0
  0
SPLINE
  5
118
330
103
100
AcDbEntity
  8
Furniture
 62
   250
370
     9
100
AcDbSpline
210
0.0
220
0.0
230
1.0
 70
     8
 71
     3
 72
    23
 73
    19
 74
     0
 42
0.000000001
 43
0.0000000001
 40
0.0
 40
0.0
 40
0.0
 40
0.0
 40
1.0
 40
1.0
 40
1.0
 40
2.0
 40
2.0
 40
2.0
 40
3.0
 40
3.0
 40
3.0
 40
4.0
 40
4.0
 40
4.0
 40
5.0
 40
5.0
 40
5.0
 40
6.0
 40
6.0
 40
6.0
 40
6.0
 10
182.2166123676403
 20
-84.07858884616786
 30
0.0
 10
182.2372829405518
 20
-84.1812526916283
 30
0.0
 10
182.323410327683
 20
-84.27995467728072
 30
0.0
 10
182.5941948328237
 20
-84.27995467728072
 30
0.0
 10
183.3066405791733
 20
-84.27995467728072
 30
0.0
 10
184.0149522109407
 20
-84.19141572330978
 30
0.0
 10
184.515869094496
 20
-84.259800868692
 30
0.0
 10
184.9651095457726
 20
-84.32095131355518
 30
0.0
 10
185.425374302602
 20
-84.35367972066506
 30
0.0
 10
185.880815925752
 20
-84.36143118550686
 30
0.0
 10
186.3624402745899
 20
-84.36918265034867
 30
0.0
 10
186.8771375400863
 20
-84.36212020460391
 30
0.0
 10
187.3642740417006
 20
-84.36212020460391
 30
0.0
 10
187.82453879853
 20
-84.36212020460391
 30
0.0
 10
188.2868706126505
 20
-84.31595592510157
 30
0.0
 10
188.7450683121887
 20
-84.25670028275527
 30
0.0
 10
189.3314235637782
 20
-84.18108043685405
 30
0.0
 10
189.4733614977705
 20
-84.27013615514775
 30
0.0
 10
190.0610947875541
 20
-84.02036673246714
 30
0.0
  0
POLYLINE
  5
119
330
103
100
AcDbEntity
  8
Furniture
 62
   250
370
     9
100
AcDb2dPolyline
 66
     1
 10
0.0
 20
0.0
 30
0.0
  0
VERTEX
  5
11A
330
119
100
AcDbEntity
  8
Furniture
 62
   250
370
     9
100
AcDbVertex
100
AcDb2dVertex
 10
182.1676920117497
 20
-82.44595809570796
 30
0.0
  0
VERTEX
  5
156
330
119
100
AcDbEntity
  8
0
100
AcDbVertex
100
AcDb2dVertex
 10
182.1676920117497
 20
-82.44595809570796
 30
0.0
  0
SEQEND
  5
11B
330
119
100
AcDbEntity
  8
Furniture
370
     9
  0
POLYLINE
  5
11C
330
103
100
AcDbEntity
  8
Furniture
 62
   250
370
     9
100
AcDb2dPolyline
 66
     1
 10
0.0
 20
0.0
 30
0.0
  0
VERTEX
  5
11D
330
11C
100
AcDbEntity
  8
Furniture
 62
   250
370
     9
100
AcDbVertex
100
AcDb2dVertex
 10
190.0983018187949
 20
-85.72310517605187
 30
0.0
  0
VERTEX
  5
11E
330
11C
100
AcDbEntity
  8
Furniture
 62
   250
370
     9
100
AcDbVertex
100
AcDb2dVertex
 10
190.0610947875541
 20
-84.02036673246714
 30
0.0
  0
SEQEND
  5
11F
330
11C
100
AcDbEntity
  8
Furniture
370
     9
  0
ENDBLK
  5
106
330
103
100
AcDbEntity
  8
0
100
AcDbBlockEnd
  0
BLOCK
  5
127
330
125
100
AcDbEntity
  8
0
100
AcDbBlockBegin
  2
block 11
 70
     0
 10
0.0
 20
0.0
 30
0.0
  3
block 11
  1

  0
SPLINE
  5
129
330
125
100
AcDbEntity
  8
Furniture
 62
   250
370
     9
100
AcDbSpline
210
0.0
220
0.0
230
1.0
 70
     9
 71
     3
 72
    32
 73
    28
 74
     0
 42
0.000000001
 43
0.0000000001
 40
0.0
 40
0.0
 40
0.0
 40
0.0
 40
1.0
 40
1.0
 40
1.0
 40
2.0
 40
2.0
 40
2.0
 40
3.0
 40
3.0
 40
3.0
 40
4.0
 40
4.0
 40
4.0
 40
5.0
 40
5.0
 40
5.0
 40
6.0
 40
6.0
 40
6.0
 40
7.0
 40
7.0
 40
7.0
 40
8.0
 40
8.0
 40
8.0
 40
9.0
 40
9.0
 40
9.0
 40
9.0
 10
92.7306016478243
 20
-83.88635251809091
 30
0.0
 10
92.63689505062549
 20
-83.89668780454666
 30
0.0
 10
92.25586748995686
 20
-84.36470402621784
 30
0.0
 10
91.99145641146394
 20
-84.4522094515432
 30
0.0
 10
91.77596568886157
 20
-84.52335067331361
 30
0.0
 10
91.1567097753879
 20
-84.66098223794935
 30
0.0
 10
90.98617754886804
 20
-84.5018188265308
 30
0.0
 10
90.94518091259358
 20
-84.46409503096731
 30
0.0
 10
91.02614065649694
 20
-84.07703855319949
 30
0.0
 10
90.9634399186654
 20
-84.07979462958769
 30
0.0
 10
90.85233558926608
 20
-84.08496227281558
 30
0.0
 10
90.55760767050296
 20
-84.09202471856032
 30
0.0
 10
90.40378415708657
 20
-84.07979462958769
 30
0.0
 10
90.17950844099679
 20
-84.06256915216145
 30
0.0
 10
90.38001299823832
 20
-86.35424666894964
 30
0.0
 10
90.25995142057738
 20
-86.24417586819591
 30
0.0
 10
89.71648760777922
 20
-85.74653182535156
 30
0.0
 10
89.49944659220847
 20
-86.38938664289918
 30
0.0
 10
89.43622909005414
 20
-85.74842662786846
 30
0.0
 10
89.35561385569929
 20
-84.93297252650981
 30
0.0
 10
89.46981877103532
 20
-83.93010523075359
 30
0.0
 10
90.19828421139141
 20
-83.31808401779895
 30
0.0
 10
90.54124346694804
 20
-83.02972952568355
 30
0.0
 10
91.11536862956491
 20
-82.86557072581139
 30
0.0
 10
91.91755911330533
 20
-83.30516490972927
 30
0.0
 10
92.005925812502
 20
-83.35391301084555
 30
0.0
 10
93.00517575799871
 20
-83.85551891349793
 30
0.0
 10
92.7306016478243
 20
-83.88635251809091
 30
0.0
  0
POLYLINE
  5
12A
330
125
100
AcDbEntity
  8
Furniture
 62
   250
370
     9
100
AcDb2dPolyline
 66
     1
 10
0.0
 20
0.0
 30
0.0
  0
VERTEX
  5
12B
330
12A
100
AcDbEntity
  8
Furniture
 62
   250
370
     9
100
AcDbVertex
100
AcDb2dVertex
 10
90.34039440015796
 20
-87.87887367594695
 30
0.0
  0
VERTEX
  5
12C
330
12A
100
AcDbEntity
  8
Furniture
 62
   250
370
     9
100
AcDbVertex
100
AcDb2dVertex
 10
90.34039440015796
 20
-88.46281736069681
 30
0.0
  0
VERTEX
  5
12D
330
12A
100
AcDbEntity
  8
Furniture
 62
   250
370
     9
100
AcDbVertex
100
AcDb2dVertex
 10
82.25596107969643
 20
-88.46281736069681
 30
0.0
  0
VERTEX
  5
12E
330
12A
100
AcDbEntity
  8
Furniture
 62
   250
370
     9
100
AcDbVertex
100
AcDb2dVertex
 10
82.25596107969643
 20
-87.86698809652284
 30
0.0
  0
VERTEX
  5
12F
330
12A
100
AcDbEntity
  8
Furniture
 62
   250
370
     9
100
AcDbVertex
100
AcDb2dVertex
 10
90.34039440015796
 20
-87.87887367594695
 30
0.0
  0
SEQEND
  5
130
330
12A
100
AcDbEntity
  8
Furniture
370
     9
  0
POLYLINE
  5
131
330
125
100
AcDbEntity
  8
Furniture
 62
   250
370
     9
100
AcDb2dPolyline
 66
     1
 10
0.0
 20
0.0
 30
0.0
  0
VERTEX
  5
132
330
131
100
AcDbEntity
  8
Furniture
 62
   250
370
     9
100
AcDbVertex
100
AcDb2dVertex
 10
82.25596107969643
 20
-85.86487085526989
 30
0.0
  0
VERTEX
  5
133
330
131
100
AcDbEntity
  8
Furniture
 62
   250
370
     9
100
AcDbVertex
100
AcDb2dVertex
 10
82.25596107969643
 20
-84.07755531752227
 30
0.0
  0
VERTEX
  5
134
330
131
100
AcDbEntity
  8
Furniture
 62
   250
370
     9
100
AcDbVertex
100
AcDb2dVertex
 10
81.62947046570375
 20
-84.07755531752227
 30
0.0
  0
VERTEX
  5
135
330
131
100
AcDbEntity
  8
Furniture
 62
   250
370
     9
100
AcDbVertex
100
AcDb2dVertex
 10
81.61689586718258
 20
-90.97050236441015
 30
0.0
  0
VERTEX
  5
136
330
131
100
AcDbEntity
  8
Furniture
 62
   250
370
     9
100
AcDbVertex
100
AcDb2dVertex
 10
82.25647784401921
 20
-90.97050236441015
 30
0.0
  0
VERTEX
  5
137
330
131
100
AcDbEntity
  8
Furniture
 62
   250
370
     9
100
AcDbVertex
100
AcDb2dVertex
 10
82.25596107969643
 20
-88.46281736069681
 30
0.0
  0
SEQEND
  5
138
330
131
100
AcDbEntity
  8
Furniture
370
     9
  0
POLYLINE
  5
139
330
125
100
AcDbEntity
  8
Furniture
 62
   250
370
     9
100
AcDb2dPolyline
 66
     1
 10
0.0
 20
0.0
 30
0.0
  0
VERTEX
  5
13A
330
139
100
AcDbEntity
  8
Furniture
 62
   250
370
     9
100
AcDbVertex
100
AcDb2dVertex
 10
90.34039440015796
 20
-86.41505260426429
 30
0.0
  0
VERTEX
  5
13B
330
139
100
AcDbEntity
  8
Furniture
 62
   250
370
     9
100
AcDbVertex
100
AcDb2dVertex
 10
90.34039440015796
 20
-84.08082815823327
 30
0.0
  0
VERTEX
  5
13C
330
139
100
AcDbEntity
  8
Furniture
 62
   250
370
     9
100
AcDbVertex
100
AcDb2dVertex
 10
90.97170814783
 20
-84.08082815823327
 30
0.0
  0
VERTEX
  5
13D
330
139
100
AcDbEntity
  8
Furniture
 62
   250
370
     9
100
AcDbVertex
100
AcDb2dVertex
 10
90.9679185427962
 20
-84.08082815823327
 30
0.0
  0
VERTEX
  5
13E
330
139
100
AcDbEntity
  8
Furniture
 62
   250
370
     9
100
AcDbVertex
100
AcDb2dVertex
 10
90.9679185427962
 20
-90.97050236441015
 30
0.0
  0
VERTEX
  5
13F
330
139
100
AcDbEntity
  8
Furniture
 62
   250
370
     9
100
AcDbVertex
100
AcDb2dVertex
 10
90.34039440015796
 20
-90.97050236441015
 30
0.0
  0
VERTEX
  5
140
330
139
100
AcDbEntity
  8
Furniture
 62
   250
370
     9
100
AcDbVertex
100
AcDb2dVertex
 10
90.34039440015796
 20
-88.46281736069681
 30
0.0
  0
SEQEND
  5
141
330
139
100
AcDbEntity
  8
Furniture
370
     9
  0
SPLINE
  5
142
330
125
100
AcDbEntity
  8
Furniture
 62
   250
370
     9
100
AcDbSpline
210
0.0
220
0.0
230
1.0
 70
     8
 71
     3
 72
    29
 73
    25
 74
     0
 42
0.000000001
 43
0.0000000001
 40
0.0
 40
0.0
 40
0.0
 40
0.0
 40
1.0
 40
1.0
 40
1.0
 40
2.0
 40
2.0
 40
2.0
 40
3.0
 40
3.0
 40
3.0
 40
4.0
 40
4.0
 40
4.0
 40
5.0
 40
5.0
 40
5.0
 40
6.0
 40
6.0
 40
6.0
 40
7.0
 40
7.0
 40
7.0
 40
8.0
 40
8.0
 40
8.0
 40
8.0
 10
89.96608477568557
 20
-83.54976668918201
 30
0.0
 10
90.1169799579395
 20
-82.29041203454892
 30
0.0
 10
89.97486976917295
 20
-82.77634275274342
 30
0.0
 10
89.7872843200011
 20
-81.31510550267469
 30
0.0
 10
89.7597235561191
 20
-81.09944252529805
 30
0.0
 10
89.97607555259278
 20
-80.77767060697572
 30
0.0
 10
89.96556801136277
 20
-80.62212454581668
 30
0.0
 10
89.94558645754834
 20
-80.32464055066537
 30
0.0
 10
88.93152260146504
 20
-80.81642793118479
 30
0.0
 10
88.73532441358007
 20
-80.81522214776494
 30
0.0
 10
87.91849227402734
 20
-80.80884872111722
 30
0.0
 10
86.81675073784443
 20
-80.73219534657042
 30
0.0
 10
86.51874997837031
 20
-80.73598495160421
 30
0.0
 10
85.82835284312626
 20
-80.74494219986585
 30
0.0
 10
84.31199406529353
 20
-80.74390867122028
 30
0.0
 10
83.74148625293615
 20
-80.89411483437716
 30
0.0
 10
83.40266111196184
 20
-80.98334280744515
 30
0.0
 10
82.87814532433255
 20
-80.63642169208048
 30
0.0
 10
82.5927191633796
 20
-80.55942380798514
 30
0.0
 10
82.3024698687473
 20
-80.48070337614719
 30
0.0
 10
82.3457058170872
 20
-80.83175860609413
 30
0.0
 10
82.38945852974985
 20
-81.11063908562512
 30
0.0
 10
82.43958466906025
 20
-81.43223874917319
 30
0.0
 10
82.14795733623384
 20
-82.71036917420088
 30
0.0
 10
82.35810816083409
 20
-83.31808401779895
 30
0.0
  0
SPLINE
  5
143
330
125
100
AcDbEntity
  8
Furniture
 62
   250
370
     9
100
AcDbSpline
210
0.0
220
0.0
230
1.0
 70
     9
 71
     3
 72
    32
 73
    28
 74
     0
 42
0.000000001
 43
0.0000000001
 40
0.0
 40
0.0
 40
0.0
 40
0.0
 40
1.0
 40
1.0
 40
1.0
 40
2.0
 40
2.0
 40
2.0
 40
3.0
 40
3.0
 40
3.0
 40
4.0
 40
4.0
 40
4.0
 40
5.0
 40
5.0
 40
5.0
 40
6.0
 40
6.0
 40
6.0
 40
7.0
 40
7.0
 40
7.0
 40
8.0
 40
8.0
 40
8.0
 40
9.0
 40
9.0
 40
9.0
 40
9.0
 10
79.8257907244012
 20
-83.88635251809091
 30
0.0
 10
79.91949732159999
 20
-83.89668780454666
 30
0.0
 10
80.30052488226862
 20
-84.36470402621784
 30
0.0
 10
80.56476370598728
 20
-84.4522094515432
 30
0.0
 10
80.78042668336392
 20
-84.52335067331361
 30
0.0
 10
81.39968259683758
 20
-84.66098223794935
 30
0.0
 10
81.57021482335744
 20
-84.5018188265308
 30
0.0
 10
81.61121145963191
 20
-84.46409503096731
 30
0.0
 10
81.53007946095428
 20
-84.07703855319949
 30
0.0
 10
81.59295245356011
 20
-84.07979462958769
 30
0.0
 10
81.70388452818514
 20
-84.08496227281558
 30
0.0
 10
81.99878470172253
 20
-84.09202471856032
 30
0.0
 10
82.15243596036467
 20
-84.07979462958769
 30
0.0
 10
82.37688393122871
 20
-84.06256915216145
 30
0.0
 10
82.17637937398716
 20
-86.35424666894964
 30
0.0
 10
82.29661320642238
 20
-86.24417586819591
 30
0.0
 10
82.83990476444627
 20
-85.74653182535156
 30
0.0
 10
83.05677352524275
 20
-86.38938664289918
 30
0.0
 10
83.12016328217135
 20
-85.74842662786846
 30
0.0
 10
83.20077851652619
 20
-84.93297252650981
 30
0.0
 10
83.08657360119017
 20
-83.93010523075359
 30
0.0
 10
82.35810816083409
 20
-83.31808401779895
 30
0.0
 10
82.0149766505032
 20
-83.02972952568355
 30
0.0
 10
81.44102374266058
 20
-82.86557072581139
 30
0.0
 10
80.63883325892016
 20
-83.30516490972927
 30
0.0
 10
80.55029430494924
 20
-83.35391301084555
 30
0.0
 10
79.55121661422679
 20
-83.85551891349793
 30
0.0
 10
79.8257907244012
 20
-83.88635251809091
 30
0.0
  0
SPLINE
  5
144
330
125
100
AcDbEntity
  8
Furniture
 62
   250
370
     9
100
AcDbSpline
210
0.0
220
0.0
230
1.0
 70
     9
 71
     3
 72
    20
 73
    16
 74
     0
 42
0.000000001
 43
0.0000000001
 40
0.0
 40
0.0
 40
0.0
 40
0.0
 40
1.0
 40
1.0
 40
1.0
 40
2.0
 40
2.0
 40
2.0
 40
3.0
 40
3.0
 40
3.0
 40
4.0
 40
4.0
 40
4.0
 40
5.0
 40
5.0
 40
5.0
 40
5.0
 10
86.19766707914504
 20
-85.44766979200614
 30
0.0
 10
83.32135685850994
 20
-85.34448918222292
 30
0.0
 10
82.54534910045741
 20
-85.84609508487529
 30
0.0
 10
81.86959362102566
 20
-86.71167532554431
 30
0.0
 10
81.36592066108212
 20
-87.3398884872796
 30
0.0
 10
80.90720619722111
 20
-87.40689559446773
 30
0.0
 10
80.93924558523395
 20
-87.61377357835698
 30
0.0
 10
81.019344055266
 20
-88.13605005392085
 30
0.0
 10
91.23818628361407
 20
-88.19496118671862
 30
0.0
 10
91.4571221017017
 20
-87.67078990863785
 30
0.0
 10
90.60187714748842
 20
-86.58437904736432
 30
0.0
 10
91.07695581490437
 20
-87.48389347856306
 30
0.0
 10
90.24272594315112
 20
-86.27397594414331
 30
0.0
 10
89.59728730398957
 20
-85.33759899125241
 30
0.0
 10
86.19766707914504
 20
-85.44766979200614
 30
0.0
 10
86.19766707914504
 20
-85.44766979200614
 30
0.0
  0
ENDBLK
  5
128
330
125
100
AcDbEntity
  8
0
100
AcDbBlockEnd
  0
BLOCK
  5
147
330
145
100
AcDbEntity
  8
0
100
AcDbBlockBegin
  2
block 12
 70
     0
 10
0.0
 20
0.0
 30
0.0
  3
block 12
  1

  0
MTEXT
  5
149
330
145
100
AcDbEntity
  8
Furniture
 62
   251
100
AcDbMText
 10
93.47543129173532
 20
-88.66073809632441
 30
0.0
 40
1.559277777387958
 41
0.0
 46
0.0
 71
     7
 72
     1
  1
\fApercu|b0|i0|c0|p34;\W1.0004;40
 73
     1
 44
1.0
  0
POLYLINE
  5
14A
330
145
100
AcDbEntity
  8
Furniture
370
     0
100
AcDb2dPolyline
 66
     1
 10
0.0
 20
0.0
 30
0.0
  0
VERTEX
  5
14B
330
14A
100
AcDbEntity
  8
Furniture
370
     0
100
AcDbVertex
100
AcDb2dVertex
 10
92.08085663930617
 20
-85.46145017394714
 30
0.0
  0
VERTEX
  5
14C
330
14A
100
AcDbEntity
  8
Furniture
370
     0
100
AcDbVertex
100
AcDb2dVertex
 10
92.08085663930617
 20
-90.45012069136317
 30
0.0
  0
SEQEND
  5
14D
330
14A
100
AcDbEntity
  8
Furniture
370
     0
  0
ENDBLK
  5
148
330
145
100
AcDbEntity
  8
0
100
AcDbBlockEnd
  0
BLOCK
  5
328
330
320
100
AcDbEntity
  8
0
100
AcDbBlockBegin
  2
A$C399D1CF9
 70
     0
 10
0.0
 20
0.0
 30
0.0
  3
A$C399D1CF9
  1

  0
TEXT
  5
321
330
320
100
AcDbEntity
  8
Text
100
AcDbText
 10
37.97366651819903
 20
87.46955710431212
 30
0.0
 40
233.9816249415046
  1
Beds
 41
1.000399999999999
100
AcDbText
  0
LINE
  5
322
330
320
100
AcDbEntity
  8
Text
370
     9
100
AcDbLine
 10
37.97366651819903
 20
827.9164228859972
 30
0.0
 11
9191.928706069345
 21
827.9164228859972
 31
0.0
  0
TEXT
  5
323
330
320
100
AcDbEntity
  8
Text
100
AcDbText
 10
37.97366651819903
 20
2571.40696297747
 30
0.0
 40
192.6907499518273
  1
Nook
 41
1.000399999999999
100
AcDbText
  0
TEXT
  5
324
330
320
100
AcDbEntity
  8
Text
100
AcDbText
 10
37.97366651819903
 20
1968.783994622267
 30
0.0
 40
192.6907499518273
  1
—
 41
1.000399999999999
100
AcDbText
  0
TEXT
  5
325
330
320
100
AcDbEntity
  8
Text
100
AcDbText
 10
37.97366651819903
 20
1293.813478743803
 30
0.0
 40
233.9816249415046
  1
DIMENSIONS
 41
1.000399999999999
100
AcDbText
  0
ENDBLK
  5
329
330
320
100
AcDbEntity
  8
0
100
AcDbBlockEnd
  0
ENDSEC
  0
SECTION
  2
ENTITIES
  0
INSERT
  5
3D
330
1F
100
AcDbEntity
  8
Furniture
100
AcDbBlockReference
  2
block 2
 10
0.0
 20
0.0
 30
0.0
  0
INSERT
  5
41
330
1F
100
AcDbEntity
  8
Furniture
100
AcDbBlockReference
  2
block 3
 10
0.0
 20
0.0
 30
0.0
  0
INSERT
  5
45
330
1F
100
AcDbEntity
  8
Furniture
100
AcDbBlockReference
  2
block 4
 10
0.0
 20
0.0
 30
0.0
  0
MTEXT
  5
AF
330
1F
100
AcDbEntity
  8
Dimensions
100
AcDbMText
 10
3579.782137901841
 20
388.2997398261847
 30
0.0
 40
134.0407799590058
 41
0.0
 46
0.0
 71
     7
 72
     1
  1
\fApercu|b0|i0|c0|p34;\W1.0004;90
 73
     1
 44
1.0
  0
MTEXT
  5
B0
330
1F
100
AcDbEntity
  8
Dimensions
100
AcDbMText
 10
2889.999627116529
 20
1028.846974902306
 30
0.0
 40
134.0407799590058
 41
0.0
 46
0.0
 71
     7
 72
     1
  1
\fApercu|b0|i0|c0|p34;\W1.0004;90
 73
     1
 44
1.0
  0
MTEXT
  5
B1
330
1F
100
AcDbEntity
  8
Dimensions
100
AcDbMText
 10
8508.048141370215
 20
415.782648613028
 30
0.0
 40
134.0407799590058
 41
0.0
 46
0.0
 71
     7
 72
     1
  1
\fApercu|b0|i0|c0|p34;\W1.0004;90
 73
     1
 44
1.0
  0
MTEXT
  5
B2
330
1F
100
AcDbEntity
  8
Dimensions
100
AcDbMText
 10
7686.966626159828
 20
1028.846974902306
 30
0.0
 40
134.0407799590058
 41
0.0
 46
0.0
 71
     7
 72
     1
  1
\fApercu|b0|i0|c0|p34;\W1.0004;110
 73
     1
 44
1.0
  0
MTEXT
  5
B3
330
1F
100
AcDbEntity
  8
Text
100
AcDbMText
 10
7575.56562817643
 20
-354.449562301013
 30
0.0
 40
134.0407799590058
 41
0.0
 46
0.0
 71
     7
 72
     1
  1
WF110
 73
     1
 44
1.0
  0
MTEXT
  5
DB
330
1F
100
AcDbEntity
  8
Dimensions
100
AcDbMText
 10
11565.1959766688
 20
419.4253186354219
 30
0.0
 40
134.0407799590058
 41
0.0
 46
0.0
 71
     7
 72
     1
  1
\fApercu|b0|i0|c0|p34;\W1.0004;90
 73
     1
 44
1.0
  0
MTEXT
  5
DC
330
1F
100
AcDbEntity
  8
Dimensions
100
AcDbMText
 10
10423.4558462757
 20
1028.83216730059
 30
0.0
 40
134.0407799590058
 41
0.0
 46
0.0
 71
     7
 72
     1
  1
\fApercu|b0|i0|c0|p34;\W1.0004;184
 73
     1
 44
1.0
  0
MTEXT
  5
DD
330
1F
100
AcDbEntity
  8
Text
100
AcDbMText
 10
10314.83867741511
 20
-354.449562301013
 30
0.0
 40
134.0407799590058
 41
0.0
 46
0.0
 71
     7
 72
     1
  1
WF184
 73
     1
 44
1.0
  0
MTEXT
  5
100
330
1F
100
AcDbEntity
  8
Dimensions
100
AcDbMText
 10
15425.94046981168
 20
419.3957034319878
 30
0.0
 40
134.0407799590058
 41
0.0
 46
0.0
 71
     7
 72
     1
  1
\fApercu|b0|i0|c0|p34;\W1.0004;90
 73
     1
 44
1.0
  0
MTEXT
  5
101
330
1F
100
AcDbEntity
  8
Dimensions
100
AcDbMText
 10
13783.43394428966
 20
1028.83216730059
 30
0.0
 40
134.0407799590058
 41
0.0
 46
0.0
 71
     7
 72
     1
  1
\fApercu|b0|i0|c0|p34;\W1.0004;264
 73
     1
 44
1.0
  0
MTEXT
  5
102
330
1F
100
AcDbEntity
  8
Text
100
AcDbMText
 10
13677.08233849178
 20
-354.449562301013
 30
0.0
 40
134.0407799590058
 41
0.0
 46
0.0
 71
     7
 72
     1
  1
WF264
 73
     1
 44
1.0
  0
POLYLINE
  5
121
330
1F
100
AcDbEntity
  8
Text
370
     9
100
AcDb2dPolyline
 66
     1
 10
0.0
 20
0.0
 30
0.0
  0
VERTEX
  5
122
330
121
100
AcDbEntity
  8
Text
370
     9
100
AcDbVertex
100
AcDb2dVertex
 10
0.0
 20
1641.79284037785
 30
0.0
  0
VERTEX
  5
123
330
121
100
AcDbEntity
  8
Text
370
     9
100
AcDbVertex
100
AcDb2dVertex
 10
15473.39591305307
 20
1641.79284037785
 30
0.0
  0
SEQEND
  5
124
330
121
100
AcDbEntity
  8
Text
370
     9
  0
MTEXT
  5
1D1
330
1F
100
AcDbEntity
  8
Dimensions
100
AcDbMText
 10
5987.853559535279
 20
198.5551314239144
 30
0.0
 40
134.0407799590057
 41
0.0
 46
0.0
 71
     7
 72
     1
  1
\fApercu|b0|i0|c0|p34;\W1.0004;40
 73
     1
 44
1.0
  0
SPLINE
  5
1D8
330
1F
100
AcDbEntity
  8
Furniture
370
     9
100
AcDbSpline
210
0.0
220
0.0
230
1.0
 70
     8
 71
     3
 72
     8
 73
     4
 74
     0
 42
0.000000001
 43
0.0000000001
 40
0.0
 40
0.0
 40
0.0
 40
0.0
 40
1.0
 40
1.0
 40
1.0
 40
1.0
 10
3389.682147058361
 20
625.5471345367502
 30
0.0
 10
3391.977325324504
 20
625.5471345367502
 30
0.0
 10
3393.872698344285
 20
623.3556094826269
 30
0.0
 10
3393.872698344285
 20
620.6162031649726
 30
0.0
  0
POLYLINE
  5
1D9
330
1F
100
AcDbEntity
  8
Furniture
370
     9
100
AcDb2dPolyline
 66
     1
 10
0.0
 20
0.0
 30
0.0
  0
VERTEX
  5
1DA
330
1D9
100
AcDbEntity
  8
Furniture
370
     9
100
AcDbVertex
100
AcDb2dVertex
 10
3393.872698344285
 20
603.5134231817817
 30
0.0
  0
VERTEX
  5
1DB
330
1D9
100
AcDbEntity
  8
Furniture
370
     9
100
AcDbVertex
100
AcDb2dVertex
 10
3394.790769650743
 20
-0.0000000000002274
 30
0.0
  0
VERTEX
  5
1DC
330
1D9
100
AcDbEntity
  8
Furniture
370
     9
100
AcDbVertex
100
AcDb2dVertex
 10
3348.176439445469
 20
-0.0000000000002274
 30
0.0
  0
VERTEX
  5
1DD
330
1D9
100
AcDbEntity
  8
Furniture
370
     9
100
AcDbVertex
100
AcDb2dVertex
 10
3348.176439445469
 20
209.557179499682
 30
0.0
  0
SEQEND
  5
1DE
330
1D9
100
AcDbEntity
  8
Furniture
370
     9
  0
POLYLINE
  5
1DF
330
1F
100
AcDbEntity
  8
Furniture
370
     9
100
AcDb2dPolyline
 66
     1
 10
0.0
 20
0.0
 30
0.0
  0
VERTEX
  5
1E0
330
1DF
100
AcDbEntity
  8
Furniture
370
     9
100
AcDbVertex
100
AcDb2dVertex
 10
2724.258141097595
 20
560.9267606435467
 30
0.0
  0
VERTEX
  5
1E1
330
1DF
100
AcDbEntity
  8
Furniture
370
     9
100
AcDbVertex
100
AcDb2dVertex
 10
3319.464499716112
 20
560.9267606435467
 30
0.0
  0
SEQEND
  5
1E2
330
1DF
100
AcDbEntity
  8
Furniture
370
     9
  0
POLYLINE
  5
1E3
330
1F
100
AcDbEntity
  8
Furniture
370
     9
100
AcDb2dPolyline
 66
     1
 10
0.0
 20
0.0
 30
0.0
  0
VERTEX
  5
1E4
330
1E3
100
AcDbEntity
  8
Furniture
370
     9
100
AcDbVertex
100
AcDb2dVertex
 10
2724.258141097595
 20
176.3881516534918
 30
0.0
  0
VERTEX
  5
1E5
330
1E3
100
AcDbEntity
  8
Furniture
370
     9
100
AcDbVertex
100
AcDb2dVertex
 10
2724.258141097595
 20
-0.0000000000002274
 30
0.0
  0
VERTEX
  5
1E6
330
1E3
100
AcDbEntity
  8
Furniture
370
     9
100
AcDbVertex
100
AcDb2dVertex
 10
2678.547074597064
 20
-0.0000000000002274
 30
0.0
  0
SEQEND
  5
1E7
330
1E3
100
AcDbEntity
  8
Furniture
370
     9
  0
POLYLINE
  5
1E8
330
1F
100
AcDbEntity
  8
Furniture
370
     9
100
AcDb2dPolyline
 66
     1
 10
0.0
 20
0.0
 30
0.0
  0
VERTEX
  5
1E9
330
1E8
100
AcDbEntity
  8
Furniture
370
     9
100
AcDbVertex
100
AcDb2dVertex
 10
2724.258141097595
 20
176.3881516534918
 30
0.0
  0
VERTEX
  5
1EA
330
1E8
100
AcDbEntity
  8
Furniture
370
     9
100
AcDbVertex
100
AcDb2dVertex
 10
2724.258141097595
 20
560.9267606435467
 30
0.0
  0
SEQEND
  5
1EB
330
1E8
100
AcDbEntity
  8
Furniture
370
     9
  0
POLYLINE
  5
1EC
330
1F
100
AcDbEntity
  8
Furniture
370
     9
100
AcDb2dPolyline
 66
     1
 10
0.0
 20
0.0
 30
0.0
  0
VERTEX
  5
1ED
330
1EC
100
AcDbEntity
  8
Furniture
370
     9
100
AcDbVertex
100
AcDb2dVertex
 10
3353.788520496233
 20
579.5399160018775
 30
0.0
  0
VERTEX
  5
1EE
330
1EC
100
AcDbEntity
  8
Furniture
370
     9
100
AcDbVertex
100
AcDb2dVertex
 10
3353.788520496233
 20
595.9911615095204
 30
0.0
  0
SEQEND
  5
1EF
330
1EC
100
AcDbEntity
  8
Furniture
370
     9
  0
POLYLINE
  5
1F0
330
1F
100
AcDbEntity
  8
Furniture
370
     9
100
AcDb2dPolyline
 66
     1
 10
0.0
 20
0.0
 30
0.0
  0
VERTEX
  5
1F1
330
1F0
100
AcDbEntity
  8
Furniture
370
     9
100
AcDbVertex
100
AcDb2dVertex
 10
3348.176439445469
 20
560.9267606435467
 30
0.0
  0
VERTEX
  5
1F2
330
1F0
100
AcDbEntity
  8
Furniture
370
     9
100
AcDbVertex
100
AcDb2dVertex
 10
3349.124125955361
 20
560.9267606435467
 30
0.0
  0
VERTEX
  5
1F3
330
1F0
100
AcDbEntity
  8
Furniture
370
     9
100
AcDbVertex
100
AcDb2dVertex
 10
3349.124125955361
 20
562.0225231706087
 30
0.0
  0
VERTEX
  5
1F4
330
1F0
100
AcDbEntity
  8
Furniture
370
     9
100
AcDbVertex
100
AcDb2dVertex
 10
3349.124125955361
 20
563.1182856976709
 30
0.0
  0
VERTEX
  5
1F5
330
1F0
100
AcDbEntity
  8
Furniture
370
     9
100
AcDbVertex
100
AcDb2dVertex
 10
3350.027389660101
 20
564.214048224732
 30
0.0
  0
VERTEX
  5
1F6
330
1F0
100
AcDbEntity
  8
Furniture
370
     9
100
AcDbVertex
100
AcDb2dVertex
 10
3350.027389660101
 20
565.3098107517942
 30
0.0
  0
VERTEX
  5
1F7
330
1F0
100
AcDbEntity
  8
Furniture
370
     9
100
AcDbVertex
100
AcDb2dVertex
 10
3350.960268568277
 20
566.4055732788553
 30
0.0
  0
VERTEX
  5
1F8
330
1F0
100
AcDbEntity
  8
Furniture
370
     9
100
AcDbVertex
100
AcDb2dVertex
 10
3350.960268568277
 20
567.5013358059175
 30
0.0
  0
VERTEX
  5
1F9
330
1F0
100
AcDbEntity
  8
Furniture
370
     9
100
AcDbVertex
100
AcDb2dVertex
 10
3351.907955078168
 20
568.582290731261
 30
0.0
  0
VERTEX
  5
1FA
330
1F0
100
AcDbEntity
  8
Furniture
370
     9
100
AcDbVertex
100
AcDb2dVertex
 10
3351.907955078168
 20
569.6928608600408
 30
0.0
  0
VERTEX
  5
1FB
330
1F0
100
AcDbEntity
  8
Furniture
370
     9
100
AcDbVertex
100
AcDb2dVertex
 10
3352.840833986342
 20
571.8843859141632
 30
0.0
  0
VERTEX
  5
1FC
330
1F0
100
AcDbEntity
  8
Furniture
370
     9
100
AcDbVertex
100
AcDb2dVertex
 10
3352.840833986342
 20
572.9801484412253
 30
0.0
  0
VERTEX
  5
1FD
330
1F0
100
AcDbEntity
  8
Furniture
370
     9
100
AcDbVertex
100
AcDb2dVertex
 10
3353.788520496233
 20
575.1568658936319
 30
0.0
  0
VERTEX
  5
1FE
330
1F0
100
AcDbEntity
  8
Furniture
370
     9
100
AcDbVertex
100
AcDb2dVertex
 10
3353.788520496233
 20
576.252628420694
 30
0.0
  0
VERTEX
  5
1FF
330
1F0
100
AcDbEntity
  8
Furniture
370
     9
100
AcDbVertex
100
AcDb2dVertex
 10
3353.788520496233
 20
578.4589610765331
 30
0.0
  0
VERTEX
  5
200
330
1F0
100
AcDbEntity
  8
Furniture
370
     9
100
AcDbVertex
100
AcDb2dVertex
 10
3353.788520496233
 20
579.5399160018775
 30
0.0
  0
SEQEND
  5
201
330
1F0
100
AcDbEntity
  8
Furniture
370
     9
  0
POLYLINE
  5
202
330
1F
100
AcDbEntity
  8
Furniture
370
     9
100
AcDb2dPolyline
 66
     1
 10
0.0
 20
0.0
 30
0.0
  0
VERTEX
  5
203
330
202
100
AcDbEntity
  8
Furniture
370
     9
100
AcDbVertex
100
AcDb2dVertex
 10
2724.258141097595
 20
560.9267606435467
 30
0.0
  0
VERTEX
  5
204
330
202
100
AcDbEntity
  8
Furniture
370
     9
100
AcDbVertex
100
AcDb2dVertex
 10
2724.258141097595
 20
560.9267606435467
 30
0.0
  0
VERTEX
  5
205
330
202
100
AcDbEntity
  8
Furniture
370
     9
100
AcDbVertex
100
AcDb2dVertex
 10
2724.258141097595
 20
562.0225231706087
 30
0.0
  0
VERTEX
  5
206
330
202
100
AcDbEntity
  8
Furniture
370
     9
100
AcDbVertex
100
AcDb2dVertex
 10
2723.310454587704
 20
562.0225231706087
 30
0.0
  0
VERTEX
  5
207
330
202
100
AcDbEntity
  8
Furniture
370
     9
100
AcDbVertex
100
AcDb2dVertex
 10
2723.310454587704
 20
563.1182856976709
 30
0.0
  0
VERTEX
  5
208
330
202
100
AcDbEntity
  8
Furniture
370
     9
100
AcDbVertex
100
AcDb2dVertex
 10
2723.310454587704
 20
564.214048224732
 30
0.0
  0
VERTEX
  5
209
330
202
100
AcDbEntity
  8
Furniture
370
     9
100
AcDbVertex
100
AcDb2dVertex
 10
2722.392383281247
 20
565.3098107517942
 30
0.0
  0
VERTEX
  5
20A
330
202
100
AcDbEntity
  8
Furniture
370
     9
100
AcDbVertex
100
AcDb2dVertex
 10
2722.392383281247
 20
566.4055732788553
 30
0.0
  0
VERTEX
  5
20B
330
202
100
AcDbEntity
  8
Furniture
370
     9
100
AcDbVertex
100
AcDb2dVertex
 10
2721.444696771356
 20
567.5013358059175
 30
0.0
  0
VERTEX
  5
20C
330
202
100
AcDbEntity
  8
Furniture
370
     9
100
AcDbVertex
100
AcDb2dVertex
 10
2721.444696771356
 20
568.582290731261
 30
0.0
  0
VERTEX
  5
20D
330
202
100
AcDbEntity
  8
Furniture
370
     9
100
AcDbVertex
100
AcDb2dVertex
 10
2720.5266254649
 20
569.6928608600408
 30
0.0
  0
VERTEX
  5
20E
330
202
100
AcDbEntity
  8
Furniture
370
     9
100
AcDbVertex
100
AcDb2dVertex
 10
2720.5266254649
 20
571.8843859141632
 30
0.0
  0
VERTEX
  5
20F
330
202
100
AcDbEntity
  8
Furniture
370
     9
100
AcDbVertex
100
AcDb2dVertex
 10
2719.593746556724
 20
572.9801484412253
 30
0.0
  0
VERTEX
  5
210
330
202
100
AcDbEntity
  8
Furniture
370
     9
100
AcDbVertex
100
AcDb2dVertex
 10
2719.593746556724
 20
575.1568658936319
 30
0.0
  0
VERTEX
  5
211
330
202
100
AcDbEntity
  8
Furniture
370
     9
100
AcDbVertex
100
AcDb2dVertex
 10
2719.593746556724
 20
576.252628420694
 30
0.0
  0
VERTEX
  5
212
330
202
100
AcDbEntity
  8
Furniture
370
     9
100
AcDbVertex
100
AcDb2dVertex
 10
2718.66086764855
 20
578.4589610765331
 30
0.0
  0
VERTEX
  5
213
330
202
100
AcDbEntity
  8
Furniture
370
     9
100
AcDbVertex
100
AcDb2dVertex
 10
2718.66086764855
 20
579.5399160018775
 30
0.0
  0
SEQEND
  5
214
330
202
100
AcDbEntity
  8
Furniture
370
     9
  0
SPLINE
  5
215
330
1F
100
AcDbEntity
  8
Furniture
370
     9
100
AcDbSpline
210
0.0
220
0.0
230
1.0
 70
     8
 71
     3
 72
    14
 73
    10
 74
     0
 42
0.000000001
 43
0.0000000001
 40
0.0
 40
0.0
 40
0.0
 40
0.0
 40
1.0
 40
1.0
 40
1.0
 40
2.0
 40
2.0
 40
2.0
 40
3.0
 40
3.0
 40
3.0
 40
3.0
 10
2724.968905980013
 20
203.3527943802389
 30
0.0
 10
3035.52873679169
 20
255.9345880774806
 30
0.0
 10
3348.176439445469
 20
201.0872313175303
 30
0.0
 10
3348.176439445469
 20
209.557179499682
 30
0.0
 10
3348.176439445469
 20
209.557179499682
 30
0.0
 10
3348.176439445469
 20
279.671173629911
 30
0.0
 10
3348.176439445469
 20
279.671173629911
 30
0.0
 10
3348.176439445469
 20
279.671173629911
 30
0.0
 10
3348.176439445469
 20
578.7551131108746
 30
0.0
 10
3348.176439445469
 20
578.7551131108746
 30
0.0
  0
SPLINE
  5
216
330
1F
100
AcDbEntity
  8
Furniture
370
     9
100
AcDbSpline
210
0.0
220
0.0
230
1.0
 70
     8
 71
     3
 72
     8
 73
     4
 74
     0
 42
0.000000001
 43
0.0000000001
 40
0.0
 40
0.0
 40
0.0
 40
0.0
 40
1.0
 40
1.0
 40
1.0
 40
1.0
 10
3325.609654428689
 20
611.2133760746462
 30
0.0
 10
3301.843453672824
 20
521.7014236950824
 30
0.0
 10
3314.192993504843
 20
251.6996139864048
 30
0.0
 10
3333.990757000538
 20
209.557179499682
 30
0.0
  0
SPLINE
  5
217
330
1F
100
AcDbEntity
  8
Furniture
370
     9
100
AcDbSpline
210
0.0
220
0.0
230
1.0
 70
     8
 71
     3
 72
     8
 73
     4
 74
     0
 42
0.000000001
 43
0.0000000001
 40
0.0
 40
0.0
 40
0.0
 40
0.0
 40
1.0
 40
1.0
 40
1.0
 40
1.0
 10
2738.354977932226
 20
207.7950748953542
 30
0.0
 10
2768.532870231573
 20
254.7055571349654
 30
0.0
 10
2764.742124192008
 20
505.7092138406694
 30
0.0
 10
2749.460679220014
 20
602.1955466289634
 30
0.0
  0
POLYLINE
  5
218
330
1F
100
AcDbEntity
  8
Furniture
370
     9
100
AcDb2dPolyline
 66
     1
 10
0.0
 20
0.0
 30
0.0
  0
VERTEX
  5
219
330
218
100
AcDbEntity
  8
Furniture
370
     9
100
AcDbVertex
100
AcDb2dVertex
 10
3319.464499716112
 20
560.9267606435467
 30
0.0
  0
VERTEX
  5
21A
330
218
100
AcDbEntity
  8
Furniture
370
     9
100
AcDbVertex
100
AcDb2dVertex
 10
3348.176439445469
 20
560.9267606435467
 30
0.0
  0
SEQEND
  5
21B
330
218
100
AcDbEntity
  8
Furniture
370
     9
  0
POLYLINE
  5
21C
330
1F
100
AcDbEntity
  8
Furniture
370
     9
100
AcDb2dPolyline
 66
     1
 10
0.0
 20
0.0
 30
0.0
  0
VERTEX
  5
21D
330
21C
100
AcDbEntity
  8
Furniture
370
     9
100
AcDbVertex
100
AcDb2dVertex
 10
3323.284860959109
 20
246.5021457837199
 30
0.0
  0
VERTEX
  5
21E
330
21C
100
AcDbEntity
  8
0
100
AcDbVertex
100
AcDb2dVertex
 10
3323.284860959109
 20
246.5021457837199
 30
0.0
  0
SEQEND
  5
21F
330
21C
100
AcDbEntity
  8
Furniture
370
     9
  0
POLYLINE
  5
220
330
1F
100
AcDbEntity
  8
Furniture
370
     9
100
AcDb2dPolyline
 66
     1
 10
0.0
 20
0.0
 30
0.0
  0
VERTEX
  5
221
330
220
100
AcDbEntity
  8
Furniture
370
     9
100
AcDbVertex
100
AcDb2dVertex
 10
3350.027389660101
 20
247.5831007090653
 30
0.0
  0
VERTEX
  5
222
330
220
100
AcDbEntity
  8
0
100
AcDbVertex
100
AcDb2dVertex
 10
3350.027389660101
 20
247.5831007090653
 30
0.0
  0
SEQEND
  5
223
330
220
100
AcDbEntity
  8
Furniture
370
     9
  0
POLYLINE
  5
224
330
1F
100
AcDbEntity
  8
Furniture
370
     9
100
AcDb2dPolyline
 66
     1
 10
0.0
 20
0.0
 30
0.0
  0
VERTEX
  5
225
330
224
100
AcDbEntity
  8
Furniture
370
     9
100
AcDbVertex
100
AcDb2dVertex
 10
3344.37088580419
 20
264.8635719128622
 30
0.0
  0
VERTEX
  5
226
330
224
100
AcDbEntity
  8
Furniture
370
     9
100
AcDbVertex
100
AcDb2dVertex
 10
3323.284860959109
 20
265.4114531763933
 30
0.0
  0
SEQEND
  5
227
330
224
100
AcDbEntity
  8
Furniture
370
     9
  0
POLYLINE
  5
228
330
1F
100
AcDbEntity
  8
Furniture
370
     9
100
AcDb2dPolyline
 66
     1
 10
0.0
 20
0.0
 30
0.0
  0
VERTEX
  5
229
330
228
100
AcDbEntity
  8
Furniture
370
     9
100
AcDbVertex
100
AcDb2dVertex
 10
2751.741049884439
 20
265.4114531763933
 30
0.0
  0
VERTEX
  5
22A
330
228
100
AcDbEntity
  8
Furniture
370
     9
100
AcDbVertex
100
AcDb2dVertex
 10
2724.968905980013
 20
265.4114531763933
 30
0.0
  0
SEQEND
  5
22B
330
228
100
AcDbEntity
  8
Furniture
370
     9
  0
SPLINE
  5
22C
330
1F
100
AcDbEntity
  8
Furniture
370
     9
100
AcDbSpline
210
0.0
220
0.0
230
1.0
 70
     8
 71
     3
 72
    17
 73
    13
 74
     0
 42
0.000000001
 43
0.0000000001
 40
0.0
 40
0.0
 40
0.0
 40
0.0
 40
1.0
 40
1.0
 40
1.0
 40
2.0
 40
2.0
 40
2.0
 40
3.0
 40
3.0
 40
3.0
 40
4.0
 40
4.0
 40
4.0
 40
4.0
 10
3373.023595126681
 20
651.6381287621913
 30
0.0
 10
3373.023595126681
 20
651.6381287621913
 30
0.0
 10
3393.872698344285
 20
647.9214207312122
 30
0.0
 10
3422.199640429
 20
826.0864845907496
 30
0.0
 10
3427.485954241987
 20
859.3443580472428
 30
0.0
 10
3423.399056168081
 20
839.5614021532653
 30
0.0
 10
3419.534272119931
 20
860.4697357777393
 30
0.0
 10
3413.892575865735
 20
890.9733953148613
 30
0.0
 10
3376.414535919885
 20
913.140375085284
 30
0.0
 10
3361.251551761627
 20
884.5765113730957
 30
0.0
 10
3344.785498652265
 20
853.5397781741592
 30
0.0
 10
3282.904531076718
 20
859.4332036575458
 30
0.0
 10
3227.997943909898
 20
730.0295722522512
 30
0.0
  0
SPLINE
  5
22D
330
1F
100
AcDbEntity
  8
Furniture
370
     9
100
AcDbSpline
210
0.0
220
0.0
230
1.0
 70
     9
 71
     3
 72
    41
 73
    37
 74
     0
 42
0.000000001
 43
0.0000000001
 40
0.0
 40
0.0
 40
0.0
 40
0.0
 40
1.0
 40
1.0
 40
1.0
 40
2.0
 40
2.0
 40
2.0
 40
3.0
 40
3.0
 40
3.0
 40
4.0
 40
4.0
 40
4.0
 40
5.0
 40
5.0
 40
5.0
 40
6.0
 40
6.0
 40
6.0
 40
7.0
 40
7.0
 40
7.0
 40
8.0
 40
8.0
 40
8.0
 40
9.0
 40
9.0
 40
9.0
 40
10.0
 40
10.0
 40
10.0
 40
11.0
 40
11.0
 40
11.0
 40
12.0
 40
12.0
 40
12.0
 40
12.0
 10
2638.640587969614
 20
604.6684161157116
 30
0.0
 10
2614.548619975976
 20
635.0980376442473
 30
0.0
 10
2678.547074597064
 20
635.2757288648515
 30
0.0
 10
2696.138505436917
 20
650.3794826162418
 30
0.0
 10
2703.971726745236
 20
657.1169413975001
 30
0.0
 10
2747.772612624269
 20
703.5091575770154
 30
0.0
 10
2773.212072374161
 20
716.9988827412469
 30
0.0
 10
2833.242089735079
 20
748.9092644414884
 30
0.0
 10
2882.788325080325
 20
754.2400010596264
 30
0.0
 10
2950.355411715222
 20
756.7128705463735
 30
0.0
 10
3017.700384324362
 20
759.170932431404
 30
0.0
 10
3092.656464216067
 20
760.2370797550317
 30
0.0
 10
3159.33509474794
 20
756.9053693686953
 30
0.0
 10
3223.200280953574
 20
753.6625045926627
 30
0.0
 10
3282.978569085302
 20
730.5626459140646
 30
0.0
 10
3335.974975630623
 20
702.8428154997489
 30
0.0
 10
3371.483604548107
 20
684.2592753448514
 30
0.0
 10
3399.395933784744
 20
640.1326222280447
 30
0.0
 10
3408.191649204673
 20
633.2618950313332
 30
0.0
 10
3418.068319549944
 20
625.5471345367502
 30
0.0
 10
3454.702326197923
 20
603.3505395628933
 30
0.0
 10
3452.792145576424
 20
595.9911615095204
 30
0.0
 10
3445.432767523051
 20
573.6909133236429
 30
0.0
 10
3296.779253885592
 20
547.9256863359767
 30
0.0
 10
3238.614994341022
 20
543.542636227731
 30
0.0
 10
3169.152534686344
 20
538.3747832284814
 30
0.0
 10
3103.021785418001
 20
545.926660104177
 30
0.0
 10
3033.500095356454
 20
545.926660104177
 30
0.0
 10
2962.4087995129
 20
545.926660104177
 30
0.0
 10
2892.35403578954
 20
544.9049355856994
 30
0.0
 10
2821.173894335683
 20
544.9049355856994
 30
0.0
 10
2781.726443361464
 20
544.9049355856994
 30
0.0
 10
2720.674701482069
 20
542.0618760560262
 30
0.0
 10
2674.445368921441
 20
558.3354303430639
 30
0.0
 10
2656.646631657546
 20
564.5990458693757
 30
0.0
 10
2638.640587969614
 20
604.6684161157116
 30
0.0
 10
2638.640587969614
 20
604.6684161157116
 30
0.0
  0
POLYLINE
  5
22E
330
1F
100
AcDbEntity
  8
Furniture
370
     9
100
AcDb2dPolyline
 66
     1
 10
0.0
 20
0.0
 30
0.0
  0
VERTEX
  5
22F
330
22E
100
AcDbEntity
  8
Furniture
370
     9
100
AcDbVertex
100
AcDb2dVertex
 10
2678.547074597064
 20
-0.0000000000002274
 30
0.0
  0
VERTEX
  5
230
330
22E
100
AcDbEntity
  8
Furniture
370
     9
100
AcDbVertex
100
AcDb2dVertex
 10
2678.547074597064
 20
555.995829271769
 30
0.0
  0
SEQEND
  5
231
330
22E
100
AcDbEntity
  8
Furniture
370
     9
  0
SPLINE
  5
232
330
1F
100
AcDbEntity
  8
Furniture
370
     9
100
AcDbSpline
210
0.0
220
0.0
230
1.0
 70
     8
 71
     3
 72
    20
 73
    16
 74
     0
 42
0.000000001
 43
0.0000000001
 40
0.0
 40
0.0
 40
0.0
 40
0.0
 40
1.0
 40
1.0
 40
1.0
 40
2.0
 40
2.0
 40
2.0
 40
3.0
 40
3.0
 40
3.0
 40
4.0
 40
4.0
 40
4.0
 40
5.0
 40
5.0
 40
5.0
 40
5.0
 10
2678.547074597064
 20
251.7736519949892
 30
0.0
 10
2663.472936049108
 20
251.5219227658006
 30
0.0
 10
2631.695822764319
 20
258.4518803693788
 30
0.0
 10
2617.258411090196
 20
264.0491538184249
 30
0.0
 10
2602.199080143957
 20
269.8981564966587
 30
0.0
 10
2556.754550474332
 20
304.2666000819297
 30
0.0
 10
2556.754550474332
 20
304.2666000819297
 30
0.0
 10
2547.559029808045
 20
331.3645112241299
 30
0.0
 10
2578.55134020183
 20
358.9214580195592
 30
0.0
 10
2599.47448142802
 20
391.0539537455568
 30
0.0
 10
2623.462796209639
 20
427.8656516141416
 30
0.0
 10
2639.899234115564
 20
445.2793912333915
 30
0.0
 10
2666.656570418272
 20
452.8016529056528
 30
0.0
 10
2671.83923101924
 20
454.2527978739233
 30
0.0
 10
2673.03864675832
 20
453.6456862035245
 30
0.0
 10
2678.547074597064
 20
453.9862610430161
 30
0.0
  0
SPLINE
  5
233
330
1F
100
AcDbEntity
  8
Furniture
370
     9
100
AcDbSpline
210
0.0
220
0.0
230
1.0
 70
     9
 71
     3
 72
    32
 73
    28
 74
     0
 42
0.000000001
 43
0.0000000001
 40
0.0
 40
0.0
 40
0.0
 40
0.0
 40
1.0
 40
1.0
 40
1.0
 40
2.0
 40
2.0
 40
2.0
 40
3.0
 40
3.0
 40
3.0
 40
4.0
 40
4.0
 40
4.0
 40
5.0
 40
5.0
 40
5.0
 40
6.0
 40
6.0
 40
6.0
 40
7.0
 40
7.0
 40
7.0
 40
8.0
 40
8.0
 40
8.0
 40
9.0
 40
9.0
 40
9.0
 40
9.0
 10
5923.825489710758
 20
608.9774282153719
 30
0.0
 10
5915.770154376682
 20
608.0889721123501
 30
0.0
 10
5883.01573937857
 20
567.8567182471267
 30
0.0
 10
5860.286070742898
 20
560.3344565748654
 30
0.0
 10
5841.76176099487
 20
554.2189170657236
 30
0.0
 10
5788.528432822077
 20
542.3876432938011
 30
0.0
 10
5773.868907122198
 20
556.0698672803552
 30
0.0
 10
5770.34469791354
 20
559.3127320563887
 30
0.0
 10
5777.304270720553
 20
592.5854131145976
 30
0.0
 10
5771.914303695549
 20
592.3484914871258
 30
0.0
 10
5762.363400588051
 20
591.9042634356135
 30
0.0
 10
5737.027594050179
 20
591.2971517652156
 30
0.0
 10
5723.804405716855
 20
592.3484914871258
 30
0.0
 10
5704.524908281256
 20
593.8292516588306
 30
0.0
 10
5721.760956679901
 20
396.8289184152052
 30
0.0
 10
5711.440058283119
 20
406.2909759124002
 30
0.0
 10
5664.722074865828
 20
449.0701372729561
 30
0.0
 10
5646.064496702345
 20
393.8081676649279
 30
0.0
 10
5640.630106872188
 20
448.9072536540686
 30
0.0
 10
5633.700149268609
 20
519.00644018258
 30
0.0
 10
5643.517589207012
 20
605.2162973792426
 30
0.0
 10
5706.138936868415
 20
657.8277062799186
 30
0.0
 10
5735.620871887061
 20
682.6156315542582
 30
0.0
 10
5784.974608409985
 20
696.7272759906061
 30
0.0
 10
5853.933609606283
 20
658.9382764086965
 30
0.0
 10
5861.529909287131
 20
654.7477251227717
 30
0.0
 10
5947.428806847734
 20
611.6279889227241
 30
0.0
 10
5923.825489710758
 20
608.9774282153719
 30
0.0
  0
POLYLINE
  5
234
330
1F
100
AcDbEntity
  8
Furniture
370
     9
100
AcDb2dPolyline
 66
     1
 10
0.0
 20
0.0
 30
0.0
  0
VERTEX
  5
235
330
234
100
AcDbEntity
  8
Furniture
370
     9
100
AcDbVertex
100
AcDb2dVertex
 10
5718.35520828498
 20
265.7668356176016
 30
0.0
  0
VERTEX
  5
236
330
234
100
AcDbEntity
  8
Furniture
370
     9
100
AcDbVertex
100
AcDb2dVertex
 10
5718.35520828498
 20
215.5690657968041
 30
0.0
  0
VERTEX
  5
237
330
234
100
AcDbEntity
  8
Furniture
370
     9
100
AcDbVertex
100
AcDb2dVertex
 10
5023.390036898701
 20
215.5690657968041
 30
0.0
  0
VERTEX
  5
238
330
234
100
AcDbEntity
  8
Furniture
370
     9
100
AcDbVertex
100
AcDb2dVertex
 10
5023.390036898701
 20
266.7885601360774
 30
0.0
  0
VERTEX
  5
239
330
234
100
AcDbEntity
  8
Furniture
370
     9
100
AcDbVertex
100
AcDb2dVertex
 10
5718.35520828498
 20
265.7668356176016
 30
0.0
  0
SEQEND
  5
23A
330
234
100
AcDbEntity
  8
Furniture
370
     9
  0
POLYLINE
  5
23B
330
1F
100
AcDbEntity
  8
Furniture
370
     9
100
AcDb2dPolyline
 66
     1
 10
0.0
 20
0.0
 30
0.0
  0
VERTEX
  5
23C
330
23B
100
AcDbEntity
  8
Furniture
370
     9
100
AcDbVertex
100
AcDb2dVertex
 10
5023.390036898701
 20
438.8973148933425
 30
0.0
  0
VERTEX
  5
23D
330
23B
100
AcDbEntity
  8
Furniture
370
     9
100
AcDbVertex
100
AcDb2dVertex
 10
5023.390036898701
 20
592.5409903094475
 30
0.0
  0
VERTEX
  5
23E
330
23B
100
AcDbEntity
  8
Furniture
370
     9
100
AcDbVertex
100
AcDb2dVertex
 10
4969.534789453792
 20
592.5409903094475
 30
0.0
  0
VERTEX
  5
23F
330
23B
100
AcDbEntity
  8
Furniture
370
     9
100
AcDbVertex
100
AcDb2dVertex
 10
4968.45383452845
 20
-0.0000000000002274
 30
0.0
  0
VERTEX
  5
240
330
23B
100
AcDbEntity
  8
Furniture
370
     9
100
AcDbVertex
100
AcDb2dVertex
 10
5023.434459703853
 20
-0.0000000000002274
 30
0.0
  0
VERTEX
  5
241
330
23B
100
AcDbEntity
  8
Furniture
370
     9
100
AcDbVertex
100
AcDb2dVertex
 10
5023.390036898701
 20
215.5690657968041
 30
0.0
  0
SEQEND
  5
242
330
23B
100
AcDbEntity
  8
Furniture
370
     9
  0
POLYLINE
  5
243
330
1F
100
AcDbEntity
  8
Furniture
370
     9
100
AcDb2dPolyline
 66
     1
 10
0.0
 20
0.0
 30
0.0
  0
VERTEX
  5
244
330
243
100
AcDbEntity
  8
Furniture
370
     9
100
AcDbVertex
100
AcDb2dVertex
 10
5718.35520828498
 20
391.6018350090878
 30
0.0
  0
VERTEX
  5
245
330
243
100
AcDbEntity
  8
Furniture
370
     9
100
AcDbVertex
100
AcDb2dVertex
 10
5718.35520828498
 20
592.2596458768228
 30
0.0
  0
VERTEX
  5
246
330
243
100
AcDbEntity
  8
Furniture
370
     9
100
AcDbVertex
100
AcDb2dVertex
 10
5772.625068577966
 20
592.2596458768228
 30
0.0
  0
VERTEX
  5
247
330
243
100
AcDbEntity
  8
Furniture
370
     9
100
AcDbVertex
100
AcDb2dVertex
 10
5772.29930134019
 20
592.2596458768228
 30
0.0
  0
VERTEX
  5
248
330
243
100
AcDbEntity
  8
Furniture
370
     9
100
AcDbVertex
100
AcDb2dVertex
 10
5772.29930134019
 20
-0.0000000000002274
 30
0.0
  0
VERTEX
  5
249
330
243
100
AcDbEntity
  8
Furniture
370
     9
100
AcDbVertex
100
AcDb2dVertex
 10
5718.35520828498
 20
-0.0000000000002274
 30
0.0
  0
VERTEX
  5
24A
330
243
100
AcDbEntity
  8
Furniture
370
     9
100
AcDbVertex
100
AcDb2dVertex
 10
5718.35520828498
 20
215.5690657968041
 30
0.0
  0
SEQEND
  5
24B
330
243
100
AcDbEntity
  8
Furniture
370
     9
  0
SPLINE
  5
24C
330
1F
100
AcDbEntity
  8
Furniture
370
     9
100
AcDbSpline
210
0.0
220
0.0
230
1.0
 70
     8
 71
     3
 72
    29
 73
    25
 74
     0
 42
0.000000001
 43
0.0000000001
 40
0.0
 40
0.0
 40
0.0
 40
0.0
 40
1.0
 40
1.0
 40
1.0
 40
2.0
 40
2.0
 40
2.0
 40
3.0
 40
3.0
 40
3.0
 40
4.0
 40
4.0
 40
4.0
 40
5.0
 40
5.0
 40
5.0
 40
6.0
 40
6.0
 40
6.0
 40
7.0
 40
7.0
 40
7.0
 40
8.0
 40
8.0
 40
8.0
 40
8.0
 10
5686.178289753833
 20
637.9114819704871
 30
0.0
 10
5699.149748857967
 20
746.1698581238358
 30
0.0
 10
5686.933477441401
 20
704.3976136800381
 30
0.0
 10
5670.807999171535
 20
830.0104990457683
 30
0.0
 10
5668.438782896807
 20
848.5496163955147
 30
0.0
 10
5687.037130653421
 20
876.2102164029627
 30
0.0
 10
5686.13386694868
 20
889.5814807534586
 30
0.0
 10
5684.416185149503
 20
915.154208918803
 30
0.0
 10
5597.243833841233
 20
872.8785060166263
 30
0.0
 10
5580.377975485514
 20
872.9821592286459
 30
0.0
 10
5510.160328143267
 20
873.5300404921771
 30
0.0
 10
5415.450907561018
 20
880.1194232562636
 30
0.0
 10
5389.833756590522
 20
879.7936560184878
 30
0.0
 10
5330.484888908589
 20
879.0236607292024
 30
0.0
 10
5200.133570993403
 20
879.1125063395035
 30
0.0
 10
5151.090794106536
 20
866.2002776422376
 30
0.0
 10
5121.964241529099
 20
858.5299399528055
 30
0.0
 10
5076.875094300683
 20
888.3524498109434
 30
0.0
 10
5052.338898255533
 20
894.9714477784644
 30
0.0
 10
5027.388089362307
 20
901.7385217631552
 30
0.0
 10
5031.104797393283
 20
871.5606294638098
 30
0.0
 10
5034.865928229414
 20
847.5871222839057
 30
0.0
 10
5039.174940329078
 20
819.9413298781744
 30
0.0
 10
5014.10567062211
 20
710.0689251376686
 30
0.0
 10
5032.170944716913
 20
657.8277062799186
 30
0.0
  0
SPLINE
  5
24D
330
1F
100
AcDbEntity
  8
Furniture
370
     9
100
AcDbSpline
210
0.0
220
0.0
230
1.0
 70
     9
 71
     3
 72
    32
 73
    28
 74
     0
 42
0.000000001
 43
0.0000000001
 40
0.0
 40
0.0
 40
0.0
 40
0.0
 40
1.0
 40
1.0
 40
1.0
 40
2.0
 40
2.0
 40
2.0
 40
3.0
 40
3.0
 40
3.0
 40
4.0
 40
4.0
 40
4.0
 40
5.0
 40
5.0
 40
5.0
 40
6.0
 40
6.0
 40
6.0
 40
7.0
 40
7.0
 40
7.0
 40
8.0
 40
8.0
 40
8.0
 40
9.0
 40
9.0
 40
9.0
 40
9.0
 10
4814.484391874568
 20
608.9774282153719
 30
0.0
 10
4822.539727208645
 20
608.0889721123501
 30
0.0
 10
4855.294142206756
 20
567.8567182471267
 30
0.0
 10
4878.009003240709
 20
560.3344565748654
 30
0.0
 10
4896.548120590455
 20
554.2189170657236
 30
0.0
 10
4949.78144876325
 20
542.3876432938011
 30
0.0
 10
4964.440974463126
 20
556.0698672803552
 30
0.0
 10
4967.965183671786
 20
559.3127320563887
 30
0.0
 10
4960.990803263055
 20
592.5854131145976
 30
0.0
 10
4966.39557788978
 20
592.3484914871258
 30
0.0
 10
4975.931673395557
 20
591.9042634356135
 30
0.0
 10
5001.282287535147
 20
591.2971517652156
 30
0.0
 10
5014.490668266753
 20
592.3484914871258
 30
0.0
 10
5033.784973304071
 20
593.8292516588306
 30
0.0
 10
5016.548924905425
 20
396.8289184152052
 30
0.0
 10
5026.884630903925
 20
406.2909759124002
 30
0.0
 10
5073.587806719498
 20
449.0701372729561
 30
0.0
 10
5092.230577281265
 20
393.8081676649279
 30
0.0
 10
5097.679774713139
 20
448.9072536540686
 30
0.0
 10
5104.609732316716
 20
519.00644018258
 30
0.0
 10
5094.792292378314
 20
605.2162973792426
 30
0.0
 10
5032.170944716913
 20
657.8277062799186
 30
0.0
 10
5002.67420209655
 20
682.6156315542582
 30
0.0
 10
4953.335273175341
 20
696.7272759906061
 30
0.0
 10
4884.376271979043
 20
658.9382764086965
 30
0.0
 10
4876.765164696477
 20
654.7477251227717
 30
0.0
 10
4790.881074737593
 20
611.6279889227241
 30
0.0
 10
4814.484391874568
 20
608.9774282153719
 30
0.0
  0
SPLINE
  5
24E
330
1F
100
AcDbEntity
  8
Furniture
370
     9
100
AcDbSpline
210
0.0
220
0.0
230
1.0
 70
     9
 71
     3
 72
    20
 73
    16
 74
     0
 42
0.000000001
 43
0.0000000001
 40
0.0
 40
0.0
 40
0.0
 40
0.0
 40
1.0
 40
1.0
 40
1.0
 40
2.0
 40
2.0
 40
2.0
 40
3.0
 40
3.0
 40
3.0
 40
4.0
 40
4.0
 40
4.0
 40
5.0
 40
5.0
 40
5.0
 40
5.0
 10
5362.232386989943
 20
474.7613262520369
 30
0.0
 10
5114.975053518652
 20
483.631079680549
 30
0.0
 10
5048.266807783345
 20
440.5113434805014
 30
0.0
 10
4990.176586247359
 20
366.1031448523288
 30
0.0
 10
4946.879158826707
 20
312.0998213902501
 30
0.0
 10
4907.446515454205
 20
306.3396643223166
 30
0.0
 10
4910.200729373577
 20
288.5557346601397
 30
0.0
 10
4917.086264172005
 20
243.6590862540468
 30
0.0
 10
5795.532428434242
 20
238.594886466816
 30
0.0
 10
5814.352890216611
 20
283.6544184917982
 30
0.0
 10
5740.833147691461
 20
377.0459625212277
 30
0.0
 10
5781.672513227083
 20
299.7206663547956
 30
0.0
 10
5709.959298111413
 20
403.7292608153509
 30
0.0
 10
5654.47521447763
 20
484.223383749232
 30
0.0
 10
5362.232386989943
 20
474.7613262520369
 30
0.0
 10
5362.232386989943
 20
474.7613262520369
 30
0.0
  0
SPLINE
  5
24F
330
1F
100
AcDbEntity
  8
Furniture
370
     9
100
AcDbSpline
210
0.0
220
0.0
230
1.0
 70
     9
 71
     3
 72
    17
 73
    13
 74
     0
 42
0.000000001
 43
0.0000000001
 40
0.0
 40
0.0
 40
0.0
 40
0.0
 40
1.0
 40
1.0
 40
1.0
 40
2.0
 40
2.0
 40
2.0
 40
3.0
 40
3.0
 40
3.0
 40
4.0
 40
4.0
 40
4.0
 40
4.0
 10
7388.815565587037
 20
89.64522079501671
 30
0.0
 10
7388.815565587037
 20
76.89587571663719
 30
0.0
 10
7399.269732399274
 20
66.57497731985291
 30
0.0
 10
7412.181961096542
 20
66.57497731985291
 30
0.0
 10
7425.094189793809
 20
66.57497731985291
 30
0.0
 10
7435.577971809481
 20
76.89587571663719
 30
0.0
 10
7435.577971809481
 20
89.63041319329908
 30
0.0
 10
7435.577971809481
 20
102.3353354665275
 30
0.0
 10
7425.094189793809
 20
112.6858490667453
 30
0.0
 10
7412.241191503411
 20
112.6858490667453
 30
0.0
 10
7399.328962806143
 20
112.6858490667453
 30
0.0
 10
7388.815565587037
 20
102.3797582716786
 30
0.0
 10
7388.815565587037
 20
89.64522079501671
 30
0.0
  0
SPLINE
  5
250
330
1F
100
AcDbEntity
  8
Furniture
370
     9
100
AcDbSpline
210
0.0
220
0.0
230
1.0
 70
     9
 71
     3
 72
    17
 73
    13
 74
     0
 42
0.000000001
 43
0.0000000001
 40
0.0
 40
0.0
 40
0.0
 40
0.0
 40
1.0
 40
1.0
 40
1.0
 40
2.0
 40
2.0
 40
2.0
 40
3.0
 40
3.0
 40
3.0
 40
4.0
 40
4.0
 40
4.0
 40
4.0
 10
8195.918704776532
 20
89.64522079501671
 30
0.0
 10
8195.918704776532
 20
76.89587571663719
 30
0.0
 10
8206.372871588767
 20
66.57497731985291
 30
0.0
 10
8219.314715489471
 20
66.57497731985291
 30
0.0
 10
8232.226944186738
 20
66.57497731985291
 30
0.0
 10
8242.710726202409
 20
76.89587571663719
 30
0.0
 10
8242.710726202409
 20
89.63041319329908
 30
0.0
 10
8242.710726202409
 20
102.3353354665275
 30
0.0
 10
8232.226944186738
 20
112.6858490667453
 30
0.0
 10
8219.314715489471
 20
112.6858490667453
 30
0.0
 10
8206.46171719907
 20
112.6858490667453
 30
0.0
 10
8195.918704776532
 20
102.3797582716786
 30
0.0
 10
8195.918704776532
 20
89.64522079501671
 30
0.0
  0
SPLINE
  5
251
330
1F
100
AcDbEntity
  8
Furniture
370
     9
100
AcDbSpline
210
0.0
220
0.0
230
1.0
 70
     8
 71
     3
 72
    14
 73
    10
 74
     0
 42
0.000000001
 43
0.0000000001
 40
0.0
 40
0.0
 40
0.0
 40
0.0
 40
1.0
 40
1.0
 40
1.0
 40
2.0
 40
2.0
 40
2.0
 40
3.0
 40
3.0
 40
3.0
 40
3.0
 10
7428.766475019639
 20
749.5607989170401
 30
0.0
 10
7432.942218703846
 20
753.7217349995296
 30
0.0
 10
7435.577971809481
 20
759.4818920674622
 30
0.0
 10
7435.577971809481
 20
765.8491608057936
 30
0.0
 10
7435.577971809481
 20
778.5836982824555
 30
0.0
 10
7425.094189793809
 20
788.8897890775222
 30
0.0
 10
7412.241191503411
 20
788.9194042809556
 30
0.0
 10
7401.846255098042
 20
788.9194042809556
 30
0.0
 10
7393.050539678114
 20
782.2707911100003
 30
0.0
 10
7389.970558520968
 20
773.04565524028
 30
0.0
  0
POLYLINE
  5
252
330
1F
100
AcDbEntity
  8
Furniture
370
     9
100
AcDb2dPolyline
 66
     1
 10
0.0
 20
0.0
 30
0.0
  0
VERTEX
  5
253
330
252
100
AcDbEntity
  8
Furniture
370
     9
100
AcDbVertex
100
AcDb2dVertex
 10
7388.815565587037
 20
765.8491608057936
 30
0.0
  0
VERTEX
  5
254
330
252
100
AcDbEntity
  8
0
100
AcDbVertex
100
AcDb2dVertex
 10
7388.815565587037
 20
765.8491608057936
 30
0.0
  0
SEQEND
  5
255
330
252
100
AcDbEntity
  8
Furniture
370
     9
  0
SPLINE
  5
256
330
1F
100
AcDbEntity
  8
Furniture
370
     9
100
AcDbSpline
210
0.0
220
0.0
230
1.0
 70
     8
 71
     3
 72
    11
 73
     7
 74
     0
 42
0.000000001
 43
0.0000000001
 40
0.0
 40
0.0
 40
0.0
 40
0.0
 40
1.0
 40
1.0
 40
1.0
 40
2.0
 40
2.0
 40
2.0
 40
2.0
 10
8240.874583589492
 20
774.8077598446077
 30
0.0
 10
8237.291143973967
 20
783.1000168061562
 30
0.0
 10
8228.998887012421
 20
788.8897890775222
 30
0.0
 10
8219.314715489471
 20
788.9194042809556
 30
0.0
 10
8206.46171719907
 20
788.9194042809556
 30
0.0
 10
8195.918704776532
 20
778.5836982824555
 30
0.0
 10
8195.918704776532
 20
765.8491608057936
 30
0.0
  0
SPLINE
  5
257
330
1F
100
AcDbEntity
  8
Furniture
370
     9
100
AcDbSpline
210
0.0
220
0.0
230
1.0
 70
     8
 71
     3
 72
     8
 73
     4
 74
     0
 42
0.000000001
 43
0.0000000001
 40
0.0
 40
0.0
 40
0.0
 40
0.0
 40
1.0
 40
1.0
 40
1.0
 40
1.0
 10
8195.918704776532
 20
765.8491608057936
 30
0.0
 10
8195.918704776532
 20
761.9399539524927
 30
0.0
 10
8196.925621693292
 20
758.2528611249479
 30
0.0
 10
8198.702533899338
 20
755.0099963489126
 30
0.0
  0
SPLINE
  5
258
330
1F
100
AcDbEntity
  8
Furniture
370
     9
100
AcDbSpline
210
0.0
220
0.0
230
1.0
 70
     8
 71
     3
 72
     8
 73
     4
 74
     0
 42
0.000000001
 43
0.0000000001
 40
0.0
 40
0.0
 40
0.0
 40
0.0
 40
1.0
 40
1.0
 40
1.0
 40
1.0
 10
7502.241794739635
 20
629.5748022037884
 30
0.0
 10
7503.278326859829
 20
625.8729017745252
 30
0.0
 10
7504.196398166287
 20
621.9785025229419
 30
0.0
 10
7504.107552555985
 20
621.3121604456744
 30
0.0
  0
SPLINE
  5
259
330
1F
100
AcDbEntity
  8
Furniture
370
     9
100
AcDbSpline
210
0.0
220
0.0
230
1.0
 70
     8
 71
     3
 72
    32
 73
    28
 74
     0
 42
0.000000001
 43
0.0000000001
 40
0.0
 40
0.0
 40
0.0
 40
0.0
 40
1.0
 40
1.0
 40
1.0
 40
2.0
 40
2.0
 40
2.0
 40
3.0
 40
3.0
 40
3.0
 40
4.0
 40
4.0
 40
4.0
 40
5.0
 40
5.0
 40
5.0
 40
6.0
 40
6.0
 40
6.0
 40
7.0
 40
7.0
 40
7.0
 40
8.0
 40
8.0
 40
8.0
 40
9.0
 40
9.0
 40
9.0
 40
9.0
 10
8160.469306265914
 20
714.1114004064236
 30
0.0
 10
8175.395368796701
 20
734.7680048017061
 30
0.0
 10
8194.349098994525
 20
768.0554934616337
 30
0.0
 10
8202.582125549204
 20
786.2244207684532
 30
0.0
 10
8212.207066665285
 20
807.1771771980781
 30
0.0
 10
8242.236882947462
 20
819.8080614627212
 30
0.0
 10
8245.879552969856
 20
843.3521481928298
 30
0.0
 10
8250.973367960522
 20
876.5952140476054
 30
0.0
 10
8149.689372215904
 20
866.1706624388031
 30
0.0
 10
8119.985323171503
 20
871.234862226033
 30
0.0
 10
8073.992912238347
 20
879.0680835343525
 30
0.0
 10
7954.406720771456
 20
887.1234188684272
 30
0.0
 10
7927.397655239558
 20
890.8401268994081
 30
0.0
 10
7899.973976859583
 20
894.5420273286698
 30
0.0
 10
7859.282687341131
 20
897.8441225115709
 30
0.0
 10
7829.104795041783
 20
897.7996997064208
 30
0.0
 10
7759.27214534418
 20
897.6960464944012
 30
0.0
 10
7715.974717923528
 20
891.1362789337488
 30
0.0
 10
7686.092977658522
 20
888.6337942435664
 30
0.0
 10
7617.889164149793
 20
882.9624827859376
 30
0.0
 10
7560.702206318547
 20
877.1875181162883
 30
0.0
 10
7502.774868401451
 20
862.9574128662031
 30
0.0
 10
7454.827854041645
 20
851.1557542977151
 30
0.0
 10
7379.131394064089
 20
880.3859600871708
 30
0.0
 10
7390.385171369046
 20
829.8624230285975
 30
0.0
 10
7396.485903276469
 20
801.9500937919598
 30
0.0
 10
7432.201838617991
 20
797.6410816922978
 30
0.0
 10
7447.986742048368
 20
742.4087272877038
 30
0.0
  0
SPLINE
  5
25A
330
1F
100
AcDbEntity
  8
Furniture
370
     9
100
AcDbSpline
210
0.0
220
0.0
230
1.0
 70
     8
 71
     3
 72
    20
 73
    16
 74
     0
 42
0.000000001
 43
0.0000000001
 40
0.0
 40
0.0
 40
0.0
 40
0.0
 40
1.0
 40
1.0
 40
1.0
 40
2.0
 40
2.0
 40
2.0
 40
3.0
 40
3.0
 40
3.0
 40
4.0
 40
4.0
 40
4.0
 40
5.0
 40
5.0
 40
5.0
 40
5.0
 10
7504.107552555985
 20
621.3121604456744
 30
0.0
 10
7529.280475474968
 20
575.2309039022163
 30
0.0
 10
7587.296659002368
 20
580.2654884860137
 30
0.0
 10
7634.710599700359
 20
574.3572554009112
 30
0.0
 10
7677.238031831726
 20
569.0561339862076
 30
0.0
 10
7720.861226490153
 20
566.2426896599679
 30
0.0
 10
7763.832886673032
 20
565.5615399809837
 30
0.0
 10
7809.381069554675
 20
564.8507750985652
 30
0.0
 10
7858.157309610636
 20
565.5023095741159
 30
0.0
 10
7904.29779656096
 20
565.5023095741159
 30
0.0
 10
7947.772915202219
 20
565.5023095741159
 30
0.0
 10
7991.603416284684
 20
569.4855544360014
 30
0.0
 10
8034.841613298468
 20
574.6089846301008
 30
0.0
 10
8089.333587617211
 20
581.0502913770167
 30
0.0
 10
8094.575478625046
 20
572.0176543296172
 30
0.0
 10
8127.744506471236
 20
616.3219986670281
 30
0.0
  0
SPLINE
  5
25B
330
1F
100
AcDbEntity
  8
Furniture
370
     9
100
AcDbSpline
210
0.0
220
0.0
230
1.0
 70
     8
 71
     3
 72
    26
 73
    22
 74
     0
 42
0.000000001
 43
0.0000000001
 40
0.0
 40
0.0
 40
0.0
 40
0.0
 40
1.0
 40
1.0
 40
1.0
 40
2.0
 40
2.0
 40
2.0
 40
3.0
 40
3.0
 40
3.0
 40
4.0
 40
4.0
 40
4.0
 40
5.0
 40
5.0
 40
5.0
 40
6.0
 40
6.0
 40
6.0
 40
7.0
 40
7.0
 40
7.0
 40
7.0
 10
7390.000173724402
 20
773.04565524028
 30
0.0
 10
7372.142206053641
 20
783.3517460353457
 30
0.0
 10
7351.233872429168
 20
798.3518465747163
 30
0.0
 10
7340.039325531077
 20
803.4012387602313
 30
0.0
 10
7328.548626598648
 20
808.5838993611975
 30
0.0
 10
7318.834839872263
 20
817.5424984000136
 30
0.0
 10
7305.09338547884
 20
815.6027025750798
 30
0.0
 10
7281.119878298937
 20
760.1186189412945
 30
0.0
 10
7270.961863521043
 20
705.8783738517438
 30
0.0
 10
7262.817682576666
 20
647.2106558487937
 30
0.0
 10
7253.118703451997
 20
577.17069972715
 30
0.0
 10
7267.304385896931
 20
510.4772615935596
 30
0.0
 10
7267.304385896931
 20
440.4076902684826
 30
0.0
 10
7267.304385896931
 20
368.6648599493772
 30
0.0
 10
7265.320167266846
 20
298.0177921573347
 30
0.0
 10
7265.320167266846
 20
226.2305390330791
 30
0.0
 10
7265.320167266846
 20
186.4721284228023
 30
0.0
 10
7253.444470689775
 20
107.7253024915342
 30
0.0
 10
7290.419052177245
 20
78.28779027803898
 30
0.0
 10
7291.944235154102
 20
77.07356693724046
 30
0.0
 10
7293.365764918937
 20
76.12588042735001
 30
0.0
 10
7294.816909887209
 20
75.08934830715657
 30
0.0
  0
POLYLINE
  5
25C
330
1F
100
AcDbEntity
  8
Furniture
370
     9
100
AcDb2dPolyline
 66
     1
 10
0.0
 20
0.0
 30
0.0
  0
VERTEX
  5
25D
330
25C
100
AcDbEntity
  8
Furniture
370
     9
100
AcDbVertex
100
AcDb2dVertex
 10
7412.181961096542
 20
763.0209088778363
 30
0.0
  0
VERTEX
  5
25E
330
25C
100
AcDbEntity
  8
0
100
AcDbVertex
100
AcDb2dVertex
 10
7412.181961096542
 20
763.0209088778363
 30
0.0
  0
SEQEND
  5
25F
330
25C
100
AcDbEntity
  8
Furniture
370
     9
  0
SPLINE
  5
260
330
1F
100
AcDbEntity
  8
Furniture
370
     9
100
AcDbSpline
210
0.0
220
0.0
230
1.0
 70
     8
 71
     3
 72
    26
 73
    22
 74
     0
 42
0.000000001
 43
0.0000000001
 40
0.0
 40
0.0
 40
0.0
 40
0.0
 40
1.0
 40
1.0
 40
1.0
 40
2.0
 40
2.0
 40
2.0
 40
3.0
 40
3.0
 40
3.0
 40
4.0
 40
4.0
 40
4.0
 40
5.0
 40
5.0
 40
5.0
 40
6.0
 40
6.0
 40
6.0
 40
7.0
 40
7.0
 40
7.0
 40
7.0
 10
7290.937318237341
 20
78.76163353298557
 30
0.0
 10
7321.233671350424
 20
49.75354176928499
 30
0.0
 10
7381.678301559421
 20
103.8012880365156
 30
0.0
 10
7410.493894500799
 20
114.2850700521865
 30
0.0
 10
7427.226484441064
 20
120.3858019596116
 30
0.0
 10
7441.530627699734
 20
122.991939861811
 30
0.0
 10
7458.026296012528
 20
122.9327094549442
 30
0.0
 10
7487.197271395115
 20
122.7402106326224
 30
0.0
 10
7484.916900730688
 20
133.2239926482923
 30
0.0
 10
7495.667219577267
 20
158.4413383724275
 30
0.0
 10
7523.150128364111
 20
222.6470994175532
 30
0.0
 10
7515.005947419732
 20
289.7255351957881
 30
0.0
 10
7519.566688748584
 20
357.8553106959314
 30
0.0
 10
7524.127430077435
 20
425.8073949754714
 30
0.0
 10
7518.678232645561
 20
489.8354647999938
 30
0.0
 10
7512.370194314098
 20
557.0619765953968
 30
0.0
 10
7506.358308016977
 20
621.4750440645619
 30
0.0
 10
7498.214127072599
 20
669.3332128140653
 30
0.0
 10
7458.470524064037
 20
724.9653724650204
 30
0.0
 10
7445.4102193496
 20
743.2971833907275
 30
0.0
 10
7438.480261746022
 20
744.3929459177895
 30
0.0
 10
7428.825705426504
 20
749.6496445273412
 30
0.0
  0
SPLINE
  5
261
330
1F
100
AcDbEntity
  8
Furniture
370
     9
100
AcDbSpline
210
0.0
220
0.0
230
1.0
 70
     8
 71
     3
 72
    26
 73
    22
 74
     0
 42
0.000000001
 43
0.0000000001
 40
0.0
 40
0.0
 40
0.0
 40
0.0
 40
1.0
 40
1.0
 40
1.0
 40
2.0
 40
2.0
 40
2.0
 40
3.0
 40
3.0
 40
3.0
 40
4.0
 40
4.0
 40
4.0
 40
5.0
 40
5.0
 40
5.0
 40
6.0
 40
6.0
 40
6.0
 40
7.0
 40
7.0
 40
7.0
 40
7.0
 10
8243.569567101998
 20
775.9183299733875
 30
0.0
 10
8262.612142910121
 20
785.7653851152251
 30
0.0
 10
8285.327003944075
 20
799.6993383309679
 30
0.0
 10
8296.343859621559
 20
804.6895001096142
 30
0.0
 10
8307.804943350557
 20
809.9017759140149
 30
0.0
 10
8317.577960483809
 20
818.9047977579818
 30
0.0
 10
8331.319414877231
 20
816.9798095347648
 30
0.0
 10
8355.218884048548
 20
761.1699586632055
 30
0.0
 10
8365.436129233312
 20
706.6187539375967
 30
0.0
 10
8373.58031017769
 20
647.6696915020218
 30
0.0
 10
8383.234866497208
 20
577.2743529391688
 30
0.0
 10
8369.108414459143
 20
510.2255323643701
 30
0.0
 10
8369.108414459143
 20
439.7709633946485
 30
0.0
 10
8369.108414459143
 20
367.6579430326181
 30
0.0
 10
8371.033402682357
 20
296.625877595932
 30
0.0
 10
8371.033402682357
 20
224.4980496321857
 30
0.0
 10
8371.033402682357
 20
184.5027173944343
 30
0.0
 10
8382.909099259432
 20
105.3412786150891
 30
0.0
 10
8345.949325373675
 20
75.75569038442404
 30
0.0
 10
8344.468565201971
 20
74.52665944190972
 30
0.0
 10
8342.958189826832
 20
73.60858813545178
 30
0.0
 10
8341.595890468864
 20
72.54244081182401
 30
0.0
  0
SPLINE
  5
262
330
1F
100
AcDbEntity
  8
Furniture
370
     9
100
AcDbSpline
210
0.0
220
0.0
230
1.0
 70
     8
 71
     3
 72
    29
 73
    25
 74
     0
 42
0.000000001
 43
0.0000000001
 40
0.0
 40
0.0
 40
0.0
 40
0.0
 40
1.0
 40
1.0
 40
1.0
 40
2.0
 40
2.0
 40
2.0
 40
3.0
 40
3.0
 40
3.0
 40
4.0
 40
4.0
 40
4.0
 40
5.0
 40
5.0
 40
5.0
 40
6.0
 40
6.0
 40
6.0
 40
7.0
 40
7.0
 40
7.0
 40
8.0
 40
8.0
 40
8.0
 40
8.0
 10
8345.445866915296
 20
76.25914884280314
 30
0.0
 10
8315.149513802213
 20
47.08817346021691
 30
0.0
 10
8254.704883593218
 20
101.4172641600705
 30
0.0
 10
8225.830060244971
 20
111.96027658261
 30
0.0
 10
8209.097470304707
 20
118.075816091751
 30
0.0
 10
8194.882172656338
 20
120.6967615956689
 30
0.0
 10
8178.386504343546
 20
120.6227235870835
 30
0.0
 10
8149.185913757523
 20
120.4450323664794
 30
0.0
 10
8151.46628442195
 20
130.9584295855836
 30
0.0
 10
8140.715965575372
 20
156.3238513268904
 30
0.0
 10
8113.262671991963
 20
220.8849948132254
 30
0.0
 10
8121.40685293634
 20
288.3188130326678
 30
0.0
 10
8116.84611160749
 20
356.8039709740213
 30
0.0
 10
8112.285370278639
 20
425.0966300930529
 30
0.0
 10
8117.734567710511
 20
489.4356595536326
 30
0.0
 10
8124.012990838542
 20
557.0619765953968
 30
0.0
 10
8126.026824672058
 20
579.1401107555173
 30
0.0
 10
8127.359508826591
 20
599.5746011250465
 30
0.0
 10
8129.758340304755
 20
619.1502505949854
 30
0.0
 10
8134.378312040475
 20
656.9984805837637
 30
0.0
 10
8143.203642663834
 20
691.6038457965084
 30
0.0
 10
8169.353867296146
 20
728.4451588685267
 30
0.0
 10
8180.755720618273
 20
744.555829536677
 30
0.0
 10
8190.587968158395
 20
748.4058059831093
 30
0.0
 10
8199.472529188623
 20
753.7217349995296
 30
0.0
  0
SPLINE
  5
263
330
1F
100
AcDbEntity
  8
Furniture
370
     9
100
AcDbSpline
210
0.0
220
0.0
230
1.0
 70
     8
 71
     3
 72
    23
 73
    19
 74
     0
 42
0.000000001
 43
0.0000000001
 40
0.0
 40
0.0
 40
0.0
 40
0.0
 40
1.0
 40
1.0
 40
1.0
 40
2.0
 40
2.0
 40
2.0
 40
3.0
 40
3.0
 40
3.0
 40
4.0
 40
4.0
 40
4.0
 40
5.0
 40
5.0
 40
5.0
 40
6.0
 40
6.0
 40
6.0
 40
6.0
 10
8198.761764306203
 20
78.7912487364199
 30
0.0
 10
8205.010572230801
 20
64.6796043000711
 30
0.0
 10
8244.961481663398
 20
33.62806349941889
 30
0.0
 10
8242.710726202409
 20
17.79873726389337
 30
0.0
 10
8237.88344804265
 20
-16.34759229562337
 30
0.0
 10
8003.627188878928
 20
8.484755783868195
 30
0.0
 10
7952.659423768844
 20
12.11261820454615
 30
0.0
 10
7860.259989054457
 20
18.71680857034948
 30
0.0
 10
7836.271674272835
 20
18.21335011197038
 30
0.0
 10
7724.977739767493
 20
11.25377730495688
 30
0.0
 10
7647.50436758389
 20
6.396883941764599
 30
0.0
 10
7597.040060932186
 20
-2.991135546845043
 30
0.0
 10
7519.122460697073
 20
1.673258994025445
 30
0.0
 10
7496.85182771463
 20
3.00594314856039
 30
0.0
 10
7395.77513839405
 20
-6.767073984691933
 30
0.0
 10
7388.815565587037
 20
20.40487516609369
 30
0.0
 10
7386.090966871101
 20
31.18480921610512
 30
0.0
 10
7425.538417845321
 20
65.1682551567344
 30
0.0
 10
7430.809924056589
 20
74.88204188311897
 30
0.0
  0
POLYLINE
  5
264
330
1F
100
AcDbEntity
  8
Furniture
370
     9
100
AcDb2dPolyline
 66
     1
 10
0.0
 20
0.0
 30
0.0
  0
VERTEX
  5
265
330
264
100
AcDbEntity
  8
Furniture
370
     9
100
AcDbVertex
100
AcDb2dVertex
 10
7433.712213993132
 20
80.61258374761633
 30
0.0
  0
VERTEX
  5
266
330
264
100
AcDbEntity
  8
Furniture
370
     9
100
AcDbVertex
100
AcDb2dVertex
 10
7440.849478020749
 20
121.9109849364674
 30
0.0
  0
SEQEND
  5
267
330
264
100
AcDbEntity
  8
Furniture
370
     9
  0
POLYLINE
  5
268
330
1F
100
AcDbEntity
  8
Furniture
370
     9
100
AcDb2dPolyline
 66
     1
 10
0.0
 20
0.0
 30
0.0
  0
VERTEX
  5
269
330
268
100
AcDbEntity
  8
Furniture
370
     9
100
AcDbVertex
100
AcDb2dVertex
 10
8196.451778438346
 20
84.80313503354114
 30
0.0
  0
VERTEX
  5
26A
330
268
100
AcDbEntity
  8
Furniture
370
     9
100
AcDbVertex
100
AcDb2dVertex
 10
8192.276034754137
 20
119.9415739080993
 30
0.0
  0
SEQEND
  5
26B
330
268
100
AcDbEntity
  8
Furniture
370
     9
  0
POLYLINE
  5
26C
330
1F
100
AcDbEntity
  8
Furniture
370
     9
100
AcDb2dPolyline
 66
     1
 10
0.0
 20
0.0
 30
0.0
  0
VERTEX
  5
26D
330
26C
100
AcDbEntity
  8
Furniture
370
     9
100
AcDbVertex
100
AcDb2dVertex
 10
8199.472529188623
 20
753.7217349995296
 30
0.0
  0
VERTEX
  5
26E
330
26C
100
AcDbEntity
  8
Furniture
370
     9
100
AcDbVertex
100
AcDb2dVertex
 10
8240.874583589492
 20
774.8077598446077
 30
0.0
  0
SEQEND
  5
26F
330
26C
100
AcDbEntity
  8
Furniture
370
     9
  0
POLYLINE
  5
270
330
1F
100
AcDbEntity
  8
Furniture
370
     9
100
AcDb2dPolyline
 66
     1
 10
0.0
 20
0.0
 30
0.0
  0
VERTEX
  5
271
330
270
100
AcDbEntity
  8
Furniture
370
     9
100
AcDbVertex
100
AcDb2dVertex
 10
7389.970558520968
 20
773.04565524028
 30
0.0
  0
VERTEX
  5
272
330
270
100
AcDbEntity
  8
Furniture
370
     9
100
AcDbVertex
100
AcDb2dVertex
 10
7428.766475019639
 20
749.5607989170401
 30
0.0
  0
SEQEND
  5
273
330
270
100
AcDbEntity
  8
Furniture
370
     9
  0
SPLINE
  5
274
330
1F
100
AcDbEntity
  8
Furniture
370
     9
100
AcDbSpline
210
0.0
220
0.0
230
1.0
 70
     9
 71
     3
 72
    17
 73
    13
 74
     0
 42
0.000000001
 43
0.0000000001
 40
0.0
 40
0.0
 40
0.0
 40
0.0
 40
1.0
 40
1.0
 40
1.0
 40
2.0
 40
2.0
 40
2.0
 40
3.0
 40
3.0
 40
3.0
 40
4.0
 40
4.0
 40
4.0
 40
4.0
 10
9715.133348761531
 20
95.84960591445975
 30
0.0
 10
9715.133348761531
 20
83.20391404809994
 30
0.0
 10
9725.143287522255
 20
72.98666886333626
 30
0.0
 10
9737.433596947404
 20
72.98666886333626
 30
0.0
 10
9749.753521575991
 20
72.98666886333626
 30
0.0
 10
9759.733845133283
 20
83.20391404809994
 30
0.0
 10
9759.733845133283
 20
95.84960591445975
 30
0.0
 10
9759.733845133283
 20
108.465682577387
 30
0.0
 10
9749.81275198286
 20
118.7125429655841
 30
0.0
 10
9737.433596947404
 20
118.7125429655841
 30
0.0
 10
9725.143287522255
 20
118.7125429655841
 30
0.0
 10
9715.133348761531
 20
108.465682577387
 30
0.0
 10
9715.133348761531
 20
95.84960591445975
 30
0.0
  0
SPLINE
  5
275
330
1F
100
AcDbEntity
  8
Furniture
370
     9
100
AcDbSpline
210
0.0
220
0.0
230
1.0
 70
     9
 71
     3
 72
    17
 73
    13
 74
     0
 42
0.000000001
 43
0.0000000001
 40
0.0
 40
0.0
 40
0.0
 40
0.0
 40
1.0
 40
1.0
 40
1.0
 40
2.0
 40
2.0
 40
2.0
 40
3.0
 40
3.0
 40
3.0
 40
4.0
 40
4.0
 40
4.0
 40
4.0
 10
11270.93931534759
 20
95.84960591445975
 30
0.0
 10
11270.93931534759
 20
83.20391404809994
 30
0.0
 10
11280.83079329458
 20
72.98666886333626
 30
0.0
 10
11293.20994833003
 20
72.98666886333626
 30
0.0
 10
11305.52987295861
 20
72.98666886333626
 30
0.0
 10
11315.42135090561
 20
83.20391404809994
 30
0.0
 10
11315.42135090561
 20
95.84960591445975
 30
0.0
 10
11315.42135090561
 20
108.465682577387
 30
0.0
 10
11305.52987295861
 20
118.7125429655841
 30
0.0
 10
11293.20994833003
 20
118.7125429655841
 30
0.0
 10
11280.83079329458
 20
118.7125429655841
 30
0.0
 10
11270.93931534759
 20
108.465682577387
 30
0.0
 10
11270.93931534759
 20
95.84960591445975
 30
0.0
  0
SPLINE
  5
276
330
1F
100
AcDbEntity
  8
Furniture
370
     9
100
AcDbSpline
210
0.0
220
0.0
230
1.0
 70
     8
 71
     3
 72
    14
 73
    10
 74
     0
 42
0.000000001
 43
0.0000000001
 40
0.0
 40
0.0
 40
0.0
 40
0.0
 40
1.0
 40
1.0
 40
1.0
 40
2.0
 40
2.0
 40
2.0
 40
3.0
 40
3.0
 40
3.0
 40
3.0
 10
9757.927317723805
 20
757.6605570562649
 30
0.0
 10
9759.111925861168
 20
760.4443861790712
 30
0.0
 10
9759.733845133283
 20
763.539174937933
 30
0.0
 10
9759.733845133283
 20
766.796847315684
 30
0.0
 10
9759.733845133283
 20
779.4129239786104
 30
0.0
 10
9749.81275198286
 20
789.6745919685261
 30
0.0
 10
9737.433596947404
 20
789.6745919685261
 30
0.0
 10
9727.719810221023
 20
789.6745919685261
 30
0.0
 10
9719.338707649171
 20
783.1592472130239
 30
0.0
 10
9716.317956898896
 20
774.1414177673411
 30
0.0
  0
POLYLINE
  5
277
330
1F
100
AcDbEntity
  8
Furniture
370
     9
100
AcDb2dPolyline
 66
     1
 10
0.0
 20
0.0
 30
0.0
  0
VERTEX
  5
278
330
277
100
AcDbEntity
  8
Furniture
370
     9
100
AcDbVertex
100
AcDb2dVertex
 10
9715.133348761531
 20
766.796847315684
 30
0.0
  0
VERTEX
  5
279
330
277
100
AcDbEntity
  8
0
100
AcDbVertex
100
AcDb2dVertex
 10
9715.133348761531
 20
766.796847315684
 30
0.0
  0
SEQEND
  5
27A
330
277
100
AcDbEntity
  8
Furniture
370
     9
  0
SPLINE
  5
27B
330
1F
100
AcDbEntity
  8
Furniture
370
     9
100
AcDbSpline
210
0.0
220
0.0
230
1.0
 70
     8
 71
     3
 72
    11
 73
     7
 74
     0
 42
0.000000001
 43
0.0000000001
 40
0.0
 40
0.0
 40
0.0
 40
0.0
 40
1.0
 40
1.0
 40
1.0
 40
2.0
 40
2.0
 40
2.0
 40
2.0
 10
11313.70366910643
 20
775.6962159476313
 30
0.0
 10
11310.26830550807
 20
783.9144349005935
 30
0.0
 10
11302.3906613946
 20
789.6745919685261
 30
0.0
 10
11293.20994833003
 20
789.6745919685261
 30
0.0
 10
11280.83079329458
 20
789.6745919685261
 30
0.0
 10
11270.93931534759
 20
779.4573467837615
 30
0.0
 10
11270.93931534759
 20
766.796847315684
 30
0.0
  0
SPLINE
  5
27C
330
1F
100
AcDbEntity
  8
Furniture
370
     9
100
AcDbSpline
210
0.0
220
0.0
230
1.0
 70
     8
 71
     3
 72
     8
 73
     4
 74
     0
 42
0.000000001
 43
0.0000000001
 40
0.0
 40
0.0
 40
0.0
 40
0.0
 40
1.0
 40
1.0
 40
1.0
 40
1.0
 10
11270.93931534759
 20
766.796847315684
 30
0.0
 10
11270.93931534759
 20
764.1166714048984
 30
0.0
 10
11271.35392819567
 20
761.5401487061324
 30
0.0
 10
11272.18315389182
 20
759.1413172279697
 30
0.0
  0
SPLINE
  5
27D
330
1F
100
AcDbEntity
  8
Furniture
370
     9
100
AcDbSpline
210
0.0
220
0.0
230
1.0
 70
     8
 71
     3
 72
    23
 73
    19
 74
     0
 42
0.000000001
 43
0.0000000001
 40
0.0
 40
0.0
 40
0.0
 40
0.0
 40
1.0
 40
1.0
 40
1.0
 40
2.0
 40
2.0
 40
2.0
 40
3.0
 40
3.0
 40
3.0
 40
4.0
 40
4.0
 40
4.0
 40
5.0
 40
5.0
 40
5.0
 40
6.0
 40
6.0
 40
6.0
 40
6.0
 10
9754.373493311712
 20
123.8803959648346
 30
0.0
 10
9760.237303591663
 20
107.8881861104216
 30
0.0
 10
9762.695365476695
 20
95.36095505779735
 30
0.0
 10
9755.469255838773
 20
81.2937334266005
 30
0.0
 10
9750.375440848108
 20
71.6391771070837
 30
0.0
 10
9712.764132486801
 20
37.93707559907921
 30
0.0
 10
9715.429500795872
 20
27.24598715936986
 30
0.0
 10
9722.063306365107
 20
0.2665368309060341
 30
0.0
 10
9818.401563136234
 20
9.980323557290603
 30
0.0
 10
9839.606048795046
 20
8.647639402755658
 30
0.0
 10
9913.9105942112
 20
4.042475268753833
 30
0.0
 10
9961.976069384743
 20
13.35645674877719
 30
0.0
 10
10035.77715634252
 20
18.18373490853605
 30
0.0
 10
10141.91804545032
 20
25.09888491039851
 30
0.0
 10
10164.72175209458
 20
25.5875357670609
 30
0.0
 10
10252.88621271789
 20
19.0277682064077
 30
0.0
 10
10257.38662936543
 20
15.69605782007215
 30
0.0
 10
10510.3457588769
 20
-14.31895086038753
 30
0.0
 10
10532.4090854353
 20
8.484755783868195
 30
0.0
  0
POLYLINE
  5
27E
330
1F
100
AcDbEntity
  8
Furniture
370
     9
100
AcDb2dPolyline
 66
     1
 10
0.0
 20
0.0
 30
0.0
  0
VERTEX
  5
27F
330
27E
100
AcDbEntity
  8
Furniture
370
     9
100
AcDbVertex
100
AcDb2dVertex
 10
9825.272290332947
 20
623.444455092929
 30
0.0
  0
VERTEX
  5
280
330
27E
100
AcDbEntity
  8
0
100
AcDbVertex
100
AcDb2dVertex
 10
9825.272290332947
 20
623.444455092929
 30
0.0
  0
SEQEND
  5
281
330
27E
100
AcDbEntity
  8
Furniture
370
     9
  0
POLYLINE
  5
282
330
1F
100
AcDbEntity
  8
Furniture
370
     9
100
AcDb2dPolyline
 66
     1
 10
0.0
 20
0.0
 30
0.0
  0
VERTEX
  5
283
330
282
100
AcDbEntity
  8
Furniture
370
     9
100
AcDbVertex
100
AcDb2dVertex
 10
9822.458846006703
 20
635.5422656957596
 30
0.0
  0
VERTEX
  5
284
330
282
100
AcDbEntity
  8
0
100
AcDbVertex
100
AcDb2dVertex
 10
9822.458846006703
 20
635.5422656957596
 30
0.0
  0
SEQEND
  5
285
330
282
100
AcDbEntity
  8
Furniture
370
     9
  0
SPLINE
  5
286
330
1F
100
AcDbEntity
  8
Furniture
370
     9
100
AcDbSpline
210
0.0
220
0.0
230
1.0
 70
     8
 71
     3
 72
    26
 73
    22
 74
     0
 42
0.000000001
 43
0.0000000001
 40
0.0
 40
0.0
 40
0.0
 40
0.0
 40
1.0
 40
1.0
 40
1.0
 40
2.0
 40
2.0
 40
2.0
 40
3.0
 40
3.0
 40
3.0
 40
4.0
 40
4.0
 40
4.0
 40
5.0
 40
5.0
 40
5.0
 40
6.0
 40
6.0
 40
6.0
 40
7.0
 40
7.0
 40
7.0
 40
7.0
 10
10534.71907130316
 20
872.1381259307733
 30
0.0
 10
10529.12179785411
 20
876.9209812853812
 30
0.0
 10
10514.63996337484
 20
867.9623822465662
 30
0.0
 10
10495.1531595152
 20
871.4273610483548
 30
0.0
 10
10451.32265843274
 20
879.2161595515242
 30
0.0
 10
10254.5446641102
 20
887.1974568770136
 30
0.0
 10
10228.7498219191
 20
890.8845497045584
 30
0.0
 10
10202.62921249023
 20
894.6012577355375
 30
0.0
 10
10163.86291119499
 20
897.8145073081384
 30
0.0
 10
10135.07693345705
 20
897.7996997064208
 30
0.0
 10
10068.53157134063
 20
897.6812388926834
 30
0.0
 10
10027.27759295693
 20
891.1955093406165
 30
0.0
 10
9998.728536846458
 20
888.7078322521526
 30
0.0
 10
9933.723165308613
 20
883.0809435996732
 30
0.0
 10
9879.260806193304
 20
877.3207865317415
 30
0.0
 10
9824.028451788711
 20
863.2239496971093
 30
0.0
 10
9778.272962483029
 20
851.525944340641
 30
0.0
 10
9706.189557324433
 20
880.5044209009071
 30
0.0
 10
9716.821415357273
 20
830.3954966904118
 30
0.0
 10
9722.774071247528
 20
802.7052814795286
 30
0.0
 10
9756.742709586438
 20
798.4258845833026
 30
0.0
 10
9771.84646333783
 20
743.6377582302191
 30
0.0
  0
SPLINE
  5
287
330
1F
100
AcDbEntity
  8
Furniture
370
     9
100
AcDbSpline
210
0.0
220
0.0
230
1.0
 70
     8
 71
     3
 72
    20
 73
    16
 74
     0
 42
0.000000001
 43
0.0000000001
 40
0.0
 40
0.0
 40
0.0
 40
0.0
 40
1.0
 40
1.0
 40
1.0
 40
2.0
 40
2.0
 40
2.0
 40
3.0
 40
3.0
 40
3.0
 40
4.0
 40
4.0
 40
4.0
 40
5.0
 40
5.0
 40
5.0
 40
5.0
 10
9825.272290332947
 20
623.444455092929
 30
0.0
 10
9849.319835521432
 20
577.7481961941155
 30
0.0
 10
9904.641035536327
 20
582.7235503710433
 30
0.0
 10
9949.80422077333
 20
576.8597400910919
 30
0.0
 10
9990.34743427461
 20
571.5882338798226
 30
0.0
 10
10031.86794948921
 20
568.7895971553005
 30
0.0
 10
10072.91462144888
 20
568.1528702814673
 30
0.0
 10
10116.33050968326
 20
567.4421053990488
 30
0.0
 10
10162.76714866793
 20
568.0936398745987
 30
0.0
 10
10206.6864953607
 20
568.0936398745987
 30
0.0
 10
10248.14778016844
 20
568.0936398745987
 30
0.0
 10
10289.93483221395
 20
572.0324619313339
 30
0.0
 10
10414.09634771608
 20
577.126276921999
 30
0.0
 10
10466.98910104938
 20
583.6268140757836
 30
0.0
 10
10479.78286893291
 20
575.9712839880692
 30
0.0
 10
10532.76446787651
 20
597.4274988760733
 30
0.0
  0
SPLINE
  5
288
330
1F
100
AcDbEntity
  8
Furniture
370
     9
100
AcDbSpline
210
0.0
220
0.0
230
1.0
 70
     8
 71
     3
 72
    47
 73
    43
 74
     0
 42
0.000000001
 43
0.0000000001
 40
0.0
 40
0.0
 40
0.0
 40
0.0
 40
1.0
 40
1.0
 40
1.0
 40
2.0
 40
2.0
 40
2.0
 40
3.0
 40
3.0
 40
3.0
 40
4.0
 40
4.0
 40
4.0
 40
5.0
 40
5.0
 40
5.0
 40
6.0
 40
6.0
 40
6.0
 40
7.0
 40
7.0
 40
7.0
 40
8.0
 40
8.0
 40
8.0
 40
9.0
 40
9.0
 40
9.0
 40
10.0
 40
10.0
 40
10.0
 40
11.0
 40
11.0
 40
11.0
 40
12.0
 40
12.0
 40
12.0
 40
13.0
 40
13.0
 40
13.0
 40
14.0
 40
14.0
 40
14.0
 40
14.0
 10
9622.08237957159
 20
85.14370987303278
 30
0.0
 10
9651.016433326706
 20
56.40215494024028
 30
0.0
 10
9708.647619209465
 20
110.0056731559587
 30
0.0
 10
9736.100912792872
 20
120.4006095613274
 30
0.0
 10
9752.06350744385
 20
126.4273034601672
 30
0.0
 10
9765.627270616668
 20
129.0186337606508
 30
0.0
 10
9781.412174047042
 20
128.9445957520654
 30
0.0
 10
9809.250465275095
 20
128.7669045314603
 30
0.0
 10
9806.999709814105
 20
139.1470333351124
 30
0.0
 10
9817.305800609171
 20
164.1866878386424
 30
0.0
 10
9843.367179631178
 20
227.9037980271057
 30
0.0
 10
9835.607996331445
 20
294.4491601435263
 30
0.0
 10
9839.99104643969
 20
362.0606695835738
 30
0.0
 10
9844.403711751372
 20
429.4648725995828
 30
0.0
 10
9839.191435946972
 20
492.9746763640075
 30
0.0
 10
9833.238780056717
 20
559.7273449044657
 30
0.0
 10
9827.434200183631
 20
623.622146313535
 30
0.0
 10
9819.675016883898
 20
671.0953174183948
 30
0.0
 10
9781.856402098554
 20
726.2980566195544
 30
0.0
 10
9763.376515155677
 20
753.2478917445849
 30
0.0
 10
9767.700334857055
 20
757.6605570562649
 30
0.0
 10
9737.700133778316
 20
764.087056201464
 30
0.0
 10
9720.730622210574
 20
767.6853034187076
 30
0.0
 10
9684.777765241578
 20
796.6933951824073
 30
0.0
 10
9668.904016200901
 20
804.1564264477999
 30
0.0
 10
9657.946390930288
 20
809.294664243616
 30
0.0
 10
9648.765677865716
 20
818.164417672129
 30
0.0
 10
9635.557297134106
 20
816.239429448912
 30
0.0
 10
9612.783205693284
 20
761.1699586632055
 30
0.0
 10
9603.069418966899
 20
707.3591340234486
 30
0.0
 10
9595.339850870599
 20
649.1504516737275
 30
0.0
 10
9586.129522602595
 20
579.6731844173316
 30
0.0
 10
9599.604440165109
 20
513.4683971404036
 30
0.0
 10
9599.604440165109
 20
443.9467070788566
 30
0.0
 10
9599.604440165109
 20
372.7961808284342
 30
0.0
 10
9597.738682348762
 20
302.6969942999228
 30
0.0
 10
9597.738682348762
 20
231.4724300409159
 30
0.0
 10
9597.738682348762
 20
191.9953638632612
 30
0.0
 10
9586.425674636936
 20
113.9000724075438
 30
0.0
 10
9621.63815152008
 20
84.66986661808801
 30
0.0
 10
9623.030066081483
 20
83.4704508790071
 30
0.0
 10
9624.45159584632
 20
82.52276436911575
 30
0.0
 10
9625.843510407724
 20
81.50103985063992
 30
0.0
  0
SPLINE
  5
289
330
1F
100
AcDbEntity
  8
Furniture
370
     9
100
AcDbSpline
210
0.0
220
0.0
230
1.0
 70
     8
 71
     3
 72
    32
 73
    28
 74
     0
 42
0.000000001
 43
0.0000000001
 40
0.0
 40
0.0
 40
0.0
 40
0.0
 40
1.0
 40
1.0
 40
1.0
 40
2.0
 40
2.0
 40
2.0
 40
3.0
 40
3.0
 40
3.0
 40
4.0
 40
4.0
 40
4.0
 40
5.0
 40
5.0
 40
5.0
 40
6.0
 40
6.0
 40
6.0
 40
7.0
 40
7.0
 40
7.0
 40
8.0
 40
8.0
 40
8.0
 40
9.0
 40
9.0
 40
9.0
 40
9.0
 10
11275.73697830391
 20
81.2937334266005
 30
0.0
 10
11280.71233248084
 20
71.6391771070837
 30
0.0
 10
11318.50133206275
 20
37.93707559907921
 30
0.0
 10
11315.95442456742
 20
27.24598715936986
 30
0.0
 10
11309.26138859131
 20
0.2665368309060341
 30
0.0
 10
11212.36044295494
 20
9.980323557290603
 30
0.0
 10
11191.03749648239
 20
8.647639402755658
 30
0.0
 10
11116.28872301473
 20
4.042475268753833
 30
0.0
 10
11067.95671101028
 20
13.35645674877719
 30
0.0
 10
10993.68178079756
 20
18.18373490853605
 30
0.0
 10
10886.8893572142
 20
25.09888491039851
 30
0.0
 10
10863.90795934933
 20
25.5875357670609
 30
0.0
 10
10734.69573249191
 20
19.0277682064077
 30
0.0
 10
10685.84545442737
 20
15.42952098916407
 30
0.0
 10
10538.36174132555
 20
-19.13142141842877
 30
0.0
 10
10533.68253918297
 20
14.76317891189751
 30
0.0
 10
10531.57985973915
 20
30.48885193540423
 30
0.0
 10
10532.76446787651
 20
43.7860782773148
 30
0.0
 10
10532.76446787651
 20
61.92539038069913
 30
0.0
 10
10532.76446787651
 20
81.45661704548798
 30
0.0
 10
10529.06256744725
 20
103.0461003489461
 30
0.0
 10
10529.77333232967
 20
126.6346098842057
 30
0.0
 10
10531.1060164842
 20
171.827410324641
 30
0.0
 10
10536.67367472981
 20
211.0971700782554
 30
0.0
 10
10532.76446787651
 20
255.875357670612
 30
0.0
 10
10527.31527044464
 20
319.2074702144334
 30
0.0
 10
10537.02905717102
 20
387.5593597403329
 30
0.0
 10
10533.68253918297
 20
451.0987787081919
 30
0.0
  0
SPLINE
  5
28A
330
1F
100
AcDbEntity
  8
Furniture
370
     9
100
AcDbSpline
210
0.0
220
0.0
230
1.0
 70
     8
 71
     3
 72
     8
 73
     4
 74
     0
 42
0.000000001
 43
0.0000000001
 40
0.0
 40
0.0
 40
0.0
 40
0.0
 40
1.0
 40
1.0
 40
1.0
 40
1.0
 10
11204.54202924834
 20
635.5422656957596
 30
0.0
 10
11203.23896029724
 20
631.3220992063995
 30
0.0
 10
11201.52127849806
 20
624.3625263993861
 30
0.0
 10
11201.6397393118
 20
623.444455092929
 30
0.0
  0
SPLINE
  5
28B
330
1F
100
AcDbEntity
  8
Furniture
370
     9
100
AcDbSpline
210
0.0
220
0.0
230
1.0
 70
     8
 71
     3
 72
    50
 73
    46
 74
     0
 42
0.000000001
 43
0.0000000001
 40
0.0
 40
0.0
 40
0.0
 40
0.0
 40
1.0
 40
1.0
 40
1.0
 40
2.0
 40
2.0
 40
2.0
 40
3.0
 40
3.0
 40
3.0
 40
4.0
 40
4.0
 40
4.0
 40
5.0
 40
5.0
 40
5.0
 40
6.0
 40
6.0
 40
6.0
 40
7.0
 40
7.0
 40
7.0
 40
8.0
 40
8.0
 40
8.0
 40
9.0
 40
9.0
 40
9.0
 40
10.0
 40
10.0
 40
10.0
 40
11.0
 40
11.0
 40
11.0
 40
12.0
 40
12.0
 40
12.0
 40
13.0
 40
13.0
 40
13.0
 40
14.0
 40
14.0
 40
14.0
 40
15.0
 40
15.0
 40
15.0
 40
15.0
 10
11201.6397393118
 20
623.444455092929
 30
0.0
 10
11177.65142453018
 20
577.7481961941155
 30
0.0
 10
11122.27099410841
 20
582.7235503710433
 30
0.0
 10
11077.13742407485
 20
576.8597400910919
 30
0.0
 10
11036.623825777
 20
571.5882338798226
 30
0.0
 10
10995.10331056239
 20
568.7895971553005
 30
0.0
 10
10954.05663860273
 20
568.1528702814673
 30
0.0
 10
10910.64075036834
 20
567.4421053990488
 30
0.0
 10
10864.20411138368
 20
568.0936398745987
 30
0.0
 10
10820.19591908061
 20
568.0936398745987
 30
0.0
 10
10738.19032649714
 20
568.0936398745987
 30
0.0
 10
10696.44769725677
 20
572.0324619313339
 30
0.0
 10
10655.13448846621
 20
577.126276921999
 30
0.0
 10
10602.21211992947
 20
583.6268140757836
 30
0.0
 10
10589.35912163907
 20
575.9712839880692
 30
0.0
 10
10536.4071378989
 20
597.4274988760733
 30
0.0
 10
10516.20956915685
 20
605.6012950238852
 30
0.0
 10
10536.61444432294
 20
685.5475366942344
 30
0.0
 10
10533.68253918297
 20
703.4203119667133
 30
0.0
 10
10529.7141019228
 20
728.1193916307517
 30
0.0
 10
10532.76446787651
 20
763.0357164795539
 30
0.0
 10
10533.17908072459
 20
784.9953898259388
 30
0.0
 10
10533.68253918297
 20
807.7694812667603
 30
0.0
 10
10536.2294466783
 20
831.2395299882835
 30
0.0
 10
10532.76446787651
 20
854.6059254977878
 30
0.0
 10
10527.87795930988
 20
887.597262123373
 30
0.0
 10
10545.64708137034
 20
866.3927764645594
 30
0.0
 10
10574.01844626021
 20
871.4273610483548
 30
0.0
 10
10617.84894734268
 20
879.2161595515242
 30
0.0
 10
10731.85267296224
 20
887.1974568770136
 30
0.0
 10
10757.6178999499
 20
890.8845497045584
 30
0.0
 10
10824.34204756138
 20
894.6012577355375
 30
0.0
 10
10863.13796406005
 20
897.8145073081384
 30
0.0
 10
10891.86471139112
 20
897.7996997064208
 30
0.0
 10
10958.43968871098
 20
897.6812388926834
 30
0.0
 10
10999.66405189124
 20
891.1955093406165
 30
0.0
 10
11028.21310800171
 20
888.7078322521526
 30
0.0
 10
11093.18886433613
 20
883.0809435996732
 30
0.0
 10
11147.68083865487
 20
877.3207865317415
 30
0.0
 10
11202.9428082629
 20
863.2239496971093
 30
0.0
 10
11248.66868236515
 20
851.525944340641
 30
0.0
 10
11330.22895262266
 20
876.8765584802293
 30
0.0
 10
11319.56747938638
 20
826.7824418714514
 30
0.0
 10
11313.76289951329
 20
799.5808775172324
 30
0.0
 10
11271.70931063688
 20
798.4406921850193
 30
0.0
 10
11255.95402240994
 20
746.4215873530244
 30
0.0
  0
SPLINE
  5
28C
330
1F
100
AcDbEntity
  8
Furniture
370
     9
100
AcDbSpline
210
0.0
220
0.0
230
1.0
 70
     8
 71
     3
 72
    59
 73
    55
 74
     0
 42
0.000000001
 43
0.0000000001
 40
0.0
 40
0.0
 40
0.0
 40
0.0
 40
1.0
 40
1.0
 40
1.0
 40
2.0
 40
2.0
 40
2.0
 40
3.0
 40
3.0
 40
3.0
 40
4.0
 40
4.0
 40
4.0
 40
5.0
 40
5.0
 40
5.0
 40
6.0
 40
6.0
 40
6.0
 40
7.0
 40
7.0
 40
7.0
 40
8.0
 40
8.0
 40
8.0
 40
9.0
 40
9.0
 40
9.0
 40
10.0
 40
10.0
 40
10.0
 40
11.0
 40
11.0
 40
11.0
 40
12.0
 40
12.0
 40
12.0
 40
13.0
 40
13.0
 40
13.0
 40
14.0
 40
14.0
 40
14.0
 40
15.0
 40
15.0
 40
15.0
 40
16.0
 40
16.0
 40
16.0
 40
17.0
 40
17.0
 40
17.0
 40
18.0
 40
18.0
 40
18.0
 40
18.0
 10
11404.80003486971
 20
85.14370987303278
 30
0.0
 10
11375.9548267249
 20
56.40215494024028
 30
0.0
 10
11323.00284298473
 20
111.0718204795864
 30
0.0
 10
11295.51993419789
 20
121.4815644866728
 30
0.0
 10
11279.58695475035
 20
127.5230659872293
 30
0.0
 10
11261.28475902807
 20
129.0186337606508
 30
0.0
 10
11245.588701208
 20
128.9445957520654
 30
0.0
 10
11217.69117957308
 20
128.7669045314603
 30
0.0
 10
11219.94193503407
 20
139.1470333351124
 30
0.0
 10
11209.63584423901
 20
164.1866878386424
 30
0.0
 10
11183.574465217
 20
227.9037980271057
 30
0.0
 10
11191.27441810986
 20
294.4491601435263
 30
0.0
 10
11186.89136800162
 20
362.0606695835738
 30
0.0
 10
11182.62677870711
 20
429.4648725995828
 30
0.0
 10
11187.77982410464
 20
492.9746763640075
 30
0.0
 10
11193.76209519833
 20
559.7273449044657
 30
0.0
 10
11199.50744466454
 20
623.622146313535
 30
0.0
 10
11207.26662796428
 20
671.0953174183948
 30
0.0
 10
11245.17408835993
 20
726.2980566195544
 30
0.0
 10
11258.38246909153
 20
745.6367844620205
 30
0.0
 10
11259.9224596701
 20
753.3663525583204
 30
0.0
 10
11270.76162412699
 20
758.5342055575709
 30
0.0
 10
11271.17623697506
 20
758.756319583326
 30
0.0
 10
11271.70931063688
 20
758.9932412107998
 30
0.0
 10
11272.24238429869
 20
759.2005476348383
 30
0.0
 10
11276.27005196573
 20
760.9626522391679
 30
0.0
 10
11281.66001899074
 20
762.4582200125894
 30
0.0
 10
11289.18228066299
 20
764.087056201464
 30
0.0
 10
11295.46070379102
 20
765.4049327542813
 30
0.0
 10
11304.16757360065
 20
770.1285577020205
 30
0.0
 10
11313.64443869956
 20
775.9627527785376
 30
0.0
 10
11314.1182819545
 20
776.3181352197468
 30
0.0
 10
11314.71058602319
 20
776.6587100592403
 30
0.0
 10
11315.30289009187
 20
777.0289001021653
 30
0.0
 10
11331.11740872568
 20
786.9499932525884
 30
0.0
 10
11348.35345712432
 20
799.5956851189491
 30
0.0
 10
11358.00801344384
 20
804.1564264477999
 30
0.0
 10
11369.02486912132
 20
809.294664243616
 30
0.0
 10
11378.26481259276
 20
818.164417672129
 30
0.0
 10
11391.4139629175
 20
816.239429448912
 30
0.0
 10
11414.15843915489
 20
761.1699586632055
 30
0.0
 10
11423.87222588127
 20
707.3591340234486
 30
0.0
 10
11431.63140918101
 20
649.1504516737275
 30
0.0
 10
11440.81212224558
 20
579.6731844173316
 30
0.0
 10
11427.3668198865
 20
513.4683971404036
 30
0.0
 10
11427.3668198865
 20
443.9467070788566
 30
0.0
 10
11427.3668198865
 20
372.7961808284342
 30
0.0
 10
11429.26219290628
 20
302.6969942999228
 30
0.0
 10
11429.26219290628
 20
231.4724300409159
 30
0.0
 10
11429.26219290628
 20
191.9953638632612
 30
0.0
 10
11440.51597021124
 20
113.9000724075438
 30
0.0
 10
11405.27387812466
 20
84.66986661808801
 30
0.0
 10
11403.85234835983
 20
83.4704508790071
 30
0.0
 10
11402.49004900186
 20
82.52276436911575
 30
0.0
 10
11401.12774964389
 20
81.50103985063992
 30
0.0
  0
POLYLINE
  5
28D
330
1F
100
AcDbEntity
  8
Furniture
370
     9
100
AcDb2dPolyline
 66
     1
 10
0.0
 20
0.0
 30
0.0
  0
VERTEX
  5
28E
330
28D
100
AcDbEntity
  8
Furniture
370
     9
100
AcDbVertex
100
AcDb2dVertex
 10
10533.68253918297
 20
451.0987787081919
 30
0.0
  0
VERTEX
  5
28F
330
28D
100
AcDbEntity
  8
Furniture
370
     9
100
AcDbVertex
100
AcDb2dVertex
 10
10532.76446787651
 20
597.4274988760733
 30
0.0
  0
SEQEND
  5
290
330
28D
100
AcDbEntity
  8
Furniture
370
     9
  0
POLYLINE
  5
291
330
1F
100
AcDbEntity
  8
Furniture
370
     9
100
AcDb2dPolyline
 66
     1
 10
0.0
 20
0.0
 30
0.0
  0
VERTEX
  5
292
330
291
100
AcDbEntity
  8
Furniture
370
     9
100
AcDbVertex
100
AcDb2dVertex
 10
11270.93931534759
 20
95.84960591445975
 30
0.0
  0
VERTEX
  5
293
330
291
100
AcDbEntity
  8
Furniture
370
     9
100
AcDbVertex
100
AcDb2dVertex
 10
11268.15548622478
 20
127.7747952164188
 30
0.0
  0
SEQEND
  5
294
330
291
100
AcDbEntity
  8
Furniture
370
     9
  0
SPLINE
  5
295
330
1F
100
AcDbEntity
  8
Furniture
370
     9
100
AcDbSpline
210
0.0
220
0.0
230
1.0
 70
     9
 71
     3
 72
    17
 73
    13
 74
     0
 42
0.000000001
 43
0.0000000001
 40
0.0
 40
0.0
 40
0.0
 40
0.0
 40
1.0
 40
1.0
 40
1.0
 40
2.0
 40
2.0
 40
2.0
 40
3.0
 40
3.0
 40
3.0
 40
4.0
 40
4.0
 40
4.0
 40
4.0
 10
12736.07535753481
 20
94.10230891184871
 30
0.0
 10
12736.07535753481
 20
81.456617045488
 30
0.0
 10
12745.55222263372
 20
71.23937186072433
 30
0.0
 10
12757.27984319362
 20
71.23937186072433
 30
0.0
 10
12769.0666941604
 20
71.23937186072433
 30
0.0
 10
12778.54355925931
 20
81.456617045488
 30
0.0
 10
12778.54355925931
 20
94.0875013101311
 30
0.0
 10
12778.54355925931
 20
106.7035779730575
 30
0.0
 10
12769.0666941604
 20
116.9356307595388
 30
0.0
 10
12757.27984319362
 20
116.9356307595388
 30
0.0
 10
12745.55222263372
 20
116.9356307595388
 30
0.0
 10
12736.07535753481
 20
106.7035779730575
 30
0.0
 10
12736.07535753481
 20
94.10230891184871
 30
0.0
  0
SPLINE
  5
296
330
1F
100
AcDbEntity
  8
Furniture
370
     9
100
AcDbSpline
210
0.0
220
0.0
230
1.0
 70
     9
 71
     3
 72
    17
 73
    13
 74
     0
 42
0.000000001
 43
0.0000000001
 40
0.0
 40
0.0
 40
0.0
 40
0.0
 40
1.0
 40
1.0
 40
1.0
 40
2.0
 40
2.0
 40
2.0
 40
3.0
 40
3.0
 40
3.0
 40
4.0
 40
4.0
 40
4.0
 40
4.0
 10
15106.47142988881
 20
94.1023089118487
 30
0.0
 10
15106.47142988881
 20
81.45661704548798
 30
0.0
 10
15115.88906458085
 20
71.2393718607243
 30
0.0
 10
15127.55745473389
 20
71.2393718607243
 30
0.0
 10
15139.34430570066
 20
71.2393718607243
 30
0.0
 10
15148.88040120644
 20
81.45661704548798
 30
0.0
 10
15148.88040120644
 20
94.08750131013107
 30
0.0
 10
15148.88040120644
 20
106.7035779730574
 30
0.0
 10
15139.34430570066
 20
116.9356307595387
 30
0.0
 10
15127.55745473389
 20
116.9356307595387
 30
0.0
 10
15115.88906458085
 20
116.9356307595387
 30
0.0
 10
15106.47142988881
 20
106.7035779730574
 30
0.0
 10
15106.47142988881
 20
94.1023089118487
 30
0.0
  0
SPLINE
  5
297
330
1F
100
AcDbEntity
  8
Furniture
370
     9
100
AcDbSpline
210
0.0
220
0.0
230
1.0
 70
     8
 71
     3
 72
    14
 73
    10
 74
     0
 42
0.000000001
 43
0.0000000001
 40
0.0
 40
0.0
 40
0.0
 40
0.0
 40
1.0
 40
1.0
 40
1.0
 40
2.0
 40
2.0
 40
2.0
 40
3.0
 40
3.0
 40
3.0
 40
3.0
 10
12777.59587274942
 20
758.3565143369667
 30
0.0
 10
12778.24740722497
 20
760.4740013825037
 30
0.0
 10
12778.54355925931
 20
762.7247568434957
 30
0.0
 10
12778.54355925931
 20
765.0643579147907
 30
0.0
 10
12778.54355925931
 20
777.6804345777152
 30
0.0
 10
12769.0666941604
 20
787.9272949659141
 30
0.0
 10
12757.27984319362
 20
787.9272949659141
 30
0.0
 10
12748.86912541834
 20
787.9272949659141
 30
0.0
 10
12741.58378537355
 20
782.5965583477771
 30
0.0
 10
12738.1484217752
 20
774.881797853194
 30
0.0
  0
SPLINE
  5
298
330
1F
100
AcDbEntity
  8
Furniture
370
     9
100
AcDbSpline
210
0.0
220
0.0
230
1.0
 70
     8
 71
     3
 72
    11
 73
     7
 74
     0
 42
0.000000001
 43
0.0000000001
 40
0.0
 40
0.0
 40
0.0
 40
0.0
 40
1.0
 40
1.0
 40
1.0
 40
2.0
 40
2.0
 40
2.0
 40
2.0
 10
15146.1558024905
 20
776.2440972111623
 30
0.0
 10
15142.48351726467
 20
783.203670018175
 30
0.0
 10
15135.55355966109
 20
787.9272949659141
 30
0.0
 10
15127.55745473389
 20
787.9272949659141
 30
0.0
 10
15115.88906458085
 20
787.9272949659141
 30
0.0
 10
15106.47142988881
 20
777.6804345777152
 30
0.0
 10
15106.47142988881
 20
765.0643579147907
 30
0.0
  0
SPLINE
  5
299
330
1F
100
AcDbEntity
  8
Furniture
370
     9
100
AcDbSpline
210
0.0
220
0.0
230
1.0
 70
     8
 71
     3
 72
     8
 73
     4
 74
     0
 42
0.000000001
 43
0.0000000001
 40
0.0
 40
0.0
 40
0.0
 40
0.0
 40
1.0
 40
1.0
 40
1.0
 40
1.0
 10
15106.47142988881
 20
765.0643579147907
 30
0.0
 10
15106.47142988881
 20
762.75437204693
 30
0.0
 10
15106.76758192315
 20
760.5184241876557
 30
0.0
 10
15107.35988599183
 20
758.4157447438354
 30
0.0
  0
SPLINE
  5
29A
330
1F
100
AcDbEntity
  8
Furniture
370
     9
100
AcDbSpline
210
0.0
220
0.0
230
1.0
 70
     8
 71
     3
 72
    23
 73
    19
 74
     0
 42
0.000000001
 43
0.0000000001
 40
0.0
 40
0.0
 40
0.0
 40
0.0
 40
1.0
 40
1.0
 40
1.0
 40
2.0
 40
2.0
 40
2.0
 40
3.0
 40
3.0
 40
3.0
 40
4.0
 40
4.0
 40
4.0
 40
5.0
 40
5.0
 40
5.0
 40
6.0
 40
6.0
 40
6.0
 40
6.0
 10
12774.81204362661
 20
125.8498069932018
 30
0.0
 10
12780.85354512717
 20
108.9099106288975
 30
0.0
 10
12783.75583506371
 20
95.92364392304515
 30
0.0
 10
12776.52972542579
 20
81.29373342660054
 30
0.0
 10
12771.73206246946
 20
71.65398470880226
 30
0.0
 10
12735.89766631421
 20
37.93707559907924
 30
0.0
 10
12738.44457380954
 20
27.26079476108751
 30
0.0
 10
12744.6637665307
 20
0.2961520343403947
 30
0.0
 10
12836.53012758327
 20
9.995131159007343
 30
0.0
 10
12856.72769632533
 20
8.662447004473307
 30
0.0
 10
13099.85581862379
 20
4.042475268753833
 30
0.0
 10
13145.64092313291
 20
13.35645674877719
 30
0.0
 10
13216.0658768992
 20
18.18373490853605
 30
0.0
 10
13317.17218142321
 20
25.09888491039851
 30
0.0
 10
13338.96897115071
 20
25.5875357670609
 30
0.0
 10
13423.01691849668
 20
19.01296060469008
 30
0.0
 10
13469.27586626074
 20
15.41471338744736
 30
0.0
 10
13530.56037887428
 20
-4.915454199582427
 30
0.0
 10
13556.68098830316
 20
0.0154771721943234
 30
0.0
  0
SPLINE
  5
29B
330
1F
100
AcDbEntity
  8
Furniture
370
     9
100
AcDbSpline
210
0.0
220
0.0
230
1.0
 70
     8
 71
     3
 72
     8
 73
     4
 74
     0
 42
0.000000001
 43
0.0000000001
 40
0.0
 40
0.0
 40
0.0
 40
0.0
 40
1.0
 40
1.0
 40
1.0
 40
1.0
 10
12840.32087362284
 20
635.5422656957596
 30
0.0
 10
12841.62394257394
 20
631.3369068081162
 30
0.0
 10
12843.28239396625
 20
624.3921416028204
 30
0.0
 10
12843.10470274564
 20
623.4592626946476
 30
0.0
  0
SPLINE
  5
29C
330
1F
100
AcDbEntity
  8
Furniture
370
     9
100
AcDbSpline
210
0.0
220
0.0
230
1.0
 70
     8
 71
     3
 72
    50
 73
    46
 74
     0
 42
0.000000001
 43
0.0000000001
 40
0.0
 40
0.0
 40
0.0
 40
0.0
 40
1.0
 40
1.0
 40
1.0
 40
2.0
 40
2.0
 40
2.0
 40
3.0
 40
3.0
 40
3.0
 40
4.0
 40
4.0
 40
4.0
 40
5.0
 40
5.0
 40
5.0
 40
6.0
 40
6.0
 40
6.0
 40
7.0
 40
7.0
 40
7.0
 40
8.0
 40
8.0
 40
8.0
 40
9.0
 40
9.0
 40
9.0
 40
10.0
 40
10.0
 40
10.0
 40
11.0
 40
11.0
 40
11.0
 40
12.0
 40
12.0
 40
12.0
 40
13.0
 40
13.0
 40
13.0
 40
14.0
 40
14.0
 40
14.0
 40
15.0
 40
15.0
 40
15.0
 40
15.0
 10
12843.10470274564
 20
623.4592626946476
 30
0.0
 10
12865.96763979677
 20
577.7333885923987
 30
0.0
 10
12918.8011627232
 20
582.7531655744776
 30
0.0
 10
13134.03176338674
 20
576.8745476928095
 30
0.0
 10
13172.76844947854
 20
571.6178490832569
 30
0.0
 10
13212.3343612665
 20
568.8044047570172
 30
0.0
 10
13251.36719939264
 20
568.1380626797497
 30
0.0
 10
13292.82848420038
 20
567.4717206024832
 30
0.0
 10
13337.13282853779
 20
568.0788322728829
 30
0.0
 10
13378.94949578674
 20
568.0788322728829
 30
0.0
 10
13418.5154075747
 20
568.0788322728829
 30
0.0
 10
13458.25901058326
 20
572.0472695330506
 30
0.0
 10
13497.58800074374
 20
577.1410845237157
 30
0.0
 10
13499.22749364101
 20
578.726167477918
 30
0.0
 10
13513.67971291684
 20
563.2522236836019
 30
0.0
 10
13564.20324997542
 20
584.6788233681725
 30
0.0
 10
13583.39390180071
 20
592.8674271177003
 30
0.0
 10
13561.77480329382
 20
680.6468900963698
 30
0.0
 10
13564.55863241663
 20
698.5048577671311
 30
0.0
 10
13568.34937845619
 20
723.2187450328863
 30
0.0
 10
13565.32862770591
 20
758.1350698816883
 30
0.0
 10
13564.91401485784
 20
780.0947432280724
 30
0.0
 10
13564.55863241663
 20
802.8688346688957
 30
0.0
 10
13562.13018573503
 20
826.338883390418
 30
0.0
 10
13565.32862770591
 20
849.7348941033568
 30
0.0
 10
13570.0078298485
 20
882.7114231272251
 30
0.0
 10
13553.12716389106
 20
861.4921298666939
 30
0.0
 10
13526.0588679523
 20
866.5267144504904
 30
0.0
 10
13533.12624486466
 20
879.2161595515242
 30
0.0
 10
13424.55690907525
 20
887.2270720804479
 30
0.0
 10
13399.97629022495
 20
890.8845497045584
 30
0.0
 10
13375.09951934031
 20
894.5864501338217
 30
0.0
 10
13338.08051504768
 20
897.8293149098542
 30
0.0
 10
13310.71606707458
 20
897.7996997064208
 30
0.0
 10
13247.28030131874
 20
897.6960464944012
 30
0.0
 10
13207.89208075139
 20
891.1955093406165
 30
0.0
 10
13180.76455440575
 20
888.7226398538693
 30
0.0
 10
13118.80954882162
 20
883.0513283962389
 30
0.0
 10
12894.51669590724
 20
877.3652093368916
 30
0.0
 10
12841.92009460828
 20
863.2387572988271
 30
0.0
 10
12798.26728474642
 20
851.5407519423586
 30
0.0
 10
12719.37238279798
 20
877.2763637265905
 30
0.0
 10
12729.50078237244
 20
827.1378243126607
 30
0.0
 10
12735.12767102492
 20
799.462416703496
 30
0.0
 10
12777.77356397002
 20
798.4406921850193
 30
0.0
 10
12792.16655283899
 20
743.6377582302191
 30
0.0
  0
SPLINE
  5
29D
330
1F
100
AcDbEntity
  8
Furniture
370
     9
100
AcDbSpline
210
0.0
220
0.0
230
1.0
 70
     8
 71
     3
 72
    47
 73
    43
 74
     0
 42
0.000000001
 43
0.0000000001
 40
0.0
 40
0.0
 40
0.0
 40
0.0
 40
1.0
 40
1.0
 40
1.0
 40
2.0
 40
2.0
 40
2.0
 40
3.0
 40
3.0
 40
3.0
 40
4.0
 40
4.0
 40
4.0
 40
5.0
 40
5.0
 40
5.0
 40
6.0
 40
6.0
 40
6.0
 40
7.0
 40
7.0
 40
7.0
 40
8.0
 40
8.0
 40
8.0
 40
9.0
 40
9.0
 40
9.0
 40
10.0
 40
10.0
 40
10.0
 40
11.0
 40
11.0
 40
11.0
 40
12.0
 40
12.0
 40
12.0
 40
13.0
 40
13.0
 40
13.0
 40
14.0
 40
14.0
 40
14.0
 40
14.0
 10
12649.48050269351
 20
85.17332507646713
 30
0.0
 10
12677.02264188722
 20
56.35773213508926
 30
0.0
 10
12731.86999864717
 20
109.9760579525243
 30
0.0
 10
12758.16829929665
 20
120.4006095613274
 30
0.0
 10
12773.27205304804
 20
126.4421110618839
 30
0.0
 10
12786.24351215218
 20
129.0334413623675
 30
0.0
 10
12801.2880354967
 20
128.9445957520654
 30
0.0
 10
12827.88248818052
 20
128.781712133178
 30
0.0
 10
12825.75019353326
 20
139.1766485385467
 30
0.0
 10
12835.52321066651
 20
164.2163030420768
 30
0.0
 10
12860.39998155116
 20
227.9037980271057
 30
0.0
 10
12852.99618069263
 20
294.463967745243
 30
0.0
 10
12857.14230917341
 20
362.0902847870082
 30
0.0
 10
12861.28843765418
 20
429.4796802012995
 30
0.0
 10
12856.37231388412
 20
492.9894839657243
 30
0.0
 10
12850.68619482478
 20
559.7421525061824
 30
0.0
 10
12845.17776698603
 20
623.6369539152508
 30
0.0
 10
12837.71473572064
 20
671.1101250201116
 30
0.0
 10
12801.6434179379
 20
726.2980566195544
 30
0.0
 10
12784.05198709805
 20
753.2626993463016
 30
0.0
 10
12788.19811557883
 20
757.6605570562649
 30
0.0
 10
12759.64905946835
 20
764.087056201464
 30
0.0
 10
12743.53838880021
 20
767.7297262238587
 30
0.0
 10
12709.18475281665
 20
796.6933951824073
 30
0.0
 10
12694.08099906526
 20
804.1712340495175
 30
0.0
 10
12683.59721704959
 20
809.2798566418993
 30
0.0
 10
12674.77188642623
 20
818.1792252738457
 30
0.0
 10
12662.3335009839
 20
816.2542370506296
 30
0.0
 10
12640.59594166328
 20
761.1847662649231
 30
0.0
 10
12631.29676778497
 20
707.3591340234486
 30
0.0
 10
12623.95219733331
 20
649.1504516737275
 30
0.0
 10
12615.12686670995
 20
579.6731844173316
 30
0.0
 10
12627.92063459348
 20
513.4980123438379
 30
0.0
 10
12627.92063459348
 20
443.9467070788566
 30
0.0
 10
12627.92063459348
 20
372.7813732267184
 30
0.0
 10
12626.2029527943
 20
302.6821866982061
 30
0.0
 10
12626.2029527943
 20
231.4576224391983
 30
0.0
 10
12626.2029527943
 20
191.9953638632612
 30
0.0
 10
12615.48224915116
 20
113.8852648058253
 30
0.0
 10
12649.00665943856
 20
84.66986661808803
 30
0.0
 10
12650.30972838966
 20
83.47045087900713
 30
0.0
 10
12651.7312581545
 20
82.52276436911577
 30
0.0
 10
12652.97509669873
 20
81.51584745235666
 30
0.0
  0
SPLINE
  5
29E
330
1F
100
AcDbEntity
  8
Furniture
370
     9
100
AcDbSpline
210
0.0
220
0.0
230
1.0
 70
     8
 71
     3
 72
    35
 73
    31
 74
     0
 42
0.000000001
 43
0.0000000001
 40
0.0
 40
0.0
 40
0.0
 40
0.0
 40
1.0
 40
1.0
 40
1.0
 40
2.0
 40
2.0
 40
2.0
 40
3.0
 40
3.0
 40
3.0
 40
4.0
 40
4.0
 40
4.0
 40
5.0
 40
5.0
 40
5.0
 40
6.0
 40
6.0
 40
6.0
 40
7.0
 40
7.0
 40
7.0
 40
8.0
 40
8.0
 40
8.0
 40
9.0
 40
9.0
 40
9.0
 40
10.0
 40
10.0
 40
10.0
 40
10.0
 10
15110.0252543009
 20
125.8498069932018
 30
0.0
 10
15103.98375280035
 20
108.9099106288974
 30
0.0
 10
15101.08146286381
 20
95.92364392304512
 30
0.0
 10
15108.30757250172
 20
81.2937334266005
 30
0.0
 10
15113.16446586491
 20
71.65398470880223
 30
0.0
 10
15148.93963161331
 20
37.93707559907921
 30
0.0
 10
15146.45195452484
 20
27.26079476108748
 30
0.0
 10
15140.17353139681
 20
0.2961520343403663
 30
0.0
 10
15048.36640075111
 20
9.995131159007314
 30
0.0
 10
15028.10960160219
 20
8.662447004473278
 30
0.0
 10
14957.32926539469
 20
4.042475268753833
 30
0.0
 10
14911.54416088557
 20
13.35645674877719
 30
0.0
 10
14691.19915995166
 20
18.18373490853605
 30
0.0
 10
14590.03362502078
 20
25.09888491039851
 30
0.0
 10
14568.29606570015
 20
25.5875357670609
 30
0.0
 10
14484.36657916791
 20
19.01296060469008
 30
0.0
 10
14438.04840099698
 20
15.41471338744736
 30
0.0
 10
14330.27244921617
 20
-28.80581051048216
 30
0.0
 10
14325.88939910792
 20
5.088789819843213
 30
0.0
 10
14323.8755652744
 20
20.81446284334993
 30
0.0
 10
14318.95944150434
 20
36.18475342564739
 30
0.0
 10
14318.95944150434
 20
54.32406552903263
 30
0.0
 10
14318.95944150434
 20
73.84048459210385
 30
0.0
 10
14319.67020638676
 20
97.5770701445333
 30
0.0
 10
14322.15788347523
 20
116.9454131904347
 30
0.0
 10
14327.84400253457
 20
161.7384083845088
 30
0.0
 10
14328.67322823073
 20
201.4079733844844
 30
0.0
 10
14325.0009430049
 20
246.1861609768409
 30
0.0
 10
14319.84789760736
 20
309.5478887240968
 30
0.0
 10
14329.02861067194
 20
377.8553554448452
 30
0.0
 10
14325.88939910792
 20
441.3947744127042
 30
0.0
  0
POLYLINE
  5
29F
330
1F
100
AcDbEntity
  8
Furniture
370
     9
100
AcDb2dPolyline
 66
     1
 10
0.0
 20
0.0
 30
0.0
  0
VERTEX
  5
2A0
330
29F
100
AcDbEntity
  8
Furniture
370
     9
100
AcDbVertex
100
AcDb2dVertex
 10
15041.73259518187
 20
623.4592626946476
 30
0.0
  0
VERTEX
  5
2A1
330
29F
100
AcDbEntity
  8
0
100
AcDbVertex
100
AcDb2dVertex
 10
15041.73259518187
 20
623.4592626946476
 30
0.0
  0
SEQEND
  5
2A2
330
29F
100
AcDbEntity
  8
Furniture
370
     9
  0
SPLINE
  5
2A3
330
1F
100
AcDbEntity
  8
Furniture
370
     9
100
AcDbSpline
210
0.0
220
0.0
230
1.0
 70
     8
 71
     3
 72
    50
 73
    46
 74
     0
 42
0.000000001
 43
0.0000000001
 40
0.0
 40
0.0
 40
0.0
 40
0.0
 40
1.0
 40
1.0
 40
1.0
 40
2.0
 40
2.0
 40
2.0
 40
3.0
 40
3.0
 40
3.0
 40
4.0
 40
4.0
 40
4.0
 40
5.0
 40
5.0
 40
5.0
 40
6.0
 40
6.0
 40
6.0
 40
7.0
 40
7.0
 40
7.0
 40
8.0
 40
8.0
 40
8.0
 40
9.0
 40
9.0
 40
9.0
 40
10.0
 40
10.0
 40
10.0
 40
11.0
 40
11.0
 40
11.0
 40
12.0
 40
12.0
 40
12.0
 40
13.0
 40
13.0
 40
13.0
 40
14.0
 40
14.0
 40
14.0
 40
15.0
 40
15.0
 40
15.0
 40
15.0
 10
15041.73259518187
 20
623.4592626946476
 30
0.0
 10
15018.86965813075
 20
577.7333885923987
 30
0.0
 10
14966.15459601805
 20
582.7531655744776
 30
0.0
 10
14923.09409022487
 20
576.8745476928095
 30
0.0
 10
14734.55581777918
 20
571.6178490832569
 30
0.0
 10
14694.93067558436
 20
568.8044047570172
 30
0.0
 10
14655.89783745821
 20
568.1380626797497
 30
0.0
 10
14614.43655265047
 20
567.4717206024832
 30
0.0
 10
14570.19143871993
 20
568.0788322728829
 30
0.0
 10
14528.25631065725
 20
568.0788322728829
 30
0.0
 10
14488.74962927616
 20
568.0788322728829
 30
0.0
 10
14448.94679586073
 20
572.0472695330506
 30
0.0
 10
14409.61780570025
 20
577.1410845237157
 30
0.0
 10
14391.22053788354
 20
573.9524249837293
 30
0.0
 10
14379.07830447556
 20
566.2968948960148
 30
0.0
 10
14328.49553701012
 20
587.7679173857366
 30
0.0
 10
14309.18642437109
 20
595.9120983301143
 30
0.0
 10
14328.61399782386
 20
675.873147602181
 30
0.0
 10
14325.88939910792
 20
693.7311152729424
 30
0.0
 10
14322.15788347523
 20
718.4450025386975
 30
0.0
 10
14325.0009430049
 20
753.3613273874996
 30
0.0
 10
14325.47478625984
 20
775.3210007338837
 30
0.0
 10
14325.94862951479
 20
798.0950921747068
 30
0.0
 10
14328.25861538265
 20
821.5651408962292
 30
0.0
 10
14325.0009430049
 20
844.9611516091678
 30
0.0
 10
14320.38097126918
 20
877.9376806330363
 30
0.0
 10
14337.26163722661
 20
856.7183873725051
 30
0.0
 10
14364.38916357225
 20
861.7529719563014
 30
0.0
 10
14406.14660041433
 20
869.5269628577532
 30
0.0
 10
14482.76735818247
 20
887.2270720804479
 30
0.0
 10
14507.34797703277
 20
890.8845497045584
 30
0.0
 10
14532.22474791741
 20
894.5864501338217
 30
0.0
 10
14569.24375221004
 20
897.8293149098542
 30
0.0
 10
14596.54896977628
 20
897.7996997064208
 30
0.0
 10
14659.98473553212
 20
897.6960464944012
 30
0.0
 10
14699.37295609947
 20
891.1955093406165
 30
0.0
 10
14726.5004824451
 20
888.7226398538693
 30
0.0
 10
14938.37553519687
 20
883.0513283962389
 30
0.0
 10
14990.32060202028
 20
877.3652093368916
 30
0.0
 10
15042.85797291236
 20
863.2387572988271
 30
0.0
 10
15086.57001318109
 20
851.5407519423586
 30
0.0
 10
15165.46491512954
 20
877.2763637265905
 30
0.0
 10
15155.2772851482
 20
827.1378243126607
 30
0.0
 10
15149.70962690259
 20
799.462416703496
 30
0.0
 10
15107.18219477122
 20
798.4406921850193
 30
0.0
 10
15092.72997549539
 20
743.6377582302191
 30
0.0
  0
SPLINE
  5
2A4
330
1F
100
AcDbEntity
  8
Furniture
370
     9
100
AcDbSpline
210
0.0
220
0.0
230
1.0
 70
     8
 71
     3
 72
    47
 73
    43
 74
     0
 42
0.000000001
 43
0.0000000001
 40
0.0
 40
0.0
 40
0.0
 40
0.0
 40
1.0
 40
1.0
 40
1.0
 40
2.0
 40
2.0
 40
2.0
 40
3.0
 40
3.0
 40
3.0
 40
4.0
 40
4.0
 40
4.0
 40
5.0
 40
5.0
 40
5.0
 40
6.0
 40
6.0
 40
6.0
 40
7.0
 40
7.0
 40
7.0
 40
8.0
 40
8.0
 40
8.0
 40
9.0
 40
9.0
 40
9.0
 40
10.0
 40
10.0
 40
10.0
 40
11.0
 40
11.0
 40
11.0
 40
12.0
 40
12.0
 40
12.0
 40
13.0
 40
13.0
 40
13.0
 40
14.0
 40
14.0
 40
14.0
 40
14.0
 10
15235.41602564088
 20
85.17332507646711
 30
0.0
 10
15207.87388644716
 20
56.35773213508923
 30
0.0
 10
15152.96729928034
 20
109.9760579525243
 30
0.0
 10
15126.7874594446
 20
120.4006095613274
 30
0.0
 10
15111.50601447261
 20
126.4421110618839
 30
0.0
 10
15098.59378577534
 20
129.0334413623675
 30
0.0
 10
15083.60849283769
 20
128.9445957520654
 30
0.0
 10
15057.07327056073
 20
128.7817121331779
 30
0.0
 10
15059.20556520799
 20
139.1766485385467
 30
0.0
 10
15049.37331766787
 20
164.2163030420768
 30
0.0
 10
15024.43731637635
 20
227.9037980271057
 30
0.0
 10
15031.90034764175
 20
294.463967745243
 30
0.0
 10
15027.75421916098
 20
362.0902847870082
 30
0.0
 10
15023.54886027333
 20
429.4796802012995
 30
0.0
 10
15028.52421445026
 20
492.9894839657243
 30
0.0
 10
15034.21033350961
 20
559.7421525061824
 30
0.0
 10
15039.71876134835
 20
623.6369539152508
 30
0.0
 10
15047.12256220688
 20
671.1101250201116
 30
0.0
 10
15083.19387998961
 20
726.2980566195544
 30
0.0
 10
15100.78531082946
 20
753.2626993463016
 30
0.0
 10
15096.63918234869
 20
757.6605570562649
 30
0.0
 10
15125.24746886603
 20
764.087056201464
 30
0.0
 10
15141.35813953418
 20
767.7297262238587
 30
0.0
 10
15175.71177551773
 20
796.6933951824073
 30
0.0
 10
15190.75629886225
 20
804.1712340495175
 30
0.0
 10
15201.18085047106
 20
809.2798566418993
 30
0.0
 10
15210.00618109442
 20
818.1792252738457
 30
0.0
 10
15222.56302735048
 20
816.2542370506296
 30
0.0
 10
15244.3005866711
 20
761.1847662649231
 30
0.0
 10
15253.54053014254
 20
707.3591340234486
 30
0.0
 10
15260.94433100107
 20
649.1504516737275
 30
0.0
 10
15269.71043121756
 20
579.6731844173316
 30
0.0
 10
15256.85743292716
 20
513.4980123438379
 30
0.0
 10
15256.85743292716
 20
443.9467070788566
 30
0.0
 10
15256.85743292716
 20
372.7813732267184
 30
0.0
 10
15258.69357554008
 20
302.6821866982061
 30
0.0
 10
15258.69357554008
 20
231.4576224391983
 30
0.0
 10
15258.69357554008
 20
191.9953638632612
 30
0.0
 10
15269.47350959009
 20
113.8852648058253
 30
0.0
 10
15235.88986889582
 20
84.66986661808801
 30
0.0
 10
15234.46833913098
 20
83.4704508790071
 30
0.0
 10
15233.10603977302
 20
82.52276436911575
 30
0.0
 10
15231.86220122878
 20
81.51584745235664
 30
0.0
  0
SPLINE
  5
2A5
330
1F
100
AcDbEntity
  8
Furniture
370
     9
100
AcDbSpline
210
0.0
220
0.0
230
1.0
 70
     8
 71
     3
 72
    32
 73
    28
 74
     0
 42
0.000000001
 43
0.0000000001
 40
0.0
 40
0.0
 40
0.0
 40
0.0
 40
1.0
 40
1.0
 40
1.0
 40
2.0
 40
2.0
 40
2.0
 40
3.0
 40
3.0
 40
3.0
 40
4.0
 40
4.0
 40
4.0
 40
5.0
 40
5.0
 40
5.0
 40
6.0
 40
6.0
 40
6.0
 40
7.0
 40
7.0
 40
7.0
 40
8.0
 40
8.0
 40
8.0
 40
9.0
 40
9.0
 40
9.0
 40
9.0
 10
13572.25858530949
 20
578.4300154435775
 30
0.0
 10
13565.98016218146
 20
545.4979092248593
 30
0.0
 10
13566.92784869135
 20
470.201254493664
 30
0.0
 10
13564.20324997542
 20
437.1358798594926
 30
0.0
 10
13561.12326881827
 20
401.6124433402908
 30
0.0
 10
13565.86170136772
 20
328.4184680529159
 30
0.0
 10
13561.83403370069
 20
293.0875303560358
 30
0.0
 10
13556.08868423447
 20
242.7564921197843
 30
0.0
 10
13554.84484569024
 20
215.3031985363757
 30
0.0
 10
13558.93174376415
 20
165.2090819275979
 30
0.0
 10
13560.8863471908
 20
141.6205723923374
 30
0.0
 10
13560.94557759766
 20
96.47219475705401
 30
0.0
 10
13558.93174376415
 20
80.03575685112878
 30
0.0
 10
13556.20714504821
 20
57.80954667383844
 30
0.0
 10
13556.38483626881
 20
20.6720815674787
 30
0.0
 10
13558.93174376415
 20
9.96618552605264
 30
0.0
 10
13565.21016689217
 20
-16.99845720069538
 30
0.0
 10
13688.72452370741
 20
9.995131159007314
 30
0.0
 10
13708.98132285634
 20
8.662447004473278
 30
0.0
 10
13779.70242865697
 20
4.042475268753833
 30
0.0
 10
13825.54676357295
 20
13.35645674877719
 30
0.0
 10
13895.91248693237
 20
18.18373490853605
 30
0.0
 10
13997.07802186325
 20
25.09888491039851
 30
0.0
 10
14018.87481159075
 20
25.5875357670609
 30
0.0
 10
14102.86352852985
 20
19.01296060469008
 30
0.0
 10
14149.18170670078
 20
15.41471338744736
 30
0.0
 10
14320.85481452412
 20
-28.80581051048216
 30
0.0
 10
14325.29709503924
 20
5.088789819843213
 30
0.0
  0
SPLINE
  5
2A6
330
1F
100
AcDbEntity
  8
Furniture
370
     9
100
AcDbSpline
210
0.0
220
0.0
230
1.0
 70
     8
 71
     3
 72
    23
 73
    19
 74
     0
 42
0.000000001
 43
0.0000000001
 40
0.0
 40
0.0
 40
0.0
 40
0.0
 40
1.0
 40
1.0
 40
1.0
 40
2.0
 40
2.0
 40
2.0
 40
3.0
 40
3.0
 40
3.0
 40
4.0
 40
4.0
 40
4.0
 40
5.0
 40
5.0
 40
5.0
 40
6.0
 40
6.0
 40
6.0
 40
6.0
 10
14325.77093829418
 20
860.7904778446934
 30
0.0
 10
14321.74327062715
 20
868.9790815942222
 30
0.0
 10
14307.1133601307
 20
857.9622259167361
 30
0.0
 10
14286.79733057491
 20
861.7529719563014
 30
0.0
 10
14213.09131571157
 20
879.2161595515242
 30
0.0
 10
14104.46274951529
 20
887.2270720804479
 30
0.0
 10
14079.88213066499
 20
890.8845497045584
 30
0.0
 10
14055.00535978035
 20
894.5864501338217
 30
0.0
 10
14017.98635548772
 20
897.8293149098542
 30
0.0
 10
13990.56267710774
 20
897.7996997064208
 30
0.0
 10
13927.18614175878
 20
897.6960464944012
 30
0.0
 10
13887.85715159829
 20
891.1955093406165
 30
0.0
 10
13860.61116443892
 20
888.7226398538693
 30
0.0
 10
13798.65615885479
 20
883.0513283962389
 30
0.0
 10
13746.77032243825
 20
872.523123575417
 30
0.0
 10
13692.51526974698
 20
870.8942873865414
 30
0.0
 10
13602.34763199853
 20
864.7201870410105
 30
0.0
 10
13578.41854762378
 20
886.2652475393167
 30
0.0
 10
13566.03939258833
 20
862.0400111302249
 30
0.0
  0
SPLINE
  5
2A7
330
1F
100
AcDbEntity
  8
Furniture
370
     9
100
AcDbSpline
210
0.0
220
0.0
230
1.0
 70
     8
 71
     3
 72
    23
 73
    19
 74
     0
 42
0.000000001
 43
0.0000000001
 40
0.0
 40
0.0
 40
0.0
 40
0.0
 40
1.0
 40
1.0
 40
1.0
 40
2.0
 40
2.0
 40
2.0
 40
3.0
 40
3.0
 40
3.0
 40
4.0
 40
4.0
 40
4.0
 40
5.0
 40
5.0
 40
5.0
 40
6.0
 40
6.0
 40
6.0
 40
6.0
 10
13567.46092235317
 20
587.5366904995623
 30
0.0
 10
13569.23783455921
 20
578.7113598762013
 30
0.0
 10
13576.64163541774
 20
570.226604092332
 30
0.0
 10
13599.91918531694
 20
570.226604092332
 30
0.0
 10
13710.04747017996
 20
575.1420582919142
 30
0.0
 10
13770.93632844047
 20
582.7531655744776
 30
0.0
 10
13813.99683423365
 20
576.8745476928095
 30
0.0
 10
13852.61505951171
 20
571.6178490832569
 30
0.0
 10
13892.18097129967
 20
568.8044047570172
 30
0.0
 10
13931.33227023955
 20
568.1380626797497
 30
0.0
 10
13972.73432464042
 20
567.4717206024832
 30
0.0
 10
14016.97943857096
 20
568.0788322728829
 30
0.0
 10
14058.85533622678
 20
568.0788322728829
 30
0.0
 10
14098.42124801473
 20
568.0788322728829
 30
0.0
 10
14138.1648510233
 20
572.0472695330506
 30
0.0
 10
14177.55307159065
 20
577.1410845237157
 30
0.0
 10
14259.96595626362
 20
573.9524249837293
 30
0.0
 10
14272.16742007846
 20
566.2968948960148
 30
0.0
 10
14322.69095713704
 20
587.7679173857366
 30
0.0
  0
POLYLINE
  5
2A8
330
1F
100
AcDbEntity
  8
Furniture
370
     9
100
AcDb2dPolyline
 66
     1
 10
0.0
 20
0.0
 30
0.0
  0
VERTEX
  5
2A9
330
2A8
100
AcDbEntity
  8
Furniture
370
     9
100
AcDbVertex
100
AcDb2dVertex
 10
13563.25556346553
 20
727.8831395737568
 30
0.0
  0
VERTEX
  5
2AA
330
2A8
100
AcDbEntity
  8
0
100
AcDbVertex
100
AcDb2dVertex
 10
13563.25556346553
 20
727.8831395737568
 30
0.0
  0
SEQEND
  5
2AB
330
2A8
100
AcDbEntity
  8
Furniture
370
     9
  0
POLYLINE
  5
2AC
330
1F
100
AcDbEntity
  8
Furniture
370
     9
100
AcDb2dPolyline
 66
     1
 10
0.0
 20
0.0
 30
0.0
  0
VERTEX
  5
2AD
330
2AC
100
AcDbEntity
  8
Furniture
370
     9
100
AcDbVertex
100
AcDb2dVertex
 10
14325.88939910792
 20
441.3947744127042
 30
0.0
  0
VERTEX
  5
2AE
330
2AC
100
AcDbEntity
  8
Furniture
370
     9
100
AcDbVertex
100
AcDb2dVertex
 10
14322.69095713704
 20
587.7679173857366
 30
0.0
  0
SEQEND
  5
2AF
330
2AC
100
AcDbEntity
  8
Furniture
370
     9
  0
TEXT
  5
33A
330
1F
100
AcDbEntity
  8
Text
100
AcDbText
 10
0.0
 20
901.3459745961654
 30
0.0
 40
233.9816249415046
  1
Sofas and
 41
1.000399999999999
100
AcDbText
  0
TEXT
  5
33C
330
1F
100
AcDbEntity
  8
Text
100
AcDbText
 10
0.0
 20
3385.283380469323
 30
0.0
 40
192.6907499518273
  1
WILFRED
 41
1.000399999999999
100
AcDbText
  0
TEXT
  5
33D
330
1F
100
AcDbEntity
  8
Text
100
AcDbText
 10
0.0
 20
2782.66041211412
 30
0.0
 40
192.6907499518273
  1
—
 41
1.000399999999999
100
AcDbText
  0
TEXT
  5
33E
330
1F
100
AcDbEntity
  8
Text
100
AcDbText
 10
0.0
 20
2107.689896235656
 30
0.0
 40
233.9816249415046
  1
DIMENSIONS
 41
1.000399999999999
100
AcDbText
  0
TEXT
  5
347
330
1F
100
AcDbEntity
  8
Text
100
AcDbText
 10
9.90052857446426
 20
473.3091974189728
 30
0.0
 40
233.9816249415046
  1
Armchairs
 41
1.000399999999999
100
AcDbText
  0
ENDSEC
  0
SECTION
  2
OBJECTS
  0
DICTIONARY
  5
C
330
0
100
AcDbDictionary
281
     1
  3
ACAD_CIP_PREVIOUS_PRODUCT_INFO
350
2C6
  3
ACAD_COLOR
350
175
  3
ACAD_DETAILVIEWSTYLE
350
2C1
  3
ACAD_GROUP
350
D
  3
ACAD_LAYOUT
350
1A
  3
ACAD_MATERIAL
350
159
  3
ACAD_MLEADERSTYLE
350
199
  3
ACAD_MLINESTYLE
350
17
  3
ACAD_PLOTSETTINGS
350
19
  3
ACAD_PLOTSTYLENAME
350
E
  3
ACAD_SCALELIST
350
177
  3
ACAD_SECTIONVIEWSTYLE
350
2BF
  3
ACAD_TABLESTYLE
350
157
  3
ACAD_VISUALSTYLE
350
2A
  3
ACDB_RECOMPOSE_DATA
350
472
  3
AcDbVariableDictionary
350
1AD
  0
DICTIONARY
  5
1A5
330
2
100
AcDbDictionary
280
     1
281
     1
  3
ACAD_LAYERSTATES
360
1A6
  0
DICTIONARY
  5
19E
330
10
100
AcDbDictionary
280
     1
281
     1
  3
ADSK_XREC_LAYER_RECONCILED
360
19F
  0
DICTIONARY
  5
1A0
330
3B
100
AcDbDictionary
280
     1
281
     1
  3
ADSK_XREC_LAYER_RECONCILED
360
1A1
  0
DICTIONARY
  5
1D6
330
1F
100
AcDbDictionary
280
     1
281
     1
  3
ACAD_SORTENTS
360
1D7
  0
DICTIONARY
  5
326
330
320
100
AcDbDictionary
280
     1
281
     1
  3
ACAD_SORTENTS
360
327
  0
XRECORD
  5
2C6
102
{ACAD_REACTORS
330
C
102
}
330
C
100
AcDbXrecord
280
     1
300
ACD
300
2019
300
BDSADV_F_S
  0
DICTIONARY
  5
175
102
{ACAD_REACTORS
330
C
102
}
330
C
100
AcDbDictionary
281
     1
  0
DICTIONARY
  5
2C1
102
{ACAD_REACTORS
330
C
102
}
330
C
100
AcDbDictionary
281
     1
  3
Imperial24
350
2C2
  0
DICTIONARY
  5
D
102
{ACAD_REACTORS
330
C
102
}
330
C
100
AcDbDictionary
281
     1
  0
DICTIONARY
  5
1A
102
{ACAD_REACTORS
330
C
102
}
330
C
100
AcDbDictionary
281
     1
  3
Layout1
350
1E
  3
Layout2
350
26
  3
Model
350
22
  0
DICTIONARY
  5
159
102
{ACAD_REACTORS
330
C
102
}
330
C
100
AcDbDictionary
281
     1
  3
ByBlock
350
162
  3
ByLayer
350
15A
  3
Global
350
16A
  0
DICTIONARY
  5
199
102
{ACAD_REACTORS
330
C
102
}
330
C
100
AcDbDictionary
281
     1
  3
Standard
350
19A
  0
DICTIONARY
  5
17
102
{ACAD_REACTORS
330
C
102
}
330
C
100
AcDbDictionary
281
     1
  3
Standard
350
18
  0
DICTIONARY
  5
19
102
{ACAD_REACTORS
330
C
102
}
330
C
100
AcDbDictionary
281
     1
  0
ACDBDICTIONARYWDFLT
  5
E
102
{ACAD_REACTORS
330
C
102
}
330
C
100
AcDbDictionary
281
     1
  3
Normal
350
F
100
AcDbDictionaryWithDefault
340
F
  0
DICTIONARY
  5
177
102
{ACAD_REACTORS
330
C
102
}
330
C
100
AcDbDictionary
281
     1
  3
A0
350
178
  3
A1
350
179
  3
A2
350
17A
  3
A3
350
17B
  3
A4
350
17C
  3
A5
350
17D
  3
A6
350
17E
  3
A7
350
17F
  3
A8
350
180
  3
A9
350
181
  3
B0
350
182
  3
B1
350
183
  3
B2
350
184
  3
B3
350
185
  3
B4
350
186
  3
B5
350
187
  3
B6
350
188
  3
B7
350
189
  3
B8
350
18A
  3
B9
350
18B
  3
C0
350
18C
  3
C1
350
18D
  3
C2
350
18E
  3
C3
350
18F
  3
C4
350
190
  3
C5
350
191
  3
C6
350
192
  3
C7
350
193
  3
C8
350
194
  3
C9
350
195
  3
D0
350
196
  3
D1
350
197
  3
D2
350
198
  0
DICTIONARY
  5
2BF
102
{ACAD_REACTORS
330
C
102
}
330
C
100
AcDbDictionary
281
     1
  3
Imperial24
350
2C0
  0
DICTIONARY
  5
157
102
{ACAD_REACTORS
330
C
102
}
330
C
100
AcDbDictionary
281
     1
  3
Standard
350
176
  0
DICTIONARY
  5
2A
102
{ACAD_REACTORS
330
C
102
}
330
C
100
AcDbDictionary
281
     1
  3
2dWireframe
350
2F
  3
3D Hidden
350
31
  3
3dWireframe
350
30
  3
Basic
350
32
  3
Brighten
350
36
  3
ColorChange
350
3A
  3
Conceptual
350
34
  3
Dim
350
35
  3
EdgeColorOff
350
174
  3
Facepattern
350
39
  3
Flat
350
2B
  3
FlatWithEdges
350
2C
  3
Gouraud
350
2D
  3
GouraudWithEdges
350
2E
  3
Hidden
350
2B9
  3
JitterOff
350
172
  3
Linepattern
350
38
  3
OverhangOff
350
173
  3
Realistic
350
33
  3
Shaded
350
2BE
  3
Shaded with edges
350
2BD
  3
Shades of Gray
350
2BA
  3
Sketchy
350
2BB
  3
Thicken
350
37
  3
Wireframe
350
2B8
  3
X-Ray
350
2BC
  0
XRECORD
  5
472
102
{ACAD_REACTORS
330
C
102
}
330
C
100
AcDbXrecord
280
     1
 90
        1
330
176
  0
DICTIONARY
  5
1AD
102
{ACAD_REACTORS
330
C
102
}
330
C
100
AcDbDictionary
281
     1
  3
CANNOSCALE
350
1B1
  3
CMLEADERSTYLE
350
1AF
  3
CTABLESTYLE
350
1AE
  3
CVIEWDETAILSTYLE
350
315
  3
CVIEWSECTIONSTYLE
350
316
  3
LAYEREVAL
350
1B3
  3
LAYERNOTIFY
350
1B4
  3
LIGHTINGUNITS
350
1B2
  3
MSLTSCALE
350
1B0
  0
DICTIONARY
  5
1A6
102
{ACAD_REACTORS
330
1A5
102
}
330
1A5
100
AcDbDictionary
281
     1
  0
XRECORD
  5
19F
102
{ACAD_REACTORS
330
19E
102
}
330
19E
100
AcDbXrecord
280
     1
290
     1
  0
XRECORD
  5
1A1
102
{ACAD_REACTORS
330
1A0
102
}
330
1A0
100
AcDbXrecord
280
     1
290
     1
  0
SORTENTSTABLE
  5
1D7
102
{ACAD_REACTORS
330
1D6
102
}
330
1D6
100
AcDbSortentsTable
330
1F
331
AF
  5
1DF
331
B0
  5
1E3
331
B1
  5
1E8
331
B2
  5
1EC
331
B3
  5
1F0
331
DB
  5
250
331
DC
  5
251
331
DD
  5
252
331
100
  5
27B
331
101
  5
27C
331
102
  5
27D
331
121
  5
29E
331
1D1
  5
2AC
331
1D8
  5
AF
331
1D9
  5
B0
331
1DF
  5
B1
331
1E3
  5
B2
331
1E8
  5
B3
331
1EC
  5
B5
331
1F0
  5
DB
331
202
  5
DC
331
215
  5
DD
331
216
  5
DF
331
217
  5
100
331
218
  5
101
331
21C
  5
102
331
220
  5
104
331
224
  5
120
331
228
  5
121
331
22C
  5
126
331
22D
  5
1D1
331
22E
  5
1D8
331
232
  5
1D9
331
233
  5
29F
331
234
  5
2A3
331
23B
  5
2A4
331
243
  5
2A5
331
24C
  5
2A6
331
24D
  5
2A7
331
24E
  5
2A8
331
24F
  5
215
331
250
  5
216
331
251
  5
217
331
252
  5
218
331
256
  5
21C
331
257
  5
220
331
258
  5
224
331
259
  5
228
331
25A
  5
22C
331
25B
  5
22D
331
25C
  5
232
331
260
  5
233
331
261
  5
234
331
262
  5
23B
331
263
  5
243
331
264
  5
24C
331
268
  5
24D
331
26C
  5
24E
331
270
  5
24F
331
274
  5
257
331
275
  5
258
331
276
  5
259
331
277
  5
25A
331
27B
  5
25B
331
27C
  5
25C
331
27D
  5
260
331
27E
  5
261
331
282
  5
262
331
286
  5
263
331
287
  5
264
331
288
  5
268
331
289
  5
26C
331
28A
  5
270
331
28B
  5
274
331
28C
  5
275
331
28D
  5
276
331
291
  5
277
331
295
  5
282
331
296
  5
286
331
297
  5
287
331
298
  5
288
331
299
  5
289
331
29A
  5
28A
331
29B
  5
28B
331
29C
  5
28C
331
29D
  5
28D
331
29E
  5
291
331
29F
  5
295
331
2A3
  5
296
331
2A4
  5
297
331
2A5
  5
298
331
2A6
  5
299
331
2A7
  5
29A
331
2A8
  5
29B
331
2AC
  5
29C
  0
SORTENTSTABLE
  5
327
102
{ACAD_REACTORS
330
326
102
}
330
326
100
AcDbSortentsTable
330
320
  0
ACDBDETAILVIEWSTYLE
  5
2C2
102
{ACAD_REACTORS
330
2C1
102
}
330
2C1
100
AcDbModelDocViewStyle
 70
     0
  3
Imperial24
290
     0
300
Imperial24
 90
        0
100
AcDbDetailViewStyle
 70
     0
 71
     0
 90
        3
 71
     1
340
11
 62
   256
 40
0.24
340
0
 62
   256
 40
0.24
300

 40
0.36
280
     3
 71
     2
340
16
 90
       25
 62
   256
 71
     3
340
11
 62
   256
 40
0.24
 90
        1
 40
0.75
 90
        1
300
%<\AcVar ViewType \f "%tc1">% %<\AcVar ViewDetailId>%\PSCALE %<\AcVar ViewScale \f "%sn">%
 71
     4
340
16
 90
       25
 62
   256
340
16
 90
       25
 62
   256
280
     0
  0
LAYOUT
  5
1E
102
{ACAD_REACTORS
330
1A
102
}
330
1A
100
AcDbPlotSettings
  1

  2
none_device
  4

  6

 40
0.0
 41
0.0
 42
0.0
 43
0.0
 44
0.0
 45
0.0
 46
0.0
 47
0.0
 48
0.0
 49
0.0
140
0.0
141
0.0
142
1.0
143
1.0
 70
   688
 72
     0
 73
     0
 74
     5
  7

 75
    16
147
1.0
 76
     0
 77
     2
 78
   300
148
0.0
149
0.0
100
AcDbLayout
  1
Layout1
 70
     1
 71
     1
 10
0.0
 20
0.0
 11
12.0
 21
9.0
 12
0.0
 22
0.0
 32
0.0
 14
1.000000000000000E+20
 24
1.000000000000000E+20
 34
1.000000000000000E+20
 15
-1.000000000000000E+20
 25
-1.000000000000000E+20
 35
-1.000000000000000E+20
146
0.0
 13
0.0
 23
0.0
 33
0.0
 16
1.0
 26
0.0
 36
0.0
 17
0.0
 27
1.0
 37
0.0
 76
     0
330
1B
  0
LAYOUT
  5
26
102
{ACAD_REACTORS
330
1A
102
}
330
1A
100
AcDbPlotSettings
  1

  2
none_device
  4

  6

 40
0.0
 41
0.0
 42
0.0
 43
0.0
 44
0.0
 45
0.0
 46
0.0
 47
0.0
 48
0.0
 49
0.0
140
0.0
141
0.0
142
1.0
143
1.0
 70
   688
 72
     0
 73
     0
 74
     5
  7

 75
    16
147
1.0
 76
     0
 77
     2
 78
   300
148
0.0
149
0.0
100
AcDbLayout
  1
Layout2
 70
     1
 71
     2
 10
0.0
 20
0.0
 11
0.0
 21
0.0
 12
0.0
 22
0.0
 32
0.0
 14
0.0
 24
0.0
 34
0.0
 15
0.0
 25
0.0
 35
0.0
146
0.0
 13
0.0
 23
0.0
 33
0.0
 16
1.0
 26
0.0
 36
0.0
 17
0.0
 27
1.0
 37
0.0
 76
     0
330
23
  0
LAYOUT
  5
22
102
{ACAD_XDICTIONARY
360
1AB
102
}
102
{ACAD_REACTORS
330
1A
102
}
330
1A
100
AcDbPlotSettings
  1

  2
none_device
  4

  6

 40
0.0
 41
0.0
 42
0.0
 43
0.0
 44
0.0
 45
0.0
 46
0.0
 47
0.0
 48
0.0
 49
0.0
140
0.0
141
0.0
142
1.0
143
1.0
 70
  1712
 72
     0
 73
     0
 74
     0
  7

 75
     0
147
1.0
 76
     0
 77
     2
 78
   300
148
0.0
149
0.0
100
AcDbLayout
  1
Model
 70
     1
 71
     0
 10
0.0
 20
0.0
 11
12.0
 21
9.0
 12
0.0
 22
0.0
 32
0.0
 14
1.000000000000000E+20
 24
1.000000000000000E+20
 34
1.000000000000000E+20
 15
-1.000000000000000E+20
 25
-1.000000000000000E+20
 35
-1.000000000000000E+20
146
0.0
 13
0.0
 23
0.0
 33
0.0
 16
1.0
 26
0.0
 36
0.0
 17
0.0
 27
1.0
 37
0.0
 76
     0
330
1F
331
29
  0
MATERIAL
  5
162
102
{ACAD_XDICTIONARY
360
163
102
}
102
{ACAD_REACTORS
330
159
102
}
330
159
100
AcDbMaterial
  1
ByBlock
 72
     0
 43
0.0208333333333333
 43
0.0
 43
0.0
 43
0.0
 43
0.0
 43
0.0208333333333333
 43
0.0
 43
0.0
 43
0.0
 43
0.0
 43
1.0
 43
0.0
 43
0.0
 43
0.0
 43
0.0
 43
1.0
 77
     0
 47
0.0208333333333333
 47
0.0
 47
0.0
 47
0.0
 47
0.0
 47
0.0208333333333333
 47
0.0
 47
0.0
 47
0.0
 47
0.0
 47
1.0
 47
0.0
 47
0.0
 47
0.0
 47
0.0
 47
1.0
171
     0
 49
0.0208333333333333
 49
0.0
 49
0.0
 49
0.0
 49
0.0
 49
0.0208333333333333
 49
0.0
 49
0.0
 49
0.0
 49
0.0
 49
1.0
 49
0.0
 49
0.0
 49
0.0
 49
0.0
 49
1.0
175
     0
142
0.0208333333333333
142
0.0
142
0.0
142
0.0
142
0.0
142
0.0208333333333333
142
0.0
142
0.0
142
0.0
142
0.0
142
1.0
142
0.0
142
0.0
142
0.0
142
0.0
142
1.0
179
     0
144
0.0208333333333333
144
0.0
144
0.0
144
0.0
144
0.0
144
0.0208333333333333
144
0.0
144
0.0
144
0.0
144
0.0
144
1.0
144
0.0
144
0.0
144
0.0
144
0.0
144
1.0
147
0.0208333333333333
147
0.0
147
0.0
147
0.0
147
0.0
147
0.0208333333333333
147
0.0
147
0.0
147
0.0
147
0.0
147
1.0
147
0.0
147
0.0
147
0.0
147
0.0
147
1.0
  0
MATERIAL
  5
15A
102
{ACAD_XDICTIONARY
360
15B
102
}
102
{ACAD_REACTORS
330
159
102
}
330
159
100
AcDbMaterial
  1
ByLayer
 72
     0
 43
0.0208333333333333
 43
0.0
 43
0.0
 43
0.0
 43
0.0
 43
0.0208333333333333
 43
0.0
 43
0.0
 43
0.0
 43
0.0
 43
1.0
 43
0.0
 43
0.0
 43
0.0
 43
0.0
 43
1.0
 77
     0
 47
0.0208333333333333
 47
0.0
 47
0.0
 47
0.0
 47
0.0
 47
0.0208333333333333
 47
0.0
 47
0.0
 47
0.0
 47
0.0
 47
1.0
 47
0.0
 47
0.0
 47
0.0
 47
0.0
 47
1.0
171
     0
 49
0.0208333333333333
 49
0.0
 49
0.0
 49
0.0
 49
0.0
 49
0.0208333333333333
 49
0.0
 49
0.0
 49
0.0
 49
0.0
 49
1.0
 49
0.0
 49
0.0
 49
0.0
 49
0.0
 49
1.0
175
     0
142
0.0208333333333333
142
0.0
142
0.0
142
0.0
142
0.0
142
0.0208333333333333
142
0.0
142
0.0
142
0.0
142
0.0
142
1.0
142
0.0
142
0.0
142
0.0
142
0.0
142
1.0
179
     0
144
0.0208333333333333
144
0.0
144
0.0
144
0.0
144
0.0
144
0.0208333333333333
144
0.0
144
0.0
144
0.0
144
0.0
144
1.0
144
0.0
144
0.0
144
0.0
144
0.0
144
1.0
147
0.0208333333333333
147
0.0
147
0.0
147
0.0
147
0.0
147
0.0208333333333333
147
0.0
147
0.0
147
0.0
147
0.0
147
1.0
147
0.0
147
0.0
147
0.0
147
0.0
147
1.0
  0
MATERIAL
  5
16A
102
{ACAD_XDICTIONARY
360
16B
102
}
102
{ACAD_REACTORS
330
159
102
}
330
159
100
AcDbMaterial
  1
Global
 72
     0
 43
0.0208333333333333
 43
0.0
 43
0.0
 43
0.0
 43
0.0
 43
0.0208333333333333
 43
0.0
 43
0.0
 43
0.0
 43
0.0
 43
1.0
 43
0.0
 43
0.0
 43
0.0
 43
0.0
 43
1.0
 77
     0
 47
0.0208333333333333
 47
0.0
 47
0.0
 47
0.0
 47
0.0
 47
0.0208333333333333
 47
0.0
 47
0.0
 47
0.0
 47
0.0
 47
1.0
 47
0.0
 47
0.0
 47
0.0
 47
0.0
 47
1.0
171
     0
 49
0.0208333333333333
 49
0.0
 49
0.0
 49
0.0
 49
0.0
 49
0.0208333333333333
 49
0.0
 49
0.0
 49
0.0
 49
0.0
 49
1.0
 49
0.0
 49
0.0
 49
0.0
 49
0.0
 49
1.0
175
     0
142
0.0208333333333333
142
0.0
142
0.0
142
0.0
142
0.0
142
0.0208333333333333
142
0.0
142
0.0
142
0.0
142
0.0
142
1.0
142
0.0
142
0.0
142
0.0
142
0.0
142
1.0
179
     0
144
0.0208333333333333
144
0.0
144
0.0
144
0.0
144
0.0
144
0.0208333333333333
144
0.0
144
0.0
144
0.0
144
0.0
144
1.0
144
0.0
144
0.0
144
0.0
144
0.0
144
1.0
147
0.0208333333333333
147
0.0
147
0.0
147
0.0
147
0.0
147
0.0208333333333333
147
0.0
147
0.0
147
0.0
147
0.0
147
1.0
147
0.0
147
0.0
147
0.0
147
0.0
147
1.0
  0
MLEADERSTYLE
  5
19A
102
{ACAD_REACTORS
330
199
102
}
330
199
100
AcDbMLeaderStyle
179
     2
170
     2
171
     1
172
     0
 90
        2
 40
0.0
 41
0.0
173
     1
 91
-1056964608
340
14
 92
       -2
290
     1
 42
0.09
291
     1
 43
0.36
  3
Standard
 44
0.18
300

342
11
174
     1
178
     6
175
     1
176
     0
 93
-1056964608
 45
0.18
292
     0
297
     0
 46
0.18
 94
-1056964608
 47
1.0
 49
1.0
140
1.0
293
     1
141
0.0
294
     1
177
     0
142
1.0
295
     0
296
     0
143
0.125
271
     0
272
     9
273
     9
298
     0
  0
MLINESTYLE
  5
18
102
{ACAD_REACTORS
330
17
102
}
330
17
100
AcDbMlineStyle
  2
STANDARD
 70
     0
  3

 62
   256
 51
90.0
 52
90.0
 71
     2
 49
0.5
 62
   256
  6
BYLAYER
 49
-0.5
 62
   256
  6
BYLAYER
  0
ACDBPLACEHOLDER
  5
F
102
{ACAD_REACTORS
330
E
102
}
330
E
  0
SCALE
  5
178
102
{ACAD_REACTORS
330
177
102
}
330
177
100
AcDbScale
 70
     0
300
1:1
140
1.0
141
1.0
290
     1
  0
SCALE
  5
179
102
{ACAD_REACTORS
330
177
102
}
330
177
100
AcDbScale
 70
     0
300
1:2
140
1.0
141
2.0
290
     0
  0
SCALE
  5
17A
102
{ACAD_REACTORS
330
177
102
}
330
177
100
AcDbScale
 70
     0
300
1:4
140
1.0
141
4.0
290
     0
  0
SCALE
  5
17B
102
{ACAD_REACTORS
330
177
102
}
330
177
100
AcDbScale
 70
     0
300
1:5
140
1.0
141
5.0
290
     0
  0
SCALE
  5
17C
102
{ACAD_REACTORS
330
177
102
}
330
177
100
AcDbScale
 70
     0
300
1:8
140
1.0
141
8.0
290
     0
  0
SCALE
  5
17D
102
{ACAD_REACTORS
330
177
102
}
330
177
100
AcDbScale
 70
     0
300
1:10
140
1.0
141
10.0
290
     0
  0
SCALE
  5
17E
102
{ACAD_REACTORS
330
177
102
}
330
177
100
AcDbScale
 70
     0
300
1:16
140
1.0
141
16.0
290
     0
  0
SCALE
  5
17F
102
{ACAD_REACTORS
330
177
102
}
330
177
100
AcDbScale
 70
     0
300
1:20
140
1.0
141
20.0
290
     0
  0
SCALE
  5
180
102
{ACAD_REACTORS
330
177
102
}
330
177
100
AcDbScale
 70
     0
300
1:30
140
1.0
141
30.0
290
     0
  0
SCALE
  5
181
102
{ACAD_REACTORS
330
177
102
}
330
177
100
AcDbScale
 70
     0
300
1:40
140
1.0
141
40.0
290
     0
  0
SCALE
  5
182
102
{ACAD_REACTORS
330
177
102
}
330
177
100
AcDbScale
 70
     0
300
1:50
140
1.0
141
50.0
290
     0
  0
SCALE
  5
183
102
{ACAD_REACTORS
330
177
102
}
330
177
100
AcDbScale
 70
     0
300
1:100
140
1.0
141
100.0
290
     0
  0
SCALE
  5
184
102
{ACAD_REACTORS
330
177
102
}
330
177
100
AcDbScale
 70
     0
300
2:1
140
2.0
141
1.0
290
     0
  0
SCALE
  5
185
102
{ACAD_REACTORS
330
177
102
}
330
177
100
AcDbScale
 70
     0
300
4:1
140
4.0
141
1.0
290
     0
  0
SCALE
  5
186
102
{ACAD_REACTORS
330
177
102
}
330
177
100
AcDbScale
 70
     0
300
8:1
140
8.0
141
1.0
290
     0
  0
SCALE
  5
187
102
{ACAD_REACTORS
330
177
102
}
330
177
100
AcDbScale
 70
     0
300
10:1
140
10.0
141
1.0
290
     0
  0
SCALE
  5
188
102
{ACAD_REACTORS
330
177
102
}
330
177
100
AcDbScale
 70
     0
300
100:1
140
100.0
141
1.0
290
     0
  0
SCALE
  5
189
102
{ACAD_REACTORS
330
177
102
}
330
177
100
AcDbScale
 70
     0
300
1/128" = 1'-0"
140
0.0078125
141
12.0
290
     0
  0
SCALE
  5
18A
102
{ACAD_REACTORS
330
177
102
}
330
177
100
AcDbScale
 70
     0
300
1/64" = 1'-0"
140
0.015625
141
12.0
290
     0
  0
SCALE
  5
18B
102
{ACAD_REACTORS
330
177
102
}
330
177
100
AcDbScale
 70
     0
300
1/32" = 1'-0"
140
0.03125
141
12.0
290
     0
  0
SCALE
  5
18C
102
{ACAD_REACTORS
330
177
102
}
330
177
100
AcDbScale
 70
     0
300
1/16" = 1'-0"
140
0.0625
141
12.0
290
     0
  0
SCALE
  5
18D
102
{ACAD_REACTORS
330
177
102
}
330
177
100
AcDbScale
 70
     0
300
3/32" = 1'-0"
140
0.09375
141
12.0
290
     0
  0
SCALE
  5
18E
102
{ACAD_REACTORS
330
177
102
}
330
177
100
AcDbScale
 70
     0
300
1/8" = 1'-0"
140
0.125
141
12.0
290
     0
  0
SCALE
  5
18F
102
{ACAD_REACTORS
330
177
102
}
330
177
100
AcDbScale
 70
     0
300
3/16" = 1'-0"
140
0.1875
141
12.0
290
     0
  0
SCALE
  5
190
102
{ACAD_REACTORS
330
177
102
}
330
177
100
AcDbScale
 70
     0
300
1/4" = 1'-0"
140
0.25
141
12.0
290
     0
  0
SCALE
  5
191
102
{ACAD_REACTORS
330
177
102
}
330
177
100
AcDbScale
 70
     0
300
3/8" = 1'-0"
140
0.375
141
12.0
290
     0
  0
SCALE
  5
192
102
{ACAD_REACTORS
330
177
102
}
330
177
100
AcDbScale
 70
     0
300
1/2" = 1'-0"
140
0.5
141
12.0
290
     0
  0
SCALE
  5
193
102
{ACAD_REACTORS
330
177
102
}
330
177
100
AcDbScale
 70
     0
300
3/4" = 1'-0"
140
0.75
141
12.0
290
     0
  0
SCALE
  5
194
102
{ACAD_REACTORS
330
177
102
}
330
177
100
AcDbScale
 70
     0
300
1" = 1'-0"
140
1.0
141
12.0
290
     0
  0
SCALE
  5
195
102
{ACAD_REACTORS
330
177
102
}
330
177
100
AcDbScale
 70
     0
300
1-1/2" = 1'-0"
140
1.5
141
12.0
290
     0
  0
SCALE
  5
196
102
{ACAD_REACTORS
330
177
102
}
330
177
100
AcDbScale
 70
     0
300
3" = 1'-0"
140
3.0
141
12.0
290
     0
  0
SCALE
  5
197
102
{ACAD_REACTORS
330
177
102
}
330
177
100
AcDbScale
 70
     0
300
6" = 1'-0"
140
6.0
141
12.0
290
     0
  0
SCALE
  5
198
102
{ACAD_REACTORS
330
177
102
}
330
177
100
AcDbScale
 70
     0
300
1'-0" = 1'-0"
140
12.0
141
12.0
290
     0
  0
ACDBSECTIONVIEWSTYLE
  5
2C0
102
{ACAD_REACTORS
330
2BF
102
}
330
2BF
100
AcDbModelDocViewStyle
 70
     0
  3
Imperial24
290
     0
300
Imperial24
 90
        0
100
AcDbSectionViewStyle
 70
     0
 71
     0
 90
       78
 71
     1
340
11
 62
   256
 40
0.24
340
0
340
0
 62
   256
 40
0.24
300
I, O, Q, S, X, Z
 40
0.48
 90
        3
 40
0.18
 90
        1
 71
     2
340
16
 90
       25
 62
   256
340
16
 90
       50
 62
   256
 40
0.24
 40
0.0
 40
0.24
 71
     3
340
11
 62
   256
 40
0.24
 90
        1
 40
0.75
 90
        1
300
%<\AcVar ViewType \f "%tc1">% %<\AcVar ViewSectionStartId>%-%<\AcVar ViewSectionEndId>%\PSCALE %<\AcVar ViewScale \f "%sn">%
 71
     4
 62
   256
 62
   257
300
ANSI31
 40
1.0
 90
        0
290
     0
290
     0
 90
        6
 40
0.0
 40
1.570796326794896
 40
0.2617993877991494
 40
1.308996938995747
 40
-0.2617993877991494
 40
1.832595714594046
  0
TABLESTYLE
  5
176
102
{ACAD_XDICTIONARY
360
470
102
}
102
{ACAD_REACTORS
330
157
102
}
330
157
100
AcDbTableStyle
280
     0
  3
Standard
 70
     0
 71
     0
 40
0.06
 41
0.06
280
     0
281
     0
  7
Standard
140
0.18
170
     2
 62
     0
 63
     7
283
     0
 90
      512
 91
        0
  1

274
    -2
284
     1
 64
     0
275
    -2
285
     1
 65
     0
276
    -2
286
     1
 66
     0
277
    -2
287
     1
 67
     0
278
    -2
288
     1
 68
     0
279
    -2
289
     1
 69
     0
  7
Standard
140
0.25
170
     5
 62
     0
 63
     7
283
     0
 90
      512
 91
        0
  1

274
    -2
284
     1
 64
     0
275
    -2
285
     1
 65
     0
276
    -2
286
     1
 66
     0
277
    -2
287
     1
 67
     0
278
    -2
288
     1
 68
     0
279
    -2
289
     1
 69
     0
  7
Standard
140
0.18
170
     5
 62
     0
 63
     7
283
     0
 90
      512
 91
        0
  1

274
    -2
284
     1
 64
     0
275
    -2
285
     1
 65
     0
276
    -2
286
     1
 66
     0
277
    -2
287
     1
 67
     0
278
    -2
288
     1
 68
     0
279
    -2
289
     1
 69
     0
  0
VISUALSTYLE
  5
2F
102
{ACAD_REACTORS
330
2A
102
}
330
2A
100
AcDbVisualStyle
  2
2dWireframe
 70
     4
177
     3
291
     0
 70
    58
 90
        0
176
     1
 90
        2
176
     1
 90
        0
176
     1
 90
        0
176
     1
 40
0.6
176
     1
 40
30.0
176
     1
 62
     7
420
 16777215
176
     1
 90
        1
176
     1
 90
        4
176
     1
 62
     7
176
     1
 62
   257
176
     1
 90
        1
176
     1
 90
        1
176
     1
 40
1.0
176
     1
 90
        0
176
     1
 62
   257
176
     1
 40
1.0
176
     1
 90
        1
176
     1
 90
        6
176
     1
 90
        2
176
     1
 62
     7
176
     1
 90
        5
176
     1
 90
        0
176
     1
 90
        0
176
     1
290
     0
176
     1
 90
        1
176
     1
 40
0.0
176
     1
 90
        0
176
     1
290
     1
176
     1
290
     1
176
     1
290
     0
176
     1
290
     0
176
     1
290
     0
176
     1
290
     0
176
     1
290
     0
176
     1
290
     0
176
     1
290
     0
176
     1
 90
       50
176
     1
 40
0.0
176
     1
 40
1.0
176
     1
 90
        0
176
     1
 62
    18
420
        0
176
     1
 90
       50
176
     1
 90
        3
176
     1
 62
     5
420
      255
176
     1
290
     0
176
     1
 90
       50
176
     1
 90
       50
176
     1
 90
       50
176
     1
290
     0
176
     1
 90
       50
176
     1
 62
   256
176
     0
 40
1.0
176
     0
 90
        2
176
     1
  1
strokes_ogs.tif
176
     1
290
     0
176
     1
 40
1.0
176
     1
 40
1.0
176
     1
  0
VISUALSTYLE
  5
31
102
{ACAD_REACTORS
330
2A
102
}
330
2A
100
AcDbVisualStyle
  2
3D Hidden
 70
     6
177
     3
291
     0
 70
    58
 90
        1
176
     1
 90
        2
176
     1
 90
        2
176
     1
 90
        0
176
     1
 40
0.6
176
     1
 40
30.0
176
     1
 62
     7
420
 16777215
176
     1
 90
        2
176
     1
 90
        2
176
     1
 62
     7
176
     1
 62
   257
176
     1
 90
        2
176
     1
 90
        1
176
     1
 40
40.0
176
     1
 90
        0
176
     1
 62
   257
176
     1
 40
1.0
176
     1
 90
        1
176
     1
 90
        6
176
     1
 90
        2
176
     1
 62
     7
176
     1
 90
        3
176
     1
 90
        0
176
     1
 90
        0
176
     1
290
     0
176
     1
 90
        1
176
     1
 40
0.0
176
     1
 90
        0
176
     1
290
     0
176
     1
290
     1
176
     1
290
     1
176
     1
290
     0
176
     1
290
     0
176
     1
290
     0
176
     1
290
     0
176
     1
290
     0
176
     1
290
     0
176
     1
 90
       50
176
     1
 40
0.0
176
     1
 40
1.0
176
     1
 90
        0
176
     1
 62
    18
420
        0
176
     1
 90
       50
176
     1
 90
        3
176
     1
 62
     5
420
      255
176
     1
290
     0
176
     1
 90
       50
176
     1
 90
       50
176
     1
 90
       50
176
     1
290
     0
176
     1
 90
       50
176
     1
 62
   256
176
     0
 40
1.0
176
     0
 90
        2
176
     1
  1
strokes_ogs.tif
176
     1
290
     0
176
     1
 40
1.0
176
     1
 40
1.0
176
     1
  0
VISUALSTYLE
  5
30
102
{ACAD_REACTORS
330
2A
102
}
330
2A
100
AcDbVisualStyle
  2
3dWireframe
 70
     5
177
     3
291
     0
 70
    58
 90
        0
176
     1
 90
        2
176
     1
 90
        0
176
     1
 90
        0
176
     1
 40
0.6
176
     1
 40
30.0
176
     1
 62
     7
420
 16777215
176
     1
 90
        1
176
     1
 90
        4
176
     1
 62
     7
176
     1
 62
   257
176
     1
 90
        1
176
     1
 90
        1
176
     1
 40
1.0
176
     1
 90
        0
176
     1
 62
   257
176
     1
 40
1.0
176
     1
 90
        1
176
     1
 90
        6
176
     1
 90
        2
176
     1
 62
     7
176
     1
 90
        5
176
     1
 90
        0
176
     1
 90
        0
176
     1
290
     0
176
     1
 90
        1
176
     1
 40
0.0
176
     1
 90
        0
176
     1
290
     0
176
     1
290
     1
176
     1
290
     1
176
     1
290
     0
176
     1
290
     0
176
     1
290
     0
176
     1
290
     0
176
     1
290
     0
176
     1
290
     0
176
     1
 90
       50
176
     1
 40
0.0
176
     1
 40
1.0
176
     1
 90
        0
176
     1
 62
    18
420
        0
176
     1
 90
       50
176
     1
 90
        3
176
     1
 62
     5
420
      255
176
     1
290
     0
176
     1
 90
       50
176
     1
 90
       50
176
     1
 90
       50
176
     1
290
     0
176
     1
 90
       50
176
     1
 62
   256
176
     0
 40
1.0
176
     0
 90
        2
176
     1
  1
strokes_ogs.tif
176
     1
290
     0
176
     1
 40
1.0
176
     1
 40
1.0
176
     1
  0
VISUALSTYLE
  5
32
102
{ACAD_REACTORS
330
2A
102
}
330
2A
100
AcDbVisualStyle
  2
Basic
 70
     7
177
     3
291
     1
 70
    58
 90
        1
176
     1
 90
        0
176
     1
 90
        1
176
     1
 90
        0
176
     1
 40
0.6
176
     1
 40
30.0
176
     1
 62
     7
420
 16777215
176
     1
 90
        0
176
     1
 90
        4
176
     1
 62
     7
176
     1
 62
   257
176
     1
 90
        1
176
     1
 90
        1
176
     1
 40
1.0
176
     1
 90
        8
176
     1
 62
     7
176
     1
 40
1.0
176
     1
 90
        1
176
     1
 90
        6
176
     1
 90
        2
176
     1
 62
     7
176
     1
 90
        5
176
     1
 90
        0
176
     1
 90
        0
176
     1
290
     0
176
     1
 90
        1
176
     1
 40
0.0
176
     1
 90
        0
176
     1
290
     0
176
     1
290
     1
176
     1
290
     1
176
     1
290
     0
176
     1
290
     0
176
     1
290
     0
176
     1
290
     0
176
     1
290
     0
176
     1
290
     0
176
     1
 90
       50
176
     1
 40
0.0
176
     1
 40
1.0
176
     1
 90
        0
176
     1
 62
    18
420
        0
176
     1
 90
       50
176
     1
 90
        3
176
     1
 62
     5
420
      255
176
     1
290
     0
176
     1
 90
       50
176
     1
 90
       50
176
     1
 90
       50
176
     1
290
     0
176
     1
 90
       50
176
     1
 62
   256
176
     0
 40
1.0
176
     0
 90
        2
176
     1
  1
strokes_ogs.tif
176
     1
290
     0
176
     1
 40
1.0
176
     1
 40
1.0
176
     1
  0
VISUALSTYLE
  5
36
102
{ACAD_REACTORS
330
2A
102
}
330
2A
100
AcDbVisualStyle
  2
Brighten
 70
    12
177
     3
291
     1
 70
    58
 90
        2
176
     1
 90
        2
176
     1
 90
        0
176
     1
 90
        0
176
     1
 40
0.6
176
     1
 40
30.0
176
     1
 62
     7
420
 16777215
176
     1
 90
        1
176
     1
 90
        4
176
     1
 62
     7
176
     1
 62
   257
176
     1
 90
        1
176
     1
 90
        1
176
     1
 40
1.0
176
     1
 90
        8
176
     1
 62
     7
176
     1
 40
1.0
176
     1
 90
        1
176
     1
 90
        6
176
     1
 90
        2
176
     1
 62
     7
176
     1
 90
        5
176
     1
 90
        0
176
     1
 90
        0
176
     1
290
     0
176
     1
 90
        1
176
     1
 40
50.0
176
     1
 90
        0
176
     1
290
     0
176
     1
290
     1
176
     1
290
     1
176
     1
290
     0
176
     1
290
     0
176
     1
290
     0
176
     1
290
     0
176
     1
290
     0
176
     1
290
     0
176
     1
 90
       50
176
     1
 40
0.0
176
     1
 40
1.0
176
     1
 90
        0
176
     1
 62
    18
420
        0
176
     1
 90
       50
176
     1
 90
        3
176
     1
 62
     5
420
      255
176
     1
290
     0
176
     1
 90
       50
176
     1
 90
       50
176
     1
 90
       50
176
     1
290
     0
176
     1
 90
       50
176
     1
 62
   256
176
     0
 40
1.0
176
     0
 90
        2
176
     1
  1
strokes_ogs.tif
176
     1
290
     0
176
     1
 40
1.0
176
     1
 40
1.0
176
     1
  0
VISUALSTYLE
  5
3A
102
{ACAD_REACTORS
330
2A
102
}
330
2A
100
AcDbVisualStyle
  2
ColorChange
 70
    16
177
     3
291
     1
 70
    58
 90
        2
176
     1
 90
        2
176
     1
 90
        3
176
     1
 90
        0
176
     1
 40
0.6
176
     1
 40
30.0
176
     1
 62
     8
420
  8421504
176
     1
 90
        1
176
     1
 90
        4
176
     1
 62
     7
176
     1
 62
   257
176
     1
 90
        1
176
     1
 90
        1
176
     1
 40
1.0
176
     1
 90
        8
176
     1
 62
     8
420
  8421504
176
     1
 40
1.0
176
     1
 90
        1
176
     1
 90
        6
176
     1
 90
        2
176
     1
 62
     7
176
     1
 90
        5
176
     1
 90
        0
176
     1
 90
        0
176
     1
290
     0
176
     1
 90
        1
176
     1
 40
0.0
176
     1
 90
        0
176
     1
290
     0
176
     1
290
     1
176
     1
290
     1
176
     1
290
     0
176
     1
290
     0
176
     1
290
     0
176
     1
290
     0
176
     1
290
     0
176
     1
290
     0
176
     1
 90
       50
176
     1
 40
0.0
176
     1
 40
1.0
176
     1
 90
        0
176
     1
 62
    18
420
        0
176
     1
 90
       50
176
     1
 90
        3
176
     1
 62
     5
420
      255
176
     1
290
     0
176
     1
 90
       50
176
     1
 90
       50
176
     1
 90
       50
176
     1
290
     0
176
     1
 90
       50
176
     1
 62
   256
176
     0
 40
1.0
176
     0
 90
        2
176
     1
  1
strokes_ogs.tif
176
     1
290
     0
176
     1
 40
1.0
176
     1
 40
1.0
176
     1
  0
VISUALSTYLE
  5
34
102
{ACAD_REACTORS
330
2A
102
}
330
2A
100
AcDbVisualStyle
  2
Conceptual
 70
     9
177
     3
291
     0
 70
    58
 90
        3
176
     1
 90
        2
176
     1
 90
        0
176
     1
 90
        0
176
     1
 40
0.6
176
     1
 40
30.0
176
     1
 62
     7
420
 16777215
176
     1
 90
        2
176
     1
 90
        2
176
     1
 62
     7
176
     1
 62
   257
176
     1
 90
        1
176
     1
 90
        1
176
     1
 40
40.0
176
     1
 90
        8
176
     1
 62
     7
176
     1
 40
1.0
176
     1
 90
        1
176
     1
 90
        6
176
     1
 90
        2
176
     1
 62
     7
176
     1
 90
        3
176
     1
 90
        0
176
     1
 90
        0
176
     1
290
     0
176
     1
 90
        1
176
     1
 40
0.0
176
     1
 90
        0
176
     1
290
     0
176
     1
290
     1
176
     1
290
     1
176
     1
290
     0
176
     1
290
     0
176
     1
290
     0
176
     1
290
     0
176
     1
290
     0
176
     1
290
     0
176
     1
 90
       50
176
     1
 40
0.0
176
     1
 40
1.0
176
     1
 90
        0
176
     1
 62
    18
420
        0
176
     1
 90
       50
176
     1
 90
        3
176
     1
 62
     5
420
      255
176
     1
290
     0
176
     1
 90
       50
176
     1
 90
       50
176
     1
 90
       50
176
     1
290
     0
176
     1
 90
       50
176
     1
 62
   256
176
     0
 40
1.0
176
     0
 90
        2
176
     1
  1
strokes_ogs.tif
176
     1
290
     0
176
     1
 40
1.0
176
     1
 40
1.0
176
     1
  0
VISUALSTYLE
  5
35
102
{ACAD_REACTORS
330
2A
102
}
330
2A
100
AcDbVisualStyle
  2
Dim
 70
    11
177
     3
291
     1
 70
    58
 90
        2
176
     1
 90
        2
176
     1
 90
        0
176
     1
 90
        0
176
     1
 40
0.6
176
     1
 40
30.0
176
     1
 62
     7
420
 16777215
176
     1
 90
        1
176
     1
 90
        4
176
     1
 62
     7
176
     1
 62
   257
176
     1
 90
        1
176
     1
 90
        1
176
     1
 40
1.0
176
     1
 90
        8
176
     1
 62
     7
176
     1
 40
1.0
176
     1
 90
        1
176
     1
 90
        6
176
     1
 90
        2
176
     1
 62
     7
176
     1
 90
        5
176
     1
 90
        0
176
     1
 90
        0
176
     1
290
     0
176
     1
 90
        1
176
     1
 40
-50.0
176
     1
 90
        0
176
     1
290
     0
176
     1
290
     1
176
     1
290
     1
176
     1
290
     0
176
     1
290
     0
176
     1
290
     0
176
     1
290
     0
176
     1
290
     0
176
     1
290
     0
176
     1
 90
       50
176
     1
 40
0.0
176
     1
 40
1.0
176
     1
 90
        0
176
     1
 62
    18
420
        0
176
     1
 90
       50
176
     1
 90
        3
176
     1
 62
     5
420
      255
176
     1
290
     0
176
     1
 90
       50
176
     1
 90
       50
176
     1
 90
       50
176
     1
290
     0
176
     1
 90
       50
176
     1
 62
   256
176
     0
 40
1.0
176
     0
 90
        2
176
     1
  1
strokes_ogs.tif
176
     1
290
     0
176
     1
 40
1.0
176
     1
 40
1.0
176
     1
  0
VISUALSTYLE
  5
174
102
{ACAD_REACTORS
330
2A
102
}
330
2A
100
AcDbVisualStyle
  2
EdgeColorOff
 70
    22
177
     3
291
     1
 70
    58
 90
        2
176
     0
 90
        2
176
     0
 90
        0
176
     0
 90
        0
176
     0
 40
0.6
176
     0
 40
30.0
176
     0
 62
     7
420
 16777215
176
     0
 90
        1
176
     0
 90
        4
176
     0
 62
     7
176
     0
 62
   257
176
     0
 90
        1
176
     0
 90
        1
176
     0
 40
1.0
176
     0
 90
        8
176
     2
 62
     7
176
     0
 40
1.0
176
     0
 90
        1
176
     0
 90
        6
176
     0
 90
        2
176
     0
 62
     7
176
     0
 90
        5
176
     0
 90
        0
176
     0
 90
        0
176
     0
290
     0
176
     0
 90
        1
176
     0
 40
0.0
176
     0
 90
        0
176
     0
290
     0
176
     1
290
     1
176
     1
290
     1
176
     1
290
     0
176
     1
290
     0
176
     1
290
     0
176
     1
290
     0
176
     1
290
     0
176
     1
290
     0
176
     1
 90
       50
176
     1
 40
0.0
176
     1
 40
1.0
176
     1
 90
        0
176
     1
 62
    18
420
        0
176
     1
 90
       50
176
     1
 90
        3
176
     1
 62
     5
420
      255
176
     1
290
     0
176
     1
 90
       50
176
     1
 90
       50
176
     1
 90
       50
176
     1
290
     0
176
     1
 90
       50
176
     1
 62
   256
176
     0
 40
1.0
176
     0
 90
        2
176
     1
  1
strokes_ogs.tif
176
     1
290
     0
176
     1
 40
1.0
176
     1
 40
1.0
176
     1
  0
VISUALSTYLE
  5
39
102
{ACAD_REACTORS
330
2A
102
}
330
2A
100
AcDbVisualStyle
  2
Facepattern
 70
    15
177
     3
291
     1
 70
    58
 90
        2
176
     1
 90
        2
176
     1
 90
        0
176
     1
 90
        0
176
     1
 40
0.6
176
     1
 40
30.0
176
     1
 62
     7
420
 16777215
176
     1
 90
        1
176
     1
 90
        4
176
     1
 62
     7
176
     1
 62
   257
176
     1
 90
        1
176
     1
 90
        1
176
     1
 40
1.0
176
     1
 90
        8
176
     1
 62
     7
176
     1
 40
1.0
176
     1
 90
        1
176
     1
 90
        6
176
     1
 90
        2
176
     1
 62
     7
176
     1
 90
        5
176
     1
 90
        0
176
     1
 90
        0
176
     1
290
     0
176
     1
 90
        1
176
     1
 40
0.0
176
     1
 90
        0
176
     1
290
     0
176
     1
290
     1
176
     1
290
     1
176
     1
290
     0
176
     1
290
     0
176
     1
290
     0
176
     1
290
     0
176
     1
290
     0
176
     1
290
     0
176
     1
 90
       50
176
     1
 40
0.0
176
     1
 40
1.0
176
     1
 90
        0
176
     1
 62
    18
420
        0
176
     1
 90
       50
176
     1
 90
        3
176
     1
 62
     5
420
      255
176
     1
290
     0
176
     1
 90
       50
176
     1
 90
       50
176
     1
 90
       50
176
     1
290
     0
176
     1
 90
       50
176
     1
 62
   256
176
     0
 40
1.0
176
     0
 90
        2
176
     1
  1
strokes_ogs.tif
176
     1
290
     0
176
     1
 40
1.0
176
     1
 40
1.0
176
     1
  0
VISUALSTYLE
  5
2B
102
{ACAD_REACTORS
330
2A
102
}
330
2A
100
AcDbVisualStyle
  2
Flat
 70
     0
177
     3
291
     1
 70
    58
 90
        2
176
     1
 90
        1
176
     1
 90
        1
176
     1
 90
        2
176
     1
 40
0.6
176
     1
 40
30.0
176
     1
 62
     7
420
 16777215
176
     1
 90
        0
176
     1
 90
        4
176
     1
 62
     7
176
     1
 62
   257
176
     1
 90
        1
176
     1
 90
        1
176
     1
 40
1.0
176
     1
 90
        8
176
     1
 62
     7
176
     1
 40
1.0
176
     1
 90
        1
176
     1
 90
        6
176
     1
 90
        2
176
     1
 62
     7
176
     1
 90
        5
176
     1
 90
        0
176
     1
 90
        0
176
     1
290
     0
176
     1
 90
       13
176
     1
 40
0.0
176
     1
 90
        0
176
     1
290
     0
176
     1
290
     1
176
     1
290
     1
176
     1
290
     0
176
     1
290
     0
176
     1
290
     0
176
     1
290
     0
176
     1
290
     0
176
     1
290
     0
176
     1
 90
       50
176
     1
 40
0.0
176
     1
 40
1.0
176
     1
 90
        0
176
     1
 62
    18
420
        0
176
     1
 90
       50
176
     1
 90
        3
176
     1
 62
     5
420
      255
176
     1
290
     0
176
     1
 90
       50
176
     1
 90
       50
176
     1
 90
       50
176
     1
290
     0
176
     1
 90
       50
176
     1
 62
   256
176
     0
 40
1.0
176
     0
 90
        2
176
     1
  1
strokes_ogs.tif
176
     1
290
     0
176
     1
 40
1.0
176
     1
 40
1.0
176
     1
  0
VISUALSTYLE
  5
2C
102
{ACAD_REACTORS
330
2A
102
}
330
2A
100
AcDbVisualStyle
  2
FlatWithEdges
 70
     1
177
     3
291
     1
 70
    58
 90
        2
176
     1
 90
        1
176
     1
 90
        1
176
     1
 90
        2
176
     1
 40
0.6
176
     1
 40
30.0
176
     1
 62
     7
420
 16777215
176
     1
 90
        1
176
     1
 90
        4
176
     1
 62
     7
176
     1
 62
   257
176
     1
 90
        1
176
     1
 90
        1
176
     1
 40
1.0
176
     1
 90
        0
176
     1
 62
   257
176
     1
 40
1.0
176
     1
 90
        1
176
     1
 90
        6
176
     1
 90
        2
176
     1
 62
     7
176
     1
 90
        5
176
     1
 90
        0
176
     1
 90
        0
176
     1
290
     0
176
     1
 90
       13
176
     1
 40
0.0
176
     1
 90
        0
176
     1
290
     0
176
     1
290
     1
176
     1
290
     1
176
     1
290
     0
176
     1
290
     0
176
     1
290
     0
176
     1
290
     0
176
     1
290
     0
176
     1
290
     0
176
     1
 90
       50
176
     1
 40
0.0
176
     1
 40
1.0
176
     1
 90
        0
176
     1
 62
    18
420
        0
176
     1
 90
       50
176
     1
 90
        3
176
     1
 62
     5
420
      255
176
     1
290
     0
176
     1
 90
       50
176
     1
 90
       50
176
     1
 90
       50
176
     1
290
     0
176
     1
 90
       50
176
     1
 62
   256
176
     0
 40
1.0
176
     0
 90
        2
176
     1
  1
strokes_ogs.tif
176
     1
290
     0
176
     1
 40
1.0
176
     1
 40
1.0
176
     1
  0
VISUALSTYLE
  5
2D
102
{ACAD_REACTORS
330
2A
102
}
330
2A
100
AcDbVisualStyle
  2
Gouraud
 70
     2
177
     3
291
     1
 70
    58
 90
        2
176
     1
 90
        2
176
     1
 90
        1
176
     1
 90
        2
176
     1
 40
0.6
176
     1
 40
30.0
176
     1
 62
     7
420
 16777215
176
     1
 90
        0
176
     1
 90
        4
176
     1
 62
     7
176
     1
 62
   257
176
     1
 90
        1
176
     1
 90
        1
176
     1
 40
1.0
176
     1
 90
        0
176
     1
 62
     7
176
     1
 40
1.0
176
     1
 90
        1
176
     1
 90
        6
176
     1
 90
        2
176
     1
 62
     7
176
     1
 90
        5
176
     1
 90
        0
176
     1
 90
        0
176
     1
290
     0
176
     1
 90
       13
176
     1
 40
0.0
176
     1
 90
        0
176
     1
290
     0
176
     1
290
     1
176
     1
290
     1
176
     1
290
     0
176
     1
290
     0
176
     1
290
     0
176
     1
290
     0
176
     1
290
     0
176
     1
290
     0
176
     1
 90
       50
176
     1
 40
0.0
176
     1
 40
1.0
176
     1
 90
        0
176
     1
 62
    18
420
        0
176
     1
 90
       50
176
     1
 90
        3
176
     1
 62
     5
420
      255
176
     1
290
     0
176
     1
 90
       50
176
     1
 90
       50
176
     1
 90
       50
176
     1
290
     0
176
     1
 90
       50
176
     1
 62
   256
176
     0
 40
1.0
176
     0
 90
        2
176
     1
  1
strokes_ogs.tif
176
     1
290
     0
176
     1
 40
1.0
176
     1
 40
1.0
176
     1
  0
VISUALSTYLE
  5
2E
102
{ACAD_REACTORS
330
2A
102
}
330
2A
100
AcDbVisualStyle
  2
GouraudWithEdges
 70
     3
177
     3
291
     1
 70
    58
 90
        2
176
     1
 90
        2
176
     1
 90
        1
176
     1
 90
        2
176
     1
 40
0.6
176
     1
 40
30.0
176
     1
 62
     7
420
 16777215
176
     1
 90
        1
176
     1
 90
        4
176
     1
 62
     7
176
     1
 62
   257
176
     1
 90
        1
176
     1
 90
        1
176
     1
 40
1.0
176
     1
 90
        0
176
     1
 62
   257
176
     1
 40
1.0
176
     1
 90
        1
176
     1
 90
        6
176
     1
 90
        2
176
     1
 62
     7
176
     1
 90
        5
176
     1
 90
        0
176
     1
 90
        0
176
     1
290
     0
176
     1
 90
       13
176
     1
 40
0.0
176
     1
 90
        0
176
     1
290
     0
176
     1
290
     1
176
     1
290
     1
176
     1
290
     0
176
     1
290
     0
176
     1
290
     0
176
     1
290
     0
176
     1
290
     0
176
     1
290
     0
176
     1
 90
       50
176
     1
 40
0.0
176
     1
 40
1.0
176
     1
 90
        0
176
     1
 62
    18
420
        0
176
     1
 90
       50
176
     1
 90
        3
176
     1
 62
     5
420
      255
176
     1
290
     0
176
     1
 90
       50
176
     1
 90
       50
176
     1
 90
       50
176
     1
290
     0
176
     1
 90
       50
176
     1
 62
   256
176
     0
 40
1.0
176
     0
 90
        2
176
     1
  1
strokes_ogs.tif
176
     1
290
     0
176
     1
 40
1.0
176
     1
 40
1.0
176
     1
  0
VISUALSTYLE
  5
2B9
102
{ACAD_REACTORS
330
2A
102
}
330
2A
100
AcDbVisualStyle
  2
Hidden
 70
     6
177
     3
291
     0
 70
    58
 90
        1
176
     1
 90
        2
176
     1
 90
        2
176
     1
 90
        0
176
     1
 40
0.6
176
     1
 40
30.0
176
     1
 62
     7
420
 16777215
176
     1
 90
        2
176
     1
 90
        2
176
     1
 62
     7
176
     1
 62
   257
176
     1
 90
        2
176
     1
 90
        1
176
     1
 40
40.0
176
     1
 90
        0
176
     1
 62
   257
176
     1
 40
1.0
176
     1
 90
        1
176
     1
 90
        6
176
     1
 90
        2
176
     1
 62
     7
176
     1
 90
        3
176
     1
 90
        0
176
     1
 90
        0
176
     1
290
     0
176
     1
 90
        1
176
     1
 40
0.0
176
     1
 90
        0
176
     1
290
     0
176
     1
290
     1
176
     1
290
     1
176
     1
290
     0
176
     1
290
     0
176
     1
290
     0
176
     1
290
     0
176
     1
290
     0
176
     1
290
     0
176
     1
 90
       50
176
     1
 40
0.0
176
     1
 40
1.0
176
     1
 90
        0
176
     1
 62
    18
420
        0
176
     1
 90
       50
176
     1
 90
        3
176
     1
 62
     5
420
      255
176
     1
290
     0
176
     1
 90
       50
176
     1
 90
       50
176
     1
 90
       50
176
     1
290
     0
176
     1
 90
       50
176
     1
 62
   256
176
     0
 40
1.0
176
     0
 90
        2
176
     1
  1
strokes_ogs.tif
176
     1
290
     0
176
     1
 40
1.0
176
     1
 40
1.0
176
     1
  0
VISUALSTYLE
  5
172
102
{ACAD_REACTORS
330
2A
102
}
330
2A
100
AcDbVisualStyle
  2
JitterOff
 70
    20
177
     3
291
     1
 70
    58
 90
        2
176
     0
 90
        2
176
     0
 90
        0
176
     0
 90
        0
176
     0
 40
0.6
176
     0
 40
30.0
176
     0
 62
     7
420
 16777215
176
     0
 90
        1
176
     0
 90
        4
176
     0
 62
     7
176
     0
 62
   257
176
     0
 90
        1
176
     0
 90
        1
176
     0
 40
1.0
176
     0
 90
       10
176
     2
 62
     7
176
     0
 40
1.0
176
     0
 90
        1
176
     0
 90
        6
176
     0
 90
        2
176
     0
 62
     7
176
     0
 90
        5
176
     0
 90
        0
176
     0
 90
        0
176
     0
290
     0
176
     0
 90
        1
176
     0
 40
0.0
176
     0
 90
        0
176
     0
290
     0
176
     1
290
     1
176
     1
290
     1
176
     1
290
     0
176
     1
290
     0
176
     1
290
     0
176
     1
290
     0
176
     1
290
     0
176
     1
290
     0
176
     1
 90
       50
176
     1
 40
0.0
176
     1
 40
1.0
176
     1
 90
        0
176
     1
 62
    18
420
        0
176
     1
 90
       50
176
     1
 90
        3
176
     1
 62
     5
420
      255
176
     1
290
     0
176
     1
 90
       50
176
     1
 90
       50
176
     1
 90
       50
176
     1
290
     0
176
     1
 90
       50
176
     1
 62
   256
176
     0
 40
1.0
176
     0
 90
        2
176
     1
  1
strokes_ogs.tif
176
     1
290
     0
176
     1
 40
1.0
176
     1
 40
1.0
176
     1
  0
VISUALSTYLE
  5
38
102
{ACAD_REACTORS
330
2A
102
}
330
2A
100
AcDbVisualStyle
  2
Linepattern
 70
    14
177
     3
291
     1
 70
    58
 90
        2
176
     1
 90
        2
176
     1
 90
        0
176
     1
 90
        0
176
     1
 40
0.6
176
     1
 40
30.0
176
     1
 62
     7
420
 16777215
176
     1
 90
        1
176
     1
 90
        4
176
     1
 62
     7
176
     1
 62
   257
176
     1
 90
        7
176
     1
 90
        7
176
     1
 40
1.0
176
     1
 90
        8
176
     1
 62
     7
176
     1
 40
1.0
176
     1
 90
        1
176
     1
 90
        6
176
     1
 90
        2
176
     1
 62
     7
176
     1
 90
        5
176
     1
 90
        0
176
     1
 90
        0
176
     1
290
     0
176
     1
 90
        1
176
     1
 40
0.0
176
     1
 90
        0
176
     1
290
     0
176
     1
290
     1
176
     1
290
     1
176
     1
290
     0
176
     1
290
     0
176
     1
290
     0
176
     1
290
     0
176
     1
290
     0
176
     1
290
     0
176
     1
 90
       50
176
     1
 40
0.0
176
     1
 40
1.0
176
     1
 90
        0
176
     1
 62
    18
420
        0
176
     1
 90
       50
176
     1
 90
        3
176
     1
 62
     5
420
      255
176
     1
290
     0
176
     1
 90
       50
176
     1
 90
       50
176
     1
 90
       50
176
     1
290
     0
176
     1
 90
       50
176
     1
 62
   256
176
     0
 40
1.0
176
     0
 90
        2
176
     1
  1
strokes_ogs.tif
176
     1
290
     0
176
     1
 40
1.0
176
     1
 40
1.0
176
     1
  0
VISUALSTYLE
  5
173
102
{ACAD_REACTORS
330
2A
102
}
330
2A
100
AcDbVisualStyle
  2
OverhangOff
 70
    21
177
     3
291
     1
 70
    58
 90
        2
176
     0
 90
        2
176
     0
 90
        0
176
     0
 90
        0
176
     0
 40
0.6
176
     0
 40
30.0
176
     0
 62
     7
420
 16777215
176
     0
 90
        1
176
     0
 90
        4
176
     0
 62
     7
176
     0
 62
   257
176
     0
 90
        1
176
     0
 90
        1
176
     0
 40
1.0
176
     0
 90
        9
176
     2
 62
     7
176
     0
 40
1.0
176
     0
 90
        1
176
     0
 90
        6
176
     0
 90
        2
176
     0
 62
     7
176
     0
 90
        5
176
     0
 90
        0
176
     0
 90
        0
176
     0
290
     0
176
     0
 90
        1
176
     0
 40
0.0
176
     0
 90
        0
176
     0
290
     0
176
     1
290
     1
176
     1
290
     1
176
     1
290
     0
176
     1
290
     0
176
     1
290
     0
176
     1
290
     0
176
     1
290
     0
176
     1
290
     0
176
     1
 90
       50
176
     1
 40
0.0
176
     1
 40
1.0
176
     1
 90
        0
176
     1
 62
    18
420
        0
176
     1
 90
       50
176
     1
 90
        3
176
     1
 62
     5
420
      255
176
     1
290
     0
176
     1
 90
       50
176
     1
 90
       50
176
     1
 90
       50
176
     1
290
     0
176
     1
 90
       50
176
     1
 62
   256
176
     0
 40
1.0
176
     0
 90
        2
176
     1
  1
strokes_ogs.tif
176
     1
290
     0
176
     1
 40
1.0
176
     1
 40
1.0
176
     1
  0
VISUALSTYLE
  5
33
102
{ACAD_REACTORS
330
2A
102
}
330
2A
100
AcDbVisualStyle
  2
Realistic
 70
     8
177
     3
291
     0
 70
    58
 90
        2
176
     1
 90
        2
176
     1
 90
        0
176
     1
 90
        0
176
     1
 40
0.6
176
     1
 40
30.0
176
     1
 62
     7
420
 16777215
176
     1
 90
        1
176
     1
 90
        0
176
     1
 62
     7
176
     1
 62
   257
176
     1
 90
        1
176
     1
 90
        1
176
     1
 40
1.0
176
     1
 90
        8
176
     1
 62
     8
420
  7895160
176
     1
 40
1.0
176
     1
 90
        1
176
     1
 90
        6
176
     1
 90
        2
176
     1
 62
     7
176
     1
 90
        5
176
     1
 90
        0
176
     1
 90
        0
176
     1
290
     0
176
     1
 90
       13
176
     1
 40
0.0
176
     1
 90
        0
176
     1
290
     0
176
     1
290
     1
176
     1
290
     1
176
     1
290
     0
176
     1
290
     0
176
     1
290
     0
176
     1
290
     0
176
     1
290
     0
176
     1
290
     0
176
     1
 90
       50
176
     1
 40
0.0
176
     1
 40
1.0
176
     1
 90
        0
176
     1
 62
    18
420
        0
176
     1
 90
       50
176
     1
 90
        3
176
     1
 62
     5
420
      255
176
     1
290
     0
176
     1
 90
       50
176
     1
 90
       50
176
     1
 90
       50
176
     1
290
     0
176
     1
 90
       50
176
     1
 62
   256
176
     0
 40
1.0
176
     0
 90
        2
176
     1
  1
strokes_ogs.tif
176
     1
290
     0
176
     1
 40
1.0
176
     1
 40
1.0
176
     1
  0
VISUALSTYLE
  5
2BE
102
{ACAD_REACTORS
330
2A
102
}
330
2A
100
AcDbVisualStyle
  2
Shaded
 70
    27
177
     3
291
     0
 70
    58
 90
        2
176
     1
 90
        2
176
     1
 90
        1
176
     1
 90
        2
176
     1
 40
0.6
176
     1
 40
30.0
176
     1
 62
     7
420
 16777215
176
     1
 90
        0
176
     1
 90
        4
176
     1
 62
     7
176
     1
 62
   257
176
     1
 90
        1
176
     1
 90
        1
176
     1
 40
1.0
176
     1
 90
        8
176
     1
 62
   257
176
     1
 40
1.0
176
     1
 90
        1
176
     1
 90
        6
176
     1
 90
        2
176
     1
 62
     8
420
  7895160
176
     1
 90
        3
176
     1
 90
        0
176
     1
 90
        0
176
     1
290
     0
176
     1
 90
        5
176
     1
 40
0.0
176
     1
 90
        0
176
     1
290
     0
176
     1
290
     1
176
     1
290
     1
176
     1
290
     0
176
     1
290
     0
176
     1
290
     0
176
     1
290
     0
176
     1
290
     0
176
     1
290
     0
176
     1
 90
       50
176
     1
 40
0.0
176
     1
 40
1.0
176
     1
 90
        0
176
     1
 62
    18
420
        0
176
     1
 90
       50
176
     1
 90
        3
176
     1
 62
     5
420
      255
176
     1
290
     0
176
     1
 90
       50
176
     1
 90
       50
176
     1
 90
       50
176
     1
290
     0
176
     1
 90
       50
176
     1
 62
   256
176
     0
 40
1.0
176
     0
 90
        2
176
     1
  1
strokes_ogs.tif
176
     1
290
     0
176
     1
 40
1.0
176
     1
 40
1.0
176
     1
  0
VISUALSTYLE
  5
2BD
102
{ACAD_REACTORS
330
2A
102
}
330
2A
100
AcDbVisualStyle
  2
Shaded with edges
 70
    26
177
     3
291
     0
 70
    58
 90
        2
176
     1
 90
        2
176
     1
 90
        1
176
     1
 90
        2
176
     1
 40
0.6
176
     1
 40
30.0
176
     1
 62
     7
420
 16777215
176
     1
 90
        1
176
     1
 90
        2
176
     1
 62
     7
176
     1
 62
   257
176
     1
 90
        2
176
     1
 90
        1
176
     1
 40
1.0
176
     1
 90
        8
176
     1
 62
   257
176
     1
 40
1.0
176
     1
 90
        1
176
     1
 90
        6
176
     1
 90
        2
176
     1
 62
     7
176
     1
 90
        3
176
     1
 90
        0
176
     1
 90
        0
176
     1
290
     0
176
     1
 90
        5
176
     1
 40
0.0
176
     1
 90
        0
176
     1
290
     0
176
     1
290
     1
176
     1
290
     1
176
     1
290
     0
176
     1
290
     0
176
     1
290
     0
176
     1
290
     0
176
     1
290
     0
176
     1
290
     0
176
     1
 90
       50
176
     1
 40
0.0
176
     1
 40
1.0
176
     1
 90
        0
176
     1
 62
    18
420
        0
176
     1
 90
       50
176
     1
 90
        3
176
     1
 62
     5
420
      255
176
     1
290
     0
176
     1
 90
       50
176
     1
 90
       50
176
     1
 90
       50
176
     1
290
     0
176
     1
 90
       50
176
     1
 62
   256
176
     0
 40
1.0
176
     0
 90
        2
176
     1
  1
strokes_ogs.tif
176
     1
290
     0
176
     1
 40
1.0
176
     1
 40
1.0
176
     1
  0
VISUALSTYLE
  5
2BA
102
{ACAD_REACTORS
330
2A
102
}
330
2A
100
AcDbVisualStyle
  2
Shades of Gray
 70
    23
177
     3
291
     0
 70
    58
 90
        2
176
     1
 90
        2
176
     1
 90
        3
176
     1
 90
        0
176
     1
 40
0.6
176
     1
 40
30.0
176
     1
 62
     7
420
 16777215
176
     1
 90
        2
176
     1
 90
        2
176
     1
 62
     7
176
     1
 62
     7
176
     1
 90
        1
176
     1
 90
        1
176
     1
 40
40.0
176
     1
 90
        8
176
     1
 62
     7
176
     1
 40
1.0
176
     1
 90
        1
176
     1
 90
        6
176
     1
 90
        2
176
     1
 62
     7
176
     1
 90
        3
176
     1
 90
        0
176
     1
 90
        0
176
     1
290
     0
176
     1
 90
        1
176
     1
 40
0.0
176
     1
 90
        0
176
     1
290
     0
176
     1
290
     1
176
     1
290
     1
176
     1
290
     0
176
     1
290
     0
176
     1
290
     0
176
     1
290
     0
176
     1
290
     0
176
     1
290
     0
176
     1
 90
       50
176
     1
 40
0.0
176
     1
 40
1.0
176
     1
 90
        0
176
     1
 62
    18
420
        0
176
     1
 90
       50
176
     1
 90
        3
176
     1
 62
     5
420
      255
176
     1
290
     0
176
     1
 90
       50
176
     1
 90
       50
176
     1
 90
       50
176
     1
290
     0
176
     1
 90
       50
176
     1
 62
   256
176
     0
 40
1.0
176
     0
 90
        2
176
     1
  1
strokes_ogs.tif
176
     1
290
     0
176
     1
 40
1.0
176
     1
 40
1.0
176
     1
  0
VISUALSTYLE
  5
2BB
102
{ACAD_REACTORS
330
2A
102
}
330
2A
100
AcDbVisualStyle
  2
Sketchy
 70
    24
177
     3
291
     0
 70
    58
 90
        1
176
     1
 90
        2
176
     1
 90
        2
176
     1
 90
        0
176
     1
 40
0.6
176
     1
 40
30.0
176
     1
 62
     7
420
 16777215
176
     1
 90
        2
176
     1
 90
        2
176
     1
 62
     7
176
     1
 62
     7
176
     1
 90
        1
176
     1
 90
        1
176
     1
 40
40.0
176
     1
 90
       11
176
     1
 62
     7
176
     1
 40
1.0
176
     1
 90
        1
176
     1
 90
        6
176
     1
 90
        2
176
     1
 62
     7
176
     1
 90
        6
176
     1
 90
        0
176
     1
 90
        0
176
     1
290
     0
176
     1
 90
        1
176
     1
 40
0.0
176
     1
 90
        0
176
     1
290
     0
176
     1
290
     1
176
     1
290
     1
176
     1
290
     0
176
     1
290
     0
176
     1
290
     0
176
     1
290
     0
176
     1
290
     0
176
     1
290
     0
176
     1
 90
       50
176
     1
 40
0.0
176
     1
 40
1.0
176
     1
 90
        0
176
     1
 62
    18
420
        0
176
     1
 90
       50
176
     1
 90
        3
176
     1
 62
     5
420
      255
176
     1
290
     0
176
     1
 90
       50
176
     1
 90
       50
176
     1
 90
       50
176
     1
290
     0
176
     1
 90
       50
176
     1
 62
   256
176
     0
 40
1.0
176
     0
 90
        2
176
     1
  1
strokes_ogs.tif
176
     1
290
     0
176
     1
 40
1.0
176
     1
 40
1.0
176
     1
  0
VISUALSTYLE
  5
37
102
{ACAD_REACTORS
330
2A
102
}
330
2A
100
AcDbVisualStyle
  2
Thicken
 70
    13
177
     3
291
     1
 70
    58
 90
        2
176
     1
 90
        2
176
     1
 90
        0
176
     1
 90
        0
176
     1
 40
0.6
176
     1
 40
30.0
176
     1
 62
     7
420
 16777215
176
     1
 90
        1
176
     1
 90
        4
176
     1
 62
     7
176
     1
 62
   257
176
     1
 90
        1
176
     1
 90
        1
176
     1
 40
1.0
176
     1
 90
       12
176
     1
 62
     7
176
     1
 40
1.0
176
     1
 90
        1
176
     1
 90
        6
176
     1
 90
        2
176
     1
 62
     7
176
     1
 90
        5
176
     1
 90
        0
176
     1
 90
        0
176
     1
290
     0
176
     1
 90
        1
176
     1
 40
0.0
176
     1
 90
        0
176
     1
290
     0
176
     1
290
     1
176
     1
290
     1
176
     1
290
     0
176
     1
290
     0
176
     1
290
     0
176
     1
290
     0
176
     1
290
     0
176
     1
290
     0
176
     1
 90
       50
176
     1
 40
0.0
176
     1
 40
1.0
176
     1
 90
        0
176
     1
 62
    18
420
        0
176
     1
 90
       50
176
     1
 90
        3
176
     1
 62
     5
420
      255
176
     1
290
     0
176
     1
 90
       50
176
     1
 90
       50
176
     1
 90
       50
176
     1
290
     0
176
     1
 90
       50
176
     1
 62
   256
176
     0
 40
1.0
176
     0
 90
        2
176
     1
  1
strokes_ogs.tif
176
     1
290
     0
176
     1
 40
1.0
176
     1
 40
1.0
176
     1
  0
VISUALSTYLE
  5
2B8
102
{ACAD_REACTORS
330
2A
102
}
330
2A
100
AcDbVisualStyle
  2
Wireframe
 70
     5
177
     3
291
     0
 70
    58
 90
        0
176
     1
 90
        2
176
     1
 90
        0
176
     1
 90
        0
176
     1
 40
0.6
176
     1
 40
30.0
176
     1
 62
     7
420
 16777215
176
     1
 90
        1
176
     1
 90
        4
176
     1
 62
     7
176
     1
 62
   257
176
     1
 90
        1
176
     1
 90
        1
176
     1
 40
1.0
176
     1
 90
        0
176
     1
 62
   257
176
     1
 40
1.0
176
     1
 90
        1
176
     1
 90
        6
176
     1
 90
        2
176
     1
 62
     7
176
     1
 90
        3
176
     1
 90
        0
176
     1
 90
        0
176
     1
290
     0
176
     1
 90
        1
176
     1
 40
0.0
176
     1
 90
        0
176
     1
290
     0
176
     1
290
     1
176
     1
290
     1
176
     1
290
     0
176
     1
290
     0
176
     1
290
     0
176
     1
290
     0
176
     1
290
     0
176
     1
290
     0
176
     1
 90
       50
176
     1
 40
0.0
176
     1
 40
1.0
176
     1
 90
        0
176
     1
 62
    18
420
        0
176
     1
 90
       50
176
     1
 90
        3
176
     1
 62
     5
420
      255
176
     1
290
     0
176
     1
 90
       50
176
     1
 90
       50
176
     1
 90
       50
176
     1
290
     0
176
     1
 90
       50
176
     1
 62
   256
176
     0
 40
1.0
176
     0
 90
        2
176
     1
  1
strokes_ogs.tif
176
     1
290
     0
176
     1
 40
1.0
176
     1
 40
1.0
176
     1
  0
VISUALSTYLE
  5
2BC
102
{ACAD_REACTORS
330
2A
102
}
330
2A
100
AcDbVisualStyle
  2
X-Ray
 70
    25
177
     3
291
     0
 70
    58
 90
        2
176
     1
 90
        2
176
     1
 90
        1
176
     1
 90
        1
176
     1
 40
0.5
176
     1
 40
30.0
176
     1
 62
     7
420
 16777215
176
     1
 90
        1
176
     1
 90
        0
176
     1
 62
     7
176
     1
 62
   257
176
     1
 90
        1
176
     1
 90
        1
176
     1
 40
1.0
176
     1
 90
        8
176
     1
 62
     7
176
     1
 40
1.0
176
     1
 90
        1
176
     1
 90
        6
176
     1
 90
        2
176
     1
 62
     7
176
     1
 90
        3
176
     1
 90
        0
176
     1
 90
        0
176
     1
290
     0
176
     1
 90
       13
176
     1
 40
0.0
176
     1
 90
        0
176
     1
290
     0
176
     1
290
     1
176
     1
290
     1
176
     1
290
     0
176
     1
290
     0
176
     1
290
     0
176
     1
290
     0
176
     1
290
     0
176
     1
290
     0
176
     1
 90
       50
176
     1
 40
0.0
176
     1
 40
1.0
176
     1
 90
        0
176
     1
 62
    18
420
        0
176
     1
 90
       50
176
     1
 90
        3
176
     1
 62
     5
420
      255
176
     1
290
     0
176
     1
 90
       50
176
     1
 90
       50
176
     1
 90
       50
176
     1
290
     0
176
     1
 90
       50
176
     1
 62
   256
176
     0
 40
1.0
176
     0
 90
        2
176
     1
  1
strokes_ogs.tif
176
     1
290
     0
176
     1
 40
1.0
176
     1
 40
1.0
176
     1
  0
DICTIONARYVAR
  5
1B1
102
{ACAD_REACTORS
330
1AD
102
}
330
1AD
100
DictionaryVariables
280
     0
  1
1:1
  0
DICTIONARYVAR
  5
1AF
102
{ACAD_REACTORS
330
1AD
102
}
330
1AD
100
DictionaryVariables
280
     0
  1
STANDARD
  0
DICTIONARYVAR
  5
1AE
102
{ACAD_REACTORS
330
1AD
102
}
330
1AD
100
DictionaryVariables
280
     0
  1
STANDARD
  0
DICTIONARYVAR
  5
315
102
{ACAD_REACTORS
330
1AD
102
}
330
1AD
100
DictionaryVariables
280
     0
  1
Imperial24
  0
DICTIONARYVAR
  5
316
102
{ACAD_REACTORS
330
1AD
102
}
330
1AD
100
DictionaryVariables
280
     0
  1
Imperial24
  0
DICTIONARYVAR
  5
1B3
102
{ACAD_REACTORS
330
1AD
102
}
330
1AD
100
DictionaryVariables
280
     0
  1
1
  0
DICTIONARYVAR
  5
1B4
102
{ACAD_REACTORS
330
1AD
102
}
330
1AD
100
DictionaryVariables
280
     0
  1
15
  0
DICTIONARYVAR
  5
1B2
102
{ACAD_REACTORS
330
1AD
102
}
330
1AD
100
DictionaryVariables
280
     0
  1
0
  0
DICTIONARYVAR
  5
1B0
102
{ACAD_REACTORS
330
1AD
102
}
330
1AD
100
DictionaryVariables
280
     0
  1
0
  0
DICTIONARY
  5
1AB
330
22
100
AcDbDictionary
280
     1
281
     1
  0
DICTIONARY
  5
163
330
162
100
AcDbDictionary
280
     1
281
     1
  3
BUMPTILE
360
165
  3
DIFFUSETILE
360
164
  3
OPACITYTILE
360
168
  3
REFLECTIONTILE
360
167
  3
REFRACTIONTILE
360
169
  3
SPECULARTILE
360
166
  0
DICTIONARY
  5
15B
330
15A
100
AcDbDictionary
280
     1
281
     1
  3
BUMPTILE
360
15D
  3
DIFFUSETILE
360
15C
  3
OPACITYTILE
360
160
  3
REFLECTIONTILE
360
15F
  3
REFRACTIONTILE
360
161
  3
SPECULARTILE
360
15E
  0
DICTIONARY
  5
16B
330
16A
100
AcDbDictionary
280
     1
281
     1
  3
BUMPTILE
360
16D
  3
DIFFUSETILE
360
16C
  3
OPACITYTILE
360
170
  3
REFLECTIONTILE
360
16F
  3
REFRACTIONTILE
360
171
  3
SPECULARTILE
360
16E
  0
DICTIONARY
  5
470
330
176
100
AcDbDictionary
280
     1
281
     1
  3
ACAD_ROUNDTRIP_2008_TABLESTYLE_CELLSTYLEMAP
360
471
  0
XRECORD
  5
165
102
{ACAD_REACTORS
330
163
102
}
330
163
100
AcDbXrecord
280
     1
270
     1
271
     1
  0
XRECORD
  5
164
102
{ACAD_REACTORS
330
163
102
}
330
163
100
AcDbXrecord
280
     1
270
     1
271
     1
  0
XRECORD
  5
168
102
{ACAD_REACTORS
330
163
102
}
330
163
100
AcDbXrecord
280
     1
270
     1
271
     1
  0
XRECORD
  5
167
102
{ACAD_REACTORS
330
163
102
}
330
163
100
AcDbXrecord
280
     1
270
     1
271
     1
  0
XRECORD
  5
169
102
{ACAD_REACTORS
330
163
102
}
330
163
100
AcDbXrecord
280
     1
270
     1
271
     1
  0
XRECORD
  5
166
102
{ACAD_REACTORS
330
163
102
}
330
163
100
AcDbXrecord
280
     1
270
     1
271
     1
  0
XRECORD
  5
15D
102
{ACAD_REACTORS
330
15B
102
}
330
15B
100
AcDbXrecord
280
     1
270
     1
271
     1
  0
XRECORD
  5
15C
102
{ACAD_REACTORS
330
15B
102
}
330
15B
100
AcDbXrecord
280
     1
270
     1
271
     1
  0
XRECORD
  5
160
102
{ACAD_REACTORS
330
15B
102
}
330
15B
100
AcDbXrecord
280
     1
270
     1
271
     1
  0
XRECORD
  5
15F
102
{ACAD_REACTORS
330
15B
102
}
330
15B
100
AcDbXrecord
280
     1
270
     1
271
     1
  0
XRECORD
  5
161
102
{ACAD_REACTORS
330
15B
102
}
330
15B
100
AcDbXrecord
280
     1
270
     1
271
     1
  0
XRECORD
  5
15E
102
{ACAD_REACTORS
330
15B
102
}
330
15B
100
AcDbXrecord
280
     1
270
     1
271
     1
  0
XRECORD
  5
16D
102
{ACAD_REACTORS
330
16B
102
}
330
16B
100
AcDbXrecord
280
     1
270
     1
271
     1
  0
XRECORD
  5
16C
102
{ACAD_REACTORS
330
16B
102
}
330
16B
100
AcDbXrecord
280
     1
270
     1
271
     1
  0
XRECORD
  5
170
102
{ACAD_REACTORS
330
16B
102
}
330
16B
100
AcDbXrecord
280
     1
270
     1
271
     1
  0
XRECORD
  5
16F
102
{ACAD_REACTORS
330
16B
102
}
330
16B
100
AcDbXrecord
280
     1
270
     1
271
     1
  0
XRECORD
  5
171
102
{ACAD_REACTORS
330
16B
102
}
330
16B
100
AcDbXrecord
280
     1
270
     1
271
     1
  0
XRECORD
  5
16E
102
{ACAD_REACTORS
330
16B
102
}
330
16B
100
AcDbXrecord
280
     1
270
     1
271
     1
  0
CELLSTYLEMAP
  5
471
102
{ACAD_REACTORS
330
470
102
}
330
470
100
AcDbCellStyleMap
 90
        3
300
CELLSTYLE
  1
TABLEFORMAT_BEGIN
 90
        5
170
     1
 91
        0
 92
    32768
 62
   257
 93
        1
300
CONTENTFORMAT
  1
CONTENTFORMAT_BEGIN
 90
        0
 91
        0
 92
      512
 93
        0
300

 40
0.0
140
1.0
 94
        5
 62
     0
340
11
144
0.25
309
CONTENTFORMAT_END
171
     0
 94
        0
309
TABLEFORMAT_END
  1
CELLSTYLE_BEGIN
 90
        1
 91
        1
300
_TITLE
309
CELLSTYLE_END
300
CELLSTYLE
  1
TABLEFORMAT_BEGIN
 90
        5
170
     1
 91
        0
 92
        0
 62
   257
 93
        1
300
CONTENTFORMAT
  1
CONTENTFORMAT_BEGIN
 90
        0
 91
        0
 92
      512
 93
        0
300

 40
0.0
140
1.0
 94
        5
 62
     0
340
11
144
0.18
309
CONTENTFORMAT_END
171
     0
 94
        0
309
TABLEFORMAT_END
  1
CELLSTYLE_BEGIN
 90
        2
 91
        1
300
_HEADER
309
CELLSTYLE_END
300
CELLSTYLE
  1
TABLEFORMAT_BEGIN
 90
        5
170
     1
 91
        0
 92
        0
 62
   257
 93
        1
300
CONTENTFORMAT
  1
CONTENTFORMAT_BEGIN
 90
        0
 91
        0
 92
      512
 93
        0
300

 40
0.0
140
1.0
 94
        2
 62
     0
340
11
144
0.18
309
CONTENTFORMAT_END
171
     0
 94
        0
309
TABLEFORMAT_END
  1
CELLSTYLE_BEGIN
 90
        3
 91
        2
300
_DATA
309
CELLSTYLE_END
  0
ENDSEC
  0
SECTION
  2
ACDSDATA
 70
     2
 71
     8
  0
ACDSSCHEMA
 90
        0
  1
AcDb_Thumbnail_Schema
  2
AcDbDs::ID
280
    10
 91
        8
  2
Thumbnail_Data
280
    15
 91
        0
101
ACDSRECORD
 95
        0
 90
        1
  2
AcDbDs::TreatedAsObjectData
280
     1
291
     1
101
ACDSRECORD
 95
        0
 90
        2
  2
AcDbDs::Legacy
280
     1
291
     1
101
ACDSRECORD
  1
AcDbDs::ID
 90
        3
  2
AcDs:Indexable
280
     1
291
     1
101
ACDSRECORD
  1
AcDbDs::ID
 90
        4
  2
AcDbDs::HandleAttribute
280
     7
282
     1
  0
ACDSSCHEMA
 90
        1
  1
AcDbDs::TreatedAsObjectDataSchema
  2
AcDbDs::TreatedAsObjectData
280
     1
 91
        0
  0
ACDSSCHEMA
 90
        2
  1
AcDbDs::LegacySchema
  2
AcDbDs::Legacy
280
     1
 91
        0
  0
ACDSSCHEMA
 90
        3
  1
AcDbDs::IndexedPropertySchema
  2
AcDs:Indexable
280
     1
 91
        0
  0
ACDSSCHEMA
 90
        4
  1
AcDbDs::HandleAttributeSchema
  2
AcDbDs::HandleAttribute
280
     7
 91
        1
284
     1
  0
ACDSRECORD
 90
        0
  2
AcDbDs::ID
280
    10
320
22
  2
Thumbnail_Data
280
    15
 94
     1244
310
89504E470D0A1A0A0000000D49484452000001000000006F08030000003479EE6F00000300504C5445212830FFFFFF2128300000000000000000000000000000000000000000000000000000330000660000990000CC0000FF0033000033330033660033990033CC0033FF0066000066330066660066990066CC0066FF0099
310
000099330099660099990099CC0099FF00CC0000CC3300CC6600CC9900CCCC00CCFF00FF0000FF3300FF6600FF9900FFCC00FFFF3300003300333300663300993300CC3300FF3333003333333333663333993333CC3333FF3366003366333366663366993366CC3366FF3399003399333399663399993399CC3399FF33CC00
310
33CC3333CC6633CC9933CCCC33CCFF33FF0033FF3333FF6633FF9933FFCC33FFFF6600006600336600666600996600CC6600FF6633006633336633666633996633CC6633FF6666006666336666666666996666CC6666FF6699006699336699666699996699CC6699FF66CC0066CC3366CC6666CC9966CCCC66CCFF66FF0066
310
FF3366FF6666FF9966FFCC66FFFF9900009900339900669900999900CC9900FF9933009933339933669933999933CC9933FF9966009966339966669966999966CC9966FF9999009999339999669999999999CC9999FF99CC0099CC3399CC6699CC9999CCCC99CCFF99FF0099FF3399FF6699FF9999FFCC99FFFFCC0000CC00
310
33CC0066CC0099CC00CCCC00FFCC3300CC3333CC3366CC3399CC33CCCC33FFCC6600CC6633CC6666CC6699CC66CCCC66FFCC9900CC9933CC9966CC9999CC99CCCC99FFCCCC00CCCC33CCCC66CCCC99CCCCCCCCCCFFCCFF00CCFF33CCFF66CCFF99CCFFCCCCFFFFFF0000FF0033FF0066FF0099FF00CCFF00FFFF3300FF3333
310
FF3366FF3399FF33CCFF33FFFF6600FF6633FF6666FF6699FF66CCFF66FFFF9900FF9933FF9966FF9999FF99CCFF99FFFFCC00FFCC33FFCC66FFCC99FFCCCCFFCCFFFFFF00FFFF33FFFF66FFFF99FFFFCCFFFFFF0000000D0D0D1A1A1A2828283535354343435050505D5D5D6B6B6B787878868686939393A1A1A1AEAEAEBB
310
BBBBC9C9C9D6D6D6E4E4E4F1F1F1FFFFFF0000000000000000000000000000000000000000000000000000000000002E4550F10000013F4944415478DAEDD84B928230140550F6BFDF37EF2A1A45485E025A8016E74C4449F85CF2C36100000000000000EE271604200080BB0D8202108000006F83377D2B1080006E1E0098
310
067F8D870670F02CF0F93F26BDE17ADB707EC2A02F00016C596BD4AEA3B130691FA973B2931741FDF364A78EC5473DAEA2DEFC3DCA9FD655BA65CF0860DCAE3780F4A2E279C531449A4D522486A2487EB8E3039836AB0D35EDA631572BEE6E75C4A81799763E6EFD79AA2B0268F4E56C788847BDF1912DDAD37F3AD3AEB1EA
310
B4B52C920D04ABB2C707102F8FB2ECAB69382F03442580B2599701E45DE08B02688C0173D3FDFA00BAF14C77DF9CEAD6F3C622807ADB680C82C3A983E0A69548EC0D60C7DD5D3D0B7403C866FB561748D70151990677AC032EF83BE8AD007E6A250847BE6375F67F7A14010800000000000000000080953F9DA23E78012B66
310
380000000049454E44AE426082AB0000000049454E44AE426082C3800F0C2BCF0295C67B6038BB7BA7A38E1821F03A65192FDDDD04C8EBC01300000000000000000000000000000000000000000086E60F507B0B34E031F6DA0000000049454E44AE426082
  0
ENDSEC
  0
EOF
