  0
SECTION
  2
HEADER
  9
$ACADVER
  1
AC1032
  9
$ACADMAINTVER
 90
       55
  9
$DWGCODEPAGE
  3
ANSI_1252
  9
$LASTSAVEDBY
  1
angus.staples
  9
$REQUIREDVERSIONS
160
                 0
  9
$INSBASE
 10
0.0
 20
0.0
 30
0.0
  9
$EXTMIN
 10
251.2396748748613
 20
-32.20860719241982
 30
0.0
  9
$EXTMAX
 10
14329.65312465272
 20
7938.211177855698
 30
0.0
  9
$LIMMIN
 10
0.0
 20
0.0
  9
$LIMMAX
 10
12.0
 20
9.0
  9
$ORTHOMODE
 70
     0
  9
$REGENMODE
 70
     1
  9
$FILLMODE
 70
     1
  9
$QTEXTMODE
 70
     0
  9
$MIRRTEXT
 70
     1
  9
$LTSCALE
 40
1.0
  9
$ATTMODE
 70
     1
  9
$TEXTSIZE
 40
0.2
  9
$TRACEWID
 40
0.05
  9
$TEXTSTYLE
  7
Standard
  9
$CLAYER
  8
Furniture
  9
$CELTYPE
  6
ByLayer
  9
$CECOLOR
 62
   256
  9
$CELTSCALE
 40
1.0
  9
$DISPSILH
 70
     0
  9
$DIMSCALE
 40
1.0
  9
$DIMASZ
 40
0.18
  9
$DIMEXO
 40
0.0625
  9
$DIMDLI
 40
0.38
  9
$DIMRND
 40
0.0
  9
$DIMDLE
 40
0.0
  9
$DIMEXE
 40
0.18
  9
$DIMTP
 40
0.0
  9
$DIMTM
 40
0.0
  9
$DIMTXT
 40
0.18
  9
$DIMCEN
 40
0.09
  9
$DIMTSZ
 40
0.0
  9
$DIMTOL
 70
     0
  9
$DIMLIM
 70
     0
  9
$DIMTIH
 70
     1
  9
$DIMTOH
 70
     1
  9
$DIMSE1
 70
     0
  9
$DIMSE2
 70
     0
  9
$DIMTAD
 70
     0
  9
$DIMZIN
 70
     0
  9
$DIMBLK
  1

  9
$DIMASO
 70
     1
  9
$DIMSHO
 70
     1
  9
$DIMPOST
  1

  9
$DIMAPOST
  1

  9
$DIMALT
 70
     0
  9
$DIMALTD
 70
     2
  9
$DIMALTF
 40
25.4
  9
$DIMLFAC
 40
1.0
  9
$DIMTOFL
 70
     0
  9
$DIMTVP
 40
0.0
  9
$DIMTIX
 70
     0
  9
$DIMSOXD
 70
     0
  9
$DIMSAH
 70
     0
  9
$DIMBLK1
  1

  9
$DIMBLK2
  1

  9
$DIMSTYLE
  2
Standard
  9
$DIMCLRD
 70
     0
  9
$DIMCLRE
 70
     0
  9
$DIMCLRT
 70
     0
  9
$DIMTFAC
 40
1.0
  9
$DIMGAP
 40
0.09
  9
$DIMJUST
 70
     0
  9
$DIMSD1
 70
     0
  9
$DIMSD2
 70
     0
  9
$DIMTOLJ
 70
     1
  9
$DIMTZIN
 70
     0
  9
$DIMALTZ
 70
     0
  9
$DIMALTTZ
 70
     0
  9
$DIMUPT
 70
     0
  9
$DIMDEC
 70
     4
  9
$DIMTDEC
 70
     4
  9
$DIMALTU
 70
     2
  9
$DIMALTTD
 70
     2
  9
$DIMTXSTY
  7
Standard
  9
$DIMAUNIT
 70
     0
  9
$DIMADEC
 70
     0
  9
$DIMALTRND
 40
0.0
  9
$DIMAZIN
 70
     0
  9
$DIMDSEP
 70
    46
  9
$DIMATFIT
 70
     3
  9
$DIMFRAC
 70
     0
  9
$DIMLDRBLK
  1

  9
$DIMLUNIT
 70
     2
  9
$DIMLWD
 70
    -2
  9
$DIMLWE
 70
    -2
  9
$DIMTMOVE
 70
     0
  9
$DIMFXL
 40
1.0
  9
$DIMFXLON
 70
     0
  9
$DIMJOGANG
 40
0.7853981633974483
  9
$DIMTFILL
 70
     0
  9
$DIMTFILLCLR
 70
     0
  9
$DIMARCSYM
 70
     0
  9
$DIMLTYPE
  6

  9
$DIMLTEX1
  6

  9
$DIMLTEX2
  6

  9
$DIMTXTDIRECTION
 70
     0
  9
$LUNITS
 70
     2
  9
$LUPREC
 70
     4
  9
$SKETCHINC
 40
0.1
  9
$FILLETRAD
 40
0.5
  9
$AUNITS
 70
     0
  9
$AUPREC
 70
     0
  9
$MENU
  1
.
  9
$ELEVATION
 40
0.0
  9
$PELEVATION
 40
0.0
  9
$THICKNESS
 40
0.0
  9
$LIMCHECK
 70
     0
  9
$CHAMFERA
 40
0.5
  9
$CHAMFERB
 40
0.5
  9
$CHAMFERC
 40
1.0
  9
$CHAMFERD
 40
0.0
  9
$SKPOLY
 70
     0
  9
$TDCREATE
 40
2457072.379131945
  9
$TDUCREATE
 40
2457071.920801852
  9
$TDUPDATE
 40
2458729.683946760
  9
$TDUUPDATE
 40
2458729.267280093
  9
$TDINDWG
 40
0.1373854977
  9
$TDUSRTIMER
 40
0.1373854977
  9
$USRTIMER
 70
     1
  9
$ANGBASE
 50
0.0
  9
$ANGDIR
 70
     0
  9
$PDMODE
 70
     0
  9
$PDSIZE
 40
0.0
  9
$PLINEWID
 40
0.0
  9
$SPLFRAME
 70
     0
  9
$SPLINETYPE
 70
     6
  9
$SPLINESEGS
 70
     8
  9
$HANDSEED
  5
CA3
  9
$SURFTAB1
 70
     6
  9
$SURFTAB2
 70
     6
  9
$SURFTYPE
 70
     6
  9
$SURFU
 70
     6
  9
$SURFV
 70
     6
  9
$UCSBASE
  2

  9
$UCSNAME
  2

  9
$UCSORG
 10
0.0
 20
0.0
 30
0.0
  9
$UCSXDIR
 10
1.0
 20
0.0
 30
0.0
  9
$UCSYDIR
 10
0.0
 20
1.0
 30
0.0
  9
$UCSORTHOREF
  2

  9
$UCSORTHOVIEW
 70
     0
  9
$UCSORGTOP
 10
0.0
 20
0.0
 30
0.0
  9
$UCSORGBOTTOM
 10
0.0
 20
0.0
 30
0.0
  9
$UCSORGLEFT
 10
0.0
 20
0.0
 30
0.0
  9
$UCSORGRIGHT
 10
0.0
 20
0.0
 30
0.0
  9
$UCSORGFRONT
 10
0.0
 20
0.0
 30
0.0
  9
$UCSORGBACK
 10
0.0
 20
0.0
 30
0.0
  9
$PUCSBASE
  2

  9
$PUCSNAME
  2

  9
$PUCSORG
 10
0.0
 20
0.0
 30
0.0
  9
$PUCSXDIR
 10
1.0
 20
0.0
 30
0.0
  9
$PUCSYDIR
 10
0.0
 20
1.0
 30
0.0
  9
$PUCSORTHOREF
  2

  9
$PUCSORTHOVIEW
 70
     0
  9
$PUCSORGTOP
 10
0.0
 20
0.0
 30
0.0
  9
$PUCSORGBOTTOM
 10
0.0
 20
0.0
 30
0.0
  9
$PUCSORGLEFT
 10
0.0
 20
0.0
 30
0.0
  9
$PUCSORGRIGHT
 10
0.0
 20
0.0
 30
0.0
  9
$PUCSORGFRONT
 10
0.0
 20
0.0
 30
0.0
  9
$PUCSORGBACK
 10
0.0
 20
0.0
 30
0.0
  9
$USERI1
 70
     0
  9
$USERI2
 70
     0
  9
$USERI3
 70
     0
  9
$USERI4
 70
     0
  9
$USERI5
 70
     0
  9
$USERR1
 40
0.0
  9
$USERR2
 40
0.0
  9
$USERR3
 40
0.0
  9
$USERR4
 40
0.0
  9
$USERR5
 40
0.0
  9
$WORLDVIEW
 70
     1
  9
$SHADEDGE
 70
     3
  9
$SHADEDIF
 70
    70
  9
$TILEMODE
 70
     1
  9
$MAXACTVP
 70
    64
  9
$PINSBASE
 10
0.0
 20
0.0
 30
0.0
  9
$PLIMCHECK
 70
     0
  9
$PEXTMIN
 10
1.000000000000000E+20
 20
1.000000000000000E+20
 30
1.000000000000000E+20
  9
$PEXTMAX
 10
-1.000000000000000E+20
 20
-1.000000000000000E+20
 30
-1.000000000000000E+20
  9
$PLIMMIN
 10
0.0
 20
0.0
  9
$PLIMMAX
 10
12.0
 20
9.0
  9
$UNITMODE
 70
     0
  9
$VISRETAIN
 70
     1
  9
$PLINEGEN
 70
     0
  9
$PSLTSCALE
 70
     1
  9
$TREEDEPTH
 70
  3020
  9
$CMLSTYLE
  2
Standard
  9
$CMLJUST
 70
     0
  9
$CMLSCALE
 40
1.0
  9
$PROXYGRAPHICS
 70
     1
  9
$MEASUREMENT
 70
     0
  9
$CELWEIGHT
370
    -1
  9
$ENDCAPS
280
     0
  9
$JOINSTYLE
280
     0
  9
$LWDISPLAY
290
     1
  9
$INSUNITS
 70
     1
  9
$HYPERLINKBASE
  1

  9
$STYLESHEET
  1

  9
$XEDIT
290
     1
  9
$CEPSNTYPE
380
     0
  9
$PSTYLEMODE
290
     1
  9
$FINGERPRINTGUID
  2
{79BD88E6-9BCF-408E-9AA7-345441631229}
  9
$VERSIONGUID
  2
{72F67AA0-C36F-804A-85C4-5BB3A05D3086}
  9
$EXTNAMES
290
     1
  9
$PSVPSCALE
 40
0.0
  9
$OLESTARTUP
290
     0
  9
$SORTENTS
280
   127
  9
$INDEXCTL
280
     0
  9
$HIDETEXT
280
     0
  9
$XCLIPFRAME
280
     2
  9
$HALOGAP
280
     0
  9
$OBSCOLOR
 70
   257
  9
$OBSLTYPE
280
     0
  9
$INTERSECTIONDISPLAY
280
     0
  9
$INTERSECTIONCOLOR
 70
   257
  9
$DIMASSOC
280
     1
  9
$PROJECTNAME
  1

  9
$CAMERADISPLAY
290
     0
  9
$LENSLENGTH
 40
50.0
  9
$CAMERAHEIGHT
 40
0.0
  9
$STEPSPERSEC
 40
2.0
  9
$STEPSIZE
 40
6.0
  9
$3DDWFPREC
 40
2.0
  9
$PSOLWIDTH
 40
0.25
  9
$PSOLHEIGHT
 40
4.0
  9
$LOFTANG1
 40
1.570796326794896
  9
$LOFTANG2
 40
1.570796326794896
  9
$LOFTMAG1
 40
0.0
  9
$LOFTMAG2
 40
0.0
  9
$LOFTPARAM
 70
     7
  9
$LOFTNORMALS
280
     1
  9
$LATITUDE
 40
37.795
  9
$LONGITUDE
 40
-122.394
  9
$NORTHDIRECTION
 40
0.0
  9
$TIMEZONE
 70
 -8000
  9
$LIGHTGLYPHDISPLAY
280
     1
  9
$TILEMODELIGHTSYNCH
280
     1
  9
$CMATERIAL
347
DD
  9
$SOLIDHIST
280
     0
  9
$SHOWHIST
280
     1
  9
$DWFFRAME
280
     2
  9
$DGNFRAME
280
     0
  9
$REALWORLDSCALE
290
     1
  9
$INTERFERECOLOR
 62
     1
  9
$INTERFEREOBJVS
345
33
  9
$INTERFEREVPVS
346
F5
  9
$CSHADOW
280
     0
  9
$SHADOWPLANELOCATION
 40
0.0
  0
ENDSEC
  0
SECTION
  2
CLASSES
  0
CLASS
  1
ACDBDICTIONARYWDFLT
  2
AcDbDictionaryWithDefault
  3
ObjectDBX Classes
 90
        0
 91
        1
280
     0
281
     0
  0
CLASS
  1
VISUALSTYLE
  2
AcDbVisualStyle
  3
ObjectDBX Classes
 90
     4095
 91
       26
280
     0
281
     0
  0
CLASS
  1
MATERIAL
  2
AcDbMaterial
  3
ObjectDBX Classes
 90
     1153
 91
        3
280
     0
281
     0
  0
CLASS
  1
TABLESTYLE
  2
AcDbTableStyle
  3
ObjectDBX Classes
 90
     4095
 91
        1
280
     0
281
     0
  0
CLASS
  1
SCALE
  2
AcDbScale
  3
ObjectDBX Classes
 90
     1153
 91
       17
280
     0
281
     0
  0
CLASS
  1
MLEADERSTYLE
  2
AcDbMLeaderStyle
  3
ACDB_MLEADERSTYLE_CLASS
 90
     4095
 91
        1
280
     0
281
     0
  0
CLASS
  1
ACDBSECTIONVIEWSTYLE
  2
AcDbSectionViewStyle
  3
ObjectDBX Classes
 90
     1025
 91
        1
280
     0
281
     0
  0
CLASS
  1
ACDBDETAILVIEWSTYLE
  2
AcDbDetailViewStyle
  3
ObjectDBX Classes
 90
     1025
 91
        1
280
     0
281
     0
  0
CLASS
  1
DICTIONARYVAR
  2
AcDbDictionaryVar
  3
ObjectDBX Classes
 90
        0
 91
        9
280
     0
281
     0
  0
CLASS
  1
CELLSTYLEMAP
  2
AcDbCellStyleMap
  3
ObjectDBX Classes
 90
     1152
 91
        2
280
     0
281
     0
  0
CLASS
  1
SORTENTSTABLE
  2
AcDbSortentsTable
  3
ObjectDBX Classes
 90
        0
 91
        0
280
     0
281
     0
  0
CLASS
  1
EXACXREFPANELOBJECT
  2
ExAcXREFPanelObject
  3
EXAC_ESW
 90
     1025
 91
        0
280
     0
281
     0
  0
CLASS
  1
NPOCOLLECTION
  2
AcDbImpNonPersistentObjectsCollection
  3
ObjectDBX Classes
 90
     1153
 91
        0
280
     0
281
     0
  0
ENDSEC
  0
SECTION
  2
TABLES
  0
TABLE
  2
VPORT
  5
8
102
{ACAD_XDICTIONARY
360
15D
102
}
330
0
100
AcDbSymbolTable
 70
     1
  0
VPORT
  5
29
330
8
100
AcDbSymbolTableRecord
100
AcDbViewportTableRecord
  2
*Active
 70
     0
 10
0.0
 20
0.0
 11
1.0
 21
1.0
 12
7459.272027908628
 22
3488.393589689496
 13
0.0
 23
0.0
 14
0.5
 24
0.5
 15
0.5
 25
0.5
 16
0.0
 26
0.0
 36
1.0
 17
223.999755859375
 27
-114.5
 37
0.0
 40
20274.32345711875
 41
2.292712066905615
 42
50.0
 43
0.0
 44
0.0
 50
0.0
 51
0.0
 71
     0
 72
   100
 73
     1
 74
     3
 75
     0
 76
     1
 77
     0
 78
     0
281
     0
 65
     1
110
0.0
120
0.0
130
0.0
111
1.0
121
0.0
131
0.0
112
0.0
122
1.0
132
0.0
 79
     0
146
0.0
348
2F
 60
     3
 61
     5
292
     1
282
     1
141
0.0
142
0.0
 63
   250
421
  3355443
1001
ACAD_NAV_VCDISPLAY
1070
     3
  0
ENDTAB
  0
TABLE
  2
LTYPE
  5
5
330
0
100
AcDbSymbolTable
 70
     2
  0
LTYPE
  5
14
330
5
100
AcDbSymbolTableRecord
100
AcDbLinetypeTableRecord
  2
ByBlock
 70
     0
  3

 72
    65
 73
     0
 40
0.0
  0
LTYPE
  5
15
330
5
100
AcDbSymbolTableRecord
100
AcDbLinetypeTableRecord
  2
ByLayer
 70
     0
  3

 72
    65
 73
     0
 40
0.0
  0
LTYPE
  5
16
330
5
100
AcDbSymbolTableRecord
100
AcDbLinetypeTableRecord
  2
Continuous
 70
     0
  3
Solid line
 72
    65
 73
     0
 40
0.0
  0
ENDTAB
  0
TABLE
  2
LAYER
  5
2
102
{ACAD_XDICTIONARY
360
135
102
}
330
0
100
AcDbSymbolTable
 70
     5
  0
LAYER
  5
10
102
{ACAD_XDICTIONARY
360
12A
102
}
330
2
100
AcDbSymbolTableRecord
100
AcDbLayerTableRecord
  2
0
 70
     0
 62
     7
  6
Continuous
370
    -3
390
F
347
ED
348
0
  0
LAYER
  5
3B
102
{ACAD_XDICTIONARY
360
12C
102
}
330
2
100
AcDbSymbolTableRecord
100
AcDbLayerTableRecord
  2
Furniture
 70
     0
 62
     7
  6
Continuous
370
    -3
390
F
347
ED
348
0
  0
LAYER
  5
11F
102
{ACAD_XDICTIONARY
360
12E
102
}
330
2
100
AcDbSymbolTableRecord
100
AcDbLayerTableRecord
  2
Text
 70
     0
 62
     7
  6
Continuous
370
    -3
390
F
347
ED
348
0
1001
AcAecLayerStandard
1000

1000

1001
AcCmTransparency
1071
        0
  0
LAYER
  5
122
102
{ACAD_XDICTIONARY
360
130
102
}
330
2
100
AcDbSymbolTableRecord
100
AcDbLayerTableRecord
  2
Dimension
 70
     0
 62
     7
  6
Continuous
370
    -3
390
F
347
ED
348
0
1001
AcAecLayerStandard
1000

1000

1001
AcCmTransparency
1071
        0
  0
LAYER
  5
21F
330
2
100
AcDbSymbolTableRecord
100
AcDbLayerTableRecord
  2
Lewis
 70
     0
 62
     7
  6
Continuous
370
    -3
390
F
347
ED
348
0
  0
ENDTAB
  0
TABLE
  2
STYLE
  5
3
330
0
100
AcDbSymbolTable
 70
     1
  0
STYLE
  5
11
330
3
100
AcDbSymbolTableRecord
100
AcDbTextStyleTableRecord
  2
Standard
 70
     0
 40
0.0
 41
1.000099999999999
 50
0.0
 71
     0
 42
0.2
  3
apercu_regular-webfont.ttf
  4

1001
ACAD
1000
Apercu
1071
        2
  0
ENDTAB
  0
TABLE
  2
VIEW
  5
6
330
0
100
AcDbSymbolTable
 70
     6
  0
ENDTAB
  0
TABLE
  2
UCS
  5
7
330
0
100
AcDbSymbolTable
 70
     0
  0
ENDTAB
  0
TABLE
  2
APPID
  5
9
330
0
100
AcDbSymbolTable
 70
     7
  0
APPID
  5
12
330
9
100
AcDbSymbolTableRecord
100
AcDbRegAppTableRecord
  2
ACAD
 70
     0
  0
APPID
  5
120
330
9
100
AcDbSymbolTableRecord
100
AcDbRegAppTableRecord
  2
AcAecLayerStandard
 70
     0
  0
APPID
  5
121
330
9
100
AcDbSymbolTableRecord
100
AcDbRegAppTableRecord
  2
AcCmTransparency
 70
     0
  0
APPID
  5
123
330
9
100
AcDbSymbolTableRecord
100
AcDbRegAppTableRecord
  2
ACAD_EXEMPT_FROM_CAD_STANDARDS
 70
     0
  0
APPID
  5
13B
330
9
100
AcDbSymbolTableRecord
100
AcDbRegAppTableRecord
  2
ACAD_NAV_VCDISPLAY
 70
     0
  0
APPID
  5
19B
330
9
100
AcDbSymbolTableRecord
100
AcDbRegAppTableRecord
  2
ACAD_MLEADERVER
 70
     0
  0
APPID
  5
C1D
330
9
100
AcDbSymbolTableRecord
100
AcDbRegAppTableRecord
  2
AcadAnnoPO
 70
     0
  0
ENDTAB
  0
TABLE
  2
DIMSTYLE
  5
A
330
0
100
AcDbSymbolTable
 70
     2
100
AcDbDimStyleTable
 71
     1
340
27
  0
DIMSTYLE
105
27
330
A
100
AcDbSymbolTableRecord
100
AcDbDimStyleTableRecord
  2
Standard
 70
     0
340
11
  0
ENDTAB
  0
TABLE
  2
BLOCK_RECORD
  5
1
330
0
100
AcDbSymbolTable
 70
     5
  0
BLOCK_RECORD
  5
1F
330
1
100
AcDbSymbolTableRecord
100
AcDbBlockTableRecord
  2
*Model_Space
340
22
 70
     0
280
     1
281
     0
  0
BLOCK_RECORD
  5
1B
330
1
100
AcDbSymbolTableRecord
100
AcDbBlockTableRecord
  2
*Paper_Space
340
1E
 70
     0
280
     1
281
     0
  0
BLOCK_RECORD
  5
23
330
1
100
AcDbSymbolTableRecord
100
AcDbBlockTableRecord
  2
*Paper_Space0
340
26
 70
     0
280
     1
281
     0
  0
BLOCK_RECORD
  5
45
330
1
100
AcDbSymbolTableRecord
100
AcDbBlockTableRecord
  2
block 2
340
0
 70
     0
280
     1
281
     0
  0
BLOCK_RECORD
  5
209
330
1
100
AcDbSymbolTableRecord
100
AcDbBlockTableRecord
  2
block 23
340
0
102
{BLKREFS
331
AA3
102
}
 70
     0
280
     1
281
     0
  0
BLOCK_RECORD
  5
214
330
1
100
AcDbSymbolTableRecord
100
AcDbBlockTableRecord
  2
block 28
340
0
102
{BLKREFS
331
B43
102
}
 70
     0
280
     1
281
     0
  0
ENDTAB
  0
ENDSEC
  0
SECTION
  2
BLOCKS
  0
BLOCK
  5
20
330
1F
100
AcDbEntity
  8
0
100
AcDbBlockBegin
  2
*Model_Space
 70
     0
 10
0.0
 20
0.0
 30
0.0
  3
*Model_Space
  1

  0
ENDBLK
  5
21
330
1F
100
AcDbEntity
  8
0
100
AcDbBlockEnd
  0
BLOCK
  5
1C
330
1B
100
AcDbEntity
 67
     1
  8
0
100
AcDbBlockBegin
  2
*Paper_Space
 70
     0
 10
0.0
 20
0.0
 30
0.0
  3
*Paper_Space
  1

  0
ENDBLK
  5
1D
330
1B
100
AcDbEntity
 67
     1
  8
0
100
AcDbBlockEnd
  0
BLOCK
  5
24
330
23
100
AcDbEntity
 67
     1
  8
0
100
AcDbBlockBegin
  2
*Paper_Space0
 70
     0
 10
0.0
 20
0.0
 30
0.0
  3
*Paper_Space0
  1

  0
ENDBLK
  5
25
330
23
100
AcDbEntity
 67
     1
  8
0
100
AcDbBlockEnd
  0
BLOCK
  5
47
330
45
100
AcDbEntity
  8
0
100
AcDbBlockBegin
  2
block 2
 70
     0
 10
0.0
 20
0.0
 30
0.0
  3
block 2
  1

  0
SPLINE
  5
49
330
45
100
AcDbEntity
  8
Furniture
 62
     7
370
     9
100
AcDbSpline
210
0.0
220
0.0
230
1.0
 70
    11
 71
     3
 72
    62
 73
    58
 74
     0
 42
0.000000001
 43
0.0000000001
 40
0.0
 40
0.0
 40
0.0
 40
0.0
 40
1.0
 40
1.0
 40
1.0
 40
2.0
 40
2.0
 40
2.0
 40
3.0
 40
3.0
 40
3.0
 40
4.0
 40
4.0
 40
4.0
 40
5.0
 40
5.0
 40
5.0
 40
6.0
 40
6.0
 40
6.0
 40
7.0
 40
7.0
 40
7.0
 40
8.0
 40
8.0
 40
8.0
 40
9.0
 40
9.0
 40
9.0
 40
10.0
 40
10.0
 40
10.0
 40
11.0
 40
11.0
 40
11.0
 40
12.0
 40
12.0
 40
12.0
 40
13.0
 40
13.0
 40
13.0
 40
14.0
 40
14.0
 40
14.0
 40
15.0
 40
15.0
 40
15.0
 40
16.0
 40
16.0
 40
16.0
 40
17.0
 40
17.0
 40
17.0
 40
18.0
 40
18.0
 40
18.0
 40
19.0
 40
19.0
 40
19.0
 40
19.0
 10
196.72802734375
 20
-123.013671875
 30
0.0
 10
196.72802734375
 20
-123.013671875
 30
0.0
 10
186.24755859375
 20
-122.5322265625
 30
0.0
 10
185.56201171875
 20
-123.837890625
 30
0.0
 10
184.87451171875
 20
-125.1416015625
 30
0.0
 10
183.98193359375
 20
-131.802734375
 30
0.0
 10
184.60107421875
 20
-134.6171875
 30
0.0
 10
185.21826171875
 20
-137.4326171875
 30
0.0
 10
186.45458984375
 20
-139.767578125
 30
0.0
 10
186.31591796875
 20
-141.140625
 30
0.0
 10
186.18115234375
 20
-142.513671875
 30
0.0
 10
186.18115234375
 20
-143.26953125
 30
0.0
 10
185.69873046875
 20
-143.26953125
 30
0.0
 10
185.21826171875
 20
-143.26953125
 30
0.0
 10
182.60888671875
 20
-143.1318359375
 30
0.0
 10
181.64794921875
 20
-144.57421875
 30
0.0
 10
180.68701171875
 20
-146.015625
 30
0.0
 10
180.54833984375
 20
-147.251953125
 30
0.0
 10
181.30419921875
 20
-148.212890625
 30
0.0
 10
182.06005859375
 20
-149.173828125
 30
0.0
 10
187.04443359375
 20
-153.6376953125
 30
0.0
 10
188.77490234375
 20
-153.84375
 30
0.0
 10
190.50537109375
 20
-154.0498046875
 30
0.0
 10
195.58740234375
 20
-154.5302734375
 30
0.0
 10
195.58740234375
 20
-154.5302734375
 30
0.0
 10
195.58740234375
 20
-154.5302734375
 30
0.0
 10
203.27685546875
 20
-154.32421875
 30
0.0
 10
204.51318359375
 20
-153.775390625
 30
0.0
 10
205.74951171875
 20
-153.2255859375
 30
0.0
 10
209.59326171875
 20
-150.2041015625
 30
0.0
 10
210.21240234375
 20
-149.2431640625
 30
0.0
 10
210.82958984375
 20
-148.28125
 30
0.0
 10
211.51708984375
 20
-147.1142578125
 30
0.0
 10
210.96630859375
 20
-145.947265625
 30
0.0
 10
210.96630859375
 20
-145.947265625
 30
0.0
 10
210.65966796875
 20
-144.986328125
 30
0.0
 10
209.62841796875
 20
-144.298828125
 30
0.0
 10
208.59912109375
 20
-143.6123046875
 30
0.0
 10
206.70654296875
 20
-143.310546875
 30
0.0
 10
206.70654296875
 20
-143.310546875
 30
0.0
 10
206.70654296875
 20
-143.310546875
 30
0.0
 10
206.36669921875
 20
-142.3076171875
 30
0.0
 10
206.40185546875
 20
-141.5869140625
 30
0.0
 10
206.43505859375
 20
-140.8662109375
 30
0.0
 10
206.74560546875
 20
-138.943359375
 30
0.0
 10
207.36279296875
 20
-137.9140625
 30
0.0
 10
207.97998046875
 20
-136.8828125
 30
0.0
 10
208.83935546875
 20
-134.1708984375
 30
0.0
 10
208.77099609375
 20
-132.0078125
 30
0.0
 10
208.70068359375
 20
-129.845703125
 30
0.0
 10
208.46044921875
 20
-125.279296875
 30
0.0
 10
208.46044921875
 20
-125.279296875
 30
0.0
 10
208.46044921875
 20
-125.279296875
 30
0.0
 10
208.46044921875
 20
-123.5966796875
 30
0.0
 10
205.20068359375
 20
-123.322265625
 30
0.0
 10
203.02685546875
 20
-123.138671875
 30
0.0
 10
196.72802734375
 20
-123.013671875
 30
0.0
 10
196.72802734375
 20
-123.013671875
 30
0.0
  0
SPLINE
  5
4A
330
45
100
AcDbEntity
  8
Furniture
 62
     7
370
     9
100
AcDbSpline
210
0.0
220
0.0
230
1.0
 70
     8
 71
     3
 72
    14
 73
    10
 74
     0
 42
0.000000001
 43
0.0000000001
 40
0.0
 40
0.0
 40
0.0
 40
0.0
 40
1.0
 40
1.0
 40
1.0
 40
2.0
 40
2.0
 40
2.0
 40
3.0
 40
3.0
 40
3.0
 40
3.0
 10
185.82177734375
 20
-143.244140625
 30
0.0
 10
185.82177734375
 20
-143.244140625
 30
0.0
 10
189.39208984375
 20
-143.984375
 30
0.0
 10
189.87451171875
 20
-145.4326171875
 30
0.0
 10
187.28857421875
 20
-145.76171875
 30
0.0
 10
186.30419921875
 20
-146.11328125
 30
0.0
 10
184.54052734375
 20
-146.427734375
 30
0.0
 10
182.74560546875
 20
-146.748046875
 30
0.0
 10
181.85302734375
 20
-147.1181640625
 30
0.0
 10
181.13232421875
 20
-147.962890625
 30
0.0
  0
SPLINE
  5
4B
330
45
100
AcDbEntity
  8
Furniture
 62
     7
370
     9
100
AcDbSpline
210
0.0
220
0.0
230
1.0
 70
     8
 71
     3
 72
    11
 73
     7
 74
     0
 42
0.000000001
 43
0.0000000001
 40
0.0
 40
0.0
 40
0.0
 40
0.0
 40
1.0
 40
1.0
 40
1.0
 40
2.0
 40
2.0
 40
2.0
 40
2.0
 10
206.70654296875
 20
-143.310546875
 30
0.0
 10
206.70654296875
 20
-143.310546875
 30
0.0
 10
203.44873046875
 20
-143.44140625
 30
0.0
 10
202.75146484375
 20
-145.923828125
 30
0.0
 10
203.72802734375
 20
-146.2109375
 30
0.0
 10
210.74560546875
 20
-147.390625
 30
0.0
 10
210.61669921875
 20
-148.580078125
 30
0.0
  0
POLYLINE
  5
4C
330
45
100
AcDbEntity
  8
Furniture
 62
     7
370
     9
100
AcDb2dPolyline
 66
     1
 10
0.0
 20
0.0
 30
0.0
  0
VERTEX
  5
4D
330
4C
100
AcDbEntity
  8
Furniture
 62
     7
370
     9
100
AcDbVertex
100
AcDb2dVertex
 10
202.75146484375
 20
-145.923828125
 30
0.0
  0
VERTEX
  5
4E
330
4C
100
AcDbEntity
  8
Furniture
 62
     7
370
     9
100
AcDbVertex
100
AcDb2dVertex
 10
189.87451171875
 20
-145.4326171875
 30
0.0
  0
SEQEND
  5
4F
330
4C
100
AcDbEntity
  8
Furniture
370
     9
  0
POLYLINE
  5
50
330
45
100
AcDbEntity
  8
Furniture
 62
     7
370
     9
100
AcDb2dPolyline
 66
     1
 10
0.0
 20
0.0
 30
0.0
  0
VERTEX
  5
51
330
50
100
AcDbEntity
  8
Furniture
 62
     7
370
     9
100
AcDbVertex
100
AcDb2dVertex
 10
182.76708984375
 20
-149.6708984375
 30
0.0
  0
VERTEX
  5
52
330
50
100
AcDbEntity
  8
Furniture
 62
     7
370
     9
100
AcDbVertex
100
AcDb2dVertex
 10
179.93115234375
 20
-165.962890625
 30
0.0
  0
VERTEX
  5
53
330
50
100
AcDbEntity
  8
Furniture
 62
     7
370
     9
100
AcDbVertex
100
AcDb2dVertex
 10
181.34912109375
 20
-165.962890625
 30
0.0
  0
VERTEX
  5
54
330
50
100
AcDbEntity
  8
Furniture
 62
     7
370
     9
100
AcDbVertex
100
AcDb2dVertex
 10
183.26123046875
 20
-156.658203125
 30
0.0
  0
VERTEX
  5
55
330
50
100
AcDbEntity
  8
Furniture
 62
     7
370
     9
100
AcDbVertex
100
AcDb2dVertex
 10
209.14794921875
 20
-156.830078125
 30
0.0
  0
VERTEX
  5
56
330
50
100
AcDbEntity
  8
Furniture
 62
     7
370
     9
100
AcDbVertex
100
AcDb2dVertex
 10
210.61865234375
 20
-165.9970703125
 30
0.0
  0
VERTEX
  5
57
330
50
100
AcDbEntity
  8
Furniture
 62
     7
370
     9
100
AcDbVertex
100
AcDb2dVertex
 10
212.20458984375
 20
-165.962890625
 30
0.0
  0
VERTEX
  5
58
330
50
100
AcDbEntity
  8
Furniture
 62
     7
370
     9
100
AcDbVertex
100
AcDb2dVertex
 10
209.58154296875
 20
-149.953125
 30
0.0
  0
SEQEND
  5
59
330
50
100
AcDbEntity
  8
Furniture
370
     9
  0
POLYLINE
  5
5A
330
45
100
AcDbEntity
  8
Furniture
370
     0
100
AcDb2dPolyline
 66
     1
 10
0.0
 20
0.0
 30
0.0
  0
VERTEX
  5
5B
330
5A
100
AcDbEntity
  8
Furniture
370
     0
100
AcDbVertex
100
AcDb2dVertex
 10
208.07958984375
 20
-151.2724609375
 30
0.0
  0
VERTEX
  5
D7
330
5A
100
AcDbEntity
  8
0
100
AcDbVertex
100
AcDb2dVertex
 10
208.07958984375
 20
-151.2724609375
 30
0.0
  0
SEQEND
  5
5C
330
5A
100
AcDbEntity
  8
Furniture
370
     0
  0
POLYLINE
  5
5D
330
45
100
AcDbEntity
  8
Furniture
 62
     7
370
     9
100
AcDb2dPolyline
 66
     1
 10
0.0
 20
0.0
 30
0.0
  0
VERTEX
  5
5E
330
5D
100
AcDbEntity
  8
Furniture
 62
     7
370
     9
100
AcDbVertex
100
AcDb2dVertex
 10
208.07958984375
 20
-151.2724609375
 30
0.0
  0
VERTEX
  5
5F
330
5D
100
AcDbEntity
  8
Furniture
 62
     7
370
     9
100
AcDbVertex
100
AcDb2dVertex
 10
208.73583984375
 20
-154.5302734375
 30
0.0
  0
VERTEX
  5
60
330
5D
100
AcDbEntity
  8
Furniture
 62
     7
370
     9
100
AcDbVertex
100
AcDb2dVertex
 10
183.63818359375
 20
-154.255859375
 30
0.0
  0
VERTEX
  5
61
330
5D
100
AcDbEntity
  8
Furniture
 62
     7
370
     9
100
AcDbVertex
100
AcDb2dVertex
 10
184.32373046875
 20
-151.0244140625
 30
0.0
  0
SEQEND
  5
62
330
5D
100
AcDbEntity
  8
Furniture
370
     9
  0
POLYLINE
  5
63
330
45
100
AcDbEntity
  8
Furniture
 62
     7
370
     9
100
AcDb2dPolyline
 66
     1
 10
0.0
 20
0.0
 30
0.0
  0
VERTEX
  5
64
330
63
100
AcDbEntity
  8
Furniture
 62
     7
370
     9
100
AcDbVertex
100
AcDb2dVertex
 10
209.47802734375
 20
-158.88671875
 30
0.0
  0
VERTEX
  5
65
330
63
100
AcDbEntity
  8
Furniture
 62
     7
370
     9
100
AcDbVertex
100
AcDb2dVertex
 10
205.64599609375
 20
-156.8076171875
 30
0.0
  0
SEQEND
  5
66
330
63
100
AcDbEntity
  8
Furniture
370
     9
  0
POLYLINE
  5
67
330
45
100
AcDbEntity
  8
Furniture
 62
     7
370
     9
100
AcDb2dPolyline
 66
     1
 10
0.0
 20
0.0
 30
0.0
  0
VERTEX
  5
68
330
67
100
AcDbEntity
  8
Furniture
 62
     7
370
     9
100
AcDbVertex
100
AcDb2dVertex
 10
186.48779296875
 20
-156.6806640625
 30
0.0
  0
VERTEX
  5
69
330
67
100
AcDbEntity
  8
Furniture
 62
     7
370
     9
100
AcDbVertex
100
AcDb2dVertex
 10
182.88037109375
 20
-158.51171875
 30
0.0
  0
SEQEND
  5
6A
330
67
100
AcDbEntity
  8
Furniture
370
     9
  0
SPLINE
  5
6B
330
45
100
AcDbEntity
  8
Furniture
 62
     7
370
     9
100
AcDbSpline
210
0.0
220
0.0
230
1.0
 70
     8
 71
     3
 72
    26
 73
    22
 74
     0
 42
0.000000001
 43
0.0000000001
 40
0.0
 40
0.0
 40
0.0
 40
0.0
 40
1.0
 40
1.0
 40
1.0
 40
2.0
 40
2.0
 40
2.0
 40
3.0
 40
3.0
 40
3.0
 40
4.0
 40
4.0
 40
4.0
 40
5.0
 40
5.0
 40
5.0
 40
6.0
 40
6.0
 40
6.0
 40
7.0
 40
7.0
 40
7.0
 40
7.0
 10
206.48388671875
 20
-140.828125
 30
0.0
 10
206.48388671875
 20
-140.828125
 30
0.0
 10
207.36279296875
 20
-140.828125
 30
0.0
 10
207.36279296875
 20
-140.828125
 30
0.0
 10
207.36279296875
 20
-140.828125
 30
0.0
 10
210.61865234375
 20
-141.1748046875
 30
0.0
 10
210.61865234375
 20
-141.1748046875
 30
0.0
 10
210.61865234375
 20
-141.1748046875
 30
0.0
 10
210.78466796875
 20
-141.318359375
 30
0.0
 10
210.69287109375
 20
-141.521484375
 30
0.0
 10
210.60107421875
 20
-141.724609375
 30
0.0
 10
210.07373046875
 20
-142.2734375
 30
0.0
 10
209.85693359375
 20
-142.341796875
 30
0.0
 10
209.64013671875
 20
-142.4111328125
 30
0.0
 10
209.13623046875
 20
-142.353515625
 30
0.0
 10
208.98779296875
 20
-142.341796875
 30
0.0
 10
208.83935546875
 20
-142.3310546875
 30
0.0
 10
207.94677734375
 20
-142.154296875
 30
0.0
 10
207.94677734375
 20
-142.154296875
 30
0.0
 10
207.94677734375
 20
-142.154296875
 30
0.0
 10
208.07373046875
 20
-143.712890625
 30
0.0
 10
208.07373046875
 20
-143.712890625
 30
0.0
  0
SPLINE
  5
6C
330
45
100
AcDbEntity
  8
Furniture
 62
     7
370
     9
100
AcDbSpline
210
0.0
220
0.0
230
1.0
 70
     8
 71
     3
 72
    26
 73
    22
 74
     0
 42
0.000000001
 43
0.0000000001
 40
0.0
 40
0.0
 40
0.0
 40
0.0
 40
1.0
 40
1.0
 40
1.0
 40
2.0
 40
2.0
 40
2.0
 40
3.0
 40
3.0
 40
3.0
 40
4.0
 40
4.0
 40
4.0
 40
5.0
 40
5.0
 40
5.0
 40
6.0
 40
6.0
 40
6.0
 40
7.0
 40
7.0
 40
7.0
 40
7.0
 10
186.28662109375
 20
-140.412109375
 30
0.0
 10
186.28662109375
 20
-140.412109375
 30
0.0
 10
185.51513671875
 20
-140.412109375
 30
0.0
 10
185.51513671875
 20
-140.412109375
 30
0.0
 10
185.51513671875
 20
-140.412109375
 30
0.0
 10
182.26123046875
 20
-140.7587890625
 30
0.0
 10
182.26123046875
 20
-140.7587890625
 30
0.0
 10
182.26123046875
 20
-140.7587890625
 30
0.0
 10
182.09326171875
 20
-140.90234375
 30
0.0
 10
182.18505859375
 20
-141.10546875
 30
0.0
 10
182.27685546875
 20
-141.30859375
 30
0.0
 10
182.80419921875
 20
-141.857421875
 30
0.0
 10
183.02099609375
 20
-141.92578125
 30
0.0
 10
183.23779296875
 20
-141.994140625
 30
0.0
 10
183.74169921875
 20
-141.9375
 30
0.0
 10
183.89013671875
 20
-141.92578125
 30
0.0
 10
184.04052734375
 20
-141.9140625
 30
0.0
 10
184.93115234375
 20
-141.73828125
 30
0.0
 10
184.93115234375
 20
-141.73828125
 30
0.0
 10
184.93115234375
 20
-141.73828125
 30
0.0
 10
184.81787109375
 20
-143.27734375
 30
0.0
 10
184.81787109375
 20
-143.27734375
 30
0.0
  0
SPLINE
  5
6D
330
45
100
AcDbEntity
  8
Furniture
 62
     7
370
     9
100
AcDbSpline
210
0.0
220
0.0
230
1.0
 70
     8
 71
     3
 72
    11
 73
     7
 74
     0
 42
0.000000001
 43
0.0000000001
 40
0.0
 40
0.0
 40
0.0
 40
0.0
 40
1.0
 40
1.0
 40
1.0
 40
2.0
 40
2.0
 40
2.0
 40
2.0
 10
184.52294921875
 20
-134.18359375
 30
0.0
 10
184.52294921875
 20
-134.18359375
 30
0.0
 10
190.99169921875
 20
-135.02734375
 30
0.0
 10
195.99365234375
 20
-135.15234375
 30
0.0
 10
200.99560546875
 20
-135.27734375
 30
0.0
 10
208.54052734375
 20
-134.443359375
 30
0.0
 10
208.54052734375
 20
-134.443359375
 30
0.0
  0
ENDBLK
  5
48
330
45
100
AcDbEntity
  8
0
100
AcDbBlockEnd
  0
BLOCK
  5
20A
330
209
100
AcDbEntity
  8
0
100
AcDbBlockBegin
  2
block 23
 70
     0
 10
0.0
 20
0.0
 30
0.0
  3
block 23
  1

  0
POLYLINE
  5
20B
330
209
100
AcDbEntity
  8
Lewis
 62
   250
420
  2301728
370
     9
100
AcDb2dPolyline
 66
     1
 10
0.0
 20
0.0
 30
0.0
  0
VERTEX
  5
20C
330
20B
100
AcDbEntity
  8
Lewis
 62
   250
420
  2301728
370
     9
100
AcDbVertex
100
AcDb2dVertex
 10
117.4470946972007
 20
387.9043157667392
 30
0.0
  0
VERTEX
  5
20D
330
20B
100
AcDbEntity
  8
0
100
AcDbVertex
100
AcDb2dVertex
 10
117.4470946972007
 20
387.9043157667392
 30
0.0
  0
SEQEND
  5
20E
330
20B
100
AcDbEntity
  8
Lewis
370
     9
  0
POLYLINE
  5
20F
330
209
100
AcDbEntity
  8
Lewis
 62
   250
420
  2301728
370
     9
100
AcDb2dPolyline
 66
     1
 10
0.0
 20
0.0
 30
0.0
  0
VERTEX
  5
210
330
20F
100
AcDbEntity
  8
Lewis
 62
   250
420
  2301728
370
     9
100
AcDbVertex
100
AcDb2dVertex
 10
117.2386664203431
 20
387.9039712571907
 30
0.0
  0
VERTEX
  5
211
330
20F
100
AcDbEntity
  8
0
100
AcDbVertex
100
AcDb2dVertex
 10
117.2386664203431
 20
387.9039712571907
 30
0.0
  0
SEQEND
  5
212
330
20F
100
AcDbEntity
  8
Lewis
370
     9
  0
ENDBLK
  5
213
330
209
100
AcDbEntity
  8
0
100
AcDbBlockEnd
  0
BLOCK
  5
215
330
214
100
AcDbEntity
  8
0
100
AcDbBlockBegin
  2
block 28
 70
     0
 10
0.0
 20
0.0
 30
0.0
  3
block 28
  1

  0
POLYLINE
  5
216
330
214
100
AcDbEntity
  8
Lewis
 62
   250
420
  2301728
370
     9
100
AcDb2dPolyline
 66
     1
 10
0.0
 20
0.0
 30
0.0
  0
VERTEX
  5
217
330
216
100
AcDbEntity
  8
Lewis
 62
   250
420
  2301728
370
     9
100
AcDbVertex
100
AcDb2dVertex
 10
117.430213729323
 20
412.9065794866171
 30
0.0
  0
VERTEX
  5
218
330
216
100
AcDbEntity
  8
0
100
AcDbVertex
100
AcDb2dVertex
 10
117.430213729323
 20
412.9065794866171
 30
0.0
  0
SEQEND
  5
219
330
216
100
AcDbEntity
  8
Lewis
370
     9
  0
POLYLINE
  5
21A
330
214
100
AcDbEntity
  8
Lewis
 62
   250
420
  2301728
370
     9
100
AcDb2dPolyline
 66
     1
 10
0.0
 20
0.0
 30
0.0
  0
VERTEX
  5
21B
330
21A
100
AcDbEntity
  8
Lewis
 62
   250
420
  2301728
370
     9
100
AcDbVertex
100
AcDb2dVertex
 10
117.2217854524654
 20
412.9065794866171
 30
0.0
  0
VERTEX
  5
21C
330
21A
100
AcDbEntity
  8
0
100
AcDbVertex
100
AcDb2dVertex
 10
117.2217854524654
 20
412.9065794866171
 30
0.0
  0
SEQEND
  5
21D
330
21A
100
AcDbEntity
  8
Lewis
370
     9
  0
ENDBLK
  5
21E
330
214
100
AcDbEntity
  8
0
100
AcDbBlockEnd
  0
ENDSEC
  0
SECTION
  2
ENTITIES
  0
MTEXT
  5
9F2
330
1F
100
AcDbEntity
  8
Text
100
AcDbMText
 10
276.1505726982214
 20
6059.675657031013
 30
0.0
 40
159.1890671824249
 41
0.0
 46
0.0
 71
     7
 72
     1
  1
Sofas and
 73
     1
 44
1.0
  0
MTEXT
  5
9F3
330
1F
100
AcDbEntity
  8
Text
100
AcDbMText
 10
276.1505726982214
 20
5674.096601571847
 30
0.0
 40
159.1890671824249
 41
0.0
 46
0.0
 71
     7
 72
     1
  1
Armchairs
 73
     1
 44
1.0
  0
MTEXT
  5
9F4
330
1F
100
AcDbEntity
  8
Text
100
AcDbMText
 10
276.1505726982214
 20
2412.650771278266
 30
0.0
 40
159.1890671824249
 41
0.0
 46
0.0
 71
     7
 72
     1
  1
Sofas 
 73
     1
 44
1.0
  0
MTEXT
  5
9F5
330
1F
100
AcDbEntity
  8
Text
100
AcDbMText
 10
276.1505726982214
 20
2027.0717158191
 30
0.0
 40
159.1890671824249
 41
0.0
 46
0.0
 71
     7
 72
     1
  1
deep (D)
 73
     1
 44
1.0
  0
POLYLINE
  5
9F6
330
1F
100
AcDbEntity
  8
Text
370
    20
100
AcDb2dPolyline
 66
     1
 10
0.0
 20
0.0
 30
0.0
  0
VERTEX
  5
9F7
330
9F6
100
AcDbEntity
  8
Text
370
    20
100
AcDbVertex
100
AcDb2dVertex
 10
276.1505726982214
 20
6616.500655996631
 30
0.0
  0
VERTEX
  5
9F8
330
9F6
100
AcDbEntity
  8
Text
370
    20
100
AcDbVertex
100
AcDb2dVertex
 10
14328.75353408308
 20
6616.500655996631
 30
0.0
  0
SEQEND
  5
9F9
330
9F6
100
AcDbEntity
  8
Text
370
    20
  0
MTEXT
  5
9FA
330
1F
100
AcDbEntity
  8
Text
100
AcDbMText
 10
276.1505726982214
 20
7758.983016333838
 30
0.0
 40
131.0968788561146
 41
0.0
 46
0.0
 71
     7
 72
     1
  1
LEWIS
 73
     1
 44
1.0
  0
MTEXT
  5
9FB
330
1F
100
AcDbEntity
  8
Text
100
AcDbMText
 10
276.1505726982214
 20
7392.688292819719
 30
0.0
 40
131.0968788561146
 41
0.0
 46
0.0
 71
     7
 72
     1
  1
—
 73
     1
 44
1.0
  0
MTEXT
  5
9FC
330
1F
100
AcDbEntity
  8
Text
100
AcDbMText
 10
276.1505726982214
 20
7007.109237360568
 30
0.0
 40
168.5531299578617
 41
0.0
 46
0.0
 71
     7
 72
     1
  1
DIMENSIONS 
 73
     1
 44
1.0
  0
MTEXT
  5
9FD
330
1F
100
AcDbEntity
  8
Text
100
AcDbMText
 10
6923.556619254123
 20
4749.242096092904
 30
0.0
 40
121.7328160806779
 41
0.0
 46
0.0
 71
     7
 72
     1
  1
LE107
 73
     1
 44
1.0
  0
MTEXT
  5
9FE
330
1F
100
AcDbEntity
  8
Dimension
100
AcDbMText
 10
7014.16877312144
 20
6056.649872730024
 30
0.0
 40
121.7328160806779
 41
0.0
 46
0.0
 71
     7
 72
     1
  1
\fApercu|b0|i0|c0|p34;\W1.0004;107
 73
     1
 44
1.0
  0
MTEXT
  5
9FF
330
1F
100
AcDbEntity
  8
Text
100
AcDbMText
 10
7177.453541933741
 20
2918.777073289344
 30
0.0
 40
121.7328160806779
 41
0.0
 46
0.0
 71
     7
 72
     1
  1
LE157
 73
     1
 44
1.0
  0
MTEXT
  5
A00
330
1F
100
AcDbEntity
  8
Dimension
100
AcDbMText
 10
7277.290975936522
 20
4200.620334565555
 30
0.0
 40
121.7328160806779
 41
0.0
 46
0.0
 71
     7
 72
     1
  1
\fApercu|b0|i0|c0|p34;\W1.0004;157
 73
     1
 44
1.0
  0
MTEXT
  5
A01
330
1F
100
AcDbEntity
  8
Text
100
AcDbMText
 10
9733.837838373098
 20
2918.777073289344
 30
0.0
 40
121.7328160806779
 41
0.0
 46
0.0
 71
     7
 72
     1
  1
LE187
 73
     1
 44
1.0
  0
MTEXT
  5
A02
330
1F
100
AcDbEntity
  8
Dimension
100
AcDbMText
 10
9864.444136734535
 20
4245.401942220389
 30
0.0
 40
121.7328160806779
 41
0.0
 46
0.0
 71
     7
 72
     1
  1
\fApercu|b0|i0|c0|p34;\W1.0004;187
 73
     1
 44
1.0
  0
MTEXT
  5
A03
330
1F
100
AcDbEntity
  8
Text
100
AcDbMText
 10
12633.96467933641
 20
2918.777073289344
 30
0.0
 40
121.7328160806779
 41
0.0
 46
0.0
 71
     7
 72
     1
  1
LE217
 73
     1
 44
1.0
  0
MTEXT
  5
A05
330
1F
100
AcDbEntity
  8
Text
100
AcDbMText
 10
9692.74096360035
 20
952.7031220800017
 30
0.0
 40
121.7328160806779
 41
0.0
 46
0.0
 71
     7
 72
     1
  1
LE187D
 73
     1
 44
1.0
  0
MTEXT
  5
A06
330
1F
100
AcDbEntity
  8
Text
100
AcDbMText
 10
12548.38205137384
 20
952.7031220800017
 30
0.0
 40
121.7328160806779
 41
0.0
 46
0.0
 71
     7
 72
     1
  1
LE217D
 73
     1
 44
1.0
  0
MTEXT
  5
A07
330
1F
100
AcDbEntity
  8
Dimension
100
AcDbMText
 10
12722.07551818155
 20
4222.726877637117
 30
0.0
 40
121.7328160806779
 41
0.0
 46
0.0
 71
     7
 72
     1
  1
\fApercu|b0|i0|c0|p34;\W1.0004;217
 73
     1
 44
1.0
  0
MTEXT
  5
A08
330
1F
100
AcDbEntity
  8
Dimension
100
AcDbMText
 10
3611.102789610806
 20
5407.383801386244
 30
0.0
 40
121.7328160806779
 41
0.0
 46
0.0
 71
     7
 72
     1
  1
\fApercu|b0|i0|c0|p34;\W1.0004;80
 73
     1
 44
1.0
  0
MTEXT
  5
A09
330
1F
100
AcDbEntity
  8
Dimension
100
AcDbMText
 10
5659.491521737604
 20
5189.876977900062
 30
0.0
 40
121.7328160806779
 41
0.0
 46
0.0
 71
     7
 72
     1
  1
\fApercu|b0|i0|c0|p34;\W1.0004;44
 73
     1
 44
1.0
  0
POLYLINE
  5
A2A
330
1F
100
AcDbEntity
  8
Furniture
370
     9
100
AcDb2dPolyline
 66
     1
 10
0.0
 20
0.0
 30
0.0
  0
VERTEX
  5
A2B
330
A2A
100
AcDbEntity
  8
Furniture
370
     9
100
AcDbVertex
100
AcDb2dVertex
 10
9317.436126834371
 20
1347.10401976787
 30
0.0
  0
VERTEX
  5
A2C
330
A2A
100
AcDbEntity
  8
Furniture
100
AcDbVertex
100
AcDb2dVertex
 10
9317.436126834371
 20
1347.10401976787
 30
0.0
  0
SEQEND
  5
A2D
330
A2A
100
AcDbEntity
  8
Furniture
370
     9
  0
POLYLINE
  5
A2E
330
1F
100
AcDbEntity
  8
Furniture
370
     9
100
AcDb2dPolyline
 66
     1
 10
0.0
 20
0.0
 30
0.0
  0
VERTEX
  5
A2F
330
A2E
100
AcDbEntity
  8
Furniture
370
     9
100
AcDbVertex
100
AcDb2dVertex
 10
9253.69293755998
 20
2128.939787286163
 30
0.0
  0
VERTEX
  5
A30
330
A2E
100
AcDbEntity
  8
Furniture
100
AcDbVertex
100
AcDb2dVertex
 10
9253.69293755998
 20
2128.939787286163
 30
0.0
  0
SEQEND
  5
A31
330
A2E
100
AcDbEntity
  8
Furniture
370
     9
  0
POLYLINE
  5
A32
330
1F
100
AcDbEntity
  8
Furniture
370
     9
100
AcDb2dPolyline
 66
     1
 10
0.0
 20
0.0
 30
0.0
  0
VERTEX
  5
A33
330
A32
100
AcDbEntity
  8
Furniture
370
     9
100
AcDbVertex
100
AcDb2dVertex
 10
9241.804967239565
 20
1350.250835440911
 30
0.0
  0
VERTEX
  5
A34
330
A32
100
AcDbEntity
  8
Furniture
100
AcDbVertex
100
AcDb2dVertex
 10
9241.804967239565
 20
1350.250835440911
 30
0.0
  0
SEQEND
  5
A35
330
A32
100
AcDbEntity
  8
Furniture
370
     9
  0
SPLINE
  5
A36
330
1F
100
AcDbEntity
  8
Furniture
370
     9
100
AcDbSpline
210
0.0
220
0.0
230
1.0
 70
     8
 71
     3
 72
    20
 73
    16
 74
     0
 42
0.000000001
 43
0.0000000001
 40
0.0
 40
0.0
 40
0.0
 40
0.0
 40
1.0
 40
1.0
 40
1.0
 40
2.0
 40
2.0
 40
2.0
 40
3.0
 40
3.0
 40
3.0
 40
4.0
 40
4.0
 40
4.0
 40
5.0
 40
5.0
 40
5.0
 40
5.0
 10
10720.59316668543
 20
1373.488858872591
 30
0.0
 10
10692.94422213938
 20
1347.937791441905
 30
0.0
 10
10697.51651841641
 20
1358.884406646426
 30
0.0
 10
10446.2553900613
 20
1358.884406646426
 30
0.0
 10
10317.15525988525
 20
1358.884406646426
 30
0.0
 10
10205.429855562
 20
1358.34648943735
 30
0.0
 10
10127.32427680551
 20
1357.862363949203
 30
0.0
 10
10127.32427680551
 20
1357.862363949203
 30
0.0
 10
9806.08011955076
 20
1357.996843251461
 30
0.0
 10
9806.08011955076
 20
1357.996843251461
 30
0.0
 10
9729.211750375057
 20
1358.427177018722
 30
0.0
 10
9624.425478048863
 20
1358.884406646426
 30
0.0
 10
9504.685107310601
 20
1358.884406646426
 30
0.0
 10
9253.423978955435
 20
1358.884406646426
 30
0.0
 10
9257.942483511586
 20
1347.937791441905
 30
0.0
 10
9230.347330686468
 20
1373.488858872591
 30
0.0
  0
POLYLINE
  5
A37
330
1F
100
AcDbEntity
  8
Furniture
370
     9
100
AcDb2dPolyline
 66
     1
 10
0.0
 20
0.0
 30
0.0
  0
VERTEX
  5
A38
330
A37
100
AcDbEntity
  8
Furniture
370
     9
100
AcDbVertex
100
AcDb2dVertex
 10
10633.50437053748
 20
1347.10401976787
 30
0.0
  0
VERTEX
  5
A39
330
A37
100
AcDbEntity
  8
Furniture
100
AcDbVertex
100
AcDb2dVertex
 10
10633.50437053748
 20
1347.10401976787
 30
0.0
  0
SEQEND
  5
A3A
330
A37
100
AcDbEntity
  8
Furniture
370
     9
  0
POLYLINE
  5
A3B
330
1F
100
AcDbEntity
  8
Furniture
370
     9
100
AcDb2dPolyline
 66
     1
 10
0.0
 20
0.0
 30
0.0
  0
VERTEX
  5
A3C
330
A3B
100
AcDbEntity
  8
Furniture
370
     9
100
AcDbVertex
100
AcDb2dVertex
 10
10875.35194773396
 20
2128.939787286163
 30
0.0
  0
VERTEX
  5
A3D
330
A3B
100
AcDbEntity
  8
Furniture
100
AcDbVertex
100
AcDb2dVertex
 10
10875.35194773396
 20
2128.939787286163
 30
0.0
  0
SEQEND
  5
A3E
330
A3B
100
AcDbEntity
  8
Furniture
370
     9
  0
POLYLINE
  5
A3F
330
1F
100
AcDbEntity
  8
Furniture
370
     9
100
AcDb2dPolyline
 66
     1
 10
0.0
 20
0.0
 30
0.0
  0
VERTEX
  5
A40
330
A3F
100
AcDbEntity
  8
Furniture
370
     9
100
AcDbVertex
100
AcDb2dVertex
 10
10709.13553013228
 20
1350.250835440911
 30
0.0
  0
VERTEX
  5
A41
330
A3F
100
AcDbEntity
  8
Furniture
100
AcDbVertex
100
AcDb2dVertex
 10
10709.13553013228
 20
1350.250835440911
 30
0.0
  0
SEQEND
  5
A42
330
A3F
100
AcDbEntity
  8
Furniture
370
     9
  0
SPLINE
  5
A43
330
1F
100
AcDbEntity
  8
Furniture
370
     9
100
AcDbSpline
210
0.0
220
0.0
230
1.0
 70
     8
 71
     3
 72
    50
 73
    46
 74
     0
 42
0.000000001
 43
0.0000000001
 40
0.0
 40
0.0
 40
0.0
 40
0.0
 40
1.0
 40
1.0
 40
1.0
 40
2.0
 40
2.0
 40
2.0
 40
3.0
 40
3.0
 40
3.0
 40
4.0
 40
4.0
 40
4.0
 40
5.0
 40
5.0
 40
5.0
 40
6.0
 40
6.0
 40
6.0
 40
7.0
 40
7.0
 40
7.0
 40
8.0
 40
8.0
 40
8.0
 40
9.0
 40
9.0
 40
9.0
 40
10.0
 40
10.0
 40
10.0
 40
11.0
 40
11.0
 40
11.0
 40
12.0
 40
12.0
 40
12.0
 40
13.0
 40
13.0
 40
13.0
 40
14.0
 40
14.0
 40
14.0
 40
15.0
 40
15.0
 40
15.0
 40
15.0
 10
10687.99538381596
 20
1988.543395719684
 30
0.0
 10
10687.99538381596
 20
1988.543395719684
 30
0.0
 10
10875.35194773396
 20
2102.447364739626
 30
0.0
 10
10875.35194773396
 20
2102.447364739626
 30
0.0
 10
10875.35194773396
 20
2102.447364739626
 30
0.0
 10
10901.60230753641
 20
1877.086950001034
 30
0.0
 10
10901.60230753641
 20
1795.753867990122
 30
0.0
 10
10901.60230753641
 20
1714.420785979197
 30
0.0
 10
10934.3614655686
 20
1299.552138486342
 30
0.0
 10
10918.60049134296
 20
1291.725443094419
 30
0.0
 10
10915.91090529762
 20
1290.380650071765
 30
0.0
 10
10752.81440750848
 20
1311.816650853088
 30
0.0
 10
10720.59316668543
 20
1353.397651113952
 30
0.0
 10
10720.59316668543
 20
1353.397651113952
 30
0.0
 10
10704.9935676225
 20
1347.10401976787
 30
0.0
 10
10704.9935676225
 20
1347.10401976787
 30
0.0
 10
10685.95129842149
 20
1338.362865120525
 30
0.0
 10
10489.39635022847
 20
1347.695728697832
 30
0.0
 10
10432.10816746281
 20
1347.10401976787
 30
0.0
 10
10399.88692663971
 20
1346.808165302882
 30
0.0
 10
10251.26040177455
 20
1347.130915628327
 30
0.0
 10
10127.27048508462
 20
1347.453665953759
 30
0.0
 10
10127.27048508462
 20
1347.453665953759
 30
0.0
 10
9806.133911271704
 20
1347.399874232859
 30
0.0
 10
9806.133911271704
 20
1347.399874232859
 30
0.0
 10
9685.963206766123
 20
1347.10401976787
 30
0.0
 10
9549.547402546748
 20
1346.808165302882
 30
0.0
 10
9518.832329909034
 20
1347.10401976787
 30
0.0
 10
9461.544147143381
 20
1347.695728697832
 30
0.0
 10
9264.935407229415
 20
1338.362865120525
 30
0.0
 10
9245.893138028455
 20
1347.10401976787
 30
0.0
 10
9245.893138028455
 20
1347.10401976787
 30
0.0
 10
9230.347330686468
 20
1353.397651113952
 30
0.0
 10
9230.347330686468
 20
1353.397651113952
 30
0.0
 10
9198.12608986337
 20
1311.816650853088
 30
0.0
 10
9035.029592074229
 20
1290.380650071765
 30
0.0
 10
9032.286214308006
 20
1291.725443094419
 30
0.0
 10
9016.579031803244
 20
1299.552138486342
 30
0.0
 10
9049.284398114549
 20
1714.420785979197
 30
0.0
 10
9049.284398114549
 20
1795.753867990122
 30
0.0
 10
9049.284398114549
 20
1877.086950001034
 30
0.0
 10
9075.588549637883
 20
2102.447364739626
 30
0.0
 10
9075.588549637883
 20
2102.447364739626
 30
0.0
 10
9075.588549637883
 20
2102.447364739626
 30
0.0
 10
9262.891321834999
 20
1988.543395719684
 30
0.0
 10
9262.891321834999
 20
1988.543395719684
 30
0.0
  0
SPLINE
  5
A44
330
1F
100
AcDbEntity
  8
Furniture
370
     9
100
AcDbSpline
210
0.0
220
0.0
230
1.0
 70
     8
 71
     3
 72
    38
 73
    34
 74
     0
 42
0.000000001
 43
0.0000000001
 40
0.0
 40
0.0
 40
0.0
 40
0.0
 40
1.0
 40
1.0
 40
1.0
 40
2.0
 40
2.0
 40
2.0
 40
3.0
 40
3.0
 40
3.0
 40
4.0
 40
4.0
 40
4.0
 40
5.0
 40
5.0
 40
5.0
 40
6.0
 40
6.0
 40
6.0
 40
7.0
 40
7.0
 40
7.0
 40
8.0
 40
8.0
 40
8.0
 40
9.0
 40
9.0
 40
9.0
 40
10.0
 40
10.0
 40
10.0
 40
11.0
 40
11.0
 40
11.0
 40
11.0
 10
10875.35194773396
 20
2102.447364739626
 30
0.0
 10
10875.35194773396
 20
2102.447364739626
 30
0.0
 10
10884.92687405536
 20
2145.534533185888
 30
0.0
 10
10894.93213414401
 20
2162.882363178291
 30
0.0
 10
10904.82981079084
 20
2180.230193170693
 30
0.0
 10
10934.84559105675
 20
2253.440725324693
 30
0.0
 10
10934.84559105675
 20
2253.440725324693
 30
0.0
 10
10934.84559105675
 20
2253.440725324693
 30
0.0
 10
10926.83062464168
 20
2258.255084345849
 30
0.0
 10
10900.52647311829
 20
2263.526672994693
 30
0.0
 10
10874.27611331584
 20
2268.771365783123
 30
0.0
 10
10918.00878241298
 20
2283.375818009274
 30
0.0
 10
10236.57526196703
 20
2288.997052844021
 30
0.0
 10
10198.11418151874
 20
2289.292907309009
 30
0.0
 10
10161.64339474397
 20
2289.56186591354
 30
0.0
 10
10127.27048508462
 20
2289.830824518071
 30
0.0
 10
10127.27048508462
 20
2289.830824518071
 30
0.0
 10
9806.08011955076
 20
2289.696345215813
 30
0.0
 10
9806.08011955076
 20
2289.696345215813
 30
0.0
 10
9776.925006819315
 20
2289.454282471725
 30
0.0
 10
9746.371309344315
 20
2289.239115588109
 30
0.0
 10
9714.257651963045
 20
2288.997052844021
 30
0.0
 10
9032.931714958868
 20
2283.375818009274
 30
0.0
 10
9076.664384056007
 20
2268.771365783123
 30
0.0
 10
9050.360232532614
 20
2263.526672994693
 30
0.0
 10
9024.056081009279
 20
2258.255084345849
 30
0.0
 10
9016.094906315098
 20
2253.440725324693
 30
0.0
 10
9016.094906315098
 20
2253.440725324693
 30
0.0
 10
9016.094906315098
 20
2253.440725324693
 30
0.0
 10
9046.110686581007
 20
2180.230193170693
 30
0.0
 10
9056.008363227833
 20
2162.882363178291
 30
0.0
 10
9066.013623316489
 20
2145.534533185888
 30
0.0
 10
9075.588549637883
 20
2102.447364739626
 30
0.0
 10
9075.588549637883
 20
2102.447364739626
 30
0.0
  0
SPLINE
  5
A45
330
1F
100
AcDbEntity
  8
Furniture
370
     9
100
AcDbSpline
210
0.0
220
0.0
230
1.0
 70
     9
 71
     3
 72
   101
 73
    97
 74
     0
 42
0.000000001
 43
0.0000000001
 40
0.0
 40
0.0
 40
0.0
 40
0.0
 40
1.0
 40
1.0
 40
1.0
 40
2.0
 40
2.0
 40
2.0
 40
3.0
 40
3.0
 40
3.0
 40
4.0
 40
4.0
 40
4.0
 40
5.0
 40
5.0
 40
5.0
 40
6.0
 40
6.0
 40
6.0
 40
7.0
 40
7.0
 40
7.0
 40
8.0
 40
8.0
 40
8.0
 40
9.0
 40
9.0
 40
9.0
 40
10.0
 40
10.0
 40
10.0
 40
11.0
 40
11.0
 40
11.0
 40
12.0
 40
12.0
 40
12.0
 40
13.0
 40
13.0
 40
13.0
 40
14.0
 40
14.0
 40
14.0
 40
15.0
 40
15.0
 40
15.0
 40
16.0
 40
16.0
 40
16.0
 40
17.0
 40
17.0
 40
17.0
 40
18.0
 40
18.0
 40
18.0
 40
19.0
 40
19.0
 40
19.0
 40
20.0
 40
20.0
 40
20.0
 40
21.0
 40
21.0
 40
21.0
 40
22.0
 40
22.0
 40
22.0
 40
23.0
 40
23.0
 40
23.0
 40
24.0
 40
24.0
 40
24.0
 40
25.0
 40
25.0
 40
25.0
 40
26.0
 40
26.0
 40
26.0
 40
27.0
 40
27.0
 40
27.0
 40
28.0
 40
28.0
 40
28.0
 40
29.0
 40
29.0
 40
29.0
 40
30.0
 40
30.0
 40
30.0
 40
31.0
 40
31.0
 40
31.0
 40
32.0
 40
32.0
 40
32.0
 40
32.0
 10
9823.616220566336
 20
2271.165097363471
 30
0.0
 10
9770.954125798724
 20
2270.976826340284
 30
0.0
 10
9717.646530380189
 20
2271.165097363471
 30
0.0
 10
9666.167853472472
 20
2272.509890386126
 30
0.0
 10
9569.611714444945
 20
2275.172580571005
 30
0.0
 10
9476.390662113621
 20
2264.118381924683
 30
0.0
 10
9417.273560837209
 20
2263.230818529719
 30
0.0
 10
9358.102667839798
 20
2262.343255134769
 30
0.0
 10
9342.072735009606
 20
2264.199069506041
 30
0.0
 10
9302.643403585019
 20
2263.230818529719
 30
0.0
 10
9263.160280439544
 20
2262.181879972039
 30
0.0
 10
9176.985943546991
 20
2259.384710484887
 30
0.0
 10
9135.566318448873
 20
2258.308876066763
 30
0.0
 10
9094.039109908925
 20
2257.233041648611
 30
0.0
 10
9040.892889653049
 20
2250.697347558457
 30
0.0
 10
9036.374385096896
 20
2241.983088771584
 30
0.0
 10
9031.802088819858
 20
2233.241934124238
 30
0.0
 10
9082.420098193056
 20
2172.215226755583
 30
0.0
 10
9092.586733444369
 20
2092.092458465082
 30
0.0
 10
9092.586733444369
 20
2092.092458465082
 30
0.0
 10
9076.664384056007
 20
2042.496491789108
 30
0.0
 10
9075.588549637883
 20
1988.543395719684
 30
0.0
 10
9074.405131777931
 20
1934.590299650288
 30
0.0
 10
9065.690872991057
 20
1877.920721675098
 30
0.0
 10
9063.485412433868
 20
1803.822626126133
 30
0.0
 10
9061.279951876734
 20
1729.697634716711
 30
0.0
 10
9059.128283040431
 20
1651.215513913852
 30
0.0
 10
9054.771153646994
 20
1588.010241848478
 30
0.0
 10
9050.360232532614
 20
1524.778073922676
 30
0.0
 10
9046.003103139236
 20
1478.97442357062
 30
0.0
 10
9046.003103139236
 20
1426.661974988852
 30
0.0
 10
9046.003103139236
 20
1374.376422267556
 30
0.0
 10
9046.003103139236
 20
1306.787124948303
 30
0.0
 10
9046.003103139236
 20
1306.787124948303
 30
0.0
 10
9046.003103139236
 20
1306.787124948303
 30
0.0
 10
9051.597442113511
 20
1304.393393367954
 30
0.0
 10
9146.432246071993
 20
1330.77823247269
 30
0.0
 10
9241.267050030474
 20
1357.136175716969
 30
0.0
 10
9264.451281741269
 20
1416.011214249334
 30
0.0
 10
9269.884245552828
 20
1449.03933088604
 30
0.0
 10
9290.594058101946
 20
1577.117418364873
 30
0.0
 10
9262.891321834999
 20
1988.543395719684
 30
0.0
 10
9262.891321834999
 20
1988.543395719684
 30
0.0
 10
9262.891321834999
 20
1988.543395719684
 30
0.0
 10
9549.601194267635
 20
2000.054823993738
 30
0.0
 10
9806.026327829874
 20
2007.827727664746
 30
0.0
 10
9806.026327829874
 20
2007.827727664746
 30
0.0
 10
10127.32427680551
 20
2008.338749013365
 30
0.0
 10
10127.32427680551
 20
2008.338749013365
 30
0.0
 10
10388.05274804024
 20
2000.5927412028
 30
0.0
 10
10687.99538381596
 20
1988.543395719684
 30
0.0
 10
10687.99538381596
 20
1988.543395719684
 30
0.0
 10
10687.99538381596
 20
1988.543395719684
 30
0.0
 10
10660.29264754901
 20
1577.117418364873
 30
0.0
 10
10681.05625181902
 20
1449.03933088604
 30
0.0
 10
10686.38163218875
 20
1416.011214249334
 30
0.0
 10
10709.61965562043
 20
1357.136175716969
 30
0.0
 10
10804.50825129985
 20
1330.77823247269
 30
0.0
 10
10899.34305525834
 20
1304.393393367954
 30
0.0
 10
10904.93739423261
 20
1306.787124948303
 30
0.0
 10
10904.93739423261
 20
1306.787124948303
 30
0.0
 10
10904.93739423261
 20
1306.787124948303
 30
0.0
 10
10904.93739423261
 20
1374.376422267556
 30
0.0
 10
10904.93739423261
 20
1426.661974988852
 30
0.0
 10
10904.93739423261
 20
1478.97442357062
 30
0.0
 10
10900.52647311829
 20
1524.778073922676
 30
0.0
 10
10896.16934372485
 20
1588.010241848478
 30
0.0
 10
10891.75842261053
 20
1651.215513913852
 30
0.0
 10
10889.60675377423
 20
1729.697634716711
 30
0.0
 10
10887.45508493798
 20
1803.822626126133
 30
0.0
 10
10885.24962438079
 20
1877.920721675098
 30
0.0
 10
10876.53536559392
 20
1934.590299650288
 30
0.0
 10
10875.35194773396
 20
1988.543395719684
 30
0.0
 10
10874.22232159495
 20
2042.496491789108
 30
0.0
 10
10858.35376392748
 20
2092.092458465082
 30
0.0
 10
10858.35376392748
 20
2092.092458465082
 30
0.0
 10
10868.4666074579
 20
2172.215226755583
 30
0.0
 10
10919.0846168311
 20
2233.241934124238
 30
0.0
 10
10914.56611227495
 20
2241.983088771584
 30
0.0
 10
10909.99381599785
 20
2250.697347558457
 30
0.0
 10
10856.90138746298
 20
2257.233041648611
 30
0.0
 10
10815.37417892303
 20
2258.308876066763
 30
0.0
 10
10773.90076210397
 20
2259.384710484887
 30
0.0
 10
10687.72642521142
 20
2262.181879972039
 30
0.0
 10
10648.29709378683
 20
2263.230818529719
 30
0.0
 10
10608.8139706413
 20
2264.199069506041
 30
0.0
 10
10592.83782953205
 20
2262.343255134769
 30
0.0
 10
10533.66693653464
 20
2263.230818529719
 30
0.0
 10
10474.54983525823
 20
2264.118381924683
 30
0.0
 10
10381.27499120601
 20
2275.172580571005
 30
0.0
 10
10284.71885217849
 20
2272.509890386126
 30
0.0
 10
10233.29396699172
 20
2271.165097363471
 30
0.0
 10
10179.87878813135
 20
2270.976826340284
 30
0.0
 10
10127.32427680551
 20
2271.165097363471
 30
0.0
 10
10127.32427680551
 20
2271.165097363471
 30
0.0
 10
9823.616220566336
 20
2271.165097363471
 30
0.0
 10
9823.616220566336
 20
2271.165097363471
 30
0.0
  0
POLYLINE
  5
A46
330
1F
100
AcDbEntity
  8
Furniture
370
     9
100
AcDb2dPolyline
 66
     1
 10
0.0
 20
0.0
 30
0.0
  0
VERTEX
  5
A47
330
A46
100
AcDbEntity
  8
Furniture
370
     9
100
AcDbVertex
100
AcDb2dVertex
 10
12042.12127006054
 20
1324.134954940691
 30
0.0
  0
VERTEX
  5
A48
330
A46
100
AcDbEntity
  8
Furniture
100
AcDbVertex
100
AcDb2dVertex
 10
12042.12127006054
 20
1324.134954940691
 30
0.0
  0
SEQEND
  5
A49
330
A46
100
AcDbEntity
  8
Furniture
370
     9
  0
POLYLINE
  5
A4E
330
1F
100
AcDbEntity
  8
Furniture
370
     9
100
AcDb2dPolyline
 66
     1
 10
0.0
 20
0.0
 30
0.0
  0
VERTEX
  5
A4F
330
A4E
100
AcDbEntity
  8
Furniture
370
     9
100
AcDbVertex
100
AcDb2dVertex
 10
11966.49011046574
 20
1327.362458195104
 30
0.0
  0
VERTEX
  5
A50
330
A4E
100
AcDbEntity
  8
Furniture
100
AcDbVertex
100
AcDb2dVertex
 10
11966.49011046574
 20
1327.362458195104
 30
0.0
  0
SEQEND
  5
A51
330
A4E
100
AcDbEntity
  8
Furniture
370
     9
  0
SPLINE
  5
A52
330
1F
100
AcDbEntity
  8
Furniture
370
     9
100
AcDbSpline
210
0.0
220
0.0
230
1.0
 70
     8
 71
     3
 72
    20
 73
    16
 74
     0
 42
0.000000001
 43
0.0000000001
 40
0.0
 40
0.0
 40
0.0
 40
0.0
 40
1.0
 40
1.0
 40
1.0
 40
2.0
 40
2.0
 40
2.0
 40
3.0
 40
3.0
 40
3.0
 40
4.0
 40
4.0
 40
4.0
 40
5.0
 40
5.0
 40
5.0
 40
5.0
 10
13698.10359298821
 20
1351.084607114961
 30
0.0
 10
13670.4546484422
 20
1324.995622475213
 30
0.0
 10
13675.0269447193
 20
1336.15740456335
 30
0.0
 10
13450.11956479319
 20
1336.15740456335
 30
0.0
 10
13323.65522894153
 20
1336.15740456335
 30
0.0
 10
13213.86632657098
 20
1335.619487354288
 30
0.0
 10
13136.02970641899
 20
1335.189153587042
 30
0.0
 10
13136.02970641899
 20
1335.189153587042
 30
0.0
 10
12548.35515551339
 20
1335.135361866127
 30
0.0
 10
12548.35515551339
 20
1335.135361866127
 30
0.0
 10
12470.24957675691
 20
1335.619487354288
 30
0.0
 10
12358.52417243372
 20
1336.15740456335
 30
0.0
 10
12229.42404225766
 20
1336.15740456335
 30
0.0
 10
11978.16291390249
 20
1336.15740456335
 30
0.0
 10
11982.68141845864
 20
1324.995622475213
 30
0.0
 10
11955.08626563353
 20
1351.084607114961
 30
0.0
  0
POLYLINE
  5
A53
330
1F
100
AcDbEntity
  8
Furniture
370
     9
100
AcDb2dPolyline
 66
     1
 10
0.0
 20
0.0
 30
0.0
  0
VERTEX
  5
A54
330
A53
100
AcDbEntity
  8
Furniture
370
     9
100
AcDbVertex
100
AcDb2dVertex
 10
13611.01479684031
 20
1324.134954940691
 30
0.0
  0
VERTEX
  5
A55
330
A53
100
AcDbEntity
  8
Furniture
100
AcDbVertex
100
AcDb2dVertex
 10
13611.01479684031
 20
1324.134954940691
 30
0.0
  0
SEQEND
  5
A56
330
A53
100
AcDbEntity
  8
Furniture
370
     9
  0
POLYLINE
  5
A5B
330
1F
100
AcDbEntity
  8
Furniture
370
     9
100
AcDb2dPolyline
 66
     1
 10
0.0
 20
0.0
 30
0.0
  0
VERTEX
  5
A5C
330
A5B
100
AcDbEntity
  8
Furniture
370
     9
100
AcDbVertex
100
AcDb2dVertex
 10
13686.59216471423
 20
1327.362458195104
 30
0.0
  0
VERTEX
  5
A5D
330
A5B
100
AcDbEntity
  8
Furniture
100
AcDbVertex
100
AcDb2dVertex
 10
13686.59216471423
 20
1327.362458195104
 30
0.0
  0
SEQEND
  5
A5E
330
A5B
100
AcDbEntity
  8
Furniture
370
     9
  0
SPLINE
  5
A5F
330
1F
100
AcDbEntity
  8
Furniture
370
     9
100
AcDbSpline
210
0.0
220
0.0
230
1.0
 70
     8
 71
     3
 72
    50
 73
    46
 74
     0
 42
0.000000001
 43
0.0000000001
 40
0.0
 40
0.0
 40
0.0
 40
0.0
 40
1.0
 40
1.0
 40
1.0
 40
2.0
 40
2.0
 40
2.0
 40
3.0
 40
3.0
 40
3.0
 40
4.0
 40
4.0
 40
4.0
 40
5.0
 40
5.0
 40
5.0
 40
6.0
 40
6.0
 40
6.0
 40
7.0
 40
7.0
 40
7.0
 40
8.0
 40
8.0
 40
8.0
 40
9.0
 40
9.0
 40
9.0
 40
10.0
 40
10.0
 40
10.0
 40
11.0
 40
11.0
 40
11.0
 40
12.0
 40
12.0
 40
12.0
 40
13.0
 40
13.0
 40
13.0
 40
14.0
 40
14.0
 40
14.0
 40
15.0
 40
15.0
 40
15.0
 40
15.0
 10
13665.50581011879
 20
1979.183636281934
 30
0.0
 10
13665.50581011879
 20
1979.183636281934
 30
0.0
 10
13852.80858231591
 20
2095.48133688221
 30
0.0
 10
13852.80858231591
 20
2095.48133688221
 30
0.0
 10
13852.80858231591
 20
2095.48133688221
 30
0.0
 10
13879.11273383924
 20
1865.333458982921
 30
0.0
 10
13879.11273383924
 20
1782.305937763453
 30
0.0
 10
13879.11273383924
 20
1699.251520683512
 30
0.0
 10
13911.87189187143
 20
1275.587926822427
 30
0.0
 10
13896.05712592484
 20
1267.572960407331
 30
0.0
 10
13893.3675398795
 20
1266.228167384648
 30
0.0
 10
13730.32483381136
 20
1288.094501933217
 30
0.0
 10
13698.10359298821
 20
1330.563065589045
 30
0.0
 10
13698.10359298821
 20
1330.563065589045
 30
0.0
 10
13682.50399392528
 20
1324.134954940691
 30
0.0
 10
13682.50399392528
 20
1324.134954940691
 30
0.0
 10
13663.46172472432
 20
1315.232425130645
 30
0.0
 10
13493.2605249603
 20
1324.726663870682
 30
0.0
 10
13435.91855047382
 20
1324.134954940691
 30
0.0
 10
13404.18143513887
 20
1323.81220461526
 30
0.0
 10
13258.99758041167
 20
1324.161850801149
 30
0.0
 10
13136.02970641899
 20
1324.511496987066
 30
0.0
 10
13136.02970641899
 20
1324.511496987066
 30
0.0
 10
12548.35515551339
 20
1324.511496987066
 30
0.0
 10
12548.35515551339
 20
1324.511496987066
 30
0.0
 10
12424.36523882347
 20
1324.161850801149
 30
0.0
 10
12275.79250567919
 20
1323.81220461526
 30
0.0
 10
12243.51747313521
 20
1324.134954940691
 30
0.0
 10
12186.2830820905
 20
1324.726663870682
 30
0.0
 10
11989.67434217653
 20
1315.232425130645
 30
0.0
 10
11970.63207297552
 20
1324.134954940691
 30
0.0
 10
11970.63207297552
 20
1324.134954940691
 30
0.0
 10
11955.08626563353
 20
1330.563065589045
 30
0.0
 10
11955.08626563353
 20
1330.563065589045
 30
0.0
 10
11922.86502481037
 20
1288.094501933217
 30
0.0
 10
11759.7147353004
 20
1266.228167384648
 30
0.0
 10
11757.02514925506
 20
1267.572960407331
 30
0.0
 10
11741.3179667503
 20
1275.587926822427
 30
0.0
 10
11774.02333306161
 20
1699.251520683512
 30
0.0
 10
11774.02333306161
 20
1782.305937763453
 30
0.0
 10
11774.02333306161
 20
1865.333458982921
 30
0.0
 10
11800.327484585
 20
2095.48133688221
 30
0.0
 10
11800.327484585
 20
2095.48133688221
 30
0.0
 10
11800.327484585
 20
2095.48133688221
 30
0.0
 10
11987.63025678206
 20
1979.183636281934
 30
0.0
 10
11987.63025678206
 20
1979.183636281934
 30
0.0
  0
SPLINE
  5
A60
330
1F
100
AcDbEntity
  8
Furniture
370
     9
100
AcDbSpline
210
0.0
220
0.0
230
1.0
 70
     8
 71
     3
 72
    38
 73
    34
 74
     0
 42
0.000000001
 43
0.0000000001
 40
0.0
 40
0.0
 40
0.0
 40
0.0
 40
1.0
 40
1.0
 40
1.0
 40
2.0
 40
2.0
 40
2.0
 40
3.0
 40
3.0
 40
3.0
 40
4.0
 40
4.0
 40
4.0
 40
5.0
 40
5.0
 40
5.0
 40
6.0
 40
6.0
 40
6.0
 40
7.0
 40
7.0
 40
7.0
 40
8.0
 40
8.0
 40
8.0
 40
9.0
 40
9.0
 40
9.0
 40
10.0
 40
10.0
 40
10.0
 40
11.0
 40
11.0
 40
11.0
 40
11.0
 10
13852.80858231591
 20
2095.48133688221
 30
0.0
 10
13852.80858231591
 20
2095.48133688221
 30
0.0
 10
13862.43730035819
 20
2139.48296458388
 30
0.0
 10
13872.3887687259
 20
2157.180440762171
 30
0.0
 10
13882.34023709367
 20
2174.904812800935
 30
0.0
 10
13912.35601735958
 20
2249.675304861249
 30
0.0
 10
13912.35601735958
 20
2249.675304861249
 30
0.0
 10
13912.35601735958
 20
2249.675304861249
 30
0.0
 10
13904.34105094451
 20
2254.597247324189
 30
0.0
 10
13877.98310770023
 20
2259.94952355442
 30
0.0
 10
13851.78653961867
 20
2265.355591505537
 30
0.0
 10
13895.51920871581
 20
2280.255898196676
 30
0.0
 10
13240.43943669892
 20
2285.984716473253
 30
0.0
 10
13203.80727476144
 20
2286.253675077798
 30
0.0
 10
13169.00403133478
 20
2286.522633682315
 30
0.0
 10
13136.02970641899
 20
2286.791592286845
 30
0.0
 10
13136.02970641899
 20
2286.791592286845
 30
0.0
 10
12548.35515551339
 20
2286.84538400776
 30
0.0
 10
12548.35515551339
 20
2286.84538400776
 30
0.0
 10
12514.03603757494
 20
2286.549529542772
 30
0.0
 10
12477.61904252111
 20
2286.280570938227
 30
0.0
 10
12438.9965869101
 20
2285.984716473253
 30
0.0
 10
11757.61685818504
 20
2280.255898196676
 30
0.0
 10
11801.40331900306
 20
2265.355591505537
 30
0.0
 10
11775.09916747973
 20
2259.94952355442
 30
0.0
 10
11748.79501595634
 20
2254.597247324189
 30
0.0
 10
11740.83384126216
 20
2249.675304861249
 30
0.0
 10
11740.83384126216
 20
2249.675304861249
 30
0.0
 10
11740.83384126216
 20
2249.675304861249
 30
0.0
 10
11770.79582980718
 20
2174.904812800935
 30
0.0
 10
11780.74729817495
 20
2157.180440762171
 30
0.0
 10
11790.75255826361
 20
2139.48296458388
 30
0.0
 10
11800.327484585
 20
2095.48133688221
 30
0.0
 10
11800.327484585
 20
2095.48133688221
 30
0.0
  0
SPLINE
  5
A61
330
1F
100
AcDbEntity
  8
Furniture
370
     9
100
AcDbSpline
210
0.0
220
0.0
230
1.0
 70
     9
 71
     3
 72
   104
 73
   100
 74
     0
 42
0.000000001
 43
0.0000000001
 40
0.0
 40
0.0
 40
0.0
 40
0.0
 40
1.0
 40
1.0
 40
1.0
 40
2.0
 40
2.0
 40
2.0
 40
3.0
 40
3.0
 40
3.0
 40
4.0
 40
4.0
 40
4.0
 40
5.0
 40
5.0
 40
5.0
 40
6.0
 40
6.0
 40
6.0
 40
7.0
 40
7.0
 40
7.0
 40
8.0
 40
8.0
 40
8.0
 40
9.0
 40
9.0
 40
9.0
 40
10.0
 40
10.0
 40
10.0
 40
11.0
 40
11.0
 40
11.0
 40
12.0
 40
12.0
 40
12.0
 40
13.0
 40
13.0
 40
13.0
 40
14.0
 40
14.0
 40
14.0
 40
15.0
 40
15.0
 40
15.0
 40
16.0
 40
16.0
 40
16.0
 40
17.0
 40
17.0
 40
17.0
 40
18.0
 40
18.0
 40
18.0
 40
19.0
 40
19.0
 40
19.0
 40
20.0
 40
20.0
 40
20.0
 40
21.0
 40
21.0
 40
21.0
 40
22.0
 40
22.0
 40
22.0
 40
23.0
 40
23.0
 40
23.0
 40
24.0
 40
24.0
 40
24.0
 40
25.0
 40
25.0
 40
25.0
 40
26.0
 40
26.0
 40
26.0
 40
27.0
 40
27.0
 40
27.0
 40
28.0
 40
28.0
 40
28.0
 40
29.0
 40
29.0
 40
29.0
 40
30.0
 40
30.0
 40
30.0
 40
31.0
 40
31.0
 40
31.0
 40
32.0
 40
32.0
 40
32.0
 40
33.0
 40
33.0
 40
33.0
 40
33.0
 10
12548.35515551339
 20
2267.776218946329
 30
0.0
 10
12495.69306074578
 20
2267.561052062698
 30
0.0
 10
12442.38546532725
 20
2267.776218946329
 30
0.0
 10
12390.90678841953
 20
2269.174803689897
 30
0.0
 10
12294.350649392
 20
2271.864389735249
 30
0.0
 10
12201.12959706074
 20
2260.568128344839
 30
0.0
 10
12142.01249578427
 20
2259.680564949875
 30
0.0
 10
12082.84160278692
 20
2258.766105694453
 30
0.0
 10
12066.81166995672
 20
2260.648815926197
 30
0.0
 10
12027.32854681119
 20
2259.680564949875
 30
0.0
 10
11987.8992153866
 20
2258.631626392194
 30
0.0
 10
11901.72487849405
 20
2255.753769323685
 30
0.0
 10
11860.30525339593
 20
2254.651039045104
 30
0.0
 10
11818.77804485593
 20
2253.521412906066
 30
0.0
 10
11765.63182460017
 20
2246.878135374082
 30
0.0
 10
11761.11332004401
 20
2237.948709703578
 30
0.0
 10
11756.54102376692
 20
2229.046179893503
 30
0.0
 10
11807.15903314012
 20
2166.728471223109
 30
0.0
 10
11817.32566839148
 20
2084.884367863578
 30
0.0
 10
11817.32566839148
 20
2084.884367863578
 30
0.0
 10
11801.40331900306
 20
2034.266358490397
 30
0.0
 10
11800.327484585
 20
1979.183636281934
 30
0.0
 10
11799.14406672499
 20
1924.074018213028
 30
0.0
 10
11790.37601621723
 20
1866.194126517428
 30
0.0
 10
11788.17055566004
 20
1790.536071062179
 30
0.0
 10
11786.01888682379
 20
1714.824223886
 30
0.0
 10
11783.86721798749
 20
1634.701455595484
 30
0.0
 10
11779.51008859411
 20
1570.124494647014
 30
0.0
 10
11775.09916747973
 20
1505.601325419429
 30
0.0
 10
11770.74203808629
 20
1458.829424091065
 30
0.0
 10
11770.74203808629
 20
1405.387349370259
 30
0.0
 10
11770.74203808629
 20
1351.999066370368
 30
0.0
 10
11770.74203808629
 20
1282.957392586632
 30
0.0
 10
11770.74203808629
 20
1282.957392586632
 30
0.0
 10
11770.74203808629
 20
1282.957392586632
 30
0.0
 10
11776.33637706057
 20
1280.509869285382
 30
0.0
 10
11871.17118101905
 20
1307.432625599165
 30
0.0
 10
11966.00598497759
 20
1334.382277773435
 30
0.0
 10
11989.19021668839
 20
1394.494525886668
 30
0.0
 10
11994.569388779
 20
1428.248830755594
 30
0.0
 10
12015.33299304901
 20
1559.043400140235
 30
0.0
 10
11987.63025678206
 20
1979.183636281934
 30
0.0
 10
11987.63025678206
 20
1979.183636281934
 30
0.0
 10
11987.63025678206
 20
1979.183636281934
 30
0.0
 10
12287.57289255778
 20
1991.448148648651
 30
0.0
 10
12548.35515551339
 20
1999.382427482389
 30
0.0
 10
12548.35515551339
 20
1999.382427482389
 30
0.0
 10
12788.26623075724
 20
2004.277474084902
 30
0.0
 10
12824.79080925289
 20
2004.277474084902
 30
0.0
 10
12861.31538774854
 20
2004.277474084902
 30
0.0
 10
13136.02970641899
 20
1999.247948180146
 30
0.0
 10
13136.02970641899
 20
1999.247948180146
 30
0.0
 10
13395.62855151471
 20
1991.313669346407
 30
0.0
 10
13665.50581011879
 20
1979.183636281934
 30
0.0
 10
13665.50581011879
 20
1979.183636281934
 30
0.0
 10
13665.50581011879
 20
1979.183636281934
 30
0.0
 10
13637.80307385184
 20
1559.043400140235
 30
0.0
 10
13658.56667812179
 20
1428.248830755594
 30
0.0
 10
13663.89205849158
 20
1394.494525886668
 30
0.0
 10
13687.13008192326
 20
1334.382277773435
 30
0.0
 10
13782.01867760268
 20
1307.432625599165
 30
0.0
 10
13876.79968984028
 20
1280.509869285382
 30
0.0
 10
13882.39402881455
 20
1282.957392586632
 30
0.0
 10
13882.39402881455
 20
1282.957392586632
 30
0.0
 10
13882.39402881455
 20
1282.957392586632
 30
0.0
 10
13882.39402881455
 20
1351.999066370368
 30
0.0
 10
13882.39402881455
 20
1405.387349370259
 30
0.0
 10
13882.39402881455
 20
1458.829424091065
 30
0.0
 10
13877.98310770023
 20
1505.601325419429
 30
0.0
 10
13873.67977002768
 20
1570.124494647014
 30
0.0
 10
13869.2688489133
 20
1634.701455595484
 30
0.0
 10
13867.11718007705
 20
1714.824223886
 30
0.0
 10
13864.96551124081
 20
1790.536071062179
 30
0.0
 10
13862.76005068362
 20
1866.194126517428
 30
0.0
 10
13854.04579189674
 20
1924.074018213028
 30
0.0
 10
13852.80858231591
 20
1979.183636281934
 30
0.0
 10
13851.73274789773
 20
2034.266358490397
 30
0.0
 10
13835.86419023025
 20
2084.884367863578
 30
0.0
 10
13835.86419023025
 20
2084.884367863578
 30
0.0
 10
13845.97703376073
 20
2166.728471223109
 30
0.0
 10
13896.59504313393
 20
2229.046179893503
 30
0.0
 10
13892.07653857772
 20
2237.948709703578
 30
0.0
 10
13887.50424230068
 20
2246.878135374082
 30
0.0
 10
13834.41181376581
 20
2253.521412906066
 30
0.0
 10
13792.8846052258
 20
2254.651039045104
 30
0.0
 10
13751.41118840674
 20
2255.753769323685
 30
0.0
 10
13665.23685151425
 20
2258.631626392194
 30
0.0
 10
13625.75372836877
 20
2259.680564949875
 30
0.0
 10
13586.32439694413
 20
2260.648815926197
 30
0.0
 10
13570.29446411393
 20
2258.766105694453
 30
0.0
 10
13511.17736283752
 20
2259.680564949875
 30
0.0
 10
13478.41400999012
 20
2260.568128344839
 30
0.0
 10
13385.13916593785
 20
2271.864389735249
 30
0.0
 10
13288.58302691038
 20
2269.174803689897
 30
0.0
 10
13238.71810162988
 20
2267.830010667243
 30
0.0
 10
13187.02425783856
 20
2267.561052062698
 30
0.0
 10
13135.9759146981
 20
2267.776218946329
 30
0.0
 10
13135.9759146981
 20
2267.776218946329
 30
0.0
 10
12548.35515551339
 20
2267.776218946329
 30
0.0
 10
12548.35515551339
 20
2267.776218946329
 30
0.0
  0
SPLINE
  5
A62
330
1F
100
AcDbEntity
  8
Furniture
370
     9
100
AcDbSpline
210
0.0
220
0.0
230
1.0
 70
     8
 71
     3
 72
    23
 73
    19
 74
     0
 42
0.000000001
 43
0.0000000001
 40
0.0
 40
0.0
 40
0.0
 40
0.0
 40
1.0
 40
1.0
 40
1.0
 40
2.0
 40
2.0
 40
2.0
 40
3.0
 40
3.0
 40
3.0
 40
4.0
 40
4.0
 40
4.0
 40
5.0
 40
5.0
 40
5.0
 40
6.0
 40
6.0
 40
6.0
 40
6.0
 10
12832.21406673803
 20
3310.0580511646
 30
0.0
 10
12832.21406673803
 20
3310.0580511646
 30
0.0
 10
12812.17665070028
 20
3310.246322187788
 30
0.0
 10
12812.17665070028
 20
3310.246322187788
 30
0.0
 10
12812.17665070028
 20
3310.246322187788
 30
0.0
 10
12578.82816540706
 20
3308.471195397859
 30
0.0
 10
12578.82816540706
 20
3308.471195397859
 30
0.0
 10
12578.82816540706
 20
3308.471195397859
 30
0.0
 10
12331.9098019044
 20
3310.246322187788
 30
0.0
 10
12296.00382819917
 20
3310.246322187788
 30
0.0
 10
12231.83030515746
 20
3310.246322187788
 30
0.0
 10
12015.64137883351
 20
3309.358758792824
 30
0.0
 10
11990.70891619322
 20
3310.165634606415
 30
0.0
 10
11980.54228094185
 20
3310.488384931861
 30
0.0
 10
11973.1190234567
 20
3312.236615861319
 30
0.0
 10
11966.77160038974
 20
3314.011742651248
 30
0.0
 10
11966.77160038974
 20
3314.011742651248
 30
0.0
 10
11952.43610676809
 20
3318.288184463341
 30
0.0
 10
11952.43610676809
 20
3318.288184463341
 30
0.0
  0
POLYLINE
  5
A63
330
1F
100
AcDbEntity
  8
Furniture
370
     9
100
AcDb2dPolyline
 66
     1
 10
0.0
 20
0.0
 30
0.0
  0
VERTEX
  5
A64
330
A63
100
AcDbEntity
  8
Furniture
370
     9
100
AcDbVertex
100
AcDb2dVertex
 10
13666.99264594424
 20
3299.810728331886
 30
0.0
  0
VERTEX
  5
A65
330
A63
100
AcDbEntity
  8
Furniture
100
AcDbVertex
100
AcDb2dVertex
 10
13666.99264594424
 20
3299.810728331886
 30
0.0
  0
SEQEND
  5
A66
330
A63
100
AcDbEntity
  8
Furniture
370
     9
  0
SPLINE
  5
A67
330
1F
100
AcDbEntity
  8
Furniture
370
     9
100
AcDbSpline
210
0.0
220
0.0
230
1.0
 70
     8
 71
     3
 72
     8
 73
     4
 74
     0
 42
0.000000001
 43
0.0000000001
 40
0.0
 40
0.0
 40
0.0
 40
0.0
 40
1.0
 40
1.0
 40
1.0
 40
1.0
 10
12000.82175972365
 20
3842.809400803363
 30
0.0
 10
12000.82175972365
 20
3842.809400803363
 30
0.0
 10
11825.75660403282
 20
3920.161895467198
 30
0.0
 10
11808.7315243659
 20
3952.7327824762
 30
0.0
  0
POLYLINE
  5
A68
330
1F
100
AcDbEntity
  8
Furniture
370
     9
100
AcDb2dPolyline
 66
     1
 10
0.0
 20
0.0
 30
0.0
  0
VERTEX
  5
A69
330
A68
100
AcDbEntity
  8
Furniture
370
     9
100
AcDbVertex
100
AcDb2dVertex
 10
13744.12997372443
 20
3302.581001958581
 30
0.0
  0
VERTEX
  5
A6A
330
A68
100
AcDbEntity
  8
Furniture
100
AcDbVertex
100
AcDb2dVertex
 10
13744.12997372443
 20
3302.581001958581
 30
0.0
  0
SEQEND
  5
A6B
330
A68
100
AcDbEntity
  8
Furniture
370
     9
  0
SPLINE
  5
A6C
330
1F
100
AcDbEntity
  8
Furniture
370
     9
100
AcDbSpline
210
0.0
220
0.0
230
1.0
 70
     8
 71
     3
 72
    41
 73
    37
 74
     0
 42
0.000000001
 43
0.0000000001
 40
0.0
 40
0.0
 40
0.0
 40
0.0
 40
1.0
 40
1.0
 40
1.0
 40
2.0
 40
2.0
 40
2.0
 40
3.0
 40
3.0
 40
3.0
 40
4.0
 40
4.0
 40
4.0
 40
5.0
 40
5.0
 40
5.0
 40
6.0
 40
6.0
 40
6.0
 40
7.0
 40
7.0
 40
7.0
 40
8.0
 40
8.0
 40
8.0
 40
9.0
 40
9.0
 40
9.0
 40
10.0
 40
10.0
 40
10.0
 40
11.0
 40
11.0
 40
11.0
 40
12.0
 40
12.0
 40
12.0
 40
12.0
 10
12832.16027501709
 20
4109.912190965533
 30
0.0
 10
12587.89207037987
 20
4110.154253709636
 30
0.0
 10
12582.86254447507
 20
4107.760522129287
 30
0.0
 10
12582.86254447507
 20
4107.760522129287
 30
0.0
 10
12582.86254447507
 20
4107.760522129287
 30
0.0
 10
12198.47943819529
 20
4107.760522129287
 30
0.0
 10
12088.50226480159
 20
4107.760522129287
 30
0.0
 10
11978.52509140782
 20
4107.760522129287
 30
0.0
 10
11791.84092400118
 20
4102.515829340871
 30
0.0
 10
11765.07954285008
 20
4102.515829340871
 30
0.0
 10
11738.21057825722
 20
4102.515829340871
 30
0.0
 10
11730.70663319074
 20
4094.500862925776
 30
0.0
 10
11741.49187323253
 20
4085.248686929811
 30
0.0
 10
11752.22332155344
 20
4076.023406794335
 30
0.0
 10
11772.77175893978
 20
4014.43188635616
 30
0.0
 10
11786.86518981733
 20
3990.333195389972
 30
0.0
 10
11802.78753920569
 20
3962.980105308914
 30
0.0
 10
11815.858927386
 20
3959.671914473143
 30
0.0
 10
11805.15437492559
 20
3931.70021960168
 30
0.0
 10
11793.23950874474
 20
3900.71618835942
 30
0.0
 10
11788.12929525861
 20
3806.984114679504
 30
0.0
 10
11780.0605371226
 20
3728.286826993015
 30
0.0
 10
11771.96488312614
 20
3672.291499750256
 30
0.0
 10
11764.5685215015
 20
3245.158339890699
 30
0.0
 10
11764.5685215015
 20
3245.158339890699
 30
0.0
 10
11765.72504350101
 20
3243.759755147116
 30
0.0
 10
11781.86255977303
 20
3234.642058453424
 30
0.0
 10
11836.99907370232
 20
3244.808693704781
 30
0.0
 10
11889.98391879548
 20
3254.598786909806
 30
0.0
 10
11954.42640044162
 20
3305.351275585275
 30
0.0
 10
11954.42640044162
 20
3305.351275585275
 30
0.0
 10
11954.42640044162
 20
3305.351275585275
 30
0.0
 10
11989.20274800784
 20
3300.967250331367
 30
0.0
 10
12043.02136477496
 20
3300.698291726851
 30
0.0
 10
12223.22362981236
 20
3299.622457308699
 30
0.0
 10
12618.04232994805
 20
3299.703144890056
 30
0.0
 10
12832.16027501709
 20
3299.756936610971
 30
0.0
  0
SPLINE
  5
A6D
330
1F
100
AcDbEntity
  8
Furniture
370
     9
100
AcDbSpline
210
0.0
220
0.0
230
1.0
 70
     8
 71
     3
 72
    29
 73
    25
 74
     0
 42
0.000000001
 43
0.0000000001
 40
0.0
 40
0.0
 40
0.0
 40
0.0
 40
1.0
 40
1.0
 40
1.0
 40
2.0
 40
2.0
 40
2.0
 40
3.0
 40
3.0
 40
3.0
 40
4.0
 40
4.0
 40
4.0
 40
5.0
 40
5.0
 40
5.0
 40
6.0
 40
6.0
 40
6.0
 40
7.0
 40
7.0
 40
7.0
 40
8.0
 40
8.0
 40
8.0
 40
8.0
 10
12832.16027501709
 20
3865.724673909627
 30
0.0
 10
12586.92381940352
 20
3863.976442980155
 30
0.0
 10
12000.82175972365
 20
3842.809400803363
 30
0.0
 10
12000.82175972365
 20
3842.809400803363
 30
0.0
 10
12000.82175972365
 20
3842.809400803363
 30
0.0
 10
12012.38697971863
 20
3411.589924375967
 30
0.0
 10
12009.77808125463
 20
3389.212568478808
 30
0.0
 10
12007.00780762796
 20
3366.835212581606
 30
0.0
 10
11937.3475290538
 20
3287.331049081524
 30
0.0
 10
11853.64761132299
 20
3262.317898859914
 30
0.0
 10
11832.80331947166
 20
3256.078059234748
 30
0.0
 10
11829.87167068222
 20
3253.765015235757
 30
0.0
 10
11804.83162460016
 20
3251.613346399481
 30
0.0
 10
11779.73778679717
 20
3249.488573423664
 30
0.0
 10
11775.32686568284
 20
3253.657431793941
 30
0.0
 10
11775.32686568284
 20
3253.657431793941
 30
0.0
 10
11775.32686568284
 20
3253.657431793941
 30
0.0
 10
11787.96792009589
 20
3356.049972539815
 30
0.0
 10
11789.39340069995
 20
3375.30740862442
 30
0.0
 10
11790.76508958306
 20
3394.537948848567
 30
0.0
 10
11799.56003595126
 20
3714.62372988273
 30
0.0
 10
11801.63101720624
 20
3773.606351856896
 30
0.0
 10
11803.51372743794
 20
3832.615869691549
 30
0.0
 10
11827.85448114824
 20
3937.402142017786
 30
0.0
 10
11827.85448114824
 20
3937.402142017786
 30
0.0
  0
SPLINE
  5
A6E
330
1F
100
AcDbEntity
  8
Furniture
370
     9
100
AcDbSpline
210
0.0
220
0.0
230
1.0
 70
     8
 71
     3
 72
    17
 73
    13
 74
     0
 42
0.000000001
 43
0.0000000001
 40
0.0
 40
0.0
 40
0.0
 40
0.0
 40
1.0
 40
1.0
 40
1.0
 40
2.0
 40
2.0
 40
2.0
 40
3.0
 40
3.0
 40
3.0
 40
4.0
 40
4.0
 40
4.0
 40
4.0
 10
11829.87167068222
 20
3932.695366438446
 30
0.0
 10
11829.87167068222
 20
3932.695366438446
 30
0.0
 10
11764.5685215015
 20
4085.248686929811
 30
0.0
 10
11764.5685215015
 20
4085.248686929811
 30
0.0
 10
11764.5685215015
 20
4085.248686929811
 30
0.0
 10
12041.40761314775
 20
4093.613299530811
 30
0.0
 10
12107.78659674665
 20
4093.613299530811
 30
0.0
 10
12176.12897815858
 20
4093.613299530811
 30
0.0
 10
12610.75355176518
 20
4094.366383623517
 30
0.0
 10
12713.33436353424
 20
4093.586403670353
 30
0.0
 10
12750.50444268075
 20
4093.29054920538
 30
0.0
 10
12791.11719196529
 20
4093.29054920538
 30
0.0
 10
12832.16027501709
 20
4093.34434092628
 30
0.0
  0
SPLINE
  5
A6F
330
1F
100
AcDbEntity
  8
Furniture
370
     9
100
AcDbSpline
210
0.0
220
0.0
230
1.0
 70
     8
 71
     3
 72
    23
 73
    19
 74
     0
 42
0.000000001
 43
0.0000000001
 40
0.0
 40
0.0
 40
0.0
 40
0.0
 40
1.0
 40
1.0
 40
1.0
 40
2.0
 40
2.0
 40
2.0
 40
3.0
 40
3.0
 40
3.0
 40
4.0
 40
4.0
 40
4.0
 40
5.0
 40
5.0
 40
5.0
 40
6.0
 40
6.0
 40
6.0
 40
6.0
 10
12824.01082929975
 20
3310.0580511646
 30
0.0
 10
12824.01082929975
 20
3310.0580511646
 30
0.0
 10
12843.96755775612
 20
3310.246322187788
 30
0.0
 10
12843.96755775612
 20
3310.246322187788
 30
0.0
 10
12843.96755775612
 20
3310.246322187788
 30
0.0
 10
13077.36983477028
 20
3308.471195397859
 30
0.0
 10
13077.36983477028
 20
3308.471195397859
 30
0.0
 10
13077.36983477028
 20
3308.471195397859
 30
0.0
 10
13318.52987791069
 20
3310.246322187788
 30
0.0
 10
13354.43585161592
 20
3310.246322187788
 30
0.0
 10
13418.66316637846
 20
3310.246322187788
 30
0.0
 10
13634.82519684203
 20
3309.358758792824
 30
0.0
 10
13659.70386776137
 20
3310.165634606415
 30
0.0
 10
13669.92429473362
 20
3310.488384931861
 30
0.0
 10
13677.34755221877
 20
3312.236615861319
 30
0.0
 10
13683.69497528574
 20
3314.011742651248
 30
0.0
 10
13683.69497528574
 20
3314.011742651248
 30
0.0
 10
13698.00357304695
 20
3318.288184463341
 30
0.0
 10
13698.00357304695
 20
3318.288184463341
 30
0.0
  0
POLYLINE
  5
A70
330
1F
100
AcDbEntity
  8
Furniture
370
     9
100
AcDb2dPolyline
 66
     1
 10
0.0
 20
0.0
 30
0.0
  0
VERTEX
  5
A71
330
A70
100
AcDbEntity
  8
Furniture
370
     9
100
AcDbVertex
100
AcDb2dVertex
 10
11983.50082559173
 20
3299.810728331886
 30
0.0
  0
VERTEX
  5
A72
330
A70
100
AcDbEntity
  8
Furniture
100
AcDbVertex
100
AcDb2dVertex
 10
11983.50082559173
 20
3299.810728331886
 30
0.0
  0
SEQEND
  5
A73
330
A70
100
AcDbEntity
  8
Furniture
370
     9
  0
SPLINE
  5
A74
330
1F
100
AcDbEntity
  8
Furniture
370
     9
100
AcDbSpline
210
0.0
220
0.0
230
1.0
 70
     8
 71
     3
 72
     8
 73
     4
 74
     0
 42
0.000000001
 43
0.0000000001
 40
0.0
 40
0.0
 40
0.0
 40
0.0
 40
1.0
 40
1.0
 40
1.0
 40
1.0
 10
13649.64481595183
 20
3842.809400803363
 30
0.0
 10
13649.64481595183
 20
3842.809400803363
 30
0.0
 10
13824.70997164265
 20
3920.161895467198
 30
0.0
 10
13841.73505130964
 20
3952.7327824762
 30
0.0
  0
POLYLINE
  5
A75
330
1F
100
AcDbEntity
  8
Furniture
370
     9
100
AcDb2dPolyline
 66
     1
 10
0.0
 20
0.0
 30
0.0
  0
VERTEX
  5
A76
330
A75
100
AcDbEntity
  8
Furniture
370
     9
100
AcDbVertex
100
AcDb2dVertex
 10
11906.3366019511
 20
3302.581001958581
 30
0.0
  0
VERTEX
  5
A77
330
A75
100
AcDbEntity
  8
Furniture
100
AcDbVertex
100
AcDb2dVertex
 10
11906.3366019511
 20
3302.581001958581
 30
0.0
  0
SEQEND
  5
A78
330
A75
100
AcDbEntity
  8
Furniture
370
     9
  0
SPLINE
  5
A79
330
1F
100
AcDbEntity
  8
Furniture
370
     9
100
AcDbSpline
210
0.0
220
0.0
230
1.0
 70
     8
 71
     3
 72
    41
 73
    37
 74
     0
 42
0.000000001
 43
0.0000000001
 40
0.0
 40
0.0
 40
0.0
 40
0.0
 40
1.0
 40
1.0
 40
1.0
 40
2.0
 40
2.0
 40
2.0
 40
3.0
 40
3.0
 40
3.0
 40
4.0
 40
4.0
 40
4.0
 40
5.0
 40
5.0
 40
5.0
 40
6.0
 40
6.0
 40
6.0
 40
7.0
 40
7.0
 40
7.0
 40
8.0
 40
8.0
 40
8.0
 40
9.0
 40
9.0
 40
9.0
 40
10.0
 40
10.0
 40
10.0
 40
11.0
 40
11.0
 40
11.0
 40
12.0
 40
12.0
 40
12.0
 40
12.0
 10
12824.01082929975
 20
4109.912190965533
 30
0.0
 10
13068.4135132393
 20
4110.154253709636
 30
0.0
 10
13073.33545570227
 20
4107.760522129287
 30
0.0
 10
13073.33545570227
 20
4107.760522129287
 30
0.0
 10
13073.33545570227
 20
4107.760522129287
 30
0.0
 10
13451.98713748018
 20
4107.760522129287
 30
0.0
 10
13561.96431087395
 20
4107.760522129287
 30
0.0
 10
13671.94148426766
 20
4107.760522129287
 30
0.0
 10
13858.62565167435
 20
4102.515829340871
 30
0.0
 10
13885.38703282539
 20
4102.515829340871
 30
0.0
 10
13912.25599741826
 20
4102.515829340871
 30
0.0
 10
13919.73304662435
 20
4094.500862925776
 30
0.0
 10
13908.9478065825
 20
4085.248686929811
 30
0.0
 10
13898.2432541221
 20
4076.023406794335
 30
0.0
 10
13877.69481673575
 20
4014.43188635616
 30
0.0
 10
13863.60138585815
 20
3990.333195389972
 30
0.0
 10
13847.70593233023
 20
3962.980105308914
 30
0.0
 10
13834.63454414992
 20
3959.671914473143
 30
0.0
 10
13845.31220074988
 20
3931.70021960168
 30
0.0
 10
13857.22706693074
 20
3900.71618835942
 30
0.0
 10
13862.33728041687
 20
3806.984114679504
 30
0.0
 10
13870.40603855288
 20
3728.286826993015
 30
0.0
 10
13878.47479668889
 20
3672.291499750256
 30
0.0
 10
13885.89805417398
 20
3245.158339890699
 30
0.0
 10
13885.89805417398
 20
3245.158339890699
 30
0.0
 10
13884.74153217453
 20
3243.759755147116
 30
0.0
 10
13868.60401590251
 20
3234.642058453424
 30
0.0
 10
13813.44060611266
 20
3244.808693704781
 30
0.0
 10
13760.48265688006
 20
3254.598786909806
 30
0.0
 10
13696.01327937336
 20
3305.351275585275
 30
0.0
 10
13696.01327937336
 20
3305.351275585275
 30
0.0
 10
13696.01327937336
 20
3305.351275585275
 30
0.0
 10
13661.2638276677
 20
3300.967250331367
 30
0.0
 10
13607.44521090051
 20
3300.698291726851
 30
0.0
 10
13427.296737584
 20
3299.622457308699
 30
0.0
 10
13038.15567022929
 20
3299.703144890056
 30
0.0
 10
12824.06462102064
 20
3299.756936610971
 30
0.0
  0
SPLINE
  5
A7A
330
1F
100
AcDbEntity
  8
Furniture
370
     9
100
AcDbSpline
210
0.0
220
0.0
230
1.0
 70
     8
 71
     3
 72
    29
 73
    25
 74
     0
 42
0.000000001
 43
0.0000000001
 40
0.0
 40
0.0
 40
0.0
 40
0.0
 40
1.0
 40
1.0
 40
1.0
 40
2.0
 40
2.0
 40
2.0
 40
3.0
 40
3.0
 40
3.0
 40
4.0
 40
4.0
 40
4.0
 40
5.0
 40
5.0
 40
5.0
 40
6.0
 40
6.0
 40
6.0
 40
7.0
 40
7.0
 40
7.0
 40
8.0
 40
8.0
 40
8.0
 40
8.0
 10
12824.01082929975
 20
3865.724673909627
 30
0.0
 10
13069.27418077383
 20
3863.976442980155
 30
0.0
 10
13649.64481595183
 20
3842.809400803363
 30
0.0
 10
13649.64481595183
 20
3842.809400803363
 30
0.0
 10
13649.64481595183
 20
3842.809400803363
 30
0.0
 10
13638.0795959569
 20
3411.589924375967
 30
0.0
 10
13640.68849442085
 20
3389.212568478808
 30
0.0
 10
13643.48566390802
 20
3366.835212581606
 30
0.0
 10
13713.14594248217
 20
3287.331049081524
 30
0.0
 10
13796.81896435249
 20
3262.317898859914
 30
0.0
 10
13817.69015206432
 20
3256.078059234748
 30
0.0
 10
13820.59490499326
 20
3253.765015235757
 30
0.0
 10
13845.60805521487
 20
3251.613346399481
 30
0.0
 10
13870.72878887831
 20
3249.488573423664
 30
0.0
 10
13875.13970999269
 20
3253.657431793941
 30
0.0
 10
13875.13970999269
 20
3253.657431793941
 30
0.0
 10
13875.13970999269
 20
3253.657431793941
 30
0.0
 10
13862.49865557958
 20
3356.049972539815
 30
0.0
 10
13861.10007083603
 20
3375.30740862442
 30
0.0
 10
13859.75527781336
 20
3394.537948848567
 30
0.0
 10
13850.93343558466
 20
3714.62372988273
 30
0.0
 10
13848.86245432974
 20
3773.606351856896
 30
0.0
 10
13846.95284823754
 20
3832.615869691549
 30
0.0
 10
13822.61209452729
 20
3937.402142017786
 30
0.0
 10
13822.61209452729
 20
3937.402142017786
 30
0.0
  0
SPLINE
  5
A7B
330
1F
100
AcDbEntity
  8
Furniture
370
     9
100
AcDbSpline
210
0.0
220
0.0
230
1.0
 70
     8
 71
     3
 72
    17
 73
    13
 74
     0
 42
0.000000001
 43
0.0000000001
 40
0.0
 40
0.0
 40
0.0
 40
0.0
 40
1.0
 40
1.0
 40
1.0
 40
2.0
 40
2.0
 40
2.0
 40
3.0
 40
3.0
 40
3.0
 40
4.0
 40
4.0
 40
4.0
 40
4.0
 10
13820.59490499326
 20
3932.695366438446
 30
0.0
 10
13820.59490499326
 20
3932.695366438446
 30
0.0
 10
13885.89805417398
 20
4085.248686929811
 30
0.0
 10
13885.89805417398
 20
4085.248686929811
 30
0.0
 10
13885.89805417398
 20
4085.248686929811
 30
0.0
 10
13609.05896252773
 20
4093.613299530811
 30
0.0
 10
13542.67997892889
 20
4093.613299530811
 30
0.0
 10
13474.3375975169
 20
4093.613299530811
 30
0.0
 10
13045.44444841217
 20
4094.366383623517
 30
0.0
 10
12942.86363664311
 20
4093.586403670353
 30
0.0
 10
12905.6935574966
 20
4093.29054920538
 30
0.0
 10
12865.16149579338
 20
4093.29054920538
 30
0.0
 10
12824.01082929975
 20
4093.34434092628
 30
0.0
  0
LINE
  5
A7C
330
1F
100
AcDbEntity
  8
Furniture
370
     9
100
AcDbLine
 10
7399.680588929456
 20
3299.63590523892
 30
0.0
 11
7399.680588929456
 21
3299.63590523892
 31
0.0
  0
LINE
  5
A7D
330
1F
100
AcDbEntity
  8
Furniture
370
     9
100
AcDbLine
 10
7536.855234951436
 20
3792.932881813748
 30
0.0
 11
7536.855234951436
 21
3792.932881813748
 31
0.0
  0
LINE
  5
A7E
330
1F
100
AcDbEntity
  8
Furniture
370
     9
100
AcDbLine
 10
7461.863818297636
 20
3301.62619891248
 30
0.0
 11
7461.863818297636
 21
3301.62619891248
 31
0.0
  0
SPLINE
  5
A7F
330
1F
100
AcDbEntity
  8
Furniture
370
     9
100
AcDbSpline
210
0.0
220
0.0
230
1.0
 70
     8
 71
     3
 72
    17
 73
    13
 74
     0
 42
0.000000001
 43
0.0000000001
 40
0.0
 40
0.0
 40
0.0
 40
0.0
 40
1.0
 40
1.0
 40
1.0
 40
2.0
 40
2.0
 40
2.0
 40
3.0
 40
3.0
 40
3.0
 40
4.0
 40
4.0
 40
4.0
 40
4.0
 10
7398.308900046344
 20
3302.702033330618
 30
0.0
 10
7314.393815431926
 20
3303.213054679222
 30
0.0
 10
7224.76796183432
 20
3304.073722213729
 30
0.0
 10
7197.845205520508
 20
3304.073722213729
 30
0.0
 10
7130.551762666257
 20
3304.073722213729
 30
0.0
 10
6904.142409369986
 20
3303.186158818764
 30
0.0
 10
6878.053424730253
 20
3304.019930492829
 30
0.0
 10
6867.429559851178
 20
3304.315784957817
 30
0.0
 10
6859.656656180155
 20
3306.010224166374
 30
0.0
 10
6852.932691066813
 20
3307.812246816761
 30
0.0
 10
6852.932691066813
 20
3307.812246816761
 30
0.0
 10
6837.897905073416
 20
3312.034896907924
 30
0.0
 10
6837.897905073416
 20
3312.034896907924
 30
0.0
  0
SPLINE
  5
A80
330
1F
100
AcDbEntity
  8
Furniture
370
     9
100
AcDbSpline
210
0.0
220
0.0
230
1.0
 70
     8
 71
     3
 72
     8
 73
     4
 74
     0
 42
0.000000001
 43
0.0000000001
 40
0.0
 40
0.0
 40
0.0
 40
0.0
 40
1.0
 40
1.0
 40
1.0
 40
1.0
 10
6888.59660202794
 20
3852.910650624708
 30
0.0
 10
6888.59660202794
 20
3852.910650624708
 30
0.0
 10
6705.247521317502
 20
3929.375581893565
 30
0.0
 10
6687.415565836937
 20
3961.596822716678
 30
0.0
  0
SPLINE
  5
A81
330
1F
100
AcDbEntity
  8
Furniture
370
     9
100
AcDbSpline
210
0.0
220
0.0
230
1.0
 70
     8
 71
     3
 72
    38
 73
    34
 74
     0
 42
0.000000001
 43
0.0000000001
 40
0.0
 40
0.0
 40
0.0
 40
0.0
 40
1.0
 40
1.0
 40
1.0
 40
2.0
 40
2.0
 40
2.0
 40
3.0
 40
3.0
 40
3.0
 40
4.0
 40
4.0
 40
4.0
 40
5.0
 40
5.0
 40
5.0
 40
6.0
 40
6.0
 40
6.0
 40
7.0
 40
7.0
 40
7.0
 40
8.0
 40
8.0
 40
8.0
 40
9.0
 40
9.0
 40
9.0
 40
10.0
 40
10.0
 40
10.0
 40
11.0
 40
11.0
 40
11.0
 40
11.0
 10
7398.308900046344
 20
4114.795643858921
 30
0.0
 10
7276.847194239039
 20
4114.795643858921
 30
0.0
 10
7068.664387763124
 20
4114.795643858921
 30
0.0
 10
6980.499757197041
 20
4114.795643858921
 30
0.0
 10
6865.250995154489
 20
4114.795643858921
 30
0.0
 10
6669.718089658646
 20
4109.631638651877
 30
0.0
 10
6641.611915484881
 20
4109.631638651877
 30
0.0
 10
6613.505741311117
 20
4109.631638651877
 30
0.0
 10
6605.679045919209
 20
4101.697359818154
 30
0.0
 10
6617.002203170089
 20
4092.579663124463
 30
0.0
 10
6628.190881118698
 20
4083.435070570329
 30
0.0
 10
6649.734465341836
 20
4022.569738364404
 30
0.0
 10
6664.473396870246
 20
3998.71311014229
 30
0.0
 10
6681.121934490857
 20
3971.709666247134
 30
0.0
 10
6694.838823322085
 20
3968.428371271821
 30
0.0
 10
6683.650145373476
 20
3940.806322586232
 30
0.0
 10
6671.197361983587
 20
3910.198833390332
 30
0.0
 10
6665.818189892855
 20
3817.461906547182
 30
0.0
 10
6657.345993850085
 20
3739.73286983703
 30
0.0
 10
6648.900693667757
 20
3661.976937266405
 30
0.0
 10
6641.127789996734
 20
3239.738824009331
 30
0.0
 10
6641.127789996734
 20
3239.738824009331
 30
0.0
 10
6642.311207856687
 20
3238.36713512622
 30
0.0
 10
6659.228704081844
 20
3229.383917734787
 30
0.0
 10
6717.001012335585
 20
3239.416073683901
 30
0.0
 10
6772.514068311308
 20
3249.044791726195
 30
0.0
 10
6839.995782188776
 20
3299.259363192574
 30
0.0
 10
6839.995782188776
 20
3299.259363192574
 30
0.0
 10
6839.995782188776
 20
3299.259363192574
 30
0.0
 10
6876.439673103039
 20
3294.929129659595
 30
0.0
 10
6932.813396613283
 20
3294.606379334164
 30
0.0
 10
7049.891077166652
 20
3293.987774543744
 30
0.0
 10
7261.830457539061
 20
3293.745711799642
 30
0.0
 10
7398.308900046344
 20
3293.691920078742
 30
0.0
  0
SPLINE
  5
A82
330
1F
100
AcDbEntity
  8
Furniture
370
     9
100
AcDbSpline
210
0.0
220
0.0
230
1.0
 70
     8
 71
     3
 72
    29
 73
    25
 74
     0
 42
0.000000001
 43
0.0000000001
 40
0.0
 40
0.0
 40
0.0
 40
0.0
 40
1.0
 40
1.0
 40
1.0
 40
2.0
 40
2.0
 40
2.0
 40
3.0
 40
3.0
 40
3.0
 40
4.0
 40
4.0
 40
4.0
 40
5.0
 40
5.0
 40
5.0
 40
6.0
 40
6.0
 40
6.0
 40
7.0
 40
7.0
 40
7.0
 40
8.0
 40
8.0
 40
8.0
 40
8.0
 10
7398.308900046344
 20
3869.532292384862
 30
0.0
 10
7188.404758501386
 20
3862.808327271534
 30
0.0
 10
6888.59660202794
 20
3852.910650624708
 30
0.0
 10
6888.59660202794
 20
3852.910650624708
 30
0.0
 10
6888.59660202794
 20
3852.910650624708
 30
0.0
 10
6900.780426813343
 20
3404.260802402441
 30
0.0
 10
6897.983257326176
 20
3382.152405109799
 30
0.0
 10
6895.105400257681
 20
3360.017111956699
 30
0.0
 10
6822.110034987267
 20
3281.454303572468
 30
0.0
 10
6734.483321630275
 20
3256.710111955388
 30
0.0
 10
6712.590091221263
 20
3250.55095991158
 30
0.0
 10
6709.523963129552
 20
3248.237915912588
 30
0.0
 10
6683.300499187545
 20
3246.140038797229
 30
0.0
 10
6656.99634766421
 20
3244.042161681868
 30
0.0
 10
6652.397155526671
 20
3248.157228331231
 30
0.0
 10
6652.397155526671
 20
3248.157228331231
 30
0.0
 10
6652.397155526671
 20
3248.157228331231
 30
0.0
 10
6665.603023009254
 20
3349.366351217167
 30
0.0
 10
6667.082295334195
 20
3368.381724557683
 30
0.0
 10
6668.534671798693
 20
3387.370202037742
 30
0.0
 10
6677.759951934215
 20
3726.177356168545
 30
0.0
 10
6679.938516630904
 20
3784.487581631391
 30
0.0
 10
6681.955706164877
 20
3842.797807094238
 30
0.0
 10
6707.426086014191
 20
3946.400661560536
 30
0.0
 10
6707.426086014191
 20
3946.400661560536
 30
0.0
  0
SPLINE
  5
A83
330
1F
100
AcDbEntity
  8
Furniture
370
     9
100
AcDbSpline
210
0.0
220
0.0
230
1.0
 70
     8
 71
     3
 72
    14
 73
    10
 74
     0
 42
0.000000001
 43
0.0000000001
 40
0.0
 40
0.0
 40
0.0
 40
0.0
 40
1.0
 40
1.0
 40
1.0
 40
2.0
 40
2.0
 40
2.0
 40
3.0
 40
3.0
 40
3.0
 40
3.0
 10
6709.523963129552
 20
3941.747677702112
 30
0.0
 10
6709.523963129552
 20
3941.747677702112
 30
0.0
 10
6641.127789996734
 20
4092.579663124463
 30
0.0
 10
6641.127789996734
 20
4092.579663124463
 30
0.0
 10
6641.127789996734
 20
4092.579663124463
 30
0.0
 10
6931.118957404684
 20
4100.836692283632
 30
0.0
 10
7000.644756676567
 20
4100.836692283632
 30
0.0
 10
7048.842138609029
 20
4100.836692283632
 30
0.0
 10
7280.281017810044
 20
4101.159442609078
 30
0.0
 10
7398.389587627732
 20
4101.159442609078
 30
0.0
  0
SPLINE
  5
A84
330
1F
100
AcDbEntity
  8
Furniture
370
     9
100
AcDbSpline
210
0.0
220
0.0
230
1.0
 70
     8
 71
     3
 72
    17
 73
    13
 74
     0
 42
0.000000001
 43
0.0000000001
 40
0.0
 40
0.0
 40
0.0
 40
0.0
 40
1.0
 40
1.0
 40
1.0
 40
2.0
 40
2.0
 40
2.0
 40
3.0
 40
3.0
 40
3.0
 40
4.0
 40
4.0
 40
4.0
 40
4.0
 10
7401.052277812626
 20
3302.702033330618
 30
0.0
 10
7484.967362427044
 20
3303.213054679222
 30
0.0
 10
7573.97152237712
 20
3304.073722213729
 30
0.0
 10
7600.813591109545
 20
3304.073722213729
 30
0.0
 10
7668.080138103353
 20
3304.073722213729
 30
0.0
 10
7894.516387260067
 20
3303.186158818764
 30
0.0
 10
7920.6053718998
 20
3304.019930492829
 30
0.0
 10
7931.229236778875
 20
3304.315784957817
 30
0.0
 10
7939.002140449898
 20
3306.010224166374
 30
0.0
 10
7945.699209702798
 20
3307.812246816761
 30
0.0
 10
7945.699209702798
 20
3307.812246816761
 30
0.0
 10
7960.733995696195
 20
3312.034896907924
 30
0.0
 10
7960.733995696195
 20
3312.034896907924
 30
0.0
  0
SPLINE
  5
A85
330
1F
100
AcDbEntity
  8
Furniture
370
     9
100
AcDbSpline
210
0.0
220
0.0
230
1.0
 70
     8
 71
     3
 72
     8
 73
     4
 74
     0
 42
0.000000001
 43
0.0000000001
 40
0.0
 40
0.0
 40
0.0
 40
0.0
 40
1.0
 40
1.0
 40
1.0
 40
1.0
 10
7910.03529874167
 20
3852.910650624708
 30
0.0
 10
7910.03529874167
 20
3852.910650624708
 30
0.0
 10
8093.411275312552
 20
3929.375581893565
 30
0.0
 10
8111.243230793116
 20
3961.596822716678
 30
0.0
  0
SPLINE
  5
A86
330
1F
100
AcDbEntity
  8
Furniture
370
     9
100
AcDbSpline
210
0.0
220
0.0
230
1.0
 70
     8
 71
     3
 72
    38
 73
    34
 74
     0
 42
0.000000001
 43
0.0000000001
 40
0.0
 40
0.0
 40
0.0
 40
0.0
 40
1.0
 40
1.0
 40
1.0
 40
2.0
 40
2.0
 40
2.0
 40
3.0
 40
3.0
 40
3.0
 40
4.0
 40
4.0
 40
4.0
 40
5.0
 40
5.0
 40
5.0
 40
6.0
 40
6.0
 40
6.0
 40
7.0
 40
7.0
 40
7.0
 40
8.0
 40
8.0
 40
8.0
 40
9.0
 40
9.0
 40
9.0
 40
10.0
 40
10.0
 40
10.0
 40
11.0
 40
11.0
 40
11.0
 40
11.0
 10
7401.052277812626
 20
4114.795643858921
 30
0.0
 10
7522.51398361993
 20
4114.795643858921
 30
0.0
 10
7730.048200587815
 20
4114.795643858921
 30
0.0
 10
7818.159039433012
 20
4114.795643858921
 30
0.0
 10
7933.407801475564
 20
4114.795643858921
 30
0.0
 10
8128.913811110964
 20
4109.631638651877
 30
0.0
 10
8157.046881145172
 20
4109.631638651877
 30
0.0
 10
8185.153055318879
 20
4109.631638651877
 30
0.0
 10
8192.979750710845
 20
4101.697359818154
 30
0.0
 10
8181.656593459964
 20
4092.579663124463
 30
0.0
 10
8170.467915511355
 20
4083.435070570329
 30
0.0
 10
8148.924331288219
 20
4022.569738364404
 30
0.0
 10
8134.158503899366
 20
3998.71311014229
 30
0.0
 10
8117.536862139196
 20
3971.709666247134
 30
0.0
 10
8103.819973307968
 20
3968.428371271821
 30
0.0
 10
8115.008651256577
 20
3940.806322586232
 30
0.0
 10
8127.461434646466
 20
3910.198833390332
 30
0.0
 10
8132.84060673714
 20
3817.461906547182
 30
0.0
 10
8141.312802779969
 20
3739.73286983703
 30
0.0
 10
8149.758102962296
 20
3661.976937266405
 30
0.0
 10
8157.531006633318
 20
3239.738824009331
 30
0.0
 10
8157.531006633318
 20
3239.738824009331
 30
0.0
 10
8156.347588773366
 20
3238.36713512622
 30
0.0
 10
8139.403196687766
 20
3229.383917734787
 30
0.0
 10
8081.65778429441
 20
3239.416073683901
 30
0.0
 10
8026.117832458302
 20
3249.044791726195
 30
0.0
 10
7958.636118580834
 20
3299.259363192574
 30
0.0
 10
7958.636118580834
 20
3299.259363192574
 30
0.0
 10
7958.636118580834
 20
3299.259363192574
 30
0.0
 10
7922.219123526956
 20
3294.929129659595
 30
0.0
 10
7865.84540001677
 20
3294.606379334164
 30
0.0
 10
7748.794615323844
 20
3293.987774543744
 30
0.0
 10
7536.90902667238
 20
3293.745711799642
 30
0.0
 10
7401.052277812626
 20
3293.691920078742
 30
0.0
  0
SPLINE
  5
A87
330
1F
100
AcDbEntity
  8
Furniture
370
     9
100
AcDbSpline
210
0.0
220
0.0
230
1.0
 70
     8
 71
     3
 72
    29
 73
    25
 74
     0
 42
0.000000001
 43
0.0000000001
 40
0.0
 40
0.0
 40
0.0
 40
0.0
 40
1.0
 40
1.0
 40
1.0
 40
2.0
 40
2.0
 40
2.0
 40
3.0
 40
3.0
 40
3.0
 40
4.0
 40
4.0
 40
4.0
 40
5.0
 40
5.0
 40
5.0
 40
6.0
 40
6.0
 40
6.0
 40
7.0
 40
7.0
 40
7.0
 40
8.0
 40
8.0
 40
8.0
 40
8.0
 10
7401.052277812626
 20
3869.532292384862
 30
0.0
 10
7610.334725709996
 20
3862.808327271534
 30
0.0
 10
7910.03529874167
 20
3852.910650624708
 30
0.0
 10
7910.03529874167
 20
3852.910650624708
 30
0.0
 10
7910.03529874167
 20
3852.910650624708
 30
0.0
 10
7897.87836981671
 20
3404.260802402441
 30
0.0
 10
7900.675539303877
 20
3382.152405109799
 30
0.0
 10
7903.553396372372
 20
3360.017111956699
 30
0.0
 10
7976.548761642728
 20
3281.454303572468
 30
0.0
 10
8064.175474999778
 20
3256.710111955388
 30
0.0
 10
8086.06870540879
 20
3250.55095991158
 30
0.0
 10
8089.134833500443
 20
3248.237915912588
 30
0.0
 10
8115.358297442449
 20
3246.140038797229
 30
0.0
 10
8141.662448965844
 20
3244.042161681868
 30
0.0
 10
8146.261641103324
 20
3248.157228331231
 30
0.0
 10
8146.261641103324
 20
3248.157228331231
 30
0.0
 10
8146.261641103324
 20
3248.157228331231
 30
0.0
 10
8133.055773620741
 20
3349.366351217167
 30
0.0
 10
8131.576501295858
 20
3368.381724557683
 30
0.0
 10
8130.124124831359
 20
3387.370202037742
 30
0.0
 10
8120.871948835397
 20
3726.177356168545
 30
0.0
 10
8118.72027999915
 20
3784.487581631391
 30
0.0
 10
8116.676194604677
 20
3842.797807094238
 30
0.0
 10
8091.232710615804
 20
3946.400661560536
 30
0.0
 10
8091.232710615804
 20
3946.400661560536
 30
0.0
  0
SPLINE
  5
A88
330
1F
100
AcDbEntity
  8
Furniture
370
     9
100
AcDbSpline
210
0.0
220
0.0
230
1.0
 70
     8
 71
     3
 72
    14
 73
    10
 74
     0
 42
0.000000001
 43
0.0000000001
 40
0.0
 40
0.0
 40
0.0
 40
0.0
 40
1.0
 40
1.0
 40
1.0
 40
2.0
 40
2.0
 40
2.0
 40
3.0
 40
3.0
 40
3.0
 40
3.0
 10
8089.134833500443
 20
3941.747677702112
 30
0.0
 10
8089.134833500443
 20
3941.747677702112
 30
0.0
 10
8157.531006633318
 20
4092.579663124463
 30
0.0
 10
8157.531006633318
 20
4092.579663124463
 30
0.0
 10
8157.531006633318
 20
4092.579663124463
 30
0.0
 10
7867.539839225312
 20
4100.836692283632
 30
0.0
 10
7798.014039953487
 20
4100.836692283632
 30
0.0
 10
7749.843553881524
 20
4100.836692283632
 30
0.0
 10
7518.431570540895
 20
4101.159442609078
 30
0.0
 10
7400.971590231238
 20
4101.159442609078
 30
0.0
  0
LINE
  5
A89
330
1F
100
AcDbEntity
  8
Furniture
370
     9
100
AcDbLine
 10
9278.134453602309
 20
3302.325491284257
 30
0.0
 11
9278.134453602309
 21
3302.325491284257
 31
0.0
  0
LINE
  5
A8A
330
1F
100
AcDbEntity
  8
Furniture
370
     9
100
AcDbLine
 10
9340.317682970429
 20
3304.315784957817
 30
0.0
 11
9340.317682970429
 21
3304.315784957817
 31
0.0
  0
SPLINE
  5
A8B
330
1F
100
AcDbEntity
  8
Furniture
370
     9
100
AcDbSpline
210
0.0
220
0.0
230
1.0
 70
     8
 71
     3
 72
    17
 73
    13
 74
     0
 42
0.000000001
 43
0.0000000001
 40
0.0
 40
0.0
 40
0.0
 40
0.0
 40
1.0
 40
1.0
 40
1.0
 40
2.0
 40
2.0
 40
2.0
 40
3.0
 40
3.0
 40
3.0
 40
4.0
 40
4.0
 40
4.0
 40
4.0
 10
9836.84898390936
 20
3314.791722604383
 30
0.0
 10
9814.437911042011
 20
3315.275848092559
 30
0.0
 10
9663.767300782375
 20
3316.163411487524
 30
0.0
 10
9636.844544468562
 20
3316.163411487524
 30
0.0
 10
9569.577997474755
 20
3316.163411487524
 30
0.0
 10
9343.141748318039
 20
3315.275848092559
 30
0.0
 10
9317.052763678306
 20
3316.109619766609
 30
0.0
 10
9306.42889879923
 20
3316.405474231597
 30
0.0
 10
9298.655995128209
 20
3318.073017579696
 30
0.0
 10
9291.958925875309
 20
3319.875040230083
 30
0.0
 10
9291.958925875309
 20
3319.875040230083
 30
0.0
 10
9276.924139881911
 20
3324.070794460804
 30
0.0
 10
9276.924139881911
 20
3324.070794460804
 30
0.0
  0
SPLINE
  5
A8C
330
1F
100
AcDbEntity
  8
Furniture
370
     9
100
AcDbSpline
210
0.0
220
0.0
230
1.0
 70
     8
 71
     3
 72
     8
 73
     4
 74
     0
 42
0.000000001
 43
0.0000000001
 40
0.0
 40
0.0
 40
0.0
 40
0.0
 40
1.0
 40
1.0
 40
1.0
 40
1.0
 10
9327.622836836438
 20
3862.821775201755
 30
0.0
 10
9327.622836836438
 20
3862.821775201755
 30
0.0
 10
9144.246860265555
 20
3938.963956145195
 30
0.0
 10
9126.414904784992
 20
3971.077613526479
 30
0.0
  0
SPLINE
  5
A8D
330
1F
100
AcDbEntity
  8
Furniture
370
     9
100
AcDbSpline
210
0.0
220
0.0
230
1.0
 70
     8
 71
     3
 72
    38
 73
    34
 74
     0
 42
0.000000001
 43
0.0000000001
 40
0.0
 40
0.0
 40
0.0
 40
0.0
 40
1.0
 40
1.0
 40
1.0
 40
2.0
 40
2.0
 40
2.0
 40
3.0
 40
3.0
 40
3.0
 40
4.0
 40
4.0
 40
4.0
 40
5.0
 40
5.0
 40
5.0
 40
6.0
 40
6.0
 40
6.0
 40
7.0
 40
7.0
 40
7.0
 40
8.0
 40
8.0
 40
8.0
 40
9.0
 40
9.0
 40
9.0
 40
10.0
 40
10.0
 40
10.0
 40
11.0
 40
11.0
 40
11.0
 40
11.0
 10
9836.84898390936
 20
4123.657829878302
 30
0.0
 10
9776.864393988681
 20
4123.657829878302
 30
0.0
 10
9507.690622571621
 20
4123.657829878302
 30
0.0
 10
9419.499096145095
 20
4123.657829878302
 30
0.0
 10
9304.250334102484
 20
4123.657829878302
 30
0.0
 10
9108.744324467144
 20
4118.493824671274
 30
0.0
 10
9080.611254432936
 20
4118.493824671274
 30
0.0
 10
9052.505080259171
 20
4118.493824671274
 30
0.0
 10
9044.678384867262
 20
4110.613337558436
 30
0.0
 10
9056.001542118144
 20
4101.522536725187
 30
0.0
 10
9067.190220066752
 20
4092.431735891969
 30
0.0
 10
9088.733804289891
 20
4031.781570569673
 30
0.0
 10
9103.499631678742
 20
4008.032525789374
 30
0.0
 10
9120.121273438909
 20
3981.136665336034
 30
0.0
 10
9133.838162270141
 20
3977.855370360721
 30
0.0
 10
9122.649484321533
 20
3950.340905116948
 30
0.0
 10
9110.196700931641
 20
3919.840999362863
 30
0.0
 10
9104.817528840909
 20
3827.507510426516
 30
0.0
 10
9096.345332798138
 20
3750.101224041795
 30
0.0
 10
9087.900032615811
 20
3672.64114593616
 30
0.0
 10
9080.127128944788
 20
3252.070576027185
 30
0.0
 10
9080.127128944788
 20
3252.070576027185
 30
0.0
 10
9081.310546804742
 20
3250.698887144074
 30
0.0
 10
9098.25493889034
 20
3241.742565613113
 30
0.0
 10
9156.000351283639
 20
3251.747825701754
 30
0.0
 10
9211.540303119805
 20
3261.376543744034
 30
0.0
 10
9279.022016997272
 20
3311.349052466368
 30
0.0
 10
9279.022016997272
 20
3311.349052466368
 30
0.0
 10
9279.022016997272
 20
3311.349052466368
 30
0.0
 10
9315.439012051092
 20
3307.07261065429
 30
0.0
 10
9371.812735561279
 20
3306.749860328829
 30
0.0
 10
9488.917311975148
 20
3306.131255538411
 30
0.0
 10
9700.829796487056
 20
3305.862296933894
 30
0.0
 10
9836.84898390936
 20
3305.808505212979
 30
0.0
  0
SPLINE
  5
A8E
330
1F
100
AcDbEntity
  8
Furniture
370
     9
100
AcDbSpline
210
0.0
220
0.0
230
1.0
 70
     8
 71
     3
 72
    29
 73
    25
 74
     0
 42
0.000000001
 43
0.0000000001
 40
0.0
 40
0.0
 40
0.0
 40
0.0
 40
1.0
 40
1.0
 40
1.0
 40
2.0
 40
2.0
 40
2.0
 40
3.0
 40
3.0
 40
3.0
 40
4.0
 40
4.0
 40
4.0
 40
5.0
 40
5.0
 40
5.0
 40
6.0
 40
6.0
 40
6.0
 40
7.0
 40
7.0
 40
7.0
 40
8.0
 40
8.0
 40
8.0
 40
8.0
 10
9836.84898390936
 20
3879.362729380581
 30
0.0
 10
9627.40409744944
 20
3872.665660127681
 30
0.0
 10
9327.622836836438
 20
3862.821775201755
 30
0.0
 10
9327.622836836438
 20
3862.821775201755
 30
0.0
 10
9327.622836836438
 20
3862.821775201755
 30
0.0
 10
9339.779765761397
 20
3415.947053769432
 30
0.0
 10
9336.98259627423
 20
3393.919344058133
 30
0.0
 10
9334.104739205734
 20
3371.864738486376
 30
0.0
 10
9261.109373935322
 20
3293.624680427619
 30
0.0
 10
9173.482660578329
 20
3268.988072252356
 30
0.0
 10
9151.589430169316
 20
3262.85581606899
 30
0.0
 10
9148.523302077604
 20
3260.569667930456
 30
0.0
 10
9122.299838135599
 20
3258.471790815097
 30
0.0
 10
9095.995686612207
 20
3256.347017839264
 30
0.0
 10
9091.396494474727
 20
3260.462084488641
 30
0.0
 10
9091.396494474727
 20
3260.462084488641
 30
0.0
 10
9091.396494474727
 20
3260.462084488641
 30
0.0
 10
9104.602361957308
 20
3361.267769467774
 30
0.0
 10
9106.081634282249
 20
3380.202455226932
 30
0.0
 10
9107.534010746746
 20
3399.137140986091
 30
0.0
 10
9116.786186742652
 20
3736.572606233767
 30
0.0
 10
9118.937855578957
 20
3794.667664812969
 30
0.0
 10
9120.981940973432
 20
3852.7627233922
 30
0.0
 10
9146.425424962302
 20
3955.935244091252
 30
0.0
 10
9146.425424962302
 20
3955.935244091252
 30
0.0
  0
SPLINE
  5
A8F
330
1F
100
AcDbEntity
  8
Furniture
370
     9
100
AcDbSpline
210
0.0
220
0.0
230
1.0
 70
     8
 71
     3
 72
    14
 73
    10
 74
     0
 42
0.000000001
 43
0.0000000001
 40
0.0
 40
0.0
 40
0.0
 40
0.0
 40
1.0
 40
1.0
 40
1.0
 40
2.0
 40
2.0
 40
2.0
 40
3.0
 40
3.0
 40
3.0
 40
3.0
 10
9148.523302077604
 20
3951.309156093255
 30
0.0
 10
9148.523302077604
 20
3951.309156093255
 30
0.0
 10
9080.127128944788
 20
4101.522536725187
 30
0.0
 10
9080.127128944788
 20
4101.522536725187
 30
0.0
 10
9080.127128944788
 20
4101.522536725187
 30
0.0
 10
9370.118296352737
 20
4109.752670023929
 30
0.0
 10
9439.64409562462
 20
4109.752670023929
 30
0.0
 10
9487.868373417468
 20
4109.752670023929
 30
0.0
 10
9719.280356758098
 20
4110.075420349359
 30
0.0
 10
9836.902775630305
 20
4110.075420349359
 30
0.0
  0
SPLINE
  5
A90
330
1F
100
AcDbEntity
  8
Furniture
370
     9
100
AcDbSpline
210
0.0
220
0.0
230
1.0
 70
     8
 71
     3
 72
    20
 73
    16
 74
     0
 42
0.000000001
 43
0.0000000001
 40
0.0
 40
0.0
 40
0.0
 40
0.0
 40
1.0
 40
1.0
 40
1.0
 40
2.0
 40
2.0
 40
2.0
 40
3.0
 40
3.0
 40
3.0
 40
4.0
 40
4.0
 40
4.0
 40
5.0
 40
5.0
 40
5.0
 40
5.0
 10
10696.26437481748
 20
3324.070794460804
 30
0.0
 10
10696.26437481748
 20
3324.070794460804
 30
0.0
 10
10681.22958882408
 20
3319.875040230083
 30
0.0
 10
10681.22958882408
 20
3319.875040230083
 30
0.0
 10
10674.50562371074
 20
3318.073017579696
 30
0.0
 10
10666.75961590016
 20
3316.405474231597
 30
0.0
 10
10656.13575102109
 20
3316.109619766609
 30
0.0
 10
10630.04676638135
 20
3315.275848092559
 30
0.0
 10
10403.61051722464
 20
3316.163411487524
 30
0.0
 10
10336.34397023083
 20
3316.163411487524
 30
0.0
 10
10309.47500563796
 20
3316.163411487524
 30
0.0
 10
10220.49153741589
 20
3315.275848092559
 30
0.0
 10
10136.57645280148
 20
3314.791722604383
 30
0.0
 10
10136.57645280148
 20
3314.791722604383
 30
0.0
 10
9836.84898390936
 20
3314.791722604383
 30
0.0
 10
9836.84898390936
 20
3314.791722604383
 30
0.0
  0
SPLINE
  5
A91
330
1F
100
AcDbEntity
  8
Furniture
370
     9
100
AcDbSpline
210
0.0
220
0.0
230
1.0
 70
     8
 71
     3
 72
     8
 73
     4
 74
     0
 42
0.000000001
 43
0.0000000001
 40
0.0
 40
0.0
 40
0.0
 40
0.0
 40
1.0
 40
1.0
 40
1.0
 40
1.0
 10
10645.56567786296
 20
3862.821775201755
 30
0.0
 10
10645.56567786296
 20
3862.821775201755
 30
0.0
 10
10828.9147585734
 20
3938.963956145195
 30
0.0
 10
10846.74671405396
 20
3971.077613526479
 30
0.0
  0
SPLINE
  5
A92
330
1F
100
AcDbEntity
  8
Furniture
370
     9
100
AcDbSpline
210
0.0
220
0.0
230
1.0
 70
     8
 71
     3
 72
    44
 73
    40
 74
     0
 42
0.000000001
 43
0.0000000001
 40
0.0
 40
0.0
 40
0.0
 40
0.0
 40
1.0
 40
1.0
 40
1.0
 40
2.0
 40
2.0
 40
2.0
 40
3.0
 40
3.0
 40
3.0
 40
4.0
 40
4.0
 40
4.0
 40
5.0
 40
5.0
 40
5.0
 40
6.0
 40
6.0
 40
6.0
 40
7.0
 40
7.0
 40
7.0
 40
8.0
 40
8.0
 40
8.0
 40
9.0
 40
9.0
 40
9.0
 40
10.0
 40
10.0
 40
10.0
 40
11.0
 40
11.0
 40
11.0
 40
12.0
 40
12.0
 40
12.0
 40
13.0
 40
13.0
 40
13.0
 40
13.0
 10
9836.84898390936
 20
4123.657829878302
 30
0.0
 10
9836.84898390936
 20
4123.657829878302
 30
0.0
 10
10136.57645280148
 20
4123.657829878302
 30
0.0
 10
10136.57645280148
 20
4123.657829878302
 30
0.0
 10
10196.35101657116
 20
4123.657829878302
 30
0.0
 10
10465.57857970916
 20
4123.657829878302
 30
0.0
 10
10553.6894185543
 20
4123.657829878302
 30
0.0
 10
10668.91128473641
 20
4123.657829878302
 30
0.0
 10
10864.44419023225
 20
4118.493824671274
 30
0.0
 10
10892.55036440601
 20
4118.493824671274
 30
0.0
 10
10920.65653857978
 20
4118.493824671274
 30
0.0
 10
10928.51012983213
 20
4110.613337558436
 30
0.0
 10
10917.16007672081
 20
4101.522536725187
 30
0.0
 10
10905.9713987722
 20
4092.431735891969
 30
0.0
 10
10884.45471040956
 20
4031.781570569673
 30
0.0
 10
10869.68888302065
 20
4008.032525789374
 30
0.0
 10
10853.04034540004
 20
3981.136665336034
 30
0.0
 10
10839.35035242931
 20
3977.855370360721
 30
0.0
 10
10850.53903037786
 20
3950.340905116948
 30
0.0
 10
10862.96491790731
 20
3919.840999362863
 30
0.0
 10
10868.37098585843
 20
3827.507510426516
 30
0.0
 10
10876.81628604081
 20
3750.101224041795
 30
0.0
 10
10885.28848208358
 20
3672.64114593616
 30
0.0
 10
10893.03448989416
 20
3252.070576027185
 30
0.0
 10
10893.03448989416
 20
3252.070576027185
 30
0.0
 10
10891.85107203421
 20
3250.698887144074
 30
0.0
 10
10874.93357580905
 20
3241.742565613113
 30
0.0
 10
10817.16126755531
 20
3251.747825701754
 30
0.0
 10
10761.64821157959
 20
3261.376543744034
 30
0.0
 10
10694.16649770212
 20
3311.349052466368
 30
0.0
 10
10694.16649770212
 20
3311.349052466368
 30
0.0
 10
10694.16649770212
 20
3311.349052466368
 30
0.0
 10
10657.72260678786
 20
3307.07261065429
 30
0.0
 10
10601.37577913806
 20
3306.749860328829
 30
0.0
 10
10484.29809858469
 20
3306.131255538411
 30
0.0
 10
10272.41250993322
 20
3305.862296933894
 30
0.0
 10
10136.57645280148
 20
3305.808505212979
 30
0.0
 10
10136.57645280148
 20
3305.808505212979
 30
0.0
 10
9836.84898390936
 20
3305.808505212979
 30
0.0
 10
9836.84898390936
 20
3305.808505212979
 30
0.0
  0
SPLINE
  5
A93
330
1F
100
AcDbEntity
  8
Furniture
370
     9
100
AcDbSpline
210
0.0
220
0.0
230
1.0
 70
     8
 71
     3
 72
    32
 73
    28
 74
     0
 42
0.000000001
 43
0.0000000001
 40
0.0
 40
0.0
 40
0.0
 40
0.0
 40
1.0
 40
1.0
 40
1.0
 40
2.0
 40
2.0
 40
2.0
 40
3.0
 40
3.0
 40
3.0
 40
4.0
 40
4.0
 40
4.0
 40
5.0
 40
5.0
 40
5.0
 40
6.0
 40
6.0
 40
6.0
 40
7.0
 40
7.0
 40
7.0
 40
8.0
 40
8.0
 40
8.0
 40
9.0
 40
9.0
 40
9.0
 40
9.0
 10
10826.76308973715
 20
3955.935244091252
 30
0.0
 10
10826.76308973715
 20
3955.935244091252
 30
0.0
 10
10852.20657372602
 20
3852.7627233922
 30
0.0
 10
10854.22376325999
 20
3794.667664812969
 30
0.0
 10
10856.40232795668
 20
3736.572606233767
 30
0.0
 10
10865.6276080922
 20
3399.137140986091
 30
0.0
 10
10867.10688041715
 20
3380.202455226932
 30
0.0
 10
10868.55925688164
 20
3361.267769467774
 30
0.0
 10
10881.79202022467
 20
3260.462084488641
 30
0.0
 10
10881.79202022467
 20
3260.462084488641
 30
0.0
 10
10881.79202022467
 20
3260.462084488641
 30
0.0
 10
10877.16593222669
 20
3256.347017839264
 30
0.0
 10
10850.88867656374
 20
3258.471790815097
 30
0.0
 10
10824.66521262173
 20
3260.569667930456
 30
0.0
 10
10821.57218866963
 20
3262.85581606899
 30
0.0
 10
10799.67895826062
 20
3268.988072252356
 30
0.0
 10
10712.07914076407
 20
3293.624680427619
 30
0.0
 10
10639.05687963321
 20
3371.864738486376
 30
0.0
 10
10636.20591842516
 20
3393.919344058133
 30
0.0
 10
10633.408748938
 20
3415.947053769432
 30
0.0
 10
10645.56567786296
 20
3862.821775201755
 30
0.0
 10
10645.56567786296
 20
3862.821775201755
 30
0.0
 10
10645.56567786296
 20
3862.821775201755
 30
0.0
 10
10345.83820897084
 20
3872.665660127681
 30
0.0
 10
10136.57645280148
 20
3879.362729380581
 30
0.0
 10
10136.57645280148
 20
3879.362729380581
 30
0.0
 10
9836.84898390936
 20
3879.362729380581
 30
0.0
 10
9836.84898390936
 20
3879.362729380581
 30
0.0
  0
SPLINE
  5
A94
330
1F
100
AcDbEntity
  8
Furniture
370
     9
100
AcDbSpline
210
0.0
220
0.0
230
1.0
 70
     8
 71
     3
 72
    17
 73
    13
 74
     0
 42
0.000000001
 43
0.0000000001
 40
0.0
 40
0.0
 40
0.0
 40
0.0
 40
1.0
 40
1.0
 40
1.0
 40
2.0
 40
2.0
 40
2.0
 40
3.0
 40
3.0
 40
3.0
 40
4.0
 40
4.0
 40
4.0
 40
4.0
 10
10824.66521262173
 20
3951.309156093255
 30
0.0
 10
10824.66521262173
 20
3951.309156093255
 30
0.0
 10
10893.03448989416
 20
4101.522536725187
 30
0.0
 10
10893.03448989416
 20
4101.522536725187
 30
0.0
 10
10893.03448989416
 20
4101.522536725187
 30
0.0
 10
10603.04332248621
 20
4109.752670023929
 30
0.0
 10
10533.54441907477
 20
4109.752670023929
 30
0.0
 10
10485.34703714237
 20
4109.752670023929
 30
0.0
 10
10253.96194966224
 20
4110.075420349359
 30
0.0
 10
10136.52266108059
 20
4110.075420349359
 30
0.0
 10
10136.52266108059
 20
4110.075420349359
 30
0.0
 10
9836.902775630305
 20
4110.075420349359
 30
0.0
 10
9836.902775630305
 20
4110.075420349359
 30
0.0
  0
LINE
  5
A95
330
1F
100
AcDbEntity
  8
Furniture
370
     9
100
AcDbLine
 10
5711.1450217382
 20
3791.278786395855
 30
0.0
 11
5711.1450217382
 21
3791.278786395855
 31
0.0
  0
MTEXT
  5
A96
330
1F
100
AcDbEntity
  8
Dimension
100
AcDbMText
 10
2918.547830867355
 20
6049.280406965805
 30
0.0
 40
121.7328160806779
 41
0.0
 46
0.0
 71
     7
 72
     1
  1
\fApercu|b0|i0|c0|p34;\W1.0004;86
 73
     1
 44
1.0
  0
MTEXT
  5
A97
330
1F
100
AcDbEntity
  8
Dimension
100
AcDbMText
 10
12722.07551818155
 20
2412.664219208502
 30
0.0
 40
121.7328160806779
 41
0.0
 46
0.0
 71
     7
 72
     1
  1
\fApercu|b0|i0|c0|p34;\W1.0004;217
 73
     1
 44
1.0
  0
MTEXT
  5
A98
330
1F
100
AcDbEntity
  8
Dimension
100
AcDbMText
 10
9858.042921946625
 20
2412.664219208502
 30
0.0
 40
121.7328160806779
 41
0.0
 46
0.0
 71
     7
 72
     1
  1
\fApercu|b0|i0|c0|p34;\W1.0004;187
 73
     1
 44
1.0
  0
MTEXT
  5
A9A
330
1F
100
AcDbEntity
  8
Dimension
100
AcDbMText
 10
5971.900388833375
 20
3437.262023178704
 30
0.0
 40
121.7328160806779
 41
0.0
 46
0.0
 71
     7
 72
     1
  1
\fApercu|b0|i0|c0|p34;\W1.0004;44
 73
     1
 44
1.0
  0
MTEXT
  5
A9B
330
1F
100
AcDbEntity
  8
Dimension
100
AcDbMText
 10
5971.900388833375
 20
1443.687054655838
 30
0.0
 40
121.7328160806779
 41
0.0
 46
0.0
 71
     7
 72
     1
  1
\fApercu|b0|i0|c0|p34;\W1.0004;44
 73
     1
 44
1.0
  0
SPLINE
  5
A9C
330
1F
100
AcDbEntity
  8
Furniture
370
     9
100
AcDbSpline
210
0.0
220
0.0
230
1.0
 70
    11
 71
     3
 72
    62
 73
    58
 74
     0
 42
0.000000001
 43
0.0000000001
 40
0.0
 40
0.0
 40
0.0
 40
0.0
 40
1.0
 40
1.0
 40
1.0
 40
2.0
 40
2.0
 40
2.0
 40
3.0
 40
3.0
 40
3.0
 40
4.0
 40
4.0
 40
4.0
 40
5.0
 40
5.0
 40
5.0
 40
6.0
 40
6.0
 40
6.0
 40
7.0
 40
7.0
 40
7.0
 40
8.0
 40
8.0
 40
8.0
 40
9.0
 40
9.0
 40
9.0
 40
10.0
 40
10.0
 40
10.0
 40
11.0
 40
11.0
 40
11.0
 40
12.0
 40
12.0
 40
12.0
 40
13.0
 40
13.0
 40
13.0
 40
14.0
 40
14.0
 40
14.0
 40
15.0
 40
15.0
 40
15.0
 40
16.0
 40
16.0
 40
16.0
 40
17.0
 40
17.0
 40
17.0
 40
18.0
 40
18.0
 40
18.0
 40
19.0
 40
19.0
 40
19.0
 40
19.0
 10
2685.145553853254
 20
1602.722277516473
 30
0.0
 10
2685.145553853254
 20
1602.722277516473
 30
0.0
 10
2685.602783480958
 20
1280.37538998311
 30
0.0
 10
2685.602783480958
 20
1280.37538998311
 30
0.0
 10
2685.602783480958
 20
1280.37538998311
 30
0.0
 10
2733.934644715577
 20
1280.42918170401
 30
0.0
 10
2733.934644715577
 20
1280.42918170401
 30
0.0
 10
2733.934644715577
 20
1280.42918170401
 30
0.0
 10
2733.584998529703
 20
1524.91255322492
 30
0.0
 10
2733.584998529703
 20
1524.91255322492
 30
0.0
 10
2733.584998529703
 20
1524.91255322492
 30
0.0
 10
3454.259579377082
 20
1486.747327241628
 30
0.0
 10
3454.259579377082
 20
1486.747327241628
 30
0.0
 10
3454.259579377082
 20
1486.747327241628
 30
0.0
 10
3496.566767870223
 20
1281.558807843063
 30
0.0
 10
3496.566767870223
 20
1281.558807843063
 30
0.0
 10
3496.566767870223
 20
1281.558807843063
 30
0.0
 10
3515.366974327081
 20
1281.58570370352
 30
0.0
 10
3515.366974327081
 20
1281.58570370352
 30
0.0
 10
3515.366974327081
 20
1281.58570370352
 30
0.0
 10
3473.005994113054
 20
1489.759663612411
 30
0.0
 10
3473.005994113054
 20
1489.759663612411
 30
0.0
 10
3473.005994113054
 20
1489.759663612411
 30
0.0
 10
3511.897408328667
 20
1670.042616231181
 30
0.0
 10
3510.068489817793
 20
1672.194285067457
 30
0.0
 10
3508.185779586034
 20
1674.372849764175
 30
0.0
 10
3498.234311218322
 20
1674.910766973237
 30
0.0
 10
3496.00195480069
 20
1673.028056741492
 30
0.0
 10
3493.7964942435
 20
1671.091554788876
 30
0.0
 10
3454.178891795753
 20
1504.444803419934
 30
0.0
 10
3454.178891795753
 20
1504.444803419934
 30
0.0
 10
3454.178891795753
 20
1504.444803419934
 30
0.0
 10
2736.113209412324
 20
1536.854315266206
 30
0.0
 10
2736.113209412324
 20
1536.854315266206
 30
0.0
 10
2736.113209412324
 20
1536.854315266206
 30
0.0
 10
2736.019073900716
 20
1602.708829586223
 30
0.0
 10
2736.019073900716
 20
1602.708829586223
 30
0.0
 10
2736.019073900716
 20
1602.708829586223
 30
0.0
 10
2735.96528217983
 20
1642.380223754928
 30
0.0
 10
2735.96528217983
 20
1642.380223754928
 30
0.0
 10
2735.96528217983
 20
1642.380223754928
 30
0.0
 10
2735.924938389166
 20
1669.571938673241
 30
0.0
 10
2735.924938389166
 20
1669.571938673241
 30
0.0
 10
2735.924938389166
 20
1669.571938673241
 30
0.0
 10
2737.027668667732
 20
1677.775176111525
 30
0.0
 10
2725.973470021396
 20
1677.748280251067
 30
0.0
 10
2714.91927137506
 20
1677.748280251067
 30
0.0
 10
2693.88670850057
 20
1677.694488530167
 30
0.0
 10
2693.88670850057
 20
1677.694488530167
 30
0.0
 10
2693.88670850057
 20
1677.694488530167
 30
0.0
 10
2685.011074550981
 20
1677.694488530167
 30
0.0
 10
2685.064866271867
 20
1670.325022765933
 30
0.0
 10
2685.064866271867
 20
1670.325022765933
 30
0.0
 10
2685.105210062531
 20
1635.494883478855
 30
0.0
 10
2685.105210062531
 20
1635.494883478855
 30
0.0
 10
2685.105210062531
 20
1635.494883478855
 30
0.0
 10
2685.145553853254
 20
1602.722277516473
 30
0.0
 10
2685.145553853254
 20
1602.722277516473
 30
0.0
  0
SPLINE
  5
A9D
330
1F
100
AcDbEntity
  8
Furniture
370
     9
100
AcDbSpline
210
0.0
220
0.0
230
1.0
 70
     8
 71
     3
 72
    11
 73
     7
 74
     0
 42
0.000000001
 43
0.0000000001
 40
0.0
 40
0.0
 40
0.0
 40
0.0
 40
1.0
 40
1.0
 40
1.0
 40
2.0
 40
2.0
 40
2.0
 40
2.0
 10
2682.213905063814
 20
1536.746731824405
 30
0.0
 10
2682.213905063814
 20
1536.746731824405
 30
0.0
 10
2646.738265125845
 20
1536.746731824405
 30
0.0
 10
2627.803579366715
 20
1536.746731824405
 30
0.0
 10
2626.37809876266
 20
1536.746731824405
 30
0.0
 10
2624.979514019106
 20
1536.881211126663
 30
0.0
 10
2623.634720996437
 20
1537.150169731194
 30
0.0
  0
SPLINE
  5
A9E
330
1F
100
AcDbEntity
  8
Furniture
370
     9
100
AcDbSpline
210
0.0
220
0.0
230
1.0
 70
     8
 71
     3
 72
    62
 73
    58
 74
     0
 42
0.000000001
 43
0.0000000001
 40
0.0
 40
0.0
 40
0.0
 40
0.0
 40
1.0
 40
1.0
 40
1.0
 40
2.0
 40
2.0
 40
2.0
 40
3.0
 40
3.0
 40
3.0
 40
4.0
 40
4.0
 40
4.0
 40
5.0
 40
5.0
 40
5.0
 40
6.0
 40
6.0
 40
6.0
 40
7.0
 40
7.0
 40
7.0
 40
8.0
 40
8.0
 40
8.0
 40
9.0
 40
9.0
 40
9.0
 40
10.0
 40
10.0
 40
10.0
 40
11.0
 40
11.0
 40
11.0
 40
12.0
 40
12.0
 40
12.0
 40
13.0
 40
13.0
 40
13.0
 40
14.0
 40
14.0
 40
14.0
 40
15.0
 40
15.0
 40
15.0
 40
16.0
 40
16.0
 40
16.0
 40
17.0
 40
17.0
 40
17.0
 40
18.0
 40
18.0
 40
18.0
 40
19.0
 40
19.0
 40
19.0
 40
19.0
 10
2641.628051639717
 20
1536.746731824405
 30
0.0
 10
2637.351609827667
 20
1538.333587591161
 30
0.0
 10
2625.43674364681
 20
1587.902658406678
 30
0.0
 10
2628.260808994419
 20
1598.257564681207
 30
0.0
 10
2631.138666062915
 20
1608.612470955751
 30
0.0
 10
2636.141296107213
 20
1633.679412898262
 30
0.0
 10
2636.141296107213
 20
1633.679412898262
 30
0.0
 10
2636.141296107213
 20
1633.679412898262
 30
0.0
 10
2636.141296107213
 20
1635.804185874065
 30
0.0
 10
2636.141296107213
 20
1635.804185874065
 30
0.0
 10
2638.292964943517
 20
1651.618951820641
 30
0.0
 10
2636.813692618576
 20
1671.226034091134
 30
0.0
 10
2639.288111780254
 20
1682.11885757474
 30
0.0
 10
2641.843218523318
 20
1693.011681058331
 30
0.0
 10
2654.591856378254
 20
1749.654363173093
 30
0.0
 10
2656.393879028627
 20
1770.928988791685
 30
0.0
 10
2658.142109958113
 20
1792.096030968463
 30
0.0
 10
2654.484272936425
 20
1841.638205923522
 30
0.0
 10
2656.259399726354
 20
1854.736489964303
 30
0.0
 10
2658.00763065584
 20
1867.807878144627
 30
0.0
 10
2635.522691316794
 20
1911.137109334962
 30
0.0
 10
2643.376282569203
 20
1912.777756822619
 30
0.0
 10
2651.310561402941
 20
1914.418404310276
 30
0.0
 10
2663.575073769673
 20
1905.784833104761
 30
0.0
 10
2674.333417950962
 20
1901.992516780829
 30
0.0
 10
2685.118657992811
 20
1898.200200456911
 30
0.0
 10
2760.292587959855
 20
1889.190087205036
 30
0.0
 10
2801.90048408119
 20
1888.168044507813
 30
0.0
 10
2843.481484342083
 20
1887.14600181059
 30
0.0
 10
3035.141385932635
 20
1891.368651901768
 30
0.0
 10
3048.051398950229
 20
1892.444486319891
 30
0.0
 10
3060.961411967823
 20
1893.601008319402
 30
0.0
 10
3232.718376822893
 20
1878.324159581887
 30
0.0
 10
3270.695331783041
 20
1877.840034093726
 30
0.0
 10
3315.77279390279
 20
1877.221429303306
 30
0.0
 10
3321.044382551693
 20
1866.94721061012
 30
0.0
 10
3426.207196924261
 20
1869.071983585938
 30
0.0
 10
3431.371202131333
 20
1869.179567027753
 30
0.0
 10
3448.315594216933
 20
1931.551067419063
 30
0.0
 10
3449.714178960487
 20
1941.368056484531
 30
0.0
 10
3451.112763704041
 20
1951.185045549999
 30
0.0
 10
3466.49719588337
 20
2004.116098922201
 30
0.0
 10
3466.49719588337
 20
2004.116098922201
 30
0.0
 10
3466.49719588337
 20
2004.116098922201
 30
0.0
 10
3512.166366933154
 20
2132.758999470552
 30
0.0
 10
3512.166366933154
 20
2132.758999470552
 30
0.0
 10
3512.166366933154
 20
2132.758999470552
 30
0.0
 10
3510.929157352315
 20
2147.444139278075
 30
0.0
 10
3521.337855347731
 20
2166.782262944023
 30
0.0
 10
3531.773449203647
 20
2186.120386609986
 30
0.0
 10
3528.680425251492
 20
2173.828978382797
 30
0.0
 10
3540.003582502374
 20
2168.960827640727
 30
0.0
 10
3551.299843892753
 20
2164.065781038229
 30
0.0
 10
3564.182961049963
 20
2171.838684709237
 30
0.0
 10
3576.017139649375
 20
2175.926855498158
 30
0.0
 10
3587.851318248846
 20
2180.041922147521
 30
0.0
 10
3591.885697316852
 20
2170.520787547041
 30
0.0
 10
3591.885697316852
 20
2170.520787547041
 30
0.0
  0
SPLINE
  5
A9F
330
1F
100
AcDbEntity
  8
Furniture
370
     9
100
AcDbSpline
210
0.0
220
0.0
230
1.0
 70
     8
 71
     3
 72
    71
 73
    67
 74
     0
 42
0.000000001
 43
0.0000000001
 40
0.0
 40
0.0
 40
0.0
 40
0.0
 40
1.0
 40
1.0
 40
1.0
 40
2.0
 40
2.0
 40
2.0
 40
3.0
 40
3.0
 40
3.0
 40
4.0
 40
4.0
 40
4.0
 40
5.0
 40
5.0
 40
5.0
 40
6.0
 40
6.0
 40
6.0
 40
7.0
 40
7.0
 40
7.0
 40
8.0
 40
8.0
 40
8.0
 40
9.0
 40
9.0
 40
9.0
 40
10.0
 40
10.0
 40
10.0
 40
11.0
 40
11.0
 40
11.0
 40
12.0
 40
12.0
 40
12.0
 40
13.0
 40
13.0
 40
13.0
 40
14.0
 40
14.0
 40
14.0
 40
15.0
 40
15.0
 40
15.0
 40
16.0
 40
16.0
 40
16.0
 40
17.0
 40
17.0
 40
17.0
 40
18.0
 40
18.0
 40
18.0
 40
19.0
 40
19.0
 40
19.0
 40
20.0
 40
20.0
 40
20.0
 40
21.0
 40
21.0
 40
21.0
 40
22.0
 40
22.0
 40
22.0
 40
22.0
 10
2628.98699722661
 20
1536.746731824405
 30
0.0
 10
2628.98699722661
 20
1536.746731824405
 30
0.0
 10
2624.387805089129
 20
1570.501036693346
 30
0.0
 10
2620.676176346555
 20
1579.161503759333
 30
0.0
 10
2616.991443464482
 20
1587.902658406678
 30
0.0
 10
2623.607825135994
 20
1612.915808628288
 30
0.0
 10
2625.033305739992
 20
1626.014092669054
 30
0.0
 10
2625.22157676315
 20
1627.466469133538
 30
0.0
 10
2625.382951925923
 20
1629.05332490028
 30
0.0
 10
2625.517431228197
 20
1630.774659969295
 30
0.0
 10
2625.517431228197
 20
1630.774659969295
 30
0.0
 10
2626.862224250806
 20
1664.125526931446
 30
0.0
 10
2626.862224250806
 20
1664.125526931446
 30
0.0
 10
2626.862224250806
 20
1664.125526931446
 30
0.0
 10
2633.90893968958
 20
1702.505919798368
 30
0.0
 10
2637.082651223122
 20
1726.228068718224
 30
0.0
 10
2640.283258617048
 20
1749.896425917166
 30
0.0
 10
2644.452116987326
 20
1823.429708396612
 30
0.0
 10
2642.273552290637
 20
1849.545588896803
 30
0.0
 10
2640.09498759389
 20
1875.715261117908
 30
0.0
 10
2620.649280486112
 20
1918.13003305285
 30
0.0
 10
2628.180121413032
 20
1923.858851329398
 30
0.0
 10
2635.71096234001
 20
1929.560773745517
 30
0.0
 10
2659.379319538952
 20
1920.604452214557
 30
0.0
 10
2673.365166974669
 20
1917.376948960158
 30
0.0
 10
2687.324118549943
 20
1914.122549845302
 30
0.0
 10
2748.700472104487
 20
1906.887563383341
 30
0.0
 10
2777.72110553366
 20
1902.799392594436
 30
0.0
 10
2806.795530683718
 20
1898.76501352643
 30
0.0
 10
2960.612956616395
 20
1903.122142919881
 30
0.0
 10
3016.529450498936
 20
1905.62345794203
 30
0.0
 10
3072.472840241863
 20
1908.124772964194
 30
0.0
 10
3237.07550621633
 20
1893.708591761202
 30
0.0
 10
3269.377434620816
 20
1891.368651901768
 30
0.0
 10
3301.598675443915
 20
1889.001816181863
 30
0.0
 10
3416.363311998321
 20
1875.069760467031
 30
0.0
 10
3421.742484088995
 20
1882.439226231265
 30
0.0
 10
3427.094760319226
 20
1889.781796135012
 30
0.0
 10
3431.667056596263
 20
1941.368056484531
 30
0.0
 10
3442.532984219441
 20
1969.958356146428
 30
0.0
 10
3453.398911842618
 20
1998.548655808354
 30
0.0
 10
3491.698617128139
 20
2108.041703713916
 30
0.0
 10
3504.527942564404
 20
2157.072857320356
 30
0.0
 10
3517.330372140226
 20
2206.077115066353
 30
0.0
 10
3538.147768131115
 20
2191.042329072942
 30
0.0
 10
3545.732400778921
 20
2182.354966146511
 30
0.0
 10
3545.732400778921
 20
2182.354966146511
 30
0.0
 10
3546.431693150728
 20
2181.655673774734
 30
0.0
 10
3546.431693150728
 20
2181.655673774734
 30
0.0
 10
3546.431693150728
 20
2181.655673774734
 30
0.0
 10
3546.431693150728
 20
2181.655673774734
 30
0.0
 10
3561.439583283682
 20
2188.137576143974
 30
0.0
 10
3576.501265137522
 20
2194.727061955058
 30
0.0
 10
3590.487112573298
 20
2191.472662840188
 30
0.0
 10
3590.487112573298
 20
2188.191367864874
 30
0.0
 10
3590.487112573298
 20
2187.41138791174
 30
0.0
 10
3604.096417962697
 20
2153.468812019626
 30
0.0
 10
3546.404797290285
 20
1891.745193948114
 30
0.0
 10
3526.717027438404
 20
1802.370249661635
 30
0.0
 10
3506.141694191618
 20
1746.64202680231
 30
0.0
 10
3481.908523923143
 20
1639.838564942071
 30
0.0
 10
3481.908523923143
 20
1639.838564942071
 30
0.0
 10
3453.721662168049
 20
1522.276758900512
 30
0.0
 10
3453.721662168049
 20
1522.276758900512
 30
0.0
 10
3450.063825146361
 20
1506.86543086074
 30
0.0
 10
3400.2526915868
 20
1506.488888814394
 30
0.0
 10
3400.2526915868
 20
1506.488888814394
 30
0.0
  0
SPLINE
  5
AA0
330
1F
100
AcDbEntity
  8
Furniture
370
     9
100
AcDbSpline
210
0.0
220
0.0
230
1.0
 70
     8
 71
     3
 72
    11
 73
     7
 74
     0
 42
0.000000001
 43
0.0000000001
 40
0.0
 40
0.0
 40
0.0
 40
0.0
 40
1.0
 40
1.0
 40
1.0
 40
2.0
 40
2.0
 40
2.0
 40
2.0
 10
3512.166366933154
 20
2177.863357450802
 30
0.0
 10
3512.166366933154
 20
2177.863357450802
 30
0.0
 10
3475.399725693402
 20
2135.744439980863
 30
0.0
 10
3449.068678309624
 20
2093.27587632502
 30
0.0
 10
3422.764526786232
 20
2050.753520948292
 30
0.0
 10
3353.507686118894
 20
1921.411328028163
 30
0.0
 10
3348.854702260469
 20
1883.837810974819
 30
0.0
  0
MTEXT
  5
AA1
330
1F
100
AcDbEntity
  8
Dimension
100
AcDbMText
 10
3713.320507263714
 20
1669.235740417574
 30
0.0
 40
121.7328160806779
 41
0.0
 46
0.0
 71
     7
 72
     1
  1
\fApercu|b0|i0|c0|p34;\W1.0004;88
 73
     1
 44
1.0
  0
MTEXT
  5
AA2
330
1F
100
AcDbEntity
  8
Dimension
100
AcDbMText
 10
2918.547830867355
 20
2319.631437900393
 30
0.0
 40
121.7328160806779
 41
0.0
 46
0.0
 71
     7
 72
     1
  1
\fApercu|b0|i0|c0|p34;\W1.0004;100
 73
     1
 44
1.0
  0
INSERT
  5
AA3
330
1F
100
AcDbEntity
  8
Furniture
100
AcDbBlockReference
  2
block 23
 10
-4290.954803302994
 20
-28617.89686162977
 30
0.0
 41
78.06999999999999
 42
78.06999999999999
 43
78.06999999999999
  0
SPLINE
  5
AA4
330
1F
100
AcDbEntity
  8
Furniture
370
     9
100
AcDbSpline
210
0.0
220
0.0
230
1.0
 70
    11
 71
     3
 72
    29
 73
    25
 74
     0
 42
0.000000001
 43
0.0000000001
 40
0.0
 40
0.0
 40
0.0
 40
0.0
 40
1.0
 40
1.0
 40
1.0
 40
2.0
 40
2.0
 40
2.0
 40
3.0
 40
3.0
 40
3.0
 40
4.0
 40
4.0
 40
4.0
 40
5.0
 40
5.0
 40
5.0
 40
6.0
 40
6.0
 40
6.0
 40
7.0
 40
7.0
 40
7.0
 40
8.0
 40
8.0
 40
8.0
 40
8.0
 10
4201.251759678132
 20
1897.178157759674
 30
0.0
 10
4201.251759678132
 20
1897.178157759674
 30
0.0
 10
4274.27402080893
 20
1900.002223107298
 30
0.0
 10
4308.297284282402
 20
1860.196349636349
 30
0.0
 10
4312.224079908577
 20
1855.597157498811
 30
0.0
 10
4323.332070275799
 20
1829.669548021778
 30
0.0
 10
4326.18303148391
 20
1824.397959372934
 30
0.0
 10
4353.966455332185
 20
1773.510991395207
 30
0.0
 10
4360.905587329187
 20
1707.992675330842
 30
0.0
 10
4365.881321513042
 20
1657.105707353116
 30
0.0
 10
4370.830159836398
 20
1606.164947654488
 30
0.0
 10
4380.700940622839
 20
1540.942486055126
 30
0.0
 10
4380.700940622839
 20
1540.942486055126
 30
0.0
 10
4380.700940622839
 20
1540.942486055126
 30
0.0
 10
4347.350073660673
 20
1532.120643826423
 30
0.0
 10
4334.278685480305
 20
1544.842385820859
 30
0.0
 10
4321.287984881382
 20
1557.591023675752
 30
0.0
 10
4318.786669859204
 20
1591.802558172396
 30
0.0
 10
4291.057037731814
 20
1676.094184833189
 30
0.0
 10
4263.219822162595
 20
1760.412707354426
 30
0.0
 10
4233.957125989378
 20
1781.068728182599
 30
0.0
 10
4230.622039293179
 20
1812.886531098895
 30
0.0
 10
4227.340744317865
 20
1844.677438154747
 30
0.0
 10
4201.251759678132
 20
1897.178157759674
 30
0.0
 10
4201.251759678132
 20
1897.178157759674
 30
0.0
  0
SPLINE
  5
AA5
330
1F
100
AcDbEntity
  8
Furniture
370
     9
100
AcDbSpline
210
0.0
220
0.0
230
1.0
 70
     8
 71
     3
 72
    11
 73
     7
 74
     0
 42
0.000000001
 43
0.0000000001
 40
0.0
 40
0.0
 40
0.0
 40
0.0
 40
1.0
 40
1.0
 40
1.0
 40
2.0
 40
2.0
 40
2.0
 40
2.0
 10
5670.196074198007
 20
1658.98841758486
 30
0.0
 10
5683.240566517874
 20
1651.054138751122
 30
0.0
 10
5671.99809684838
 20
1550.598099957879
 30
0.0
 10
5670.357449360722
 20
1541.937632891891
 30
0.0
 10
5668.770593593952
 20
1533.250269965461
 30
0.0
 10
4403.454838566315
 20
1533.008207221388
 30
0.0
 10
4380.700940622839
 20
1540.942486055126
 30
0.0
  0
SPLINE
  5
AA6
330
1F
100
AcDbEntity
  8
Furniture
370
     9
100
AcDbSpline
210
0.0
220
0.0
230
1.0
 70
     8
 71
     3
 72
    17
 73
    13
 74
     0
 42
0.000000001
 43
0.0000000001
 40
0.0
 40
0.0
 40
0.0
 40
0.0
 40
1.0
 40
1.0
 40
1.0
 40
2.0
 40
2.0
 40
2.0
 40
3.0
 40
3.0
 40
3.0
 40
4.0
 40
4.0
 40
4.0
 40
4.0
 10
4365.397196024838
 20
1704.012087983752
 30
0.0
 10
4365.397196024838
 20
1704.012087983752
 30
0.0
 10
4495.465577177244
 20
1736.045057783693
 30
0.0
 10
4687.367541511841
 20
1734.673368900581
 30
0.0
 10
4879.269505846496
 20
1733.409263459256
 30
0.0
 10
5061.40827283654
 20
1722.516439975665
 30
0.0
 10
5152.450760471118
 20
1728.998342344919
 30
0.0
 10
5152.450760471118
 20
1728.998342344919
 30
0.0
 10
5360.651616240452
 20
1737.389850806346
 30
0.0
 10
5422.458303562256
 20
1735.856786760505
 30
0.0
 10
5484.23809502356
 20
1734.269930993763
 30
0.0
 10
5656.640560529493
 20
1713.829077049235
 30
0.0
 10
5669.711948709861
 20
1705.921694075954
 30
0.0
  0
SPLINE
  5
AA7
330
1F
100
AcDbEntity
  8
Furniture
370
     9
100
AcDbSpline
210
0.0
220
0.0
230
1.0
 70
     8
 71
     3
 72
    23
 73
    19
 74
     0
 42
0.000000001
 43
0.0000000001
 40
0.0
 40
0.0
 40
0.0
 40
0.0
 40
1.0
 40
1.0
 40
1.0
 40
2.0
 40
2.0
 40
2.0
 40
3.0
 40
3.0
 40
3.0
 40
4.0
 40
4.0
 40
4.0
 40
5.0
 40
5.0
 40
5.0
 40
6.0
 40
6.0
 40
6.0
 40
6.0
 10
5670.196074198007
 20
1658.98841758486
 30
0.0
 10
5670.196074198007
 20
1658.98841758486
 30
0.0
 10
5691.793450142031
 20
1828.351650859582
 30
0.0
 10
5740.44806170214
 20
1871.385027584943
 30
0.0
 10
5789.183360843636
 20
1914.418404310276
 30
0.0
 10
5848.730795887306
 20
1901.131849246321
 30
0.0
 10
5849.537671700942
 20
1899.544993479565
 30
0.0
 10
5850.371443374963
 20
1897.931241852366
 30
0.0
 10
5806.558086696496
 20
1818.561557654557
 30
0.0
 10
5796.87557693327
 20
1779.4549765554
 30
0.0
 10
5787.193067170047
 20
1740.294603735314
 30
0.0
 10
5770.167987503119
 20
1705.841006494582
 30
0.0
 10
5760.055143972633
 20
1689.649698501674
 30
0.0
 10
5749.861612860819
 20
1673.404598787852
 30
0.0
 10
5736.951599843226
 20
1563.588800556845
 30
0.0
 10
5725.655338452845
 20
1549.280202795667
 30
0.0
 10
5714.27838948102
 20
1534.917813313575
 30
0.0
 10
5670.357449360722
 20
1541.937632891891
 30
0.0
 10
5670.357449360722
 20
1541.937632891891
 30
0.0
  0
SPLINE
  5
AA8
330
1F
100
AcDbEntity
  8
Furniture
370
     9
100
AcDbSpline
210
0.0
220
0.0
230
1.0
 70
     8
 71
     3
 72
    59
 73
    55
 74
     0
 42
0.000000001
 43
0.0000000001
 40
0.0
 40
0.0
 40
0.0
 40
0.0
 40
1.0
 40
1.0
 40
1.0
 40
2.0
 40
2.0
 40
2.0
 40
3.0
 40
3.0
 40
3.0
 40
4.0
 40
4.0
 40
4.0
 40
5.0
 40
5.0
 40
5.0
 40
6.0
 40
6.0
 40
6.0
 40
7.0
 40
7.0
 40
7.0
 40
8.0
 40
8.0
 40
8.0
 40
9.0
 40
9.0
 40
9.0
 40
10.0
 40
10.0
 40
10.0
 40
11.0
 40
11.0
 40
11.0
 40
12.0
 40
12.0
 40
12.0
 40
13.0
 40
13.0
 40
13.0
 40
14.0
 40
14.0
 40
14.0
 40
15.0
 40
15.0
 40
15.0
 40
16.0
 40
16.0
 40
16.0
 40
17.0
 40
17.0
 40
17.0
 40
18.0
 40
18.0
 40
18.0
 40
18.0
 10
4294.257645125798
 20
1883.582300300524
 30
0.0
 10
4294.257645125798
 20
1883.582300300524
 30
0.0
 10
4271.409611670657
 20
1942.416995042226
 30
0.0
 10
4273.615072227789
 20
1988.462708138341
 30
0.0
 10
4275.793636924536
 20
2034.454629513555
 30
0.0
 10
4277.057742365876
 20
2066.823797569148
 30
0.0
 10
4273.278873972136
 20
2082.167885957799
 30
0.0
 10
4269.594141090062
 20
2097.458182625535
 30
0.0
 10
4255.662085375232
 20
2158.807640319607
 30
0.0
 10
4255.662085375232
 20
2158.807640319607
 30
0.0
 10
4255.662085375232
 20
2158.807640319607
 30
0.0
 10
4255.662085375232
 20
2172.416945709007
 30
0.0
 10
4255.662085375232
 20
2172.416945709007
 30
0.0
 10
4255.662085375232
 20
2172.416945709007
 30
0.0
 10
4260.073006489554
 20
2175.873063777242
 30
0.0
 10
4274.811938017963
 20
2172.44384156945
 30
0.0
 10
4289.416390244157
 20
2169.108754873236
 30
0.0
 10
4310.90618274641
 20
2158.874879970743
 30
0.0
 10
4347.64592812566
 20
2165.7602202468
 30
0.0
 10
4384.520152807184
 20
2172.632112592623
 30
0.0
 10
4511.764468611982
 20
2170.722506500435
 30
0.0
 10
4545.491877620465
 20
2174.407239382552
 30
0.0
 10
4579.192390768505
 20
2178.038180543754
 30
0.0
 10
4681.880785979396
 20
2186.712095539948
 30
0.0
 10
4717.195050754649
 20
2181.642225844498
 30
0.0
 10
4752.45552380896
 20
2176.599252009491
 30
0.0
 10
4752.45552380896
 20
2176.599252009491
 30
0.0
 10
4752.45552380896
 20
2176.599252009491
 30
0.0
 10
4752.45552380896
 20
2176.599252009491
 30
0.0
 10
5017.675603739401
 20
2170.184589291359
 30
0.0
 10
5040.725356147923
 20
2168.503598013038
 30
0.0
 10
5063.667525114615
 20
2166.862950525381
 30
0.0
 10
5328.860709184613
 20
2180.620183147261
 30
0.0
 10
5347.284373595154
 20
2184.197332587562
 30
0.0
 10
5365.708038005694
 20
2187.707242376728
 30
0.0
 10
5584.989988281806
 20
2174.434135242995
 30
0.0
 10
5615.624373338192
 20
2176.195814102688
 30
0.0
 10
5646.285654255022
 20
2177.917149171703
 30
0.0
 10
5702.309731579276
 20
2171.233527849054
 30
0.0
 10
5724.875358499652
 20
2171.233527849054
 30
0.0
 10
5747.440985420027
 20
2171.260423709511
 30
0.0
 10
5732.164136682528
 20
2164.401979293896
 30
0.0
 10
5756.746953136877
 20
2167.884993222604
 30
0.0
 10
5781.222186149455
 20
2171.314215430411
 30
0.0
 10
5791.308133819438
 20
2184.950416680254
 30
0.0
 10
5794.723908097025
 20
2178.15921191579
 30
0.0
 10
5798.11278651411
 20
2171.287319569969
 30
0.0
 10
5790.528153866304
 20
2116.769410431025
 30
0.0
 10
5785.928961728765
 20
2082.705803166875
 30
0.0
 10
5781.423905102834
 20
2048.615300042238
 30
0.0
 10
5781.504592684163
 20
1985.571403139609
 30
0.0
 10
5778.465360452952
 20
1959.99343984848
 30
0.0
 10
5775.439576151963
 20
1934.523059999166
 30
0.0
 10
5761.668895599846
 20
1885.801208787921
 30
0.0
 10
5761.668895599846
 20
1885.801208787921
 30
0.0
  0
SPLINE
  5
AA9
330
1F
100
AcDbEntity
  8
Furniture
370
     9
100
AcDbSpline
210
0.0
220
0.0
230
1.0
 70
     8
 71
     3
 72
    86
 73
    82
 74
     0
 42
0.000000001
 43
0.0000000001
 40
0.0
 40
0.0
 40
0.0
 40
0.0
 40
1.0
 40
1.0
 40
1.0
 40
2.0
 40
2.0
 40
2.0
 40
3.0
 40
3.0
 40
3.0
 40
4.0
 40
4.0
 40
4.0
 40
5.0
 40
5.0
 40
5.0
 40
6.0
 40
6.0
 40
6.0
 40
7.0
 40
7.0
 40
7.0
 40
8.0
 40
8.0
 40
8.0
 40
9.0
 40
9.0
 40
9.0
 40
10.0
 40
10.0
 40
10.0
 40
11.0
 40
11.0
 40
11.0
 40
12.0
 40
12.0
 40
12.0
 40
13.0
 40
13.0
 40
13.0
 40
14.0
 40
14.0
 40
14.0
 40
15.0
 40
15.0
 40
15.0
 40
16.0
 40
16.0
 40
16.0
 40
17.0
 40
17.0
 40
17.0
 40
18.0
 40
18.0
 40
18.0
 40
19.0
 40
19.0
 40
19.0
 40
20.0
 40
20.0
 40
20.0
 40
21.0
 40
21.0
 40
21.0
 40
22.0
 40
22.0
 40
22.0
 40
23.0
 40
23.0
 40
23.0
 40
24.0
 40
24.0
 40
24.0
 40
25.0
 40
25.0
 40
25.0
 40
26.0
 40
26.0
 40
26.0
 40
27.0
 40
27.0
 40
27.0
 40
27.0
 10
4286.619220756991
 20
1887.159449740826
 30
0.0
 10
4286.619220756991
 20
1887.159449740826
 30
0.0
 10
4289.389494383715
 20
1885.922240159958
 30
0.0
 10
4282.719320991258
 20
1898.159856666232
 30
0.0
 10
4275.968460017473
 20
1910.451264893407
 30
0.0
 10
4265.169772045461
 20
1983.33904672199
 30
0.0
 10
4266.138023021812
 20
2002.058565597519
 30
0.0
 10
4267.133169858548
 20
2020.804980333476
 30
0.0
 10
4263.475332836918
 20
2063.394575361355
 30
0.0
 10
4259.938527187282
 20
2088.367381792286
 30
0.0
 10
4256.226898444707
 20
2113.353636153453
 30
0.0
 10
4251.654602167669
 20
2137.210264375582
 30
0.0
 10
4249.610516773194
 20
2151.397830764709
 30
0.0
 10
4247.539535518277
 20
2165.598845084071
 30
0.0
 10
4247.485743797391
 20
2185.488333889331
 30
0.0
 10
4247.485743797391
 20
2185.488333889331
 30
0.0
 10
4247.485743797391
 20
2185.488333889331
 30
0.0
 10
4243.881698496647
 20
2186.644855888812
 30
0.0
 10
4250.013954680013
 20
2187.774482027849
 30
0.0
 10
4256.173106723821
 20
2188.917556097123
 30
0.0
 10
4274.058853925271
 20
2186.120386609986
 30
0.0
 10
4286.350262152504
 20
2183.188737820561
 30
0.0
 10
4298.641670379678
 20
2180.243641100915
 30
0.0
 10
4326.720948692942
 20
2175.953751358615
 30
0.0
 10
4335.919332967962
 20
2178.804712566667
 30
0.0
 10
4345.11771724304
 20
2181.655673774734
 30
0.0
 10
4390.087595921016
 20
2180.620183147261
 30
0.0
 10
4408.457468610672
 20
2180.028474217299
 30
0.0
 10
4426.908028881654
 20
2179.51745286868
 30
0.0
 10
4465.772547236767
 20
2182.39530993719
 30
0.0
 10
4476.450203836728
 20
2183.484592285549
 30
0.0
 10
4487.181652157633
 20
2184.520082912994
 30
0.0
 10
4549.09592292121
 20
2184.22422844802
 30
0.0
 10
4574.082177282376
 20
2188.258607516011
 30
0.0
 10
4599.095327503986
 20
2192.279538653794
 30
0.0
 10
4656.867635757728
 20
2193.476404443969
 30
0.0
 10
4673.704444401556
 20
2193.516748234648
 30
0.0
 10
4690.568148905826
 20
2193.530196164884
 30
0.0
 10
4722.251472519834
 20
2191.862652816769
 30
0.0
 10
4754.44581748249
 20
2189.119275050533
 30
0.0
 10
4786.640162445146
 20
2186.295209702923
 30
0.0
 10
4848.016515999691
 20
2187.532419283776
 30
0.0
 10
4877.655754219283
 20
2184.076301215511
 30
0.0
 10
4907.268096578373
 20
2180.620183147261
 30
0.0
 10
4956.379937766243
 20
2181.453954821325
 30
0.0
 10
4990.080450914284
 20
2180.378120403188
 30
0.0
 10
5023.834755783209
 20
2179.275390124607
 30
0.0
 10
5081.042250967476
 20
2181.642225844498
 30
0.0
 10
5112.752470441985
 20
2181.628777914277
 30
0.0
 10
5144.462689916494
 20
2181.70946549562
 30
0.0
 10
5198.066139799958
 20
2181.817048937435
 30
0.0
 10
5227.732273879992
 20
2184.58732256413
 30
0.0
 10
5257.344616239141
 20
2187.371044121046
 30
0.0
 10
5303.874454823446
 20
2192.723320351277
 30
0.0
 10
5346.746456386063
 20
2195.601177419773
 30
0.0
 10
5389.752937250952
 20
2198.559722069655
 30
0.0
 10
5438.837882578322
 20
2196.340813582258
 30
0.0
 10
5479.665798746522
 20
2192.992278955808
 30
0.0
 10
5520.520610775165
 20
2189.657192259594
 30
0.0
 10
5564.011217128202
 20
2192.561945188547
 30
0.0
 10
5588.48645014072
 20
2190.786818398632
 30
0.0
 10
5613.096162455571
 20
2189.03858746916
 30
0.0
 10
5632.514973702906
 20
2187.021397935158
 30
0.0
 10
5680.524084612095
 20
2185.286614935936
 30
0.0
 10
5728.586987242227
 20
2183.498040215771
 30
0.0
 10
5753.142907836132
 20
2180.378120403188
 30
0.0
 10
5773.610657641089
 20
2185.367302517279
 30
0.0
 10
5793.970824004333
 20
2190.464068073201
 30
0.0
 10
5802.093373861229
 20
2195.211187443205
 30
0.0
 10
5804.19125097659
 20
2185.474885959095
 30
0.0
 10
5806.28912809195
 20
2175.711688614542
 30
0.0
 10
5806.28912809195
 20
2173.613811499166
 30
0.0
 10
5804.298834418419
 20
2156.561835971752
 30
0.0
 10
5802.200957303001
 20
2139.550204235016
 30
0.0
 10
5793.110156469811
 20
2073.60155440342
 30
0.0
 10
5788.040286774347
 20
2050.941791971465
 30
0.0
 10
5782.956969148661
 20
2028.160998167474
 30
0.0
 10
5789.143017052913
 20
2003.188191736557
 30
0.0
 10
5788.147870216176
 20
1972.500014959285
 30
0.0
 10
5787.206515100326
 20
1941.798390251777
 30
0.0
 10
5768.930777922221
 20
1889.364910297987
 30
0.0
 10
5768.930777922221
 20
1889.364910297987
 30
0.0
  0
SPLINE
  5
AAA
330
1F
100
AcDbEntity
  8
Furniture
370
     9
100
AcDbSpline
210
0.0
220
0.0
230
1.0
 70
     8
 71
     3
 72
    98
 73
    94
 74
     0
 42
0.000000001
 43
0.0000000001
 40
0.0
 40
0.0
 40
0.0
 40
0.0
 40
1.0
 40
1.0
 40
1.0
 40
2.0
 40
2.0
 40
2.0
 40
3.0
 40
3.0
 40
3.0
 40
4.0
 40
4.0
 40
4.0
 40
5.0
 40
5.0
 40
5.0
 40
6.0
 40
6.0
 40
6.0
 40
7.0
 40
7.0
 40
7.0
 40
8.0
 40
8.0
 40
8.0
 40
9.0
 40
9.0
 40
9.0
 40
10.0
 40
10.0
 40
10.0
 40
11.0
 40
11.0
 40
11.0
 40
12.0
 40
12.0
 40
12.0
 40
13.0
 40
13.0
 40
13.0
 40
14.0
 40
14.0
 40
14.0
 40
15.0
 40
15.0
 40
15.0
 40
16.0
 40
16.0
 40
16.0
 40
17.0
 40
17.0
 40
17.0
 40
18.0
 40
18.0
 40
18.0
 40
19.0
 40
19.0
 40
19.0
 40
20.0
 40
20.0
 40
20.0
 40
21.0
 40
21.0
 40
21.0
 40
22.0
 40
22.0
 40
22.0
 40
23.0
 40
23.0
 40
23.0
 40
24.0
 40
24.0
 40
24.0
 40
25.0
 40
25.0
 40
25.0
 40
26.0
 40
26.0
 40
26.0
 40
27.0
 40
27.0
 40
27.0
 40
28.0
 40
28.0
 40
28.0
 40
29.0
 40
29.0
 40
29.0
 40
30.0
 40
30.0
 40
30.0
 40
31.0
 40
31.0
 40
31.0
 40
31.0
 10
4202.946198886674
 20
1895.456822690674
 30
0.0
 10
4202.946198886674
 20
1895.456822690674
 30
0.0
 10
4216.743775299233
 20
1884.456415765238
 30
0.0
 10
4227.286952596922
 20
1870.147818004061
 30
0.0
 10
4237.910817475997
 20
1855.812324382426
 30
0.0
 10
4257.464108025604
 20
1826.468940627837
 30
0.0
 10
4267.200409509714
 20
1806.539108031898
 30
0.0
 10
4277.071190296039
 20
1786.663067156874
 30
0.0
 10
4290.115682615964
 20
1756.459015867778
 30
0.0
 10
4303.160174935831
 20
1722.247481371134
 30
0.0
 10
4316.258458976583
 20
1688.062842734933
 30
0.0
 10
4323.574133019902
 20
1668.186801859909
 30
0.0
 10
4326.048552181637
 20
1645.110153590929
 30
0.0
 10
4328.522971343314
 20
1622.033505321964
 30
0.0
 10
4329.033992691962
 20
1610.871723233827
 30
0.0
 10
4341.567463663181
 20
1610.871723233827
 30
0.0
 10
4353.993351192628
 20
1610.925514954728
 30
0.0
 10
4358.350480586064
 20
1601.646443098321
 30
0.0
 10
4365.908217373427
 20
1596.643813054008
 30
0.0
 10
4373.627329323564
 20
1591.58739128878
 30
0.0
 10
4421.286794046937
 20
1576.821563899899
 30
0.0
 10
4440.006312922407
 20
1579.242191340676
 30
0.0
 10
4458.752727658437
 20
1581.662818781482
 30
0.0
 10
4697.776239507315
 20
1576.660188737169
 30
0.0
 10
4714.021339221166
 20
1579.376670642949
 30
0.0
 10
4730.266438934959
 20
1582.039360827843
 30
0.0
 10
4878.274359009702
 20
1578.838753433902
 30
0.0
 10
4878.274359009702
 20
1578.838753433902
 30
0.0
 10
4878.274359009702
 20
1578.838753433902
 30
0.0
 10
5180.772101528484
 20
1579.322878922048
 30
0.0
 10
5180.772101528484
 20
1579.322878922048
 30
0.0
 10
5180.772101528484
 20
1579.322878922048
 30
0.0
 10
5371.006522514981
 20
1580.613880223802
 30
0.0
 10
5385.718558182947
 20
1580.613880223802
 30
0.0
 10
5400.349906269584
 20
1580.640776084259
 30
0.0
 10
5484.103615721346
 20
1580.775255386532
 30
0.0
 10
5484.103615721346
 20
1580.775255386532
 30
0.0
 10
5484.103615721346
 20
1580.775255386532
 30
0.0
 10
5619.067043476221
 20
1586.504073663094
 30
0.0
 10
5619.067043476221
 20
1586.504073663094
 30
0.0
 10
5619.067043476221
 20
1586.504073663094
 30
0.0
 10
5675.010433219147
 20
1588.117825290294
 30
0.0
 10
5675.010433219147
 20
1588.117825290294
 30
0.0
 10
5675.010433219147
 20
1588.117825290294
 30
0.0
 10
5672.293951313368
 20
1586.746136407182
 30
0.0
 10
5675.010433219147
 20
1588.117825290294
 30
0.0
 10
5677.726915124928
 20
1589.462618312962
 30
0.0
 10
5700.346333766189
 20
1594.142498031844
 30
0.0
 10
5706.882027856373
 20
1602.130568586483
 30
0.0
 10
5713.363930225613
 20
1610.145535001593
 30
0.0
 10
5724.310545430118
 20
1633.03391224737
 30
0.0
 10
5723.449877895596
 20
1648.714198891688
 30
0.0
 10
5722.616106221575
 20
1664.367589675519
 30
0.0
 10
5727.88769487042
 20
1694.087515476483
 30
0.0
 10
5732.702053891618
 20
1708.396113237661
 30
0.0
 10
5737.570204633644
 20
1722.704710998838
 30
0.0
 10
5759.893768809917
 20
1780.853561298969
 30
0.0
 10
5759.893768809917
 20
1780.853561298969
 30
0.0
 10
5759.893768809917
 20
1780.853561298969
 30
0.0
 10
5777.806411871869
 20
1825.688960674688
 30
0.0
 10
5777.806411871869
 20
1825.688960674688
 30
0.0
 10
5777.806411871869
 20
1825.688960674688
 30
0.0
 10
5807.284274928687
 20
1865.279667262021
 30
0.0
 10
5816.213700599219
 20
1872.407070282152
 30
0.0
 10
5825.11623040925
 20
1879.615160883655
 30
0.0
 10
5849.537671700942
 20
1899.544993479565
 30
0.0
 10
5849.537671700942
 20
1899.544993479565
 30
0.0
 10
5849.537671700942
 20
1899.544993479565
 30
0.0
 10
5778.909142150435
 20
1843.736083038882
 30
0.0
 10
5769.199736526767
 20
1816.625055701912
 30
0.0
 10
5759.463435042657
 20
1789.594715946299
 30
0.0
 10
5742.303876073457
 20
1740.052540991241
 30
0.0
 10
5731.895178077983
 20
1719.961333232586
 30
0.0
 10
5719.738249153081
 20
1696.454351196375
 30
0.0
 10
5721.863022128884
 20
1624.857570669574
 30
0.0
 10
5704.811046601455
 20
1609.311763327529
 30
0.0
 10
5689.8031564685
 20
1595.594874496328
 30
0.0
 10
5673.584952615151
 20
1592.421162962844
 30
0.0
 10
5675.25249596325
 20
1592.555642265088
 30
0.0
 10
5715.919036968677
 20
1595.756249659043
 30
0.0
 10
5020.203814622021
 20
1580.102858875183
 30
0.0
 10
5020.203814622021
 20
1580.102858875183
 30
0.0
 10
5020.203814622021
 20
1580.102858875183
 30
0.0
 10
4385.703570667137
 20
1579.941483712482
 30
0.0
 10
4372.551494905441
 20
1599.44098254116
 30
0.0
 10
4359.399419143803
 20
1618.886689648923
 30
0.0
 10
4338.313064548311
 20
1599.763732866591
 30
0.0
 10
4331.723578737299
 20
1644.303277777337
 30
0.0
 10
4325.160988786673
 20
1688.869718548525
 30
0.0
 10
4303.993946609852
 20
1731.822407692514
 30
0.0
 10
4290.949454289985
 20
1773.161345209304
 30
0.0
 10
4277.797378528288
 20
1814.527178586551
 30
0.0
 10
4222.983614924371
 20
1890.776942971777
 30
0.0
 10
4213.166625858931
 20
1893.950654505275
 30
0.0
  0
POLYLINE
  5
AAB
330
1F
100
AcDbEntity
  8
Furniture
370
     9
100
AcDb2dPolyline
 66
     1
 10
0.0
 20
0.0
 30
0.0
  0
VERTEX
  5
AAC
330
AAB
100
AcDbEntity
  8
Furniture
370
     9
100
AcDbVertex
100
AcDb2dVertex
 10
4713.994443360665
 20
1524.051885690427
 30
0.0
  0
VERTEX
  5
AAD
330
AAB
100
AcDbEntity
  8
Furniture
370
     9
100
AcDbVertex
100
AcDb2dVertex
 10
4536.643139531319
 20
1523.944302248612
 30
0.0
  0
VERTEX
  5
AAE
330
AAB
100
AcDbEntity
  8
Furniture
370
     9
100
AcDbVertex
100
AcDb2dVertex
 10
4537.154160879909
 20
1292.15577686168
 30
0.0
  0
VERTEX
  5
AAF
330
AAB
100
AcDbEntity
  8
Furniture
370
     9
100
AcDbVertex
100
AcDb2dVertex
 10
4485.137566763159
 20
1292.128881001223
 30
0.0
  0
VERTEX
  5
AB0
330
AAB
100
AcDbEntity
  8
Furniture
370
     9
100
AcDbVertex
100
AcDb2dVertex
 10
4484.680337135454
 20
1524.670490480847
 30
0.0
  0
VERTEX
  5
AB1
330
AAB
100
AcDbEntity
  8
Furniture
370
     9
100
AcDbVertex
100
AcDb2dVertex
 10
4315.263312139788
 20
1525.289095271266
 30
0.0
  0
VERTEX
  5
AB2
330
AAB
100
AcDbEntity
  8
Furniture
370
     9
100
AcDbVertex
100
AcDb2dVertex
 10
4262.54742565129
 20
1291.913714117607
 30
0.0
  0
VERTEX
  5
AB3
330
AAB
100
AcDbEntity
  8
Furniture
370
     9
100
AcDbVertex
100
AcDb2dVertex
 10
4242.24105100899
 20
1291.859922396692
 30
0.0
  0
VERTEX
  5
AB4
330
AAB
100
AcDbEntity
  8
Furniture
370
     9
100
AcDbVertex
100
AcDb2dVertex
 10
4298.265128333303
 20
1537.365336614825
 30
0.0
  0
VERTEX
  5
AB5
330
AAB
100
AcDbEntity
  8
Furniture
370
     9
100
AcDbVertex
100
AcDb2dVertex
 10
4266.339741975193
 20
1677.707936460389
 30
0.0
  0
VERTEX
  5
AB6
330
AAB
100
AcDbEntity
  8
Furniture
370
     9
100
AcDbVertex
100
AcDb2dVertex
 10
4284.440656060302
 20
1677.707936460389
 30
0.0
  0
VERTEX
  5
AB7
330
AAB
100
AcDbEntity
  8
Furniture
370
     9
100
AcDbVertex
100
AcDb2dVertex
 10
4317.441876836535
 20
1537.365336614825
 30
0.0
  0
VERTEX
  5
AB8
330
AAB
100
AcDbEntity
  8
Furniture
370
     9
100
AcDbVertex
100
AcDb2dVertex
 10
4714.855110895187
 20
1538.575650335235
 30
0.0
  0
VERTEX
  5
AB9
330
AAB
100
AcDbEntity
  8
Furniture
370
     9
100
AcDbVertex
100
AcDb2dVertex
 10
5338.57011480828
 20
1539.678380613815
 30
0.0
  0
VERTEX
  5
ABA
330
AAB
100
AcDbEntity
  8
Furniture
370
     9
100
AcDbVertex
100
AcDb2dVertex
 10
5736.010244727374
 20
1538.46806689342
 30
0.0
  0
VERTEX
  5
ABB
330
AAB
100
AcDbEntity
  8
Furniture
370
     9
100
AcDbVertex
100
AcDb2dVertex
 10
5769.011465503609
 20
1678.810666738969
 30
0.0
  0
VERTEX
  5
ABC
330
AAB
100
AcDbEntity
  8
Furniture
370
     9
100
AcDbVertex
100
AcDb2dVertex
 10
5787.112379588718
 20
1678.810666738969
 30
0.0
  0
VERTEX
  5
ABD
330
AAB
100
AcDbEntity
  8
Furniture
370
     9
100
AcDbVertex
100
AcDb2dVertex
 10
5755.240784951492
 20
1538.46806689342
 30
0.0
  0
VERTEX
  5
ABE
330
AAB
100
AcDbEntity
  8
Furniture
370
     9
100
AcDbVertex
100
AcDb2dVertex
 10
5811.211070554921
 20
1292.962652675287
 30
0.0
  0
VERTEX
  5
ABF
330
AAB
100
AcDbEntity
  8
Furniture
370
     9
100
AcDbVertex
100
AcDb2dVertex
 10
5790.877800052178
 20
1293.016444396188
 30
0.0
  0
VERTEX
  5
AC0
330
AAB
100
AcDbEntity
  8
Furniture
370
     9
100
AcDbVertex
100
AcDb2dVertex
 10
5738.188809424064
 20
1526.391825549876
 30
0.0
  0
VERTEX
  5
AC1
330
AAB
100
AcDbEntity
  8
Furniture
370
     9
100
AcDbVertex
100
AcDb2dVertex
 10
5568.7986802889
 20
1525.773220759442
 30
0.0
  0
VERTEX
  5
AC2
330
AAB
100
AcDbEntity
  8
Furniture
370
     9
100
AcDbVertex
100
AcDb2dVertex
 10
5568.260763079866
 20
1293.20471541936
 30
0.0
  0
VERTEX
  5
AC3
330
AAB
100
AcDbEntity
  8
Furniture
370
     9
100
AcDbVertex
100
AcDb2dVertex
 10
5516.297960683943
 20
1293.285403000718
 30
0.0
  0
VERTEX
  5
AC4
330
AAB
100
AcDbEntity
  8
Furniture
370
     9
100
AcDbVertex
100
AcDb2dVertex
 10
5516.808982032592
 20
1525.020136666749
 30
0.0
  0
VERTEX
  5
AC5
330
AAB
100
AcDbEntity
  8
Furniture
370
     9
100
AcDbVertex
100
AcDb2dVertex
 10
5339.457678203245
 20
1525.127720108565
 30
0.0
  0
VERTEX
  5
AC6
330
AAB
100
AcDbEntity
  8
Furniture
370
     9
100
AcDbVertex
100
AcDb2dVertex
 10
4713.994443360665
 20
1524.051885690427
 30
0.0
  0
SEQEND
  5
AC7
330
AAB
100
AcDbEntity
  8
Furniture
370
     9
  0
POLYLINE
  5
AC8
330
1F
100
AcDbEntity
  8
Furniture
370
     9
100
AcDb2dPolyline
 66
     1
 10
0.0
 20
0.0
 30
0.0
  0
VERTEX
  5
AC9
330
AC8
100
AcDbEntity
  8
Furniture
370
     9
100
AcDbVertex
100
AcDb2dVertex
 10
5568.7986802889
 20
1522.222967179597
 30
0.0
  0
VERTEX
  5
ACA
330
AC8
100
AcDbEntity
  8
Furniture
370
     9
100
AcDbVertex
100
AcDb2dVertex
 10
5516.808982032592
 20
1521.469883086905
 30
0.0
  0
SEQEND
  5
ACB
330
AC8
100
AcDbEntity
  8
Furniture
370
     9
  0
POLYLINE
  5
ACC
330
1F
100
AcDbEntity
  8
Furniture
370
     9
100
AcDb2dPolyline
 66
     1
 10
0.0
 20
0.0
 30
0.0
  0
VERTEX
  5
ACD
330
ACC
100
AcDbEntity
  8
Furniture
370
     9
100
AcDbVertex
100
AcDb2dVertex
 10
4484.680337135454
 20
1521.120236901017
 30
0.0
  0
VERTEX
  5
ACE
330
ACC
100
AcDbEntity
  8
Furniture
370
     9
100
AcDbVertex
100
AcDb2dVertex
 10
4536.643139531319
 20
1520.367152808325
 30
0.0
  0
SEQEND
  5
ACF
330
ACC
100
AcDbEntity
  8
Furniture
370
     9
  0
SPLINE
  5
AD0
330
1F
100
AcDbEntity
  8
Furniture
370
     9
100
AcDbSpline
210
0.0
220
0.0
230
1.0
 70
     8
 71
     3
 72
    17
 73
    13
 74
     0
 42
0.000000001
 43
0.0000000001
 40
0.0
 40
0.0
 40
0.0
 40
0.0
 40
1.0
 40
1.0
 40
1.0
 40
2.0
 40
2.0
 40
2.0
 40
3.0
 40
3.0
 40
3.0
 40
4.0
 40
4.0
 40
4.0
 40
4.0
 10
7150.74595250353
 20
5136.408007318798
 30
0.0
 10
7144.667488041108
 20
5136.434903179256
 30
0.0
 10
7139.906920740854
 20
5136.434903179256
 30
0.0
 10
7136.813896788699
 20
5136.434903179256
 30
0.0
 10
7069.547349794891
 20
5136.434903179256
 30
0.0
 10
6904.570789745676
 20
5135.520443923848
 30
0.0
 10
6878.508700966387
 20
5136.381111458341
 30
0.0
 10
6867.857940226869
 20
5136.676965923328
 30
0.0
 10
6860.111932416289
 20
5138.4251968528
 30
0.0
 10
6853.387967303006
 20
5140.281011224088
 30
0.0
 10
6853.387967303006
 20
5140.281011224088
 30
0.0
 10
6838.35318130955
 20
5144.611244757067
 30
0.0
 10
6838.35318130955
 20
5144.611244757067
 30
0.0
  0
SPLINE
  5
AD1
330
1F
100
AcDbEntity
  8
Furniture
370
     9
100
AcDbSpline
210
0.0
220
0.0
230
1.0
 70
     8
 71
     3
 72
     8
 73
     4
 74
     0
 42
0.000000001
 43
0.0000000001
 40
0.0
 40
0.0
 40
0.0
 40
0.0
 40
1.0
 40
1.0
 40
1.0
 40
1.0
 10
6889.051878264133
 20
5702.512078140823
 30
0.0
 10
6889.051878264133
 20
5702.512078140823
 30
0.0
 10
6705.702797553636
 20
5781.370740990027
 30
0.0
 10
6687.870842073071
 20
5814.614024510349
 30
0.0
  0
SPLINE
  5
AD2
330
1F
100
AcDbEntity
  8
Furniture
370
     9
100
AcDbSpline
210
0.0
220
0.0
230
1.0
 70
     8
 71
     3
 72
    38
 73
    34
 74
     0
 42
0.000000001
 43
0.0000000001
 40
0.0
 40
0.0
 40
0.0
 40
0.0
 40
1.0
 40
1.0
 40
1.0
 40
2.0
 40
2.0
 40
2.0
 40
3.0
 40
3.0
 40
3.0
 40
4.0
 40
4.0
 40
4.0
 40
5.0
 40
5.0
 40
5.0
 40
6.0
 40
6.0
 40
6.0
 40
7.0
 40
7.0
 40
7.0
 40
8.0
 40
8.0
 40
8.0
 40
9.0
 40
9.0
 40
9.0
 40
10.0
 40
10.0
 40
10.0
 40
11.0
 40
11.0
 40
11.0
 40
11.0
 10
7150.692160782644
 20
5972.627204673761
 30
0.0
 10
7055.642189940503
 20
5972.627204673761
 30
0.0
 10
7025.709745227551
 20
5972.627204673761
 30
0.0
 10
6980.955033433176
 20
5972.627204673761
 30
0.0
 10
6865.706271390623
 20
5972.627204673761
 30
0.0
 10
6670.17336589478
 20
5967.274928443544
 30
0.0
 10
6642.067191721015
 20
5967.274928443544
 30
0.0
 10
6613.96101754731
 20
5967.274928443544
 30
0.0
 10
6606.134322155343
 20
5959.098586865733
 30
0.0
 10
6617.457479406223
 20
5949.711931567526
 30
0.0
 10
6628.646157354774
 20
5940.271484548389
 30
0.0
 10
6650.189741577912
 20
5877.469650389819
 30
0.0
 10
6664.92867310638
 20
5852.913729795928
 30
0.0
 10
6681.577210726991
 20
5825.022722505793
 30
0.0
 10
6695.294099558221
 20
5821.63384408868
 30
0.0
 10
6684.105421609612
 20
5793.151127868583
 30
0.0
 10
6671.652638219722
 20
5761.57538769636
 30
0.0
 10
6666.273466129048
 20
5665.960603784729
 30
0.0
 10
6657.801270086219
 20
5585.784043773284
 30
0.0
 10
6649.329074043449
 20
5505.553692040969
 30
0.0
 10
6641.583066232868
 20
5070.082815440855
 30
0.0
 10
6641.583066232868
 20
5070.082815440855
 30
0.0
 10
6642.766484092821
 20
5068.657334836829
 30
0.0
 10
6659.683980317979
 20
5059.378262980423
 30
0.0
 10
6717.456288571778
 20
5069.733169254952
 30
0.0
 10
6772.969344547444
 20
5079.684637622693
 30
0.0
 10
6840.45105842491
 20
5131.459168995385
 30
0.0
 10
6840.45105842491
 20
5131.459168995385
 30
0.0
 10
6840.45105842491
 20
5131.459168995385
 30
0.0
 10
6876.894949339173
 20
5126.994456160133
 30
0.0
 10
6933.241776988918
 20
5126.698601695145
 30
0.0
 10
7001.288303935918
 20
5126.295163788356
 30
0.0
 10
7039.961903296185
 20
5126.026205183825
 30
0.0
 10
7150.74595250353
 20
5125.891725881553
 30
0.0
  0
SPLINE
  5
AD3
330
1F
100
AcDbEntity
  8
Furniture
370
     9
100
AcDbSpline
210
0.0
220
0.0
230
1.0
 70
     8
 71
     3
 72
    29
 73
    25
 74
     0
 42
0.000000001
 43
0.0000000001
 40
0.0
 40
0.0
 40
0.0
 40
0.0
 40
1.0
 40
1.0
 40
1.0
 40
2.0
 40
2.0
 40
2.0
 40
3.0
 40
3.0
 40
3.0
 40
4.0
 40
4.0
 40
4.0
 40
5.0
 40
5.0
 40
5.0
 40
6.0
 40
6.0
 40
6.0
 40
7.0
 40
7.0
 40
7.0
 40
8.0
 40
8.0
 40
8.0
 40
8.0
 10
7150.74595250353
 20
5712.732505113094
 30
0.0
 10
6971.861584628356
 20
5707.434020603778
 30
0.0
 10
6889.051878264133
 20
5702.512078140823
 30
0.0
 10
6889.051878264133
 20
5702.512078140823
 30
0.0
 10
6889.051878264133
 20
5702.512078140823
 30
0.0
 10
6901.235703049478
 20
5239.768799041009
 30
0.0
 10
6898.438533562312
 20
5216.961109376559
 30
0.0
 10
6895.560676493815
 20
5194.126523851682
 30
0.0
 10
6822.565311223403
 20
5113.089296305759
 30
0.0
 10
6734.938597866468
 20
5087.592020595973
 30
0.0
 10
6713.045367457397
 20
5081.244597528992
 30
0.0
 10
6709.979239365743
 20
5078.850865948643
 30
0.0
 10
6683.755775423738
 20
5076.699197112382
 30
0.0
 10
6657.451623900346
 20
5074.493736555207
 30
0.0
 10
6652.825535902363
 20
5078.743282506827
 30
0.0
 10
6652.825535902363
 20
5078.743282506827
 30
0.0
 10
6652.825535902363
 20
5078.743282506827
 30
0.0
 10
6666.058299245388
 20
5183.126116926262
 30
0.0
 10
6667.510675709886
 20
5202.760095057198
 30
0.0
 10
6668.989948034827
 20
5222.367177327691
 30
0.0
 10
6678.215228170349
 20
5571.798196337567
 30
0.0
 10
6680.393792867038
 20
5631.937340311229
 30
0.0
 10
6682.410982401069
 20
5692.103380145378
 30
0.0
 10
6707.881362250383
 20
5798.93373786606
 30
0.0
 10
6707.881362250383
 20
5798.93373786606
 30
0.0
  0
SPLINE
  5
AD4
330
1F
100
AcDbEntity
  8
Furniture
370
     9
100
AcDbSpline
210
0.0
220
0.0
230
1.0
 70
     8
 71
     3
 72
    14
 73
    10
 74
     0
 42
0.000000001
 43
0.0000000001
 40
0.0
 40
0.0
 40
0.0
 40
0.0
 40
1.0
 40
1.0
 40
1.0
 40
2.0
 40
2.0
 40
2.0
 40
3.0
 40
3.0
 40
3.0
 40
3.0
 10
6709.979239365743
 20
5794.146274705362
 30
0.0
 10
6709.979239365743
 20
5794.146274705362
 30
0.0
 10
6641.583066232868
 20
5949.711931567526
 30
0.0
 10
6641.583066232868
 20
5949.711931567526
 30
0.0
 10
6641.583066232868
 20
5949.711931567526
 30
0.0
 10
6931.574233640818
 20
5958.211023470769
 30
0.0
 10
7001.073137052316
 20
5958.211023470769
 30
0.0
 10
6966.53620425857
 20
5958.211023470769
 30
0.0
 10
7050.558872314818
 20
5958.345502773042
 30
0.0
 10
7150.74595250353
 20
5958.4261903544
 30
0.0
  0
SPLINE
  5
AD5
330
1F
100
AcDbEntity
  8
Furniture
370
     9
100
AcDbSpline
210
0.0
220
0.0
230
1.0
 70
     8
 71
     3
 72
    17
 73
    13
 74
     0
 42
0.000000001
 43
0.0000000001
 40
0.0
 40
0.0
 40
0.0
 40
0.0
 40
1.0
 40
1.0
 40
1.0
 40
2.0
 40
2.0
 40
2.0
 40
3.0
 40
3.0
 40
3.0
 40
4.0
 40
4.0
 40
4.0
 40
4.0
 10
7142.56961092569
 20
5136.408007318798
 30
0.0
 10
7148.64807538817
 20
5136.434903179256
 30
0.0
 10
7153.408642688424
 20
5136.434903179256
 30
0.0
 10
7156.474770780135
 20
5136.434903179256
 30
0.0
 10
7223.741317773944
 20
5136.434903179256
 30
0.0
 10
7389.669970195318
 20
5135.520443923848
 30
0.0
 10
7415.758954835052
 20
5136.381111458341
 30
0.0
 10
7426.40971557457
 20
5136.676965923328
 30
0.0
 10
7434.155723385149
 20
5138.4251968528
 30
0.0
 10
7440.879688498433
 20
5140.281011224088
 30
0.0
 10
7440.879688498433
 20
5140.281011224088
 30
0.0
 10
7455.887578631446
 20
5144.611244757067
 30
0.0
 10
7455.887578631446
 20
5144.611244757067
 30
0.0
  0
SPLINE
  5
AD6
330
1F
100
AcDbEntity
  8
Furniture
370
     9
100
AcDbSpline
210
0.0
220
0.0
230
1.0
 70
     8
 71
     3
 72
     8
 73
     4
 74
     0
 42
0.000000001
 43
0.0000000001
 40
0.0
 40
0.0
 40
0.0
 40
0.0
 40
1.0
 40
1.0
 40
1.0
 40
1.0
 10
7405.215777537306
 20
5702.512078140823
 30
0.0
 10
7405.215777537306
 20
5702.512078140823
 30
0.0
 10
7588.53796238736
 20
5781.370740990027
 30
0.0
 10
7606.396813728366
 20
5814.614024510349
 30
0.0
  0
SPLINE
  5
AD7
330
1F
100
AcDbEntity
  8
Furniture
370
     9
100
AcDbSpline
210
0.0
220
0.0
230
1.0
 70
     8
 71
     3
 72
    38
 73
    34
 74
     0
 42
0.000000001
 43
0.0000000001
 40
0.0
 40
0.0
 40
0.0
 40
0.0
 40
1.0
 40
1.0
 40
1.0
 40
2.0
 40
2.0
 40
2.0
 40
3.0
 40
3.0
 40
3.0
 40
4.0
 40
4.0
 40
4.0
 40
5.0
 40
5.0
 40
5.0
 40
6.0
 40
6.0
 40
6.0
 40
7.0
 40
7.0
 40
7.0
 40
8.0
 40
8.0
 40
8.0
 40
9.0
 40
9.0
 40
9.0
 40
10.0
 40
10.0
 40
10.0
 40
11.0
 40
11.0
 40
11.0
 40
11.0
 10
7142.59650678619
 20
5972.627204673761
 30
0.0
 10
7237.673373488775
 20
5972.627204673761
 30
0.0
 10
7329.065507309228
 20
5972.627204673761
 30
0.0
 10
7373.833667033825
 20
5972.627204673761
 30
0.0
 10
7428.561384410816
 20
5972.627204673761
 30
0.0
 10
7624.094289906658
 20
5967.274928443544
 30
0.0
 10
7652.17356821998
 20
5967.274928443544
 30
0.0
 10
7680.306638254129
 20
5967.274928443544
 30
0.0
 10
7688.160229506539
 20
5959.098586865733
 30
0.0
 10
7676.810176395214
 20
5949.711931567526
 30
0.0
 10
7665.621498446606
 20
5940.271484548389
 30
0.0
 10
7644.10481008397
 20
5877.469650389819
 30
0.0
 10
7629.312086834616
 20
5852.913729795928
 30
0.0
 10
7612.690445074448
 20
5825.022722505793
 30
0.0
 10
7598.973556243219
 20
5821.63384408868
 30
0.0
 10
7610.162234191827
 20
5793.151127868583
 30
0.0
 10
7622.641913442159
 20
5761.57538769636
 30
0.0
 10
7628.021085532833
 20
5665.960603784729
 30
0.0
 10
7636.466385715161
 20
5585.784043773284
 30
0.0
 10
7644.911685897547
 20
5505.553692040969
 30
0.0
 10
7652.711485429012
 20
5070.082815440855
 30
0.0
 10
7652.711485429012
 20
5070.082815440855
 30
0.0
 10
7651.474275848115
 20
5068.657334836829
 30
0.0
 10
7634.583675483461
 20
5059.378262980423
 30
0.0
 10
7576.811367229661
 20
5069.733169254952
 30
0.0
 10
7521.298311253937
 20
5079.684637622693
 30
0.0
 10
7453.789701516085
 20
5131.459168995385
 30
0.0
 10
7453.789701516085
 20
5131.459168995385
 30
0.0
 10
7453.789701516085
 20
5131.459168995385
 30
0.0
 10
7417.372706462265
 20
5126.994456160133
 30
0.0
 10
7360.99898295202
 20
5126.698601695145
 30
0.0
 10
7353.446604810198
 20
5126.295163788356
 30
0.0
 10
7253.326764272592
 20
5126.026205183825
 30
0.0
 10
7142.56961092569
 20
5125.891725881553
 30
0.0
  0
SPLINE
  5
AD8
330
1F
100
AcDbEntity
  8
Furniture
370
     9
100
AcDbSpline
210
0.0
220
0.0
230
1.0
 70
     8
 71
     3
 72
    29
 73
    25
 74
     0
 42
0.000000001
 43
0.0000000001
 40
0.0
 40
0.0
 40
0.0
 40
0.0
 40
1.0
 40
1.0
 40
1.0
 40
2.0
 40
2.0
 40
2.0
 40
3.0
 40
3.0
 40
3.0
 40
4.0
 40
4.0
 40
4.0
 40
5.0
 40
5.0
 40
5.0
 40
6.0
 40
6.0
 40
6.0
 40
7.0
 40
7.0
 40
7.0
 40
8.0
 40
8.0
 40
8.0
 40
8.0
 10
7142.56961092569
 20
5712.732505113094
 30
0.0
 10
7321.427082940478
 20
5707.434020603778
 30
0.0
 10
7405.215777537306
 20
5702.512078140823
 30
0.0
 10
7405.215777537306
 20
5702.512078140823
 30
0.0
 10
7405.215777537306
 20
5702.512078140823
 30
0.0
 10
7393.058848612404
 20
5239.768799041009
 30
0.0
 10
7395.85601809957
 20
5216.961109376559
 30
0.0
 10
7398.706979307623
 20
5194.126523851682
 30
0.0
 10
7471.702344578035
 20
5113.089296305759
 30
0.0
 10
7559.329057934971
 20
5087.592020595973
 30
0.0
 10
7581.222288344041
 20
5081.244597528992
 30
0.0
 10
7584.288416435694
 20
5078.850865948643
 30
0.0
 10
7610.538776238144
 20
5076.699197112382
 30
0.0
 10
7636.789136040651
 20
5074.493736555207
 30
0.0
 10
7641.415224038631
 20
5078.743282506827
 30
0.0
 10
7641.415224038631
 20
5078.743282506827
 30
0.0
 10
7641.415224038631
 20
5078.743282506827
 30
0.0
 10
7628.236252416492
 20
5183.126116926262
 30
0.0
 10
7626.730084231109
 20
5202.760095057198
 30
0.0
 10
7625.277707766611
 20
5222.367177327691
 30
0.0
 10
7616.025531770647
 20
5571.798196337567
 30
0.0
 10
7613.873862934401
 20
5631.937340311229
 30
0.0
 10
7611.829777539925
 20
5692.103380145378
 30
0.0
 10
7586.386293551055
 20
5798.93373786606
 30
0.0
 10
7586.386293551055
 20
5798.93373786606
 30
0.0
  0
SPLINE
  5
AD9
330
1F
100
AcDbEntity
  8
Furniture
370
     9
100
AcDbSpline
210
0.0
220
0.0
230
1.0
 70
     8
 71
     3
 72
    14
 73
    10
 74
     0
 42
0.000000001
 43
0.0000000001
 40
0.0
 40
0.0
 40
0.0
 40
0.0
 40
1.0
 40
1.0
 40
1.0
 40
2.0
 40
2.0
 40
2.0
 40
3.0
 40
3.0
 40
3.0
 40
3.0
 10
7584.288416435694
 20
5794.146274705362
 30
0.0
 10
7584.288416435694
 20
5794.146274705362
 30
0.0
 10
7652.711485429012
 20
5949.711931567526
 30
0.0
 10
7652.711485429012
 20
5949.711931567526
 30
0.0
 10
7652.711485429012
 20
5949.711931567526
 30
0.0
 10
7362.66652630012
 20
5958.211023470769
 30
0.0
 10
7353.661771693798
 20
5958.211023470769
 30
0.0
 10
7326.752463310265
 20
5958.211023470769
 30
0.0
 10
7242.729795253959
 20
5958.345502773042
 30
0.0
 10
7142.56961092569
 20
5958.4261903544
 30
0.0
  0
POLYLINE
  5
ADA
330
1F
100
AcDbEntity
  8
Furniture
370
     9
100
AcDb2dPolyline
 66
     1
 10
0.0
 20
0.0
 30
0.0
  0
VERTEX
  5
ADB
330
ADA
100
AcDbEntity
  8
Furniture
370
     9
100
AcDbVertex
100
AcDb2dVertex
 10
2657.241098632869
 20
5085.278976596997
 30
0.0
  0
VERTEX
  5
ADC
330
ADA
100
AcDbEntity
  8
Furniture
100
AcDbVertex
100
AcDb2dVertex
 10
2657.241098632869
 20
5085.278976596997
 30
0.0
  0
SEQEND
  5
ADD
330
ADA
100
AcDbEntity
  8
Furniture
370
     9
  0
SPLINE
  5
ADE
330
1F
100
AcDbEntity
  8
Furniture
370
     9
100
AcDbSpline
210
0.0
220
0.0
230
1.0
 70
     8
 71
     3
 72
    14
 73
    10
 74
     0
 42
0.000000001
 43
0.0000000001
 40
0.0
 40
0.0
 40
0.0
 40
0.0
 40
1.0
 40
1.0
 40
1.0
 40
2.0
 40
2.0
 40
2.0
 40
3.0
 40
3.0
 40
3.0
 40
3.0
 10
2687.956171270642
 20
5390.573888602918
 30
0.0
 10
2687.956171270642
 20
5390.573888602918
 30
0.0
 10
2687.956171270642
 20
5463.636493524439
 30
0.0
 10
2687.956171270642
 20
5463.636493524439
 30
0.0
 10
2687.956171270642
 20
5463.636493524439
 30
0.0
 10
2687.229983038393
 20
5473.937608078068
 30
0.0
 10
2694.572552942096
 20
5474.152774961684
 30
0.0
 10
2701.888226985415
 20
5474.394837705771
 30
0.0
 10
2707.07912805293
 20
5474.125879101226
 30
0.0
 10
2707.07912805293
 20
5474.125879101226
 30
0.0
  0
POLYLINE
  5
ADF
330
1F
100
AcDbEntity
  8
Furniture
370
     9
100
AcDb2dPolyline
 66
     1
 10
0.0
 20
0.0
 30
0.0
  0
VERTEX
  5
AE0
330
ADF
100
AcDbEntity
  8
Furniture
370
     9
100
AcDbVertex
100
AcDb2dVertex
 10
2687.956171270642
 20
5434.696547676638
 30
0.0
  0
VERTEX
  5
AE1
330
ADF
100
AcDbEntity
  8
Furniture
100
AcDbVertex
100
AcDb2dVertex
 10
2687.956171270642
 20
5434.696547676638
 30
0.0
  0
SEQEND
  5
AE2
330
ADF
100
AcDbEntity
  8
Furniture
370
     9
  0
POLYLINE
  5
AE3
330
1F
100
AcDbEntity
  8
Furniture
370
     9
100
AcDb2dPolyline
 66
     1
 10
0.0
 20
0.0
 30
0.0
  0
VERTEX
  5
AE4
330
AE3
100
AcDbEntity
  8
Furniture
370
     9
100
AcDbVertex
100
AcDb2dVertex
 10
2687.956171270642
 20
5391.084909951522
 30
0.0
  0
VERTEX
  5
AE5
330
AE3
100
AcDbEntity
  8
Furniture
100
AcDbVertex
100
AcDb2dVertex
 10
2687.956171270642
 20
5391.084909951522
 30
0.0
  0
SEQEND
  5
AE6
330
AE3
100
AcDbEntity
  8
Furniture
370
     9
  0
SPLINE
  5
AE7
330
1F
100
AcDbEntity
  8
Furniture
370
     9
100
AcDbSpline
210
0.0
220
0.0
230
1.0
 70
     8
 71
     3
 72
    32
 73
    28
 74
     0
 42
0.000000001
 43
0.0000000001
 40
0.0
 40
0.0
 40
0.0
 40
0.0
 40
1.0
 40
1.0
 40
1.0
 40
2.0
 40
2.0
 40
2.0
 40
3.0
 40
3.0
 40
3.0
 40
4.0
 40
4.0
 40
4.0
 40
5.0
 40
5.0
 40
5.0
 40
6.0
 40
6.0
 40
6.0
 40
7.0
 40
7.0
 40
7.0
 40
8.0
 40
8.0
 40
8.0
 40
9.0
 40
9.0
 40
9.0
 40
9.0
 10
3402.337120771939
 20
5348.831513179324
 30
0.0
 10
3398.154814471439
 20
5325.163155980383
 30
0.0
 10
3395.155926030894
 20
5308.433930778399
 30
0.0
 10
3395.155926030894
 20
5308.433930778399
 30
0.0
 10
3395.155926030894
 20
5308.433930778399
 30
0.0
 10
3432.70254722378
 20
5086.381706875577
 30
0.0
 10
3432.70254722378
 20
5086.381706875577
 30
0.0
 10
3432.70254722378
 20
5086.381706875577
 30
0.0
 10
3416.107801324055
 20
5086.35481101512
 30
0.0
 10
3416.107801324055
 20
5086.35481101512
 30
0.0
 10
3416.107801324055
 20
5086.35481101512
 30
0.0
 10
3378.588075991611
 20
5305.233323384443
 30
0.0
 10
3378.588075991611
 20
5305.233323384443
 30
0.0
 10
3378.588075991611
 20
5305.233323384443
 30
0.0
 10
2740.941016363686
 20
5346.115031273544
 30
0.0
 10
2740.941016363686
 20
5346.115031273544
 30
0.0
 10
2740.941016363686
 20
5346.115031273544
 30
0.0
 10
2741.317558410061
 20
5085.332768317897
 30
0.0
 10
2741.317558410061
 20
5085.332768317897
 30
0.0
 10
2741.317558410061
 20
5085.332768317897
 30
0.0
 10
2698.606932010102
 20
5085.278976596997
 30
0.0
 10
2698.606932010102
 20
5085.278976596997
 30
0.0
 10
2698.606932010102
 20
5085.278976596997
 30
0.0
 10
2687.902379549698
 20
5085.278976596997
 30
0.0
 10
2687.902379549698
 20
5085.278976596997
 30
0.0
 10
2687.902379549698
 20
5085.278976596997
 30
0.0
 10
2687.956171270642
 20
5391.084909951522
 30
0.0
 10
2687.956171270642
 20
5391.084909951522
 30
0.0
  0
POLYLINE
  5
AE8
330
1F
100
AcDbEntity
  8
Furniture
370
     9
100
AcDb2dPolyline
 66
     1
 10
0.0
 20
0.0
 30
0.0
  0
VERTEX
  5
AE9
330
AE8
100
AcDbEntity
  8
Furniture
370
     9
100
AcDbVertex
100
AcDb2dVertex
 10
3402.337120771939
 20
5348.831513179324
 30
0.0
  0
VERTEX
  5
AEA
330
AE8
100
AcDbEntity
  8
Furniture
100
AcDbVertex
100
AcDb2dVertex
 10
3402.337120771939
 20
5348.831513179324
 30
0.0
  0
SEQEND
  5
AEB
330
AE8
100
AcDbEntity
  8
Furniture
370
     9
  0
POLYLINE
  5
AEC
330
1F
100
AcDbEntity
  8
Furniture
370
     9
100
AcDb2dPolyline
 66
     1
 10
0.0
 20
0.0
 30
0.0
  0
VERTEX
  5
AED
330
AEC
100
AcDbEntity
  8
Furniture
370
     9
100
AcDbVertex
100
AcDb2dVertex
 10
3412.960985650956
 20
5409.589261943434
 30
0.0
  0
VERTEX
  5
AEE
330
AEC
100
AcDbEntity
  8
Furniture
100
AcDbVertex
100
AcDb2dVertex
 10
3412.960985650956
 20
5409.589261943434
 30
0.0
  0
SEQEND
  5
AEF
330
AEC
100
AcDbEntity
  8
Furniture
370
     9
  0
SPLINE
  5
AF0
330
1F
100
AcDbEntity
  8
Furniture
370
     9
100
AcDbSpline
210
0.0
220
0.0
230
1.0
 70
     8
 71
     3
 72
    14
 73
    10
 74
     0
 42
0.000000001
 43
0.0000000001
 40
0.0
 40
0.0
 40
0.0
 40
0.0
 40
1.0
 40
1.0
 40
1.0
 40
2.0
 40
2.0
 40
2.0
 40
3.0
 40
3.0
 40
3.0
 40
3.0
 10
3386.132364848811
 20
5362.655985452341
 30
0.0
 10
3395.626603588818
 20
5409.965803989781
 30
0.0
 10
3408.792127280737
 20
5468.746707010566
 30
0.0
 10
3409.867961698859
 20
5469.82254142869
 30
0.0
 10
3411.750671930561
 20
5471.893522683608
 30
0.0
 10
3420.572514159263
 20
5471.301813753646
 30
0.0
 10
3422.240057507421
 20
5468.961873894198
 30
0.0
 10
3423.046933320999
 20
5467.832247755144
 30
0.0
 10
3410.432774768394
 20
5395.589966577467
 30
0.0
 10
3402.337120771939
 20
5348.831513179324
 30
0.0
  0
POLYLINE
  5
AF1
330
1F
100
AcDbEntity
  8
Furniture
370
     9
100
AcDb2dPolyline
 66
     1
 10
0.0
 20
0.0
 30
0.0
  0
VERTEX
  5
AF2
330
AF1
100
AcDbEntity
  8
Furniture
370
     9
100
AcDbVertex
100
AcDb2dVertex
 10
3394.550769170695
 20
5404.77490292228
 30
0.0
  0
VERTEX
  5
AF3
330
AF1
100
AcDbEntity
  8
Furniture
100
AcDbVertex
100
AcDb2dVertex
 10
3394.550769170695
 20
5404.77490292228
 30
0.0
  0
SEQEND
  5
AF4
330
AF1
100
AcDbEntity
  8
Furniture
370
     9
  0
POLYLINE
  5
AF5
330
1F
100
AcDbEntity
  8
Furniture
370
     9
100
AcDb2dPolyline
 66
     1
 10
0.0
 20
0.0
 30
0.0
  0
VERTEX
  5
AF6
330
AF5
100
AcDbEntity
  8
Furniture
370
     9
100
AcDbVertex
100
AcDb2dVertex
 10
3386.132364848811
 20
5362.655985452341
 30
0.0
  0
VERTEX
  5
AF7
330
AF5
100
AcDbEntity
  8
Furniture
100
AcDbVertex
100
AcDb2dVertex
 10
3386.132364848811
 20
5362.655985452341
 30
0.0
  0
SEQEND
  5
AF8
330
AF5
100
AcDbEntity
  8
Furniture
370
     9
  0
SPLINE
  5
AF9
330
1F
100
AcDbEntity
  8
Furniture
370
     9
100
AcDbSpline
210
0.0
220
0.0
230
1.0
 70
     8
 71
     3
 72
    14
 73
    10
 74
     0
 42
0.000000001
 43
0.0000000001
 40
0.0
 40
0.0
 40
0.0
 40
0.0
 40
1.0
 40
1.0
 40
1.0
 40
2.0
 40
2.0
 40
2.0
 40
3.0
 40
3.0
 40
3.0
 40
3.0
 10
2743.159924851097
 20
5388.798761812989
 30
0.0
 10
2743.159924851097
 20
5388.798761812989
 30
0.0
 10
2743.200268641762
 20
5358.863669128437
 30
0.0
 10
2743.200268641762
 20
5358.863669128437
 30
0.0
 10
2743.200268641762
 20
5358.863669128437
 30
0.0
 10
3378.507388410282
 20
5324.14111328316
 30
0.0
 10
3378.507388410282
 20
5324.14111328316
 30
0.0
 10
3378.507388410282
 20
5324.14111328316
 30
0.0
 10
3381.667652013486
 20
5340.171046113336
 30
0.0
 10
3386.132364848811
 20
5362.655985452341
 30
0.0
  0
POLYLINE
  5
AFA
330
1F
100
AcDbEntity
  8
Furniture
370
     9
100
AcDb2dPolyline
 66
     1
 10
0.0
 20
0.0
 30
0.0
  0
VERTEX
  5
AFB
330
AFA
100
AcDbEntity
  8
Furniture
370
     9
100
AcDbVertex
100
AcDb2dVertex
 10
2743.159924851097
 20
5388.798761812989
 30
0.0
  0
VERTEX
  5
AFC
330
AFA
100
AcDbEntity
  8
Furniture
100
AcDbVertex
100
AcDb2dVertex
 10
2743.159924851097
 20
5388.798761812989
 30
0.0
  0
SEQEND
  5
AFD
330
AFA
100
AcDbEntity
  8
Furniture
370
     9
  0
POLYLINE
  5
AFE
330
1F
100
AcDbEntity
  8
Furniture
370
     9
100
AcDb2dPolyline
 66
     1
 10
0.0
 20
0.0
 30
0.0
  0
VERTEX
  5
AFF
330
AFE
100
AcDbEntity
  8
Furniture
370
     9
100
AcDbVertex
100
AcDb2dVertex
 10
2743.092685199932
 20
5430.124251399557
 30
0.0
  0
VERTEX
  5
B00
330
AFE
100
AcDbEntity
  8
Furniture
100
AcDbVertex
100
AcDb2dVertex
 10
2743.092685199932
 20
5430.124251399557
 30
0.0
  0
SEQEND
  5
B01
330
AFE
100
AcDbEntity
  8
Furniture
370
     9
  0
SPLINE
  5
B02
330
1F
100
AcDbEntity
  8
Furniture
370
     9
100
AcDbSpline
210
0.0
220
0.0
230
1.0
 70
     8
 71
     3
 72
    17
 73
    13
 74
     0
 42
0.000000001
 43
0.0000000001
 40
0.0
 40
0.0
 40
0.0
 40
0.0
 40
1.0
 40
1.0
 40
1.0
 40
2.0
 40
2.0
 40
2.0
 40
3.0
 40
3.0
 40
3.0
 40
4.0
 40
4.0
 40
4.0
 40
4.0
 10
2705.734335030262
 20
5474.125879101226
 30
0.0
 10
2705.734335030262
 20
5474.125879101226
 30
0.0
 10
2707.07912805293
 20
5474.125879101226
 30
0.0
 10
2709.177005168291
 20
5474.125879101226
 30
0.0
 10
2715.04030274717
 20
5474.125879101226
 30
0.0
 10
2726.982064788412
 20
5474.152774961684
 30
0.0
 10
2734.190155389901
 20
5474.152774961684
 30
0.0
 10
2743.980248594897
 20
5474.179670822141
 30
0.0
 10
2742.931310037275
 20
5465.438516174796
 30
0.0
 10
2742.931310037275
 20
5465.438516174796
 30
0.0
 10
2742.931310037275
 20
5465.438516174796
 30
0.0
 10
2743.092685199932
 20
5386.00159232585
 30
0.0
 10
2743.092685199932
 20
5386.00159232585
 30
0.0
  0
SPLINE
  5
B03
330
1F
100
AcDbEntity
  8
Furniture
370
     9
100
AcDbSpline
210
0.0
220
0.0
230
1.0
 70
     8
 71
     3
 72
     8
 73
     4
 74
     0
 42
0.000000001
 43
0.0000000001
 40
0.0
 40
0.0
 40
0.0
 40
0.0
 40
1.0
 40
1.0
 40
1.0
 40
1.0
 10
3329.07279689698
 20
5326.723115886667
 30
0.0
 10
3329.07279689698
 20
5326.723115886667
 30
0.0
 10
3368.179377996196
 20
5330.78439081513
 30
0.0
 10
3371.460672971509
 20
5347.217761552125
 30
0.0
  0
SPLINE
  5
B04
330
1F
100
AcDbEntity
  8
Furniture
370
     9
100
AcDbSpline
210
0.0
220
0.0
230
1.0
 70
     8
 71
     3
 72
    14
 73
    10
 74
     0
 42
0.000000001
 43
0.0000000001
 40
0.0
 40
0.0
 40
0.0
 40
0.0
 40
1.0
 40
1.0
 40
1.0
 40
2.0
 40
2.0
 40
2.0
 40
3.0
 40
3.0
 40
3.0
 40
3.0
 10
2629.296299621878
 20
5494.660868557363
 30
0.0
 10
2629.296299621878
 20
5494.660868557363
 30
0.0
 10
2627.978402459652
 20
5467.926383266739
 30
0.0
 10
2626.633609436984
 20
5453.96743169145
 30
0.0
 10
2625.315712274758
 20
5440.035375976618
 30
0.0
 10
2619.425518835495
 20
5413.327786546437
 30
0.0
 10
2622.733709671251
 20
5404.048714690045
 30
0.0
 10
2626.06879636745
 20
5394.769642833638
 30
0.0
 10
2630.210758877285
 20
5358.782981547065
 30
0.0
 10
2630.210758877285
 20
5358.782981547065
 30
0.0
  0
SPLINE
  5
B05
330
1F
100
AcDbEntity
  8
Furniture
370
     9
100
AcDbSpline
210
0.0
220
0.0
230
1.0
 70
     8
 71
     3
 72
    74
 73
    70
 74
     0
 42
0.000000001
 43
0.0000000001
 40
0.0
 40
0.0
 40
0.0
 40
0.0
 40
1.0
 40
1.0
 40
1.0
 40
2.0
 40
2.0
 40
2.0
 40
3.0
 40
3.0
 40
3.0
 40
4.0
 40
4.0
 40
4.0
 40
5.0
 40
5.0
 40
5.0
 40
6.0
 40
6.0
 40
6.0
 40
7.0
 40
7.0
 40
7.0
 40
8.0
 40
8.0
 40
8.0
 40
9.0
 40
9.0
 40
9.0
 40
10.0
 40
10.0
 40
10.0
 40
11.0
 40
11.0
 40
11.0
 40
12.0
 40
12.0
 40
12.0
 40
13.0
 40
13.0
 40
13.0
 40
14.0
 40
14.0
 40
14.0
 40
15.0
 40
15.0
 40
15.0
 40
16.0
 40
16.0
 40
16.0
 40
17.0
 40
17.0
 40
17.0
 40
18.0
 40
18.0
 40
18.0
 40
19.0
 40
19.0
 40
19.0
 40
20.0
 40
20.0
 40
20.0
 40
21.0
 40
21.0
 40
21.0
 40
22.0
 40
22.0
 40
22.0
 40
23.0
 40
23.0
 40
23.0
 40
23.0
 10
3484.611557898701
 20
5912.272893816455
 30
0.0
 10
3484.611557898701
 20
5912.272893816455
 30
0.0
 10
3474.955943995978
 20
5912.272893816455
 30
0.0
 10
3474.955943995978
 20
5912.272893816455
 30
0.0
 10
3472.77737929923
 20
5912.43426897917
 30
0.0
 10
3470.222272556166
 20
5912.138414514181
 30
0.0
 10
3467.263727906284
 20
5911.197059398332
 30
0.0
 10
3453.170297028737
 20
5906.705450702623
 30
0.0
 10
3437.893448291237
 20
5898.179462938894
 30
0.0
 10
3424.499309785497
 20
5903.558635029582
 30
0.0
 10
3411.078275419255
 20
5908.884015399355
 30
0.0
 10
3414.736112440885
 20
5922.331945626025
 30
0.0
 10
3402.390912492825
 20
5901.164903449233
 30
0.0
 10
3389.991920823821
 20
5879.970965411984
 30
0.0
 10
3391.498089009263
 20
5863.887240860877
 30
0.0
 10
3391.498089009263
 20
5863.887240860877
 30
0.0
 10
3391.498089009263
 20
5863.887240860877
 30
0.0
 10
3356.130032513065
 20
5766.389746717516
 30
0.0
 10
3356.130032513065
 20
5766.389746717516
 30
0.0
 10
3356.130032513065
 20
5766.389746717516
 30
0.0
 10
3345.533063494433
 20
5737.261529846542
 30
0.0
 10
3345.533063494433
 20
5737.261529846542
 30
0.0
 10
3338.889785962478
 20
5715.744841483877
 30
0.0
 10
3330.552069221922
 20
5692.372338749908
 30
0.0
 10
3327.001815642121
 20
5692.318547028993
 30
0.0
 10
3202.23191899906
 20
5689.97860716956
 30
0.0
 10
3195.965183513421
 20
5701.247972699512
 30
0.0
 10
3142.469317071729
 20
5701.893473350388
 30
0.0
 10
3140.6941902818
 20
5701.893473350388
 30
0.0
 10
3138.730792468712
 20
5701.947265071289
 30
0.0
 10
3136.525331911522
 20
5702.027952652661
 30
0.0
 10
3136.525331911522
 20
5702.027952652661
 30
0.0
 10
3045.536635997829
 20
5703.937558744849
 30
0.0
 10
3045.536635997829
 20
5703.937558744849
 30
0.0
 10
2970.120643286682
 20
5702.350702978092
 30
0.0
 10
2863.290285565956
 20
5700.656263769535
 30
0.0
 10
2831.257315766015
 20
5701.382452001784
 30
0.0
 10
2781.876515973716
 20
5702.512078140823
 30
0.0
 10
2692.689842710395
 20
5712.355963066748
 30
0.0
 10
2679.914308995074
 20
5716.497925576568
 30
0.0
 10
2667.165671140196
 20
5720.639888086374
 30
0.0
 10
2652.615010634887
 20
5730.107230965939
 30
0.0
 10
2643.147667755322
 20
5728.278312455124
 30
0.0
 10
2633.81480417803
 20
5726.503185665195
 30
0.0
 10
2660.522393608182
 20
5679.058887825512
 30
0.0
 10
2658.451412353323
 20
5664.750290064319
 30
0.0
 10
2658.101766167391
 20
5662.195183321255
 30
0.0
 10
2657.886599283789
 20
5658.456658718253
 30
0.0
 10
2657.832807562904
 20
5653.857466580713
 30
0.0
 10
2657.832807562904
 20
5653.857466580713
 30
0.0
 10
2656.649389702892
 20
5648.935524117758
 30
0.0
 10
2656.649389702892
 20
5648.935524117758
 30
0.0
 10
2657.025931749267
 20
5633.551091938429
 30
0.0
 10
2657.241098632869
 20
5618.274243200943
 30
0.0
 10
2656.568702121564
 20
5608.537941716819
 30
0.0
 10
2654.928054633907
 20
5585.864731354657
 30
0.0
 10
2643.147667755322
 20
5525.429732915992
 30
0.0
 10
2640.753936174974
 20
5513.783825339695
 30
0.0
 10
2638.494683896897
 20
5502.218605344754
 30
0.0
 10
2639.893268640451
 20
5481.320521772493
 30
0.0
 10
2637.902974966921
 20
5464.456817268267
 30
0.0
 10
2637.902974966921
 20
5464.456817268267
 30
0.0
 10
2637.902974966921
 20
5462.170669129733
 30
0.0
 10
2637.902974966921
 20
5462.170669129733
 30
0.0
 10
2637.902974966921
 20
5462.170669129733
 30
0.0
 10
2633.249991108496
 20
5435.436183839094
 30
0.0
 10
2630.614196784103
 20
5424.381985192758
 30
0.0
 10
2628.032194180538
 20
5413.327786546437
 30
0.0
 10
2639.005705245487
 20
5360.450524895179
 30
0.0
 10
2642.932500871721
 20
5358.782981547065
 30
0.0
  0
POLYLINE
  5
B06
330
1F
100
AcDbEntity
  8
Furniture
370
     9
100
AcDb2dPolyline
 66
     1
 10
0.0
 20
0.0
 30
0.0
  0
VERTEX
  5
B07
330
B06
100
AcDbEntity
  8
Furniture
370
     9
100
AcDbVertex
100
AcDb2dVertex
 10
3455.268174144098
 20
5665.799228622
 30
0.0
  0
VERTEX
  5
B08
330
B06
100
AcDbEntity
  8
Furniture
100
AcDbVertex
100
AcDb2dVertex
 10
3455.268174144098
 20
5665.799228622
 30
0.0
  0
SEQEND
  5
B09
330
B06
100
AcDbEntity
  8
Furniture
370
     9
  0
SPLINE
  5
B0A
330
1F
100
AcDbEntity
  8
Furniture
370
     9
100
AcDbSpline
210
0.0
220
0.0
230
1.0
 70
     8
 71
     3
 72
    11
 73
     7
 74
     0
 42
0.000000001
 43
0.0000000001
 40
0.0
 40
0.0
 40
0.0
 40
0.0
 40
1.0
 40
1.0
 40
1.0
 40
2.0
 40
2.0
 40
2.0
 40
2.0
 10
2625.665358460632
 20
5359.858815965202
 30
0.0
 10
2627.279110087846
 20
5359.159523593411
 30
0.0
 10
2628.812174133673
 20
5358.782981547065
 30
0.0
 10
2630.210758877285
 20
5358.782981547065
 30
0.0
 10
2647.639276451031
 20
5358.782981547065
 30
0.0
 10
2687.902379549698
 20
5356.281666524901
 30
0.0
 10
2687.902379549698
 20
5356.281666524901
 30
0.0
  0
SPLINE
  5
B0B
330
1F
100
AcDbEntity
  8
Furniture
370
     9
100
AcDbSpline
210
0.0
220
0.0
230
1.0
 70
     8
 71
     3
 72
    62
 73
    58
 74
     0
 42
0.000000001
 43
0.0000000001
 40
0.0
 40
0.0
 40
0.0
 40
0.0
 40
1.0
 40
1.0
 40
1.0
 40
2.0
 40
2.0
 40
2.0
 40
3.0
 40
3.0
 40
3.0
 40
4.0
 40
4.0
 40
4.0
 40
5.0
 40
5.0
 40
5.0
 40
6.0
 40
6.0
 40
6.0
 40
7.0
 40
7.0
 40
7.0
 40
8.0
 40
8.0
 40
8.0
 40
9.0
 40
9.0
 40
9.0
 40
10.0
 40
10.0
 40
10.0
 40
11.0
 40
11.0
 40
11.0
 40
12.0
 40
12.0
 40
12.0
 40
13.0
 40
13.0
 40
13.0
 40
14.0
 40
14.0
 40
14.0
 40
15.0
 40
15.0
 40
15.0
 40
16.0
 40
16.0
 40
16.0
 40
17.0
 40
17.0
 40
17.0
 40
18.0
 40
18.0
 40
18.0
 40
19.0
 40
19.0
 40
19.0
 40
19.0
 10
3371.460672971509
 20
5347.217761552125
 30
0.0
 10
3371.460672971509
 20
5347.217761552125
 30
0.0
 10
3421.729036158773
 20
5539.307996909923
 30
0.0
 10
3455.268174144098
 20
5672.496297874885
 30
0.0
 10
3455.268174144098
 20
5672.496297874885
 30
0.0
 10
3461.588701350622
 20
5698.692865956433
 30
0.0
 10
3461.588701350622
 20
5698.692865956433
 30
0.0
 10
3488.376978362161
 20
5844.172575148583
 30
0.0
 10
3484.450182735986
 20
5923.999488974111
 30
0.0
 10
3484.450182735986
 20
5924.618093764544
 30
0.0
 10
3484.450182735986
 20
5928.222139065304
 30
0.0
 10
3467.855436836261
 20
5931.772392645132
 30
0.0
 10
3449.996585495254
 20
5924.591197904101
 30
0.0
 10
3432.110838293745
 20
5917.436899023498
 30
0.0
 10
3432.110838293745
 20
5917.436899023498
 30
0.0
 10
3432.110838293745
 20
5917.436899023498
 30
0.0
 10
3432.110838293745
 20
5917.436899023498
 30
0.0
 10
3431.303962480168
 20
5918.243774837105
 30
0.0
 10
3431.303962480168
 20
5918.243774837105
 30
0.0
 10
3422.320745088749
 20
5927.738013577127
 30
0.0
 10
3397.603449332128
 20
5944.198280174565
 30
0.0
 10
3382.407288176015
 20
5890.514142709715
 30
0.0
 10
3371.864110878269
 20
5853.397855284089
 30
0.0
 10
3349.002629492963
 20
5789.116748800592
 30
0.0
 10
3330.33690233832
 20
5739.870428310521
 30
0.0
 10
3330.33690233832
 20
5739.870428310521
 30
0.0
 10
3327.674212153426
 20
5726.745248409283
 30
0.0
 10
3327.674212153426
 20
5726.745248409283
 30
0.0
 10
3325.576335038066
 20
5716.847571762457
 30
0.0
 10
3323.693624806365
 20
5709.505001858681
 30
0.0
 10
3321.676435272333
 20
5706.949895115631
 30
0.0
 10
3315.302116344865
 20
5698.854241119163
 30
0.0
 10
3179.155270730094
 20
5714.10419399622
 30
0.0
 10
3140.855565444516
 20
5716.686196599727
 30
0.0
 10
3140.855565444516
 20
5716.686196599727
 30
0.0
 10
3047.042804183213
 20
5719.079928180075
 30
0.0
 10
3047.042804183213
 20
5719.079928180075
 30
0.0
 10
2965.871097335017
 20
5716.497925576568
 30
0.0
 10
2831.660753672834
 20
5713.673860228944
 30
0.0
 10
2802.532536801889
 20
5717.385488971519
 30
0.0
 10
2768.105835421601
 20
5721.85020180677
 30
0.0
 10
2695.298741174346
 20
5729.811376500966
 30
0.0
 10
2678.730891135121
 20
5733.334734220353
 30
0.0
 10
2662.189936956282
 20
5736.85809193974
 30
0.0
 10
2634.083762782575
 20
5746.701976865679
 30
0.0
 10
2625.1274412516
 20
5740.435241380026
 30
0.0
 10
2616.224911441568
 20
5734.141610033945
 30
0.0
 10
2639.301559710534
 20
5687.692459031026
 30
0.0
 10
2641.856666453597
 20
5659.048367648214
 30
0.0
 10
2641.856666453597
 20
5659.048367648214
 30
0.0
 10
2643.766272545742
 20
5651.221672256292
 30
0.0
 10
2643.766272545742
 20
5651.221672256292
 30
0.0
 10
2643.013188453049
 20
5617.924597015055
 30
0.0
 10
2640.700144454088
 20
5577.634598055931
 30
0.0
 10
2638.736746641
 20
5560.851581133047
 30
0.0
 10
2635.805097851561
 20
5535.623264027822
 30
0.0
 10
2629.296299621878
 20
5494.660868557363
 30
0.0
 10
2629.296299621878
 20
5494.660868557363
 30
0.0
  0
SPLINE
  5
B0C
330
1F
100
AcDbEntity
  8
Furniture
370
     9
100
AcDbSpline
210
0.0
220
0.0
230
1.0
 70
     8
 71
     3
 72
    20
 73
    16
 74
     0
 42
0.000000001
 43
0.0000000001
 40
0.0
 40
0.0
 40
0.0
 40
0.0
 40
1.0
 40
1.0
 40
1.0
 40
2.0
 40
2.0
 40
2.0
 40
3.0
 40
3.0
 40
3.0
 40
4.0
 40
4.0
 40
4.0
 40
5.0
 40
5.0
 40
5.0
 40
5.0
 10
3392.815986171431
 20
5911.250851119246
 30
0.0
 10
3392.815986171431
 20
5911.250851119246
 30
0.0
 10
3377.055011945784
 20
5897.345691264844
 30
0.0
 10
3377.055011945784
 20
5897.345691264844
 30
0.0
 10
3361.536100464182
 20
5879.83648610971
 30
0.0
 10
3336.549846103074
 20
5850.304831331949
 30
0.0
 10
3316.566221786205
 20
5820.638697251914
 30
0.0
 10
3305.027897651722
 20
5803.398450701326
 30
0.0
 10
3291.311008820551
 20
5775.480547550749
 30
0.0
 10
3278.374099942455
 20
5741.726242681794
 30
0.0
 10
3278.374099942455
 20
5741.726242681794
 30
0.0
 10
3267.481276458835
 20
5719.833012272768
 30
0.0
 10
3267.481276458835
 20
5719.833012272768
 30
0.0
 10
3267.481276458835
 20
5719.833012272768
 30
0.0
 10
3260.058018973745
 20
5706.546457208813
 30
0.0
 10
3260.058018973745
 20
5706.546457208813
 30
0.0
  0
MTEXT
  5
B0D
330
1F
100
AcDbEntity
  8
Dimension
100
AcDbMText
 10
3592.463958316606
 20
3617.733246820648
 30
0.0
 40
121.7328160806779
 41
0.0
 46
0.0
 71
     7
 72
     1
  1
\fApercu|b0|i0|c0|p34;\W1.0004;80
 73
     1
 44
1.0
  0
MTEXT
  5
B0E
330
1F
100
AcDbEntity
  8
Dimension
100
AcDbMText
 10
2952.974532247645
 20
4204.089900564027
 30
0.0
 40
121.7328160806779
 41
0.0
 46
0.0
 71
     7
 72
     1
  1
\fApercu|b0|i0|c0|p34;\W1.0004;86
 73
     1
 44
1.0
  0
POLYLINE
  5
B0F
330
1F
100
AcDbEntity
  8
Furniture
370
     9
100
AcDb2dPolyline
 66
     1
 10
0.0
 20
0.0
 30
0.0
  0
VERTEX
  5
B10
330
B0F
100
AcDbEntity
  8
Furniture
370
     9
100
AcDbVertex
100
AcDb2dVertex
 10
2653.717740913511
 20
3240.209501567271
 30
0.0
  0
VERTEX
  5
B11
330
B0F
100
AcDbEntity
  8
Furniture
100
AcDbVertex
100
AcDb2dVertex
 10
2653.717740913511
 20
3240.209501567271
 30
0.0
  0
SEQEND
  5
B12
330
B0F
100
AcDbEntity
  8
Furniture
370
     9
  0
SPLINE
  5
B13
330
1F
100
AcDbEntity
  8
Furniture
370
     9
100
AcDbSpline
210
0.0
220
0.0
230
1.0
 70
     8
 71
     3
 72
    14
 73
    10
 74
     0
 42
0.000000001
 43
0.0000000001
 40
0.0
 40
0.0
 40
0.0
 40
0.0
 40
1.0
 40
1.0
 40
1.0
 40
2.0
 40
2.0
 40
2.0
 40
3.0
 40
3.0
 40
3.0
 40
3.0
 10
2684.446261481447
 20
3565.89147579682
 30
0.0
 10
2684.446261481447
 20
3565.89147579682
 30
0.0
 10
2684.459709411669
 20
3622.426574469751
 30
0.0
 10
2684.459709411669
 20
3622.426574469751
 30
0.0
 10
2684.459709411669
 20
3622.426574469751
 30
0.0
 10
2683.706625318977
 20
3632.727689023381
 30
0.0
 10
2691.049195222739
 20
3632.942855907026
 30
0.0
 10
2698.364869266058
 20
3633.1849186511
 30
0.0
 10
2703.555770333573
 20
3632.915960046568
 30
0.0
 10
2703.555770333573
 20
3632.915960046568
 30
0.0
  0
SPLINE
  5
B14
330
1F
100
AcDbEntity
  8
Furniture
370
     9
100
AcDbSpline
210
0.0
220
0.0
230
1.0
 70
     8
 71
     3
 72
    32
 73
    28
 74
     0
 42
0.000000001
 43
0.0000000001
 40
0.0
 40
0.0
 40
0.0
 40
0.0
 40
1.0
 40
1.0
 40
1.0
 40
2.0
 40
2.0
 40
2.0
 40
3.0
 40
3.0
 40
3.0
 40
4.0
 40
4.0
 40
4.0
 40
5.0
 40
5.0
 40
5.0
 40
6.0
 40
6.0
 40
6.0
 40
7.0
 40
7.0
 40
7.0
 40
8.0
 40
8.0
 40
8.0
 40
9.0
 40
9.0
 40
9.0
 40
9.0
 10
3404.058455840925
 20
3533.387828438954
 30
0.0
 10
3397.361386588026
 20
3495.343633827699
 30
0.0
 10
3391.632568311478
 20
3463.364455748673
 30
0.0
 10
3391.632568311478
 20
3463.364455748673
 30
0.0
 10
3391.632568311478
 20
3463.364455748673
 30
0.0
 10
3429.179189504365
 20
3241.312231845852
 30
0.0
 10
3429.179189504365
 20
3241.312231845852
 30
0.0
 10
3429.179189504365
 20
3241.312231845852
 30
0.0
 10
3412.584443604639
 20
3241.285335985394
 30
0.0
 10
3412.584443604639
 20
3241.285335985394
 30
0.0
 10
3412.584443604639
 20
3241.285335985394
 30
0.0
 10
3375.064718272195
 20
3460.163848354718
 30
0.0
 10
3375.064718272195
 20
3460.163848354718
 30
0.0
 10
3375.064718272195
 20
3460.163848354718
 30
0.0
 10
2737.41765864427
 20
3501.045556243818
 30
0.0
 10
2737.41765864427
 20
3501.045556243818
 30
0.0
 10
2737.41765864427
 20
3501.045556243818
 30
0.0
 10
2737.794200690645
 20
3240.263293288172
 30
0.0
 10
2737.794200690645
 20
3240.263293288172
 30
0.0
 10
2737.794200690645
 20
3240.263293288172
 30
0.0
 10
2695.056678430301
 20
3240.209501567271
 30
0.0
 10
2695.056678430301
 20
3240.209501567271
 30
0.0
 10
2695.056678430301
 20
3240.209501567271
 30
0.0
 10
2684.379021830282
 20
3240.209501567271
 30
0.0
 10
2684.379021830282
 20
3240.209501567271
 30
0.0
 10
2684.379021830282
 20
3240.209501567271
 30
0.0
 10
2684.446261481447
 20
3565.89147579682
 30
0.0
 10
2684.446261481447
 20
3565.89147579682
 30
0.0
  0
SPLINE
  5
B15
330
1F
100
AcDbEntity
  8
Furniture
370
     9
100
AcDbSpline
210
0.0
220
0.0
230
1.0
 70
     8
 71
     3
 72
    14
 73
    10
 74
     0
 42
0.000000001
 43
0.0000000001
 40
0.0
 40
0.0
 40
0.0
 40
0.0
 40
1.0
 40
1.0
 40
1.0
 40
2.0
 40
2.0
 40
2.0
 40
3.0
 40
3.0
 40
3.0
 40
3.0
 10
3386.522354825349
 20
3537.260832344229
 30
0.0
 10
3394.322154356814
 20
3575.721912792509
 30
0.0
 10
3406.895969118756
 20
3629.580873350355
 30
0.0
 10
3407.78353251372
 20
3630.481884675541
 30
0.0
 10
3409.66624274548
 20
3632.552865930444
 30
0.0
 10
3418.488084974124
 20
3631.961157000468
 30
0.0
 10
3420.155628322282
 20
3629.621217141033
 30
0.0
 10
3420.881816554473
 20
3628.639518234475
 30
0.0
 10
3410.231055814955
 20
3569.441729376678
 30
0.0
 10
3403.372611399398
 20
3529.474480743
 30
0.0
  0
SPLINE
  5
B16
330
1F
100
AcDbEntity
  8
Furniture
370
     9
100
AcDbSpline
210
0.0
220
0.0
230
1.0
 70
     8
 71
     3
 72
    14
 73
    10
 74
     0
 42
0.000000001
 43
0.0000000001
 40
0.0
 40
0.0
 40
0.0
 40
0.0
 40
1.0
 40
1.0
 40
1.0
 40
2.0
 40
2.0
 40
2.0
 40
3.0
 40
3.0
 40
3.0
 40
3.0
 10
3386.522354825349
 20
3537.260832344229
 30
0.0
 10
3380.094244176995
 20
3505.053039451367
 30
0.0
 10
3374.984030690867
 20
3479.058190323198
 30
0.0
 10
3374.984030690867
 20
3479.058190323198
 30
0.0
 10
3374.984030690867
 20
3479.058190323198
 30
0.0
 10
2739.676910922404
 20
3513.794194098711
 30
0.0
 10
2739.676910922404
 20
3513.794194098711
 30
0.0
 10
2739.676910922404
 20
3513.794194098711
 30
0.0
 10
2739.596223341017
 20
3561.615033984741
 30
0.0
 10
2739.596223341017
 20
3561.615033984741
 30
0.0
  0
SPLINE
  5
B17
330
1F
100
AcDbEntity
  8
Furniture
370
     9
100
AcDbSpline
210
0.0
220
0.0
230
1.0
 70
     8
 71
     3
 72
    17
 73
    13
 74
     0
 42
0.000000001
 43
0.0000000001
 40
0.0
 40
0.0
 40
0.0
 40
0.0
 40
1.0
 40
1.0
 40
1.0
 40
2.0
 40
2.0
 40
2.0
 40
3.0
 40
3.0
 40
3.0
 40
4.0
 40
4.0
 40
4.0
 40
4.0
 10
2702.210977310904
 20
3632.915960046568
 30
0.0
 10
2702.210977310904
 20
3632.915960046568
 30
0.0
 10
2703.555770333573
 20
3632.915960046568
 30
0.0
 10
2705.653647448875
 20
3632.915960046568
 30
0.0
 10
2711.490049167311
 20
3632.915960046568
 30
0.0
 10
2723.458707068996
 20
3632.942855907026
 30
0.0
 10
2730.666797670543
 20
3632.942855907026
 30
0.0
 10
2740.429995015097
 20
3632.969751767483
 30
0.0
 10
2739.407952317859
 20
3624.228597120139
 30
0.0
 10
2739.407952317859
 20
3624.228597120139
 30
0.0
 10
2739.407952317859
 20
3624.228597120139
 30
0.0
 10
2739.596223341017
 20
3561.615033984741
 30
0.0
 10
2739.596223341017
 20
3561.615033984741
 30
0.0
  0
SPLINE
  5
B18
330
1F
100
AcDbEntity
  8
Furniture
370
     9
100
AcDbSpline
210
0.0
220
0.0
230
1.0
 70
     8
 71
     3
 72
     8
 73
     4
 74
     0
 42
0.000000001
 43
0.0000000001
 40
0.0
 40
0.0
 40
0.0
 40
0.0
 40
1.0
 40
1.0
 40
1.0
 40
1.0
 10
3325.52254331718
 20
3481.653640856941
 30
0.0
 10
3325.52254331718
 20
3481.653640856941
 30
0.0
 10
3364.656020276779
 20
3485.714915785404
 30
0.0
 10
3367.937315252093
 20
3502.148286522399
 30
0.0
  0
SPLINE
  5
B19
330
1F
100
AcDbEntity
  8
Furniture
370
     9
100
AcDbSpline
210
0.0
220
0.0
230
1.0
 70
     8
 71
     3
 72
    14
 73
    10
 74
     0
 42
0.000000001
 43
0.0000000001
 40
0.0
 40
0.0
 40
0.0
 40
0.0
 40
1.0
 40
1.0
 40
1.0
 40
2.0
 40
2.0
 40
2.0
 40
3.0
 40
3.0
 40
3.0
 40
3.0
 10
2625.746046042019
 20
3649.591393527637
 30
0.0
 10
2625.746046042019
 20
3649.591393527637
 30
0.0
 10
2624.428148879794
 20
3622.856908237012
 30
0.0
 10
2623.110251717568
 20
3608.897956661723
 30
0.0
 10
2621.792354555401
 20
3594.965900946892
 30
0.0
 10
2615.902161116079
 20
3568.258311516711
 30
0.0
 10
2619.183456091392
 20
3558.979239660319
 30
0.0
 10
2622.545438648093
 20
3549.700167803913
 30
0.0
 10
2626.68740115787
 20
3513.713506517339
 30
0.0
 10
2626.68740115787
 20
3513.713506517339
 30
0.0
  0
SPLINE
  5
B1A
330
1F
100
AcDbEntity
  8
Furniture
370
     9
100
AcDbSpline
210
0.0
220
0.0
230
1.0
 70
     8
 71
     3
 72
    74
 73
    70
 74
     0
 42
0.000000001
 43
0.0000000001
 40
0.0
 40
0.0
 40
0.0
 40
0.0
 40
1.0
 40
1.0
 40
1.0
 40
2.0
 40
2.0
 40
2.0
 40
3.0
 40
3.0
 40
3.0
 40
4.0
 40
4.0
 40
4.0
 40
5.0
 40
5.0
 40
5.0
 40
6.0
 40
6.0
 40
6.0
 40
7.0
 40
7.0
 40
7.0
 40
8.0
 40
8.0
 40
8.0
 40
9.0
 40
9.0
 40
9.0
 40
10.0
 40
10.0
 40
10.0
 40
11.0
 40
11.0
 40
11.0
 40
12.0
 40
12.0
 40
12.0
 40
13.0
 40
13.0
 40
13.0
 40
14.0
 40
14.0
 40
14.0
 40
15.0
 40
15.0
 40
15.0
 40
16.0
 40
16.0
 40
16.0
 40
17.0
 40
17.0
 40
17.0
 40
18.0
 40
18.0
 40
18.0
 40
19.0
 40
19.0
 40
19.0
 40
20.0
 40
20.0
 40
20.0
 40
21.0
 40
21.0
 40
21.0
 40
22.0
 40
22.0
 40
22.0
 40
23.0
 40
23.0
 40
23.0
 40
23.0
 10
3481.088200179344
 20
4067.203418786743
 30
0.0
 10
3481.088200179344
 20
4067.203418786743
 30
0.0
 10
3471.432586276562
 20
4067.203418786743
 30
0.0
 10
3471.432586276562
 20
4067.203418786743
 30
0.0
 10
3469.254021579873
 20
4067.364793949444
 30
0.0
 10
3466.698914836751
 20
4067.06893948447
 30
0.0
 10
3463.713474326483
 20
4066.127584368605
 30
0.0
 10
3449.646939309321
 20
4061.635975672896
 30
0.0
 10
3434.37009057188
 20
4053.109987909182
 30
0.0
 10
3420.975952066081
 20
4058.489159999855
 30
0.0
 10
3407.554917699839
 20
4063.8145403696
 30
0.0
 10
3411.212754721528
 20
4077.262470596298
 30
0.0
 10
3398.867554773409
 20
4056.095428419506
 30
0.0
 10
3386.468563104463
 20
4034.901490382257
 30
0.0
 10
3387.974731289848
 20
4018.81776583115
 30
0.0
 10
3387.974731289848
 20
4018.81776583115
 30
0.0
 10
3387.974731289848
 20
4018.81776583115
 30
0.0
 10
3352.60667479365
 20
3921.32027168779
 30
0.0
 10
3352.60667479365
 20
3921.32027168779
 30
0.0
 10
3352.60667479365
 20
3921.32027168779
 30
0.0
 10
3342.009705775075
 20
3892.192054816817
 30
0.0
 10
3342.009705775075
 20
3892.192054816817
 30
0.0
 10
3335.366428243062
 20
3870.675366454136
 30
0.0
 10
3327.028711502564
 20
3847.302863720182
 30
0.0
 10
3323.478457922706
 20
3847.249071999268
 30
0.0
 10
3198.681665419201
 20
3844.909132139834
 30
0.0
 10
3192.441825794005
 20
3856.178497669786
 30
0.0
 10
3138.945959352314
 20
3856.823998320662
 30
0.0
 10
3137.170832562385
 20
3856.823998320662
 30
0.0
 10
3135.180538888854
 20
3856.877790041563
 30
0.0
 10
3133.001974192106
 20
3856.958477622935
 30
0.0
 10
3133.001974192106
 20
3856.958477622935
 30
0.0
 10
3042.013278278413
 20
3858.868083715123
 30
0.0
 10
3042.013278278413
 20
3858.868083715123
 30
0.0
 10
2966.62418142771
 20
3857.281227948366
 30
0.0
 10
2859.740031986155
 20
3855.58678873981
 30
0.0
 10
2827.733958046658
 20
3856.312976972058
 30
0.0
 10
2778.326262393858
 20
3857.442603111096
 30
0.0
 10
2689.166484990979
 20
3867.286488037022
 30
0.0
 10
2676.390951275659
 20
3871.428450546842
 30
0.0
 10
2663.64231342078
 20
3875.570413056649
 30
0.0
 10
2649.091652915529
 20
3885.037755936213
 30
0.0
 10
2639.624310035964
 20
3883.208837425399
 30
0.0
 10
2630.291446458614
 20
3881.433710635469
 30
0.0
 10
2656.999035888825
 20
3833.989412795785
 30
0.0
 10
2654.901158773464
 20
3819.680815034593
 30
0.0
 10
2654.55151258759
 20
3817.125708291529
 30
0.0
 10
2654.363241564374
 20
3813.387183688526
 30
0.0
 10
2654.309449843488
 20
3808.787991550988
 30
0.0
 10
2654.309449843488
 20
3808.787991550988
 30
0.0
 10
2653.099136123092
 20
3803.866049088032
 30
0.0
 10
2653.099136123092
 20
3803.866049088032
 30
0.0
 10
2653.502574029852
 20
3788.481616908717
 30
0.0
 10
2653.717740913511
 20
3773.204768171217
 30
0.0
 10
2653.045344402206
 20
3763.468466687093
 30
0.0
 10
2651.404696914549
 20
3740.795256324931
 30
0.0
 10
2639.597414175522
 20
3680.360257886267
 30
0.0
 10
2637.230578455616
 20
3668.714350309969
 30
0.0
 10
2634.971326177482
 20
3657.149130315029
 30
0.0
 10
2636.369910921094
 20
3636.251046742768
 30
0.0
 10
2634.379617247563
 20
3619.387342238541
 30
0.0
 10
2634.379617247563
 20
3619.387342238541
 30
0.0
 10
2634.379617247563
 20
3617.101194100007
 30
0.0
 10
2634.379617247563
 20
3617.101194100007
 30
0.0
 10
2634.379617247563
 20
3617.101194100007
 30
0.0
 10
2629.726633389139
 20
3590.366708809383
 30
0.0
 10
2627.090839064687
 20
3579.312510163032
 30
0.0
 10
2624.481940600738
 20
3568.258311516711
 30
0.0
 10
2635.482347526129
 20
3515.381049865453
 30
0.0
 10
2639.409143152305
 20
3513.713506517339
 30
0.0
  0
POLYLINE
  5
B1B
330
1F
100
AcDbEntity
  8
Furniture
370
     9
100
AcDb2dPolyline
 66
     1
 10
0.0
 20
0.0
 30
0.0
  0
VERTEX
  5
B1C
330
B1B
100
AcDbEntity
  8
Furniture
370
     9
100
AcDbVertex
100
AcDb2dVertex
 10
3451.74481642474
 20
3820.729753592273
 30
0.0
  0
VERTEX
  5
B1D
330
B1B
100
AcDbEntity
  8
Furniture
100
AcDbVertex
100
AcDb2dVertex
 10
3451.74481642474
 20
3820.729753592273
 30
0.0
  0
SEQEND
  5
B1E
330
B1B
100
AcDbEntity
  8
Furniture
370
     9
  0
SPLINE
  5
B1F
330
1F
100
AcDbEntity
  8
Furniture
370
     9
100
AcDbSpline
210
0.0
220
0.0
230
1.0
 70
     8
 71
     3
 72
    11
 73
     7
 74
     0
 42
0.000000001
 43
0.0000000001
 40
0.0
 40
0.0
 40
0.0
 40
0.0
 40
1.0
 40
1.0
 40
1.0
 40
2.0
 40
2.0
 40
2.0
 40
2.0
 10
2622.142000741275
 20
3514.789340935477
 30
0.0
 10
2623.75575236843
 20
3514.090048563685
 30
0.0
 10
2625.288816414315
 20
3513.713506517339
 30
0.0
 10
2626.68740115787
 20
3513.713506517339
 30
0.0
 10
2644.115918731674
 20
3513.713506517339
 30
0.0
 10
2684.379021830282
 20
3511.212191495175
 30
0.0
 10
2684.379021830282
 20
3511.212191495175
 30
0.0
  0
SPLINE
  5
B20
330
1F
100
AcDbEntity
  8
Furniture
370
     9
100
AcDbSpline
210
0.0
220
0.0
230
1.0
 70
     8
 71
     3
 72
    62
 73
    58
 74
     0
 42
0.000000001
 43
0.0000000001
 40
0.0
 40
0.0
 40
0.0
 40
0.0
 40
1.0
 40
1.0
 40
1.0
 40
2.0
 40
2.0
 40
2.0
 40
3.0
 40
3.0
 40
3.0
 40
4.0
 40
4.0
 40
4.0
 40
5.0
 40
5.0
 40
5.0
 40
6.0
 40
6.0
 40
6.0
 40
7.0
 40
7.0
 40
7.0
 40
8.0
 40
8.0
 40
8.0
 40
9.0
 40
9.0
 40
9.0
 40
10.0
 40
10.0
 40
10.0
 40
11.0
 40
11.0
 40
11.0
 40
12.0
 40
12.0
 40
12.0
 40
13.0
 40
13.0
 40
13.0
 40
14.0
 40
14.0
 40
14.0
 40
15.0
 40
15.0
 40
15.0
 40
16.0
 40
16.0
 40
16.0
 40
17.0
 40
17.0
 40
17.0
 40
18.0
 40
18.0
 40
18.0
 40
19.0
 40
19.0
 40
19.0
 40
19.0
 10
3367.937315252093
 20
3502.148286522399
 30
0.0
 10
3367.937315252093
 20
3502.148286522399
 30
0.0
 10
3418.205678439416
 20
3694.238521880183
 30
0.0
 10
3451.74481642474
 20
3827.426822845158
 30
0.0
 10
3451.74481642474
 20
3827.426822845158
 30
0.0
 10
3458.092239491707
 20
3853.623390926707
 30
0.0
 10
3458.092239491707
 20
3853.623390926707
 30
0.0
 10
3484.826724782303
 20
3999.103100118857
 30
0.0
 10
3480.926825016569
 20
4078.930013944384
 30
0.0
 10
3480.926825016569
 20
4079.548618734817
 30
0.0
 10
3480.926825016569
 20
4083.152664035576
 30
0.0
 10
3464.332079116902
 20
4086.702917615406
 30
0.0
 10
3446.446331915395
 20
4079.521722874375
 30
0.0
 10
3428.587480574388
 20
4072.367423993772
 30
0.0
 10
3428.587480574388
 20
4072.367423993772
 30
0.0
 10
3428.587480574388
 20
4072.367423993772
 30
0.0
 10
3428.587480574388
 20
4072.367423993772
 30
0.0
 10
3427.807500621253
 20
4073.174299807379
 30
0.0
 10
3427.807500621253
 20
4073.174299807379
 30
0.0
 10
3418.797387369334
 20
4082.668538547401
 30
0.0
 10
3394.080091612712
 20
4099.128805144839
 30
0.0
 10
3378.883930456599
 20
4045.444667679989
 30
0.0
 10
3368.340753158911
 20
4008.328380254362
 30
0.0
 10
3345.506167633991
 20
3944.047273770866
 30
0.0
 10
3326.813544618904
 20
3894.800953280796
 30
0.0
 10
3326.813544618904
 20
3894.800953280796
 30
0.0
 10
3324.177750294512
 20
3881.675773379557
 30
0.0
 10
3324.177750294512
 20
3881.675773379557
 30
0.0
 10
3322.079873179151
 20
3871.778096732717
 30
0.0
 10
3320.170267086949
 20
3864.435526828954
 30
0.0
 10
3318.126181692475
 20
3861.880420085905
 30
0.0
 10
3311.751862765065
 20
3853.784766089437
 30
0.0
 10
3175.631913010679
 20
3869.034718966494
 30
0.0
 10
3137.3322077251
 20
3871.616721570001
 30
0.0
 10
3137.3322077251
 20
3871.616721570001
 30
0.0
 10
3043.519446463797
 20
3874.01045315035
 30
0.0
 10
3043.519446463797
 20
3874.01045315035
 30
0.0
 10
2962.347739615601
 20
3871.428450546842
 30
0.0
 10
2828.137395953417
 20
3868.604385199218
 30
0.0
 10
2799.009179082474
 20
3872.316013941792
 30
0.0
 10
2764.582477702184
 20
3876.780726777044
 30
0.0
 10
2691.802279315431
 20
3884.741901471239
 30
0.0
 10
2675.234429276207
 20
3888.265259190627
 30
0.0
 10
2658.666579236924
 20
3891.788616910013
 30
0.0
 10
2630.560405063159
 20
3901.632501835953
 30
0.0
 10
2621.604083532184
 20
3895.3657663503
 30
0.0
 10
2612.701553722152
 20
3889.072135004218
 30
0.0
 10
2635.751306130675
 20
3842.6229840013
 30
0.0
 10
2638.333308734182
 20
3813.978892618488
 30
0.0
 10
2638.333308734182
 20
3813.978892618488
 30
0.0
 10
2640.242914826384
 20
3806.152197226566
 30
0.0
 10
2640.242914826384
 20
3806.152197226566
 30
0.0
 10
2639.489830733692
 20
3772.855121985329
 30
0.0
 10
2637.17678673473
 20
3732.565123026205
 30
0.0
 10
2635.213388921584
 20
3715.782106103321
 30
0.0
 10
2632.281740132203
 20
3690.553788998066
 30
0.0
 10
2625.746046042019
 20
3649.591393527637
 30
0.0
 10
2625.746046042019
 20
3649.591393527637
 30
0.0
  0
SPLINE
  5
B21
330
1F
100
AcDbEntity
  8
Furniture
370
     9
100
AcDbSpline
210
0.0
220
0.0
230
1.0
 70
     8
 71
     3
 72
    20
 73
    16
 74
     0
 42
0.000000001
 43
0.0000000001
 40
0.0
 40
0.0
 40
0.0
 40
0.0
 40
1.0
 40
1.0
 40
1.0
 40
2.0
 40
2.0
 40
2.0
 40
3.0
 40
3.0
 40
3.0
 40
4.0
 40
4.0
 40
4.0
 40
5.0
 40
5.0
 40
5.0
 40
5.0
 10
3389.292628452015
 20
4066.181376089519
 30
0.0
 10
3389.292628452015
 20
4066.181376089519
 30
0.0
 10
3373.531654226368
 20
4052.276216235116
 30
0.0
 10
3373.531654226368
 20
4052.276216235116
 30
0.0
 10
3358.012742744824
 20
4034.767011079984
 30
0.0
 10
3333.026488383657
 20
4005.235356302222
 30
0.0
 10
3313.042864066789
 20
3975.569222222203
 30
0.0
 10
3301.504539932365
 20
3958.328975671601
 30
0.0
 10
3287.787651101135
 20
3930.411072521023
 30
0.0
 10
3274.877638083483
 20
3896.656767652068
 30
0.0
 10
3274.877638083483
 20
3896.656767652068
 30
0.0
 10
3263.931022878977
 20
3874.763537243042
 30
0.0
 10
3263.931022878977
 20
3874.763537243042
 30
0.0
 10
3263.931022878977
 20
3874.763537243042
 30
0.0
 10
3256.534661254329
 20
3861.476982179087
 30
0.0
 10
3256.534661254329
 20
3861.476982179087
 30
0.0
  0
SPLINE
  5
B22
330
1F
100
AcDbEntity
  8
Furniture
370
     9
100
AcDbSpline
210
0.0
220
0.0
230
1.0
 70
    11
 71
     3
 72
    26
 73
    22
 74
     0
 42
0.000000001
 43
0.0000000001
 40
0.0
 40
0.0
 40
0.0
 40
0.0
 40
1.0
 40
1.0
 40
1.0
 40
2.0
 40
2.0
 40
2.0
 40
3.0
 40
3.0
 40
3.0
 40
4.0
 40
4.0
 40
4.0
 40
5.0
 40
5.0
 40
5.0
 40
6.0
 40
6.0
 40
6.0
 40
7.0
 40
7.0
 40
7.0
 40
7.0
 10
4397.053623778462
 20
5754.528672257587
 30
0.0
 10
4397.053623778462
 20
5754.528672257587
 30
0.0
 10
4516.632619354008
 20
5733.765067987599
 30
0.0
 10
4555.792992174109
 20
5678.305803732819
 30
0.0
 10
4595.034052575538
 20
5622.792747757095
 30
0.0
 10
4622.709892981983
 20
5548.156734999069
 30
0.0
 10
4629.783504281259
 20
5492.616783162917
 30
0.0
 10
4636.803323859589
 20
5437.076831326751
 30
0.0
 10
4650.681587853476
 20
5365.883488706753
 30
0.0
 10
4650.681587853476
 20
5365.883488706753
 30
0.0
 10
4650.681587853476
 20
5365.883488706753
 30
0.0
 10
4603.586936199696
 20
5356.308562385359
 30
0.0
 10
4585.163271789155
 20
5370.159930518832
 30
0.0
 10
4566.712711518172
 20
5384.065090373206
 30
0.0
 10
4563.216249659199
 20
5421.36964882199
 30
0.0
 10
4523.975189257828
 20
5513.353491572448
 30
0.0
 10
4484.680337135454
 20
5605.310438462421
 30
0.0
 10
4443.287607897721
 20
5627.82227366188
 30
0.0
 10
4438.607728178853
 20
5662.544829507144
 30
0.0
 10
4433.900952599542
 20
5697.240489491964
 30
0.0
 10
4397.053623778462
 20
5754.528672257587
 30
0.0
 10
4397.053623778462
 20
5754.528672257587
 30
0.0
  0
SPLINE
  5
B23
330
1F
100
AcDbEntity
  8
Furniture
370
     9
100
AcDbSpline
210
0.0
220
0.0
230
1.0
 70
     8
 71
     3
 72
     8
 73
     4
 74
     0
 42
0.000000001
 43
0.0000000001
 40
0.0
 40
0.0
 40
0.0
 40
0.0
 40
1.0
 40
1.0
 40
1.0
 40
1.0
 10
4629.084211909452
 20
5543.772709745176
 30
0.0
 10
4629.084211909452
 20
5543.772709745176
 30
0.0
 10
4756.355423574692
 20
5567.95208829272
 30
0.0
 10
4955.384790929449
 20
5575.294658196497
 30
0.0
  0
SPLINE
  5
B24
330
1F
100
AcDbEntity
  8
Furniture
370
     9
100
AcDbSpline
210
0.0
220
0.0
230
1.0
 70
     8
 71
     3
 72
    32
 73
    28
 74
     0
 42
0.000000001
 43
0.0000000001
 40
0.0
 40
0.0
 40
0.0
 40
0.0
 40
1.0
 40
1.0
 40
1.0
 40
2.0
 40
2.0
 40
2.0
 40
3.0
 40
3.0
 40
3.0
 40
4.0
 40
4.0
 40
4.0
 40
5.0
 40
5.0
 40
5.0
 40
6.0
 40
6.0
 40
6.0
 40
7.0
 40
7.0
 40
7.0
 40
8.0
 40
8.0
 40
8.0
 40
9.0
 40
9.0
 40
9.0
 40
9.0
 10
4454.288014823171
 20
5739.735949008249
 30
0.0
 10
4454.288014823171
 20
5739.735949008249
 30
0.0
 10
4419.995792745154
 20
5799.659926098295
 30
0.0
 10
4423.30398358091
 20
5846.593202589389
 30
0.0
 10
4423.707421487728
 20
5851.945478819605
 30
0.0
 10
4424.057067673603
 20
5857.136379887106
 30
0.0
 10
4424.406713859476
 20
5862.165905791877
 30
0.0
 10
4424.406713859476
 20
5862.165905791877
 30
0.0
 10
4422.093669860514
 20
5869.535371556081
 30
0.0
 10
4420.614397535573
 20
5873.919396809975
 30
0.0
 10
4415.584871630832
 20
5888.927286942958
 30
0.0
 10
4411.523596702325
 20
5901.164903449233
 30
0.0
 10
4411.523596702325
 20
5901.164903449233
 30
0.0
 10
4411.523596702325
 20
5901.164903449233
 30
0.0
 10
4411.523596702325
 20
5914.98937572225
 30
0.0
 10
4411.523596702325
 20
5914.98937572225
 30
0.0
 10
4411.523596702325
 20
5914.98937572225
 30
0.0
 10
4418.166874234339
 20
5918.539629302093
 30
0.0
 10
4440.167688085181
 20
5915.043167443149
 30
0.0
 10
4462.087814354636
 20
5911.627393165563
 30
0.0
 10
4494.335951038178
 20
5901.218695170133
 30
0.0
 10
4549.499360828027
 20
5908.238514748464
 30
0.0
 10
4604.743458199205
 20
5915.231438466337
 30
0.0
 10
4795.515796394735
 20
5913.321832374134
 30
0.0
 10
4846.106909907488
 20
5917.060356977152
 30
0.0
 10
4870.797309803667
 20
5918.862379627524
 30
0.0
 10
4920.231901316911
 20
5921.928507719207
 30
0.0
 10
4970.473368643791
 20
5923.945697253224
 30
0.0
  0
SPLINE
  5
B25
330
1F
100
AcDbEntity
  8
Furniture
370
     9
100
AcDbSpline
210
0.0
220
0.0
230
1.0
 70
     8
 71
     3
 72
    41
 73
    37
 74
     0
 42
0.000000001
 43
0.0000000001
 40
0.0
 40
0.0
 40
0.0
 40
0.0
 40
1.0
 40
1.0
 40
1.0
 40
2.0
 40
2.0
 40
2.0
 40
3.0
 40
3.0
 40
3.0
 40
4.0
 40
4.0
 40
4.0
 40
5.0
 40
5.0
 40
5.0
 40
6.0
 40
6.0
 40
6.0
 40
7.0
 40
7.0
 40
7.0
 40
8.0
 40
8.0
 40
8.0
 40
9.0
 40
9.0
 40
9.0
 40
10.0
 40
10.0
 40
10.0
 40
11.0
 40
11.0
 40
11.0
 40
12.0
 40
12.0
 40
12.0
 40
12.0
 10
4442.803482409574
 20
5743.366890169451
 30
0.0
 10
4442.803482409574
 20
5743.366890169451
 30
0.0
 10
4446.999236640294
 20
5742.075888867683
 30
0.0
 10
4436.91328897031
 20
5754.555568118045
 30
0.0
 10
4426.773549579382
 20
5767.062143228836
 30
0.0
 10
4410.636033307361
 20
5841.321613940545
 30
0.0
 10
4412.115305632301
 20
5860.390779001962
 30
0.0
 10
4412.115305632301
 20
5860.390779001962
 30
0.0
 10
4407.274050750719
 20
5873.273896159113
 30
0.0
 10
4407.274050750719
 20
5873.273896159113
 30
0.0
 10
4405.283757077188
 20
5881.181279132394
 30
0.0
 10
4403.562422008144
 20
5888.093515268909
 30
0.0
 10
4402.37900414825
 20
5893.607166661841
 30
0.0
 10
4399.285980196094
 20
5908.077139585748
 30
0.0
 10
4399.232188475209
 20
5928.329722507104
 30
0.0
 10
4399.232188475209
 20
5928.329722507104
 30
0.0
 10
4399.232188475209
 20
5928.329722507104
 30
0.0
 10
4393.906808105421
 20
5929.486244506613
 30
0.0
 10
4403.078296519998
 20
5930.615870645652
 30
0.0
 10
4412.222889074132
 20
5931.826184366048
 30
0.0
 10
4439.091853667
 20
5928.975223157995
 30
0.0
 10
4457.51551807754
 20
5925.989782647655
 30
0.0
 10
4475.912286627638
 20
5923.031237997802
 30
0.0
 10
4518.03120409762
 20
5918.647212743908
 30
0.0
 10
4531.801884649736
 20
5921.525069812417
 30
0.0
 10
4545.65325278318
 20
5924.42982274137
 30
0.0
 10
4613.081174939761
 20
5923.353988323233
 30
0.0
 10
4640.703223625322
 20
5922.789175253715
 30
0.0
 10
4668.244584729553
 20
5922.251258044653
 30
0.0
 10
4726.554810192385
 20
5925.209802694507
 30
0.0
 10
4742.584743022576
 20
5926.312532973116
 30
0.0
 10
4758.695363434097
 20
5927.388367391238
 30
0.0
 10
4851.45918613772
 20
5927.092512926265
 30
0.0
 10
4889.005807330606
 20
5931.180683715156
 30
0.0
 10
4907.752222066577
 20
5933.251664970073
 30
0.0
 10
4938.790045029723
 20
5934.569562132285
 30
0.0
 10
4968.2679080866
 20
5935.430229666778
 30
0.0
  0
SPLINE
  5
B26
330
1F
100
AcDbEntity
  8
Furniture
370
     9
100
AcDbSpline
210
0.0
220
0.0
230
1.0
 70
     8
 71
     3
 72
    17
 73
    13
 74
     0
 42
0.000000001
 43
0.0000000001
 40
0.0
 40
0.0
 40
0.0
 40
0.0
 40
1.0
 40
1.0
 40
1.0
 40
2.0
 40
2.0
 40
2.0
 40
3.0
 40
3.0
 40
3.0
 40
4.0
 40
4.0
 40
4.0
 40
4.0
 10
4955.411686789892
 20
5413.354682406894
 30
0.0
 10
4786.69395416609
 20
5416.420810498578
 30
0.0
 10
4646.458937762313
 20
5421.450336403363
 30
0.0
 10
4639.223951300381
 20
5429.734261422989
 30
0.0
 10
4620.612015866682
 20
5450.955095320682
 30
0.0
 10
4590.784506623932
 20
5430.083907608878
 30
0.0
 10
4581.505434767467
 20
5478.684727448071
 30
0.0
 10
4572.226362911118
 20
5527.28554728728
 30
0.0
 10
4542.291270226538
 20
5574.138136197001
 30
0.0
 10
4523.813814095054
 20
5619.242494177251
 30
0.0
 10
4505.282566242684
 20
5664.346852157531
 30
0.0
 10
4427.68800883479
 20
5747.562644400172
 30
0.0
 10
4413.917328282674
 20
5750.978418677758
 30
0.0
  0
SPLINE
  5
B27
330
1F
100
AcDbEntity
  8
Furniture
370
     9
100
AcDbSpline
210
0.0
220
0.0
230
1.0
 70
     8
 71
     3
 72
    29
 73
    25
 74
     0
 42
0.000000001
 43
0.0000000001
 40
0.0
 40
0.0
 40
0.0
 40
0.0
 40
1.0
 40
1.0
 40
1.0
 40
2.0
 40
2.0
 40
2.0
 40
3.0
 40
3.0
 40
3.0
 40
4.0
 40
4.0
 40
4.0
 40
5.0
 40
5.0
 40
5.0
 40
6.0
 40
6.0
 40
6.0
 40
7.0
 40
7.0
 40
7.0
 40
8.0
 40
8.0
 40
8.0
 40
8.0
 10
4399.366667777424
 20
5752.672857886301
 30
0.0
 10
4399.366667777424
 20
5752.672857886301
 30
0.0
 10
4418.866166606146
 20
5740.677304124114
 30
0.0
 10
4433.847160878598
 20
5725.023913340269
 30
0.0
 10
4448.801259290667
 20
5709.397418416866
 30
0.0
 10
4476.503995557614
 20
5677.364448616939
 30
0.0
 10
4490.301571970173
 20
5655.659489231086
 30
0.0
 10
4504.233627685003
 20
5633.954529845232
 30
0.0
 10
4522.657292095543
 20
5601.007100789884
 30
0.0
 10
4541.080956506085
 20
5563.7025423411
 30
0.0
 10
4559.585308498012
 20
5526.397983892315
 30
0.0
 10
4569.913318912099
 20
5504.719920366905
 30
0.0
 10
4573.463572491957
 20
5479.518499122136
 30
0.0
 10
4576.960034350872
 20
5454.370869598253
 30
0.0
 10
4577.68622258312
 20
5442.160148952436
 30
0.0
 10
4595.383698761412
 20
5442.213940673351
 30
0.0
 10
4613.000487358375
 20
5442.240836533795
 30
0.0
 10
4619.105847681297
 20
5432.127993003337
 30
0.0
 10
4629.864191862587
 20
5426.641237470849
 30
0.0
 10
4640.703223625322
 20
5421.154481938375
 30
0.0
 10
4708.104249921402
 20
5405.04386152681
 30
0.0
 10
4734.596672467953
 20
5407.652759990804
 30
0.0
 10
4749.039749531373
 20
5409.132032315731
 30
0.0
 10
4856.945941670223
 20
5408.163781339423
 30
0.0
 10
4955.384790929449
 20
5407.464488967616
 30
0.0
  0
POLYLINE
  5
B28
330
1F
100
AcDbEntity
  8
Furniture
370
     9
100
AcDb2dPolyline
 66
     1
 10
0.0
 20
0.0
 30
0.0
  0
VERTEX
  5
B29
330
B28
100
AcDbEntity
  8
Furniture
370
     9
100
AcDbVertex
100
AcDb2dVertex
 10
4629.084211909452
 20
5344.259216902258
 30
0.0
  0
VERTEX
  5
B2A
330
B28
100
AcDbEntity
  8
Furniture
370
     9
100
AcDbVertex
100
AcDb2dVertex
 10
4632.311715163822
 20
5344.259216902258
 30
0.0
  0
VERTEX
  5
B2B
330
B28
100
AcDbEntity
  8
Furniture
370
     9
100
AcDbVertex
100
AcDb2dVertex
 10
4632.742048931141
 20
5084.767955248379
 30
0.0
  0
VERTEX
  5
B2C
330
B28
100
AcDbEntity
  8
Furniture
370
     9
100
AcDbVertex
100
AcDb2dVertex
 10
4685.646206442856
 20
5084.794851108836
 30
0.0
  0
VERTEX
  5
B2D
330
B28
100
AcDbEntity
  8
Furniture
370
     9
100
AcDbVertex
100
AcDb2dVertex
 10
4685.162080954709
 20
5343.479236949107
 30
0.0
  0
VERTEX
  5
B2E
330
B28
100
AcDbEntity
  8
Furniture
370
     9
100
AcDbVertex
100
AcDb2dVertex
 10
4688.954397278612
 20
5343.479236949107
 30
0.0
  0
SEQEND
  5
B2F
330
B28
100
AcDbEntity
  8
Furniture
370
     9
  0
POLYLINE
  5
B30
330
1F
100
AcDbEntity
  8
Furniture
370
     9
100
AcDb2dPolyline
 66
     1
 10
0.0
 20
0.0
 30
0.0
  0
VERTEX
  5
B31
330
B30
100
AcDbEntity
  8
Furniture
370
     9
100
AcDbVertex
100
AcDb2dVertex
 10
5215.602240815533
 20
5344.259216902258
 30
0.0
  0
VERTEX
  5
B32
330
B30
100
AcDbEntity
  8
Furniture
370
     9
100
AcDbVertex
100
AcDb2dVertex
 10
5218.82974406996
 20
5344.259216902258
 30
0.0
  0
VERTEX
  5
B33
330
B30
100
AcDbEntity
  8
Furniture
370
     9
100
AcDbVertex
100
AcDb2dVertex
 10
5219.286973697665
 20
5084.767955248379
 30
0.0
  0
VERTEX
  5
B34
330
B30
100
AcDbEntity
  8
Furniture
370
     9
100
AcDbVertex
100
AcDb2dVertex
 10
5272.218027069823
 20
5084.794851108836
 30
0.0
  0
VERTEX
  5
B35
330
B30
100
AcDbEntity
  8
Furniture
370
     9
100
AcDbVertex
100
AcDb2dVertex
 10
5271.733901581676
 20
5343.479236949107
 30
0.0
  0
VERTEX
  5
B36
330
B30
100
AcDbEntity
  8
Furniture
370
     9
100
AcDbVertex
100
AcDb2dVertex
 10
5275.499322045136
 20
5343.479236949107
 30
0.0
  0
SEQEND
  5
B37
330
B30
100
AcDbEntity
  8
Furniture
370
     9
  0
SPLINE
  5
B38
330
1F
100
AcDbEntity
  8
Furniture
370
     9
100
AcDbSpline
210
0.0
220
0.0
230
1.0
 70
    11
 71
     3
 72
    26
 73
    22
 74
     0
 42
0.000000001
 43
0.0000000001
 40
0.0
 40
0.0
 40
0.0
 40
0.0
 40
1.0
 40
1.0
 40
1.0
 40
2.0
 40
2.0
 40
2.0
 40
3.0
 40
3.0
 40
3.0
 40
4.0
 40
4.0
 40
4.0
 40
5.0
 40
5.0
 40
5.0
 40
6.0
 40
6.0
 40
6.0
 40
7.0
 40
7.0
 40
7.0
 40
7.0
 10
5511.940831290566
 20
5754.528672257587
 30
0.0
 10
5511.940831290566
 20
5754.528672257587
 30
0.0
 10
5392.361835714961
 20
5733.765067987599
 30
0.0
 10
5353.20146289486
 20
5678.305803732819
 30
0.0
 10
5313.960402493488
 20
5622.792747757095
 30
0.0
 10
5286.284562086926
 20
5548.156734999069
 30
0.0
 10
5279.21095078771
 20
5492.616783162917
 30
0.0
 10
5272.218027069823
 20
5437.076831326751
 30
0.0
 10
5258.312867215493
 20
5365.883488706753
 30
0.0
 10
5258.312867215493
 20
5365.883488706753
 30
0.0
 10
5258.312867215493
 20
5365.883488706753
 30
0.0
 10
5305.434414729717
 20
5356.308562385359
 30
0.0
 10
5323.858079140257
 20
5370.159930518832
 30
0.0
 10
5342.281743550796
 20
5384.065090373206
 30
0.0
 10
5345.77820540977
 20
5421.36964882199
 30
0.0
 10
5385.019265811199
 20
5513.353491572448
 30
0.0
 10
5424.314117933515
 20
5605.310438462421
 30
0.0
 10
5465.706847171248
 20
5627.82227366188
 30
0.0
 10
5470.413622750559
 20
5662.544829507144
 30
0.0
 10
5475.093502469427
 20
5697.240489491964
 30
0.0
 10
5511.940831290566
 20
5754.528672257587
 30
0.0
 10
5511.940831290566
 20
5754.528672257587
 30
0.0
  0
SPLINE
  5
B39
330
1F
100
AcDbEntity
  8
Furniture
370
     9
100
AcDbSpline
210
0.0
220
0.0
230
1.0
 70
     8
 71
     3
 72
     8
 73
     4
 74
     0
 42
0.000000001
 43
0.0000000001
 40
0.0
 40
0.0
 40
0.0
 40
0.0
 40
1.0
 40
1.0
 40
1.0
 40
1.0
 10
5279.910243159516
 20
5543.772709745176
 30
0.0
 10
5279.910243159516
 20
5543.772709745176
 30
0.0
 10
5152.639031494277
 20
5567.95208829272
 30
0.0
 10
4953.636559999963
 20
5575.294658196497
 30
0.0
  0
SPLINE
  5
B3A
330
1F
100
AcDbEntity
  8
Furniture
370
     9
100
AcDbSpline
210
0.0
220
0.0
230
1.0
 70
     8
 71
     3
 72
    26
 73
    22
 74
     0
 42
0.000000001
 43
0.0000000001
 40
0.0
 40
0.0
 40
0.0
 40
0.0
 40
1.0
 40
1.0
 40
1.0
 40
2.0
 40
2.0
 40
2.0
 40
3.0
 40
3.0
 40
3.0
 40
4.0
 40
4.0
 40
4.0
 40
5.0
 40
5.0
 40
5.0
 40
6.0
 40
6.0
 40
6.0
 40
7.0
 40
7.0
 40
7.0
 40
7.0
 10
4953.636559999963
 20
5923.945697253224
 30
0.0
 10
5003.824235605898
 20
5921.928507719207
 30
0.0
 10
5053.285722979643
 20
5918.862379627524
 30
0.0
 10
5077.949227015379
 20
5917.060356977152
 30
0.0
 10
5128.513444667631
 20
5913.321832374134
 30
0.0
 10
5319.366470444606
 20
5915.231438466337
 30
0.0
 10
5374.610567815725
 20
5908.238514748464
 30
0.0
 10
5429.693290024188
 20
5901.218695170133
 30
0.0
 10
5461.94142670773
 20
5911.627393165563
 30
0.0
 10
5483.888448837686
 20
5915.043167443149
 30
0.0
 10
5505.916158548971
 20
5918.539629302093
 30
0.0
 10
5512.532540220483
 20
5914.98937572225
 30
0.0
 10
5512.532540220483
 20
5914.98937572225
 30
0.0
 10
5512.532540220483
 20
5914.98937572225
 30
0.0
 10
5512.532540220483
 20
5901.164903449233
 30
0.0
 10
5512.532540220483
 20
5901.164903449233
 30
0.0
 10
5512.532540220483
 20
5901.164903449233
 30
0.0
 10
5505.727887525813
 20
5880.77784122559
 30
0.0
 10
5498.869443110198
 20
5860.390779001962
 30
0.0
 10
5498.869443110198
 20
5860.390779001962
 30
0.0
 10
5457.745672477067
 20
5740.704199984556
 30
0.0
 10
5457.745672477067
 20
5740.704199984556
 30
0.0
  0
SPLINE
  5
B3B
330
1F
100
AcDbEntity
  8
Furniture
370
     9
100
AcDbSpline
210
0.0
220
0.0
230
1.0
 70
     8
 71
     3
 72
    35
 73
    31
 74
     0
 42
0.000000001
 43
0.0000000001
 40
0.0
 40
0.0
 40
0.0
 40
0.0
 40
1.0
 40
1.0
 40
1.0
 40
2.0
 40
2.0
 40
2.0
 40
3.0
 40
3.0
 40
3.0
 40
4.0
 40
4.0
 40
4.0
 40
5.0
 40
5.0
 40
5.0
 40
6.0
 40
6.0
 40
6.0
 40
7.0
 40
7.0
 40
7.0
 40
8.0
 40
8.0
 40
8.0
 40
9.0
 40
9.0
 40
9.0
 40
10.0
 40
10.0
 40
10.0
 40
10.0
 10
4955.788228836208
 20
5935.430229666778
 30
0.0
 10
4985.239196032642
 20
5934.569562132285
 30
0.0
 10
5016.277018995788
 20
5933.251664970073
 30
0.0
 10
5035.104121313205
 20
5931.180683715156
 30
0.0
 10
5072.570054924646
 20
5927.092512926265
 30
0.0
 10
5165.360773488711
 20
5927.388367391238
 30
0.0
 10
5181.498289760734
 20
5926.312532973116
 30
0.0
 10
5197.501326730482
 20
5925.209802694507
 30
0.0
 10
5255.784656332871
 20
5922.251258044653
 30
0.0
 10
5283.406705018432
 20
5922.789175253715
 30
0.0
 10
5310.974961983106
 20
5923.353988323233
 30
0.0
 10
5378.402884139687
 20
5924.42982274137
 30
0.0
 10
5392.227356412688
 20
5921.525069812417
 30
0.0
 10
5405.998036964803
 20
5918.647212743908
 30
0.0
 10
5448.170746155672
 20
5923.031237997802
 30
0.0
 10
5466.567514705769
 20
5925.989782647655
 30
0.0
 10
5484.937387395366
 20
5928.975223157995
 30
0.0
 10
5511.860143709178
 20
5931.826184366048
 30
0.0
 10
5520.950944542368
 20
5930.615870645652
 30
0.0
 10
5530.203120538391
 20
5929.486244506613
 30
0.0
 10
5524.797052587215
 20
5928.329722507104
 30
0.0
 10
5524.797052587215
 20
5928.329722507104
 30
0.0
 10
5524.797052587215
 20
5928.329722507104
 30
0.0
 10
5524.74326086633
 20
5908.077139585748
 30
0.0
 10
5521.650236914174
 20
5893.607166661841
 30
0.0
 10
5521.031632123754
 20
5890.783101314231
 30
0.0
 10
5520.332339751949
 20
5887.582493920291
 30
0.0
 10
5519.444776356984
 20
5884.086032061361
 30
0.0
 10
5519.444776356984
 20
5884.086032061361
 30
0.0
 10
5469.418475913764
 20
5744.254453564415
 30
0.0
 10
5469.418475913764
 20
5744.254453564415
 30
0.0
  0
SPLINE
  5
B3C
330
1F
100
AcDbEntity
  8
Furniture
370
     9
100
AcDbSpline
210
0.0
220
0.0
230
1.0
 70
     8
 71
     3
 72
    17
 73
    13
 74
     0
 42
0.000000001
 43
0.0000000001
 40
0.0
 40
0.0
 40
0.0
 40
0.0
 40
1.0
 40
1.0
 40
1.0
 40
2.0
 40
2.0
 40
2.0
 40
3.0
 40
3.0
 40
3.0
 40
4.0
 40
4.0
 40
4.0
 40
4.0
 10
4953.636559999963
 20
5413.354682406894
 30
0.0
 10
5122.300500902936
 20
5416.420810498578
 30
0.0
 10
5262.562413167099
 20
5421.450336403363
 30
0.0
 10
5269.770503768588
 20
5429.734261422989
 30
0.0
 10
5288.382439202345
 20
5450.955095320682
 30
0.0
 10
5318.236844305539
 20
5430.083907608878
 30
0.0
 10
5327.542812022388
 20
5478.684727448071
 30
0.0
 10
5336.768092157909
 20
5527.28554728728
 30
0.0
 10
5366.70318484243
 20
5574.138136197001
 30
0.0
 10
5385.153745113472
 20
5619.242494177251
 30
0.0
 10
5403.76568054717
 20
5664.346852157531
 30
0.0
 10
5481.306446234179
 20
5747.562644400172
 30
0.0
 10
5495.077126786295
 20
5750.978418677758
 30
0.0
  0
SPLINE
  5
B3D
330
1F
100
AcDbEntity
  8
Furniture
370
     9
100
AcDbSpline
210
0.0
220
0.0
230
1.0
 70
     8
 71
     3
 72
    29
 73
    25
 74
     0
 42
0.000000001
 43
0.0000000001
 40
0.0
 40
0.0
 40
0.0
 40
0.0
 40
1.0
 40
1.0
 40
1.0
 40
2.0
 40
2.0
 40
2.0
 40
3.0
 40
3.0
 40
3.0
 40
4.0
 40
4.0
 40
4.0
 40
5.0
 40
5.0
 40
5.0
 40
6.0
 40
6.0
 40
6.0
 40
7.0
 40
7.0
 40
7.0
 40
8.0
 40
8.0
 40
8.0
 40
8.0
 10
5509.627787291545
 20
5752.672857886301
 30
0.0
 10
5509.627787291545
 20
5752.672857886301
 30
0.0
 10
5490.128288462882
 20
5740.677304124114
 30
0.0
 10
5475.147294190371
 20
5725.023913340269
 30
0.0
 10
5460.193195778302
 20
5709.397418416866
 30
0.0
 10
5432.490459511355
 20
5677.364448616939
 30
0.0
 10
5418.665987238354
 20
5655.659489231086
 30
0.0
 10
5404.81461910485
 20
5633.954529845232
 30
0.0
 10
5386.39095469431
 20
5601.007100789884
 30
0.0
 10
5367.96729028377
 20
5563.7025423411
 30
0.0
 10
5349.4360424314
 20
5526.397983892315
 30
0.0
 10
5339.08113615687
 20
5504.719920366905
 30
0.0
 10
5335.584674297898
 20
5479.518499122136
 30
0.0
 10
5332.034420718097
 20
5454.370869598253
 30
0.0
 10
5331.308232485848
 20
5442.160148952436
 30
0.0
 10
5313.610756307557
 20
5442.213940673351
 30
0.0
 10
5295.993967710594
 20
5442.240836533795
 30
0.0
 10
5289.915503248172
 20
5432.127993003337
 30
0.0
 10
5279.157159066825
 20
5426.641237470849
 30
0.0
 10
5268.31812730409
 20
5421.154481938375
 30
0.0
 10
5200.890205147567
 20
5405.04386152681
 30
0.0
 10
5174.424678461459
 20
5407.652759990804
 30
0.0
 10
5159.954705537595
 20
5409.132032315731
 30
0.0
 10
5052.075409259247
 20
5408.163781339423
 30
0.0
 10
4953.636559999963
 20
5407.464488967616
 30
0.0
  0
POLYLINE
  5
B3E
330
1F
100
AcDbEntity
  8
Furniture
370
     9
100
AcDb2dPolyline
 66
     1
 10
0.0
 20
0.0
 30
0.0
  0
VERTEX
  5
B3F
330
B3E
100
AcDbEntity
  8
Furniture
370
     9
100
AcDbVertex
100
AcDb2dVertex
 10
4513.136157495093
 20
5451.008887041597
 30
0.0
  0
VERTEX
  5
B40
330
B3E
100
AcDbEntity
  8
Furniture
100
AcDbVertex
100
AcDb2dVertex
 10
4513.136157495093
 20
5451.008887041597
 30
0.0
  0
SEQEND
  5
B41
330
B3E
100
AcDbEntity
  8
Furniture
370
     9
  0
SPLINE
  5
B42
330
1F
100
AcDbEntity
  8
Furniture
370
     9
100
AcDbSpline
210
0.0
220
0.0
230
1.0
 70
     8
 71
     3
 72
    68
 73
    64
 74
     0
 42
0.000000001
 43
0.0000000001
 40
0.0
 40
0.0
 40
0.0
 40
0.0
 40
1.0
 40
1.0
 40
1.0
 40
2.0
 40
2.0
 40
2.0
 40
3.0
 40
3.0
 40
3.0
 40
4.0
 40
4.0
 40
4.0
 40
5.0
 40
5.0
 40
5.0
 40
6.0
 40
6.0
 40
6.0
 40
7.0
 40
7.0
 40
7.0
 40
8.0
 40
8.0
 40
8.0
 40
9.0
 40
9.0
 40
9.0
 40
10.0
 40
10.0
 40
10.0
 40
11.0
 40
11.0
 40
11.0
 40
12.0
 40
12.0
 40
12.0
 40
13.0
 40
13.0
 40
13.0
 40
14.0
 40
14.0
 40
14.0
 40
15.0
 40
15.0
 40
15.0
 40
16.0
 40
16.0
 40
16.0
 40
17.0
 40
17.0
 40
17.0
 40
18.0
 40
18.0
 40
18.0
 40
19.0
 40
19.0
 40
19.0
 40
20.0
 40
20.0
 40
20.0
 40
21.0
 40
21.0
 40
21.0
 40
21.0
 10
4956.218562603527
 20
5359.805024244288
 30
0.0
 10
4956.218562603527
 20
5359.805024244288
 30
0.0
 10
4578.224139792154
 20
5358.540918802977
 30
0.0
 10
4578.224139792154
 20
5358.540918802977
 30
0.0
 10
4578.224139792154
 20
5358.540918802977
 30
0.0
 10
4558.428786498502
 20
5358.433335361162
 30
0.0
 10
4558.428786498502
 20
5358.433335361162
 30
0.0
 10
4558.428786498502
 20
5358.433335361162
 30
0.0
 10
4531.532926045191
 20
5474.179670822141
 30
0.0
 10
4531.532926045191
 20
5474.179670822141
 30
0.0
 10
4531.532926045191
 20
5474.179670822141
 30
0.0
 10
4513.136157495093
 20
5474.179670822141
 30
0.0
 10
4513.136157495093
 20
5474.179670822141
 30
0.0
 10
4513.136157495093
 20
5474.179670822141
 30
0.0
 10
4537.772765670328
 20
5358.433335361162
 30
0.0
 10
4537.772765670328
 20
5358.433335361162
 30
0.0
 10
4537.772765670328
 20
5358.433335361162
 30
0.0
 10
4533.025646300353
 20
5336.284594277841
 30
0.0
 10
4533.025646300353
 20
5336.284594277841
 30
0.0
 10
4533.025646300353
 20
5336.284594277841
 30
0.0
 10
4481.304906648532
 20
5084.445204922933
 30
0.0
 10
4481.304906648532
 20
5084.445204922933
 30
0.0
 10
4481.304906648532
 20
5084.445204922933
 30
0.0
 10
4501.70541680244
 20
5084.47210078339
 30
0.0
 10
4501.70541680244
 20
5084.47210078339
 30
0.0
 10
4501.70541680244
 20
5084.47210078339
 30
0.0
 10
4554.676813965321
 20
5344.958509274034
 30
0.0
 10
4554.676813965321
 20
5344.958509274034
 30
0.0
 10
4554.676813965321
 20
5344.958509274034
 30
0.0
 10
4721.727003241023
 20
5344.259216902258
 30
0.0
 10
4721.727003241023
 20
5344.259216902258
 30
0.0
 10
4721.727003241023
 20
5344.259216902258
 30
0.0
 10
5193.991416941288
 20
5344.313008623157
 30
0.0
 10
5193.991416941288
 20
5344.313008623157
 30
0.0
 10
5193.991416941288
 20
5344.313008623157
 30
0.0
 10
5354.196609731655
 20
5344.945061343827
 30
0.0
 10
5354.196609731655
 20
5344.945061343827
 30
0.0
 10
5354.196609731655
 20
5344.945061343827
 30
0.0
 10
5407.154558964255
 20
5084.458652853169
 30
0.0
 10
5407.154558964255
 20
5084.458652853169
 30
0.0
 10
5407.154558964255
 20
5084.458652853169
 30
0.0
 10
5427.60886083905
 20
5084.431756992711
 30
0.0
 10
5427.60886083905
 20
5084.431756992711
 30
0.0
 10
5427.60886083905
 20
5084.431756992711
 30
0.0
 10
5371.31582491019
 20
5358.419887430954
 30
0.0
 10
5371.31582491019
 20
5358.419887430954
 30
0.0
 10
5371.302376979969
 20
5358.433335361162
 30
0.0
 10
5393.235951179645
 20
5473.050044683103
 30
0.0
 10
5393.235951179645
 20
5473.050044683103
 30
0.0
 10
5393.235951179645
 20
5473.050044683103
 30
0.0
 10
5374.812286769163
 20
5473.050044683103
 30
0.0
 10
5374.812286769163
 20
5473.050044683103
 30
0.0
 10
5374.812286769163
 20
5473.050044683103
 30
0.0
 10
5349.987407570711
 20
5361.217056918079
 30
0.0
 10
5349.987407570711
 20
5361.217056918079
 30
0.0
 10
5349.987407570711
 20
5361.217056918079
 30
0.0
 10
5349.382250710514
 20
5358.487127082062
 30
0.0
 10
5349.382250710514
 20
5358.487127082062
 30
0.0
 10
5349.382250710514
 20
5358.487127082062
 30
0.0
 10
5334.737454693655
 20
5358.540918802977
 30
0.0
 10
5334.737454693655
 20
5358.540918802977
 30
0.0
 10
5334.737454693655
 20
5358.540918802977
 30
0.0
 10
4952.775892465441
 20
5359.805024244288
 30
0.0
 10
4952.775892465441
 20
5359.805024244288
 30
0.0
  0
INSERT
  5
B43
330
1F
100
AcDbEntity
  8
Furniture
100
AcDbBlockReference
  2
block 28
 10
-4290.954803302994
 20
-28617.89686162977
 30
0.0
 41
78.06999999999999
 42
78.06999999999999
 43
78.06999999999999
  0
SPLINE
  5
B44
330
1F
100
AcDbEntity
  8
Furniture
370
     9
100
AcDbSpline
210
0.0
220
0.0
230
1.0
 70
    11
 71
     3
 72
    29
 73
    25
 74
     0
 42
0.000000001
 43
0.0000000001
 40
0.0
 40
0.0
 40
0.0
 40
0.0
 40
1.0
 40
1.0
 40
1.0
 40
2.0
 40
2.0
 40
2.0
 40
3.0
 40
3.0
 40
3.0
 40
4.0
 40
4.0
 40
4.0
 40
5.0
 40
5.0
 40
5.0
 40
6.0
 40
6.0
 40
6.0
 40
7.0
 40
7.0
 40
7.0
 40
8.0
 40
8.0
 40
8.0
 40
8.0
 10
4199.933862515848
 20
3864.812068875301
 30
0.0
 10
4199.933862515848
 20
3864.812068875301
 30
0.0
 10
4272.956123646705
 20
3867.770613525183
 30
0.0
 10
4306.952491259734
 20
3826.216509124748
 30
0.0
 10
4310.879286885967
 20
3821.429045964051
 30
0.0
 10
4321.987277253189
 20
3794.371810347995
 30
0.0
 10
4324.865134321684
 20
3788.858158955064
 30
0.0
 10
4352.648558169959
 20
3735.738834559703
 30
0.0
 10
4359.587690166903
 20
3667.3695572873
 30
0.0
 10
4364.563424350818
 20
3614.250232891955
 30
0.0
 10
4369.51226267423
 20
3561.077116775665
 30
0.0
 10
4379.383043460613
 20
3493.003693968265
 30
0.0
 10
4379.383043460613
 20
3493.003693968265
 30
0.0
 10
4379.383043460613
 20
3493.003693968265
 30
0.0
 10
4346.032176498447
 20
3483.805309693217
 30
0.0
 10
4332.960788318138
 20
3497.064968896728
 30
0.0
 10
4319.970087719157
 20
3510.405315681583
 30
0.0
 10
4317.468772696979
 20
3546.096122503168
 30
0.0
 10
4289.739140569589
 20
3634.072482046064
 30
0.0
 10
4261.901925000369
 20
3722.075737449403
 30
0.0
 10
4232.666124687596
 20
3743.619321672526
 30
0.0
 10
4229.304142130895
 20
3776.862605192877
 30
0.0
 10
4226.02284715564
 20
3810.025201131841
 30
0.0
 10
4199.933862515848
 20
3864.812068875301
 30
0.0
 10
4199.933862515848
 20
3864.812068875301
 30
0.0
  0
SPLINE
  5
B45
330
1F
100
AcDbEntity
  8
Furniture
370
     9
100
AcDbSpline
210
0.0
220
0.0
230
1.0
 70
     8
 71
     3
 72
    11
 73
     7
 74
     0
 42
0.000000001
 43
0.0000000001
 40
0.0
 40
0.0
 40
0.0
 40
0.0
 40
1.0
 40
1.0
 40
1.0
 40
2.0
 40
2.0
 40
2.0
 40
2.0
 10
5678.076561310859
 20
3585.848204253202
 30
0.0
 10
5677.646227543599
 20
3551.340815291569
 30
0.0
 10
5670.169178337564
 20
3499.808346662951
 30
0.0
 10
5669.066448058998
 20
3493.864361502772
 30
0.0
 10
5667.452696431785
 20
3485.176998576342
 30
0.0
 10
4402.136941404147
 20
3484.961831692712
 30
0.0
 10
4379.383043460613
 20
3492.869214665993
 30
0.0
  0
SPLINE
  5
B46
330
1F
100
AcDbEntity
  8
Furniture
370
     9
100
AcDbSpline
210
0.0
220
0.0
230
1.0
 70
     8
 71
     3
 72
    17
 73
    13
 74
     0
 42
0.000000001
 43
0.0000000001
 40
0.0
 40
0.0
 40
0.0
 40
0.0
 40
1.0
 40
1.0
 40
1.0
 40
2.0
 40
2.0
 40
2.0
 40
3.0
 40
3.0
 40
3.0
 40
4.0
 40
4.0
 40
4.0
 40
4.0
 10
4364.07929886267
 20
3655.938816594633
 30
0.0
 10
4364.07929886267
 20
3655.938816594633
 30
0.0
 10
4494.14768001502
 20
3687.971786394559
 30
0.0
 10
4686.049644349674
 20
3686.600097511433
 30
0.0
 10
4877.95160868427
 20
3685.335992070137
 30
0.0
 10
5060.090375674313
 20
3674.443168586531
 30
0.0
 10
5151.132863308892
 20
3680.925070955786
 30
0.0
 10
5151.132863308892
 20
3680.925070955786
 30
0.0
 10
5359.333719078284
 20
3689.316579417228
 30
0.0
 10
5421.167302260474
 20
3687.7835153714
 30
0.0
 10
5482.920197861335
 20
3686.196659604644
 30
0.0
 10
5672.213263732039
 20
3663.846199567914
 30
0.0
 10
5685.284651912349
 20
3655.938816594633
 30
0.0
  0
SPLINE
  5
B47
330
1F
100
AcDbEntity
  8
Furniture
370
     9
100
AcDbSpline
210
0.0
220
0.0
230
1.0
 70
     8
 71
     3
 72
    23
 73
    19
 74
     0
 42
0.000000001
 43
0.0000000001
 40
0.0
 40
0.0
 40
0.0
 40
0.0
 40
1.0
 40
1.0
 40
1.0
 40
2.0
 40
2.0
 40
2.0
 40
3.0
 40
3.0
 40
3.0
 40
4.0
 40
4.0
 40
4.0
 40
5.0
 40
5.0
 40
5.0
 40
6.0
 40
6.0
 40
6.0
 40
6.0
 10
5668.905072896225
 20
3493.89125736323
 30
0.0
 10
5668.905072896225
 20
3493.89125736323
 30
0.0
 10
5714.547348085566
 20
3486.602479180368
 30
0.0
 10
5726.354630824594
 20
3501.502785871508
 30
0.0
 10
5738.108121842735
 20
3516.349300841761
 30
0.0
 10
5751.529156208919
 20
3630.19947814076
 30
0.0
 10
5762.126125227551
 20
3647.090078505473
 30
0.0
 10
5772.615510804353
 20
3663.873095428371
 30
0.0
 10
5790.339882843087
 20
3699.590798110414
 30
0.0
 10
5800.372038792186
 20
3740.176651534512
 30
0.0
 10
5810.431090601728
 20
3780.735609098152
 30
0.0
 10
5855.965782349296
 20
3863.010046224943
 30
0.0
 10
5855.078218954332
 20
3864.704485433486
 30
0.0
 10
5854.271343140696
 20
3866.345132921142
 30
0.0
 10
5792.383968237562
 20
3880.115813473273
 30
0.0
 10
5741.739063003922
 20
3835.495580981169
 30
0.0
 10
5691.174845351611
 20
3790.902244349509
 30
0.0
 10
5678.076561310859
 20
3585.848204253202
 30
0.0
 10
5678.076561310859
 20
3585.848204253202
 30
0.0
  0
SPLINE
  5
B48
330
1F
100
AcDbEntity
  8
Furniture
370
     9
100
AcDbSpline
210
0.0
220
0.0
230
1.0
 70
     8
 71
     3
 72
    59
 73
    55
 74
     0
 42
0.000000001
 43
0.0000000001
 40
0.0
 40
0.0
 40
0.0
 40
0.0
 40
1.0
 40
1.0
 40
1.0
 40
2.0
 40
2.0
 40
2.0
 40
3.0
 40
3.0
 40
3.0
 40
4.0
 40
4.0
 40
4.0
 40
5.0
 40
5.0
 40
5.0
 40
6.0
 40
6.0
 40
6.0
 40
7.0
 40
7.0
 40
7.0
 40
8.0
 40
8.0
 40
8.0
 40
9.0
 40
9.0
 40
9.0
 40
10.0
 40
10.0
 40
10.0
 40
11.0
 40
11.0
 40
11.0
 40
12.0
 40
12.0
 40
12.0
 40
13.0
 40
13.0
 40
13.0
 40
14.0
 40
14.0
 40
14.0
 40
15.0
 40
15.0
 40
15.0
 40
16.0
 40
16.0
 40
16.0
 40
17.0
 40
17.0
 40
17.0
 40
18.0
 40
18.0
 40
18.0
 40
18.0
 10
4289.01295233734
 20
3843.833297721696
 30
0.0
 10
4282.584841688986
 20
3858.222583064246
 30
0.0
 10
4270.723767229072
 20
3888.641801236973
 30
0.0
 10
4272.337518856286
 20
3913.923910063113
 30
0.0
 10
4274.542979413418
 20
3948.269923862045
 30
0.0
 10
4275.807084854757
 20
3972.44930240959
 30
0.0
 10
4272.041664391298
 20
3983.933834823172
 30
0.0
 10
4268.383827369609
 20
3995.391471376312
 30
0.0
 10
4254.478667515279
 20
4041.195121728338
 30
0.0
 10
4254.478667515279
 20
4041.195121728338
 30
0.0
 10
4254.478667515279
 20
4041.195121728338
 30
0.0
 10
4254.478667515279
 20
4051.388652840152
 30
0.0
 10
4254.478667515279
 20
4051.388652840152
 30
0.0
 10
4254.478667515279
 20
4051.388652840152
 30
0.0
 10
4258.889588629601
 20
4053.970655443689
 30
0.0
 10
4273.601624297625
 20
4051.415548700609
 30
0.0
 10
4288.206076523762
 20
4048.914233678461
 30
0.0
 10
4309.695869025956
 20
4041.275809309711
 30
0.0
 10
4346.435614405264
 20
4046.439814516754
 30
0.0
 10
4383.309839086789
 20
4051.603819723797
 30
0.0
 10
4510.554154891528
 20
4050.232130840686
 30
0.0
 10
4544.308459760512
 20
4052.975508606908
 30
0.0
 10
4578.008972908552
 20
4055.691990512703
 30
0.0
 10
4680.670472258942
 20
4062.227684602858
 30
0.0
 10
4715.984737034196
 20
4058.43536827894
 30
0.0
 10
4751.272105949007
 20
4054.696843675923
 30
0.0
 10
4751.272105949007
 20
4054.696843675923
 30
0.0
 10
4751.272105949007
 20
4054.696843675923
 30
0.0
 10
4751.272105949007
 20
4054.696843675923
 30
0.0
 10
5016.465290019005
 20
4049.990068096583
 30
0.0
 10
5039.515042427527
 20
4048.75285851573
 30
0.0
 10
5062.484107254662
 20
4047.542544795335
 30
0.0
 10
5327.65039546416
 20
4057.924346930322
 30
0.0
 10
5346.074059874758
 20
4060.587037115215
 30
0.0
 10
5364.497724285298
 20
4063.222831439637
 30
0.0
 10
5583.806570421853
 20
4053.378946513727
 30
0.0
 10
5614.414059617796
 20
4054.696843675923
 30
0.0
 10
5645.075340534567
 20
4056.014740838135
 30
0.0
 10
5701.099417858939
 20
4051.039006654279
 30
0.0
 10
5723.691940639699
 20
4051.039006654279
 30
0.0
 10
5746.230671699631
 20
4051.065902514736
 30
0.0
 10
5730.953822962132
 20
4045.928793168136
 30
0.0
 10
5755.536639416481
 20
4048.537691632115
 30
0.0
 10
5780.038768289443
 20
4051.119694235622
 30
0.0
 10
5790.124715959485
 20
4061.31322534745
 30
0.0
 10
5793.51359437657
 20
4056.256803582208
 30
0.0
 10
5796.902472793714
 20
4051.119694235622
 30
0.0
 10
5789.290944285465
 20
4010.372465648823
 30
0.0
 10
5784.691752147868
 20
3984.902085799495
 30
0.0
 10
5780.173247591716
 20
3959.431705950181
 30
0.0
 10
5780.253935173103
 20
3912.310158435899
 30
0.0
 10
5777.18780708145
 20
3893.187201653596
 30
0.0
 10
5775.358888570575
 20
3881.837148542273
 30
0.0
 10
5769.737653735858
 20
3864.327943387139
 30
0.0
 10
5765.488107784251
 20
3852.009639299507
 30
0.0
  0
SPLINE
  5
B49
330
1F
100
AcDbEntity
  8
Furniture
370
     9
100
AcDbSpline
210
0.0
220
0.0
230
1.0
 70
     8
 71
     3
 72
    83
 73
    79
 74
     0
 42
0.000000001
 43
0.0000000001
 40
0.0
 40
0.0
 40
0.0
 40
0.0
 40
1.0
 40
1.0
 40
1.0
 40
2.0
 40
2.0
 40
2.0
 40
3.0
 40
3.0
 40
3.0
 40
4.0
 40
4.0
 40
4.0
 40
5.0
 40
5.0
 40
5.0
 40
6.0
 40
6.0
 40
6.0
 40
7.0
 40
7.0
 40
7.0
 40
8.0
 40
8.0
 40
8.0
 40
9.0
 40
9.0
 40
9.0
 40
10.0
 40
10.0
 40
10.0
 40
11.0
 40
11.0
 40
11.0
 40
12.0
 40
12.0
 40
12.0
 40
13.0
 40
13.0
 40
13.0
 40
14.0
 40
14.0
 40
14.0
 40
15.0
 40
15.0
 40
15.0
 40
16.0
 40
16.0
 40
16.0
 40
17.0
 40
17.0
 40
17.0
 40
18.0
 40
18.0
 40
18.0
 40
19.0
 40
19.0
 40
19.0
 40
20.0
 40
20.0
 40
20.0
 40
21.0
 40
21.0
 40
21.0
 40
22.0
 40
22.0
 40
22.0
 40
23.0
 40
23.0
 40
23.0
 40
24.0
 40
24.0
 40
24.0
 40
25.0
 40
25.0
 40
25.0
 40
26.0
 40
26.0
 40
26.0
 40
26.0
 10
4281.40142382909
 20
3846.415300325218
 30
0.0
 10
4274.67745871569
 20
3855.613684600267
 30
0.0
 10
4263.892218673958
 20
3910.077802018281
 30
0.0
 10
4264.887365510694
 20
3924.063649454027
 30
0.0
 10
4265.882512347489
 20
3938.07639275023
 30
0.0
 10
4262.2246753258
 20
3969.921091526983
 30
0.0
 10
4258.701317606443
 20
3988.586818681612
 30
0.0
 10
4254.989688863868
 20
4007.225649975782
 30
0.0
 10
4250.444288447273
 20
4025.057605456345
 30
0.0
 10
4248.400203052798
 20
4035.681470335407
 30
0.0
 10
4246.356117658382
 20
4046.278439354039
 30
0.0
 10
4246.302325937438
 20
4061.151850184734
 30
0.0
 10
4246.302325937438
 20
4061.151850184734
 30
0.0
 10
4246.302325937438
 20
4061.151850184734
 30
0.0
 10
4242.698280636694
 20
4062.012517719241
 30
0.0
 10
4248.83053682006
 20
4062.846289393291
 30
0.0
 10
4254.989688863868
 20
4063.706956927799
 30
0.0
 10
4272.875436065376
 20
4061.609079812439
 30
0.0
 10
4285.13994843205
 20
4059.430515115706
 30
0.0
 10
4297.458252519725
 20
4057.251950419002
 30
0.0
 10
4325.510634972546
 20
4054.078238885504
 30
0.0
 10
4334.709019247624
 20
4056.203011861307
 30
0.0
 10
4343.934299383087
 20
4058.327784837125
 30
0.0
 10
4388.904178061122
 20
4057.547804883976
 30
0.0
 10
4407.274050750719
 20
4057.117471116729
 30
0.0
 10
4425.697715161259
 20
4056.767824930826
 30
0.0
 10
4464.589129376814
 20
4058.919493767102
 30
0.0
 10
4475.266785976775
 20
4059.726369580708
 30
0.0
 10
4485.998234297621
 20
4060.506349533858
 30
0.0
 10
4547.885609200814
 20
4060.318078510671
 30
0.0
 10
4572.871863561981
 20
4063.330414881439
 30
0.0
 10
4597.88501378359
 20
4066.369647112678
 30
0.0
 10
4655.657322037391
 20
4067.284106368086
 30
0.0
 10
4672.49413068116
 20
4067.311002228543
 30
0.0
 10
4689.35783518543
 20
4067.337898088986
 30
0.0
 10
4721.041158799438
 20
4066.100688508147
 30
0.0
 10
4753.235503762094
 20
4064.056603113702
 30
0.0
 10
4785.456744585252
 20
4061.958725998327
 30
0.0
 10
4846.806202279295
 20
4062.926976974664
 30
0.0
 10
4876.47233635933
 20
4060.318078510671
 30
0.0
 10
4906.084678718478
 20
4057.736075907164
 30
0.0
 10
4955.169624045789
 20
4058.38157655804
 30
0.0
 10
4988.897033054331
 20
4057.60159660489
 30
0.0
 10
5022.651337923257
 20
4056.794720791283
 30
0.0
 10
5079.858833107522
 20
4058.569847581199
 30
0.0
 10
5111.54215672153
 20
4058.569847581199
 30
0.0
 10
5143.25237619604
 20
4058.650535162557
 30
0.0
 10
5196.882721940063
 20
4058.758118604386
 30
0.0
 10
5226.521960159654
 20
4060.829099859289
 30
0.0
 10
5256.134302518745
 20
4062.953872835107
 30
0.0
 10
5302.691036963493
 20
4066.96135604267
 30
0.0
 10
5345.536142665667
 20
4069.113024878915
 30
0.0
 10
5388.542623530557
 20
4071.345381296534
 30
0.0
 10
5437.654464718369
 20
4069.704733808878
 30
0.0
 10
5478.455485026127
 20
4067.203418786743
 30
0.0
 10
5519.310297054712
 20
4064.728999625022
 30
0.0
 10
5562.827799268249
 20
4066.907564321755
 30
0.0
 10
5587.303032280826
 20
4065.616563019986
 30
0.0
 10
5611.885848735176
 20
4064.325561718218
 30
0.0
 10
5631.304659982452
 20
4062.819393532834
 30
0.0
 10
5679.313770891699
 20
4061.528392231081
 30
0.0
 10
5727.376673521831
 20
4060.210495068855
 30
0.0
 10
5751.932594115737
 20
4057.897451069864
 30
0.0
 10
5772.400343920752
 20
4061.609079812439
 30
0.0
 10
5792.760510283879
 20
4065.428291996814
 30
0.0
 10
5800.883060140833
 20
4069.0054414371
 30
0.0
 10
5802.980937256136
 20
4061.716663254239
 30
0.0
 10
5805.105710231997
 20
4054.427885071393
 30
0.0
 10
5805.105710231997
 20
4052.841029304651
 30
0.0
 10
5803.088520697965
 20
4040.119287310215
 30
0.0
 10
5800.963747722162
 20
4027.39754531578
 30
0.0
 10
5791.872946888914
 20
3978.124328965252
 30
0.0
 10
5786.789629263287
 20
3961.179936879653
 30
0.0
 10
5781.706311637601
 20
3944.127961352209
 30
0.0
 10
5787.892359541853
 20
3925.489130058068
 30
0.0
 10
5786.897212705117
 20
3902.546961091346
 30
0.0
 10
5786.305503775082
 20
3889.018343283318
 30
0.0
 10
5779.71601796407
 20
3869.8415947801
 30
0.0
 10
5774.417533454726
 20
3856.366768692944
 30
0.0
  0
SPLINE
  5
B4A
330
1F
100
AcDbEntity
  8
Furniture
370
     9
100
AcDbSpline
210
0.0
220
0.0
230
1.0
 70
     8
 71
     3
 72
    98
 73
    94
 74
     0
 42
0.000000001
 43
0.0000000001
 40
0.0
 40
0.0
 40
0.0
 40
0.0
 40
1.0
 40
1.0
 40
1.0
 40
2.0
 40
2.0
 40
2.0
 40
3.0
 40
3.0
 40
3.0
 40
4.0
 40
4.0
 40
4.0
 40
5.0
 40
5.0
 40
5.0
 40
6.0
 40
6.0
 40
6.0
 40
7.0
 40
7.0
 40
7.0
 40
8.0
 40
8.0
 40
8.0
 40
9.0
 40
9.0
 40
9.0
 40
10.0
 40
10.0
 40
10.0
 40
11.0
 40
11.0
 40
11.0
 40
12.0
 40
12.0
 40
12.0
 40
13.0
 40
13.0
 40
13.0
 40
14.0
 40
14.0
 40
14.0
 40
15.0
 40
15.0
 40
15.0
 40
16.0
 40
16.0
 40
16.0
 40
17.0
 40
17.0
 40
17.0
 40
18.0
 40
18.0
 40
18.0
 40
19.0
 40
19.0
 40
19.0
 40
20.0
 40
20.0
 40
20.0
 40
21.0
 40
21.0
 40
21.0
 40
22.0
 40
22.0
 40
22.0
 40
23.0
 40
23.0
 40
23.0
 40
24.0
 40
24.0
 40
24.0
 40
25.0
 40
25.0
 40
25.0
 40
26.0
 40
26.0
 40
26.0
 40
27.0
 40
27.0
 40
27.0
 40
28.0
 40
28.0
 40
28.0
 40
29.0
 40
29.0
 40
29.0
 40
30.0
 40
30.0
 40
30.0
 40
31.0
 40
31.0
 40
31.0
 40
31.0
 10
4211.203228045844
 20
3838.803771816925
 30
0.0
 10
4215.721732601997
 20
3834.392850702574
 30
0.0
 10
4221.208488134499
 20
3828.556448984197
 30
0.0
 10
4225.969055434754
 20
3822.074546614942
 30
0.0
 10
4236.59292031377
 20
3807.739052993308
 30
0.0
 10
4256.146210863379
 20
3778.395669238719
 30
0.0
 10
4265.882512347489
 20
3758.46583664278
 30
0.0
 10
4275.753293133872
 20
3738.589795767756
 30
0.0
 10
4288.797785453738
 20
3708.385744478659
 30
0.0
 10
4301.842277773604
 20
3674.174209982
 30
0.0
 10
4314.940561814416
 20
3639.989571345799
 30
0.0
 10
4322.256235857675
 20
3620.113530470775
 30
0.0
 10
4324.730655019411
 20
3597.036882201795
 30
0.0
 10
4327.205074181089
 20
3573.960233932831
 30
0.0
 10
4327.716095529736
 20
3562.798451844694
 30
0.0
 10
4340.249566501014
 20
3562.825347705152
 30
0.0
 10
4352.702349890903
 20
3562.852243565595
 30
0.0
 10
4357.032583423897
 20
3553.573171709188
 30
0.0
 10
4364.59032021126
 20
3548.570541664874
 30
0.0
 10
4372.309432161339
 20
3543.514119899646
 30
0.0
 10
4419.968896884653
 20
3528.748292510766
 30
0.0
 10
4438.715311620682
 20
3531.168919951557
 30
0.0
 10
4457.434830496211
 20
3533.589547392363
 30
0.0
 10
4696.458342345089
 20
3528.613813208493
 30
0.0
 10
4712.703442058883
 20
3531.303399253815
 30
0.0
 10
4728.948541772734
 20
3533.966089438709
 30
0.0
 10
4876.956461847476
 20
3530.765482044768
 30
0.0
 10
4876.956461847476
 20
3530.765482044768
 30
0.0
 10
4876.956461847476
 20
3530.765482044768
 30
0.0
 10
5179.454204366258
 20
3531.24960753293
 30
0.0
 10
5179.454204366258
 20
3531.24960753293
 30
0.0
 10
5179.454204366258
 20
3531.24960753293
 30
0.0
 10
5369.715521213256
 20
3532.540608834668
 30
0.0
 10
5384.40066102078
 20
3532.540608834668
 30
0.0
 10
5399.032009107417
 20
3532.567504695125
 30
0.0
 10
5482.785718559062
 20
3532.701983997398
 30
0.0
 10
5482.785718559062
 20
3532.701983997398
 30
0.0
 10
5482.785718559062
 20
3532.701983997398
 30
0.0
 10
5617.749146313996
 20
3538.430802273975
 30
0.0
 10
5617.749146313996
 20
3538.430802273975
 30
0.0
 10
5617.749146313996
 20
3538.430802273975
 30
0.0
 10
5673.692536056922
 20
3540.04455390116
 30
0.0
 10
5673.692536056922
 20
3540.04455390116
 30
0.0
 10
5673.692536056922
 20
3540.04455390116
 30
0.0
 10
5670.976054151142
 20
3538.699760878492
 30
0.0
 10
5673.692536056922
 20
3540.04455390116
 30
0.0
 10
5676.40901796276
 20
3541.389346923828
 30
0.0
 10
5699.028436603963
 20
3546.06922664271
 30
0.0
 10
5705.564130694147
 20
3554.084193057806
 30
0.0
 10
5712.046033063445
 20
3562.072263612459
 30
0.0
 10
5722.99264826795
 20
3584.960640858237
 30
0.0
 10
5722.158876593873
 20
3600.640927502555
 30
0.0
 10
5721.298209059351
 20
3616.294318286401
 30
0.0
 10
5726.569797708195
 20
3646.041139947807
 30
0.0
 10
5731.384156729335
 20
3660.322841848528
 30
0.0
 10
5736.252307471419
 20
3674.631439609704
 30
0.0
 10
5758.575871647693
 20
3732.780289909835
 30
0.0
 10
5758.575871647693
 20
3732.780289909835
 30
0.0
 10
5758.575871647693
 20
3732.780289909835
 30
0.0
 10
5776.488514709643
 20
3777.615689285569
 30
0.0
 10
5776.488514709643
 20
3777.615689285569
 30
0.0
 10
5776.488514709643
 20
3777.615689285569
 30
0.0
 10
5805.96637776652
 20
3817.206395872887
 30
0.0
 10
5814.922699297436
 20
3824.360694753476
 30
0.0
 10
5823.798333247083
 20
3831.541889494522
 30
0.0
 10
5848.219774538716
 20
3851.471722090461
 30
0.0
 10
5848.219774538716
 20
3851.471722090461
 30
0.0
 10
5848.219774538716
 20
3851.471722090461
 30
0.0
 10
5777.591244988209
 20
3795.662811649748
 30
0.0
 10
5767.8818393646
 20
3768.551784312779
 30
0.0
 10
5758.145537880431
 20
3741.548340417623
 30
0.0
 10
5740.985978911231
 20
3691.979269602107
 30
0.0
 10
5730.6041767762
 20
3671.914957703925
 30
0.0
 10
5718.420351990855
 20
3648.381079807241
 30
0.0
 10
5720.545124966658
 20
3576.78429928044
 30
0.0
 10
5703.493149439288
 20
3561.238491938395
 30
0.0
 10
5688.485259306276
 20
3547.548498967637
 30
0.0
 10
5672.267055452925
 20
3544.347891573681
 30
0.0
 10
5673.961494661467
 20
3544.482370875954
 30
0.0
 10
5714.601139806509
 20
3547.68297826991
 30
0.0
 10
5018.885917459797
 20
3532.029587486078
 30
0.0
 10
5018.885917459797
 20
3532.029587486078
 30
0.0
 10
5018.885917459797
 20
3532.029587486078
 30
0.0
 10
4384.385673504912
 20
3531.868212323349
 30
0.0
 10
4371.233597743215
 20
3551.394607012484
 30
0.0
 10
4358.081521981519
 20
3570.81341825979
 30
0.0
 10
4336.995167386143
 20
3551.690461477458
 30
0.0
 10
4330.405681575074
 20
3596.230006388204
 30
0.0
 10
4323.843091624446
 20
3640.796447159392
 30
0.0
 10
4302.702945308126
 20
3683.749136303396
 30
0.0
 10
4289.631557127759
 20
3725.088073820185
 30
0.0
 10
4276.479481366121
 20
3766.453907197433
 30
0.0
 10
4221.665717762204
 20
3842.703671582658
 30
0.0
 10
4211.848728696707
 20
3845.877383116157
 30
0.0
  0
POLYLINE
  5
B4B
330
1F
100
AcDbEntity
  8
Furniture
370
     9
100
AcDb2dPolyline
 66
     1
 10
0.0
 20
0.0
 30
0.0
  0
VERTEX
  5
B4C
330
B4B
100
AcDbEntity
  8
Furniture
370
     9
100
AcDbVertex
100
AcDb2dVertex
 10
4712.67654619844
 20
3475.978614301279
 30
0.0
  0
VERTEX
  5
B4D
330
B4B
100
AcDbEntity
  8
Furniture
370
     9
100
AcDbVertex
100
AcDb2dVertex
 10
4535.325242369093
 20
3475.871030859479
 30
0.0
  0
VERTEX
  5
B4E
330
B4B
100
AcDbEntity
  8
Furniture
370
     9
100
AcDbVertex
100
AcDb2dVertex
 10
4535.836263717741
 20
3244.082505472547
 30
0.0
  0
VERTEX
  5
B4F
330
B4B
100
AcDbEntity
  8
Furniture
370
     9
100
AcDbVertex
100
AcDb2dVertex
 10
4483.819669600932
 20
3244.05560961209
 30
0.0
  0
VERTEX
  5
B50
330
B4B
100
AcDbEntity
  8
Furniture
370
     9
100
AcDbVertex
100
AcDb2dVertex
 10
4483.362439973229
 20
3476.597219091713
 30
0.0
  0
VERTEX
  5
B51
330
B4B
100
AcDbEntity
  8
Furniture
370
     9
100
AcDbVertex
100
AcDb2dVertex
 10
4313.945414977621
 20
3477.215823882161
 30
0.0
  0
VERTEX
  5
B52
330
B4B
100
AcDbEntity
  8
Furniture
370
     9
100
AcDbVertex
100
AcDb2dVertex
 10
4261.229528489064
 20
3243.840442728473
 30
0.0
  0
VERTEX
  5
B53
330
B4B
100
AcDbEntity
  8
Furniture
370
     9
100
AcDbVertex
100
AcDb2dVertex
 10
4240.923153846765
 20
3243.786651007558
 30
0.0
  0
VERTEX
  5
B54
330
B4B
100
AcDbEntity
  8
Furniture
370
     9
100
AcDbVertex
100
AcDb2dVertex
 10
4296.947231171078
 20
3489.292065225691
 30
0.0
  0
VERTEX
  5
B55
330
B4B
100
AcDbEntity
  8
Furniture
370
     9
100
AcDbVertex
100
AcDb2dVertex
 10
4265.021844812967
 20
3629.634665071255
 30
0.0
  0
VERTEX
  5
B56
330
B4B
100
AcDbEntity
  8
Furniture
370
     9
100
AcDbVertex
100
AcDb2dVertex
 10
4283.122758898076
 20
3629.634665071255
 30
0.0
  0
VERTEX
  5
B57
330
B4B
100
AcDbEntity
  8
Furniture
370
     9
100
AcDbVertex
100
AcDb2dVertex
 10
4316.12397967431
 20
3489.292065225691
 30
0.0
  0
VERTEX
  5
B58
330
B4B
100
AcDbEntity
  8
Furniture
370
     9
100
AcDbVertex
100
AcDb2dVertex
 10
4713.537213732961
 20
3490.502378946101
 30
0.0
  0
VERTEX
  5
B59
330
B4B
100
AcDbEntity
  8
Furniture
370
     9
100
AcDbVertex
100
AcDb2dVertex
 10
5337.252217646056
 20
3491.605109224682
 30
0.0
  0
VERTEX
  5
B5A
330
B4B
100
AcDbEntity
  8
Furniture
370
     9
100
AcDbVertex
100
AcDb2dVertex
 10
5734.692347565149
 20
3490.394795504286
 30
0.0
  0
VERTEX
  5
B5B
330
B4B
100
AcDbEntity
  8
Furniture
370
     9
100
AcDbVertex
100
AcDb2dVertex
 10
5767.693568341383
 20
3630.764291210293
 30
0.0
  0
VERTEX
  5
B5C
330
B4B
100
AcDbEntity
  8
Furniture
370
     9
100
AcDbVertex
100
AcDb2dVertex
 10
5785.794482426492
 20
3630.764291210293
 30
0.0
  0
VERTEX
  5
B5D
330
B4B
100
AcDbEntity
  8
Furniture
370
     9
100
AcDbVertex
100
AcDb2dVertex
 10
5753.922887789268
 20
3490.394795504286
 30
0.0
  0
VERTEX
  5
B5E
330
B4B
100
AcDbEntity
  8
Furniture
370
     9
100
AcDbVertex
100
AcDb2dVertex
 10
5809.893173392694
 20
3244.889381286153
 30
0.0
  0
VERTEX
  5
B5F
330
B4B
100
AcDbEntity
  8
Furniture
370
     9
100
AcDbVertex
100
AcDb2dVertex
 10
5789.559902889952
 20
3244.943173007054
 30
0.0
  0
VERTEX
  5
B60
330
B4B
100
AcDbEntity
  8
Furniture
370
     9
100
AcDbVertex
100
AcDb2dVertex
 10
5736.870912261896
 20
3478.318554160742
 30
0.0
  0
VERTEX
  5
B61
330
B4B
100
AcDbEntity
  8
Furniture
370
     9
100
AcDbVertex
100
AcDb2dVertex
 10
5567.480783126673
 20
3477.699949370308
 30
0.0
  0
VERTEX
  5
B62
330
B4B
100
AcDbEntity
  8
Furniture
370
     9
100
AcDbVertex
100
AcDb2dVertex
 10
5566.969761778084
 20
3245.131444030241
 30
0.0
  0
VERTEX
  5
B63
330
B4B
100
AcDbEntity
  8
Furniture
370
     9
100
AcDbVertex
100
AcDb2dVertex
 10
5514.980063521776
 20
3245.212131611584
 30
0.0
  0
VERTEX
  5
B64
330
B4B
100
AcDbEntity
  8
Furniture
370
     9
100
AcDbVertex
100
AcDb2dVertex
 10
5515.491084870365
 20
3476.946865277616
 30
0.0
  0
VERTEX
  5
B65
330
B4B
100
AcDbEntity
  8
Furniture
370
     9
100
AcDbVertex
100
AcDb2dVertex
 10
5338.13978104102
 20
3477.054448719432
 30
0.0
  0
VERTEX
  5
B66
330
B4B
100
AcDbEntity
  8
Furniture
370
     9
100
AcDbVertex
100
AcDb2dVertex
 10
4712.67654619844
 20
3475.978614301279
 30
0.0
  0
SEQEND
  5
B67
330
B4B
100
AcDbEntity
  8
Furniture
370
     9
  0
POLYLINE
  5
B68
330
1F
100
AcDbEntity
  8
Furniture
370
     9
100
AcDb2dPolyline
 66
     1
 10
0.0
 20
0.0
 30
0.0
  0
VERTEX
  5
B69
330
B68
100
AcDbEntity
  8
Furniture
370
     9
100
AcDbVertex
100
AcDb2dVertex
 10
5567.480783126673
 20
3474.149695790464
 30
0.0
  0
VERTEX
  5
B6A
330
B68
100
AcDbEntity
  8
Furniture
370
     9
100
AcDbVertex
100
AcDb2dVertex
 10
5515.491084870365
 20
3473.396611697772
 30
0.0
  0
SEQEND
  5
B6B
330
B68
100
AcDbEntity
  8
Furniture
370
     9
  0
POLYLINE
  5
B6C
330
1F
100
AcDbEntity
  8
Furniture
370
     9
100
AcDb2dPolyline
 66
     1
 10
0.0
 20
0.0
 30
0.0
  0
VERTEX
  5
B6D
330
B6C
100
AcDbEntity
  8
Furniture
370
     9
100
AcDbVertex
100
AcDb2dVertex
 10
4483.362439973229
 20
3473.046965511883
 30
0.0
  0
VERTEX
  5
B6E
330
B6C
100
AcDbEntity
  8
Furniture
370
     9
100
AcDbVertex
100
AcDb2dVertex
 10
4535.325242369093
 20
3472.320777279634
 30
0.0
  0
SEQEND
  5
B6F
330
B6C
100
AcDbEntity
  8
Furniture
370
     9
  0
MTEXT
  5
B70
330
1F
100
AcDbEntity
  8
Dimension
100
AcDbMText
 10
14026.41716672702
 20
3602.10675189726
 30
0.0
 40
121.7328160806779
 41
0.0
 46
0.0
 71
     7
 72
     1
  1
\fApercu|b0|i0|c0|p34;\W1.0004;86
 73
     1
 44
1.0
  0
MTEXT
  5
B71
330
1F
100
AcDbEntity
  8
Dimension
100
AcDbMText
 10
11092.8318753597
 20
3602.10675189726
 30
0.0
 40
121.7328160806779
 41
0.0
 46
0.0
 71
     7
 72
     1
  1
\fApercu|b0|i0|c0|p34;\W1.0004;86
 73
     1
 44
1.0
  0
MTEXT
  5
B72
330
1F
100
AcDbEntity
  8
Dimension
100
AcDbMText
 10
8366.667459808647
 20
3602.10675189726
 30
0.0
 40
121.7328160806779
 41
0.0
 46
0.0
 71
     7
 72
     1
  1
\fApercu|b0|i0|c0|p34;\W1.0004;86
 73
     1
 44
1.0
  0
MTEXT
  5
B73
330
1F
100
AcDbEntity
  8
Dimension
100
AcDbMText
 10
14026.41716672702
 20
1656.621581864969
 30
0.0
 40
121.7328160806779
 41
0.0
 46
0.0
 71
     7
 72
     1
  1
\fApercu|b0|i0|c0|p34;\W1.0004;100
 73
     1
 44
1.0
  0
MTEXT
  5
B74
330
1F
100
AcDbEntity
  8
Dimension
100
AcDbMText
 10
11092.8318753597
 20
1656.621581864969
 30
0.0
 40
121.7328160806779
 41
0.0
 46
0.0
 71
     7
 72
     1
  1
\fApercu|b0|i0|c0|p34;\W1.0004;100
 73
     1
 44
1.0
  0
MTEXT
  5
B76
330
1F
100
AcDbEntity
  8
Text
100
AcDbMText
 10
2612.741897512817
 20
25.03799918367076
 30
0.0
 40
121.7328160806779
 41
0.0
 46
0.0
 71
     7
 72
     1
  1
\fApercu|b0|i0|c0|p34;\W1.0004;(D) denotes deep sofa 
 73
     1
 44
1.0
  0
MTEXT
  5
B77
330
1F
100
AcDbEntity
  8
Text
100
AcDbMText
 10
276.1505726982214
 20
21.46084974336918
 30
0.0
 40
159.1890671824249
 41
0.0
 46
0.0
 71
     7
 72
     1
  1
\fApercu|b0|i0|c0|p34;\W1.0004;Notes
 73
     1
 44
1.0
  0
POLYLINE
  5
B78
330
1F
100
AcDbEntity
  8
Text
370
     9
100
AcDb2dPolyline
 66
     1
 10
0.0
 20
0.0
 30
0.0
  0
VERTEX
  5
B79
330
B78
100
AcDbEntity
  8
Text
370
     9
100
AcDbVertex
100
AcDb2dVertex
 10
276.1505726982214
 20
575.9459088495386
 30
0.0
  0
VERTEX
  5
B7A
330
B78
100
AcDbEntity
  8
Text
370
     9
100
AcDbVertex
100
AcDb2dVertex
 10
14328.75353408308
 20
575.9459088495386
 30
0.0
  0
SEQEND
  5
B7B
330
B78
100
AcDbEntity
  8
Text
370
     9
  0
ENDSEC
  0
SECTION
  2
OBJECTS
  0
DICTIONARY
  5
C
330
0
100
AcDbDictionary
281
     1
  3
ACAD_CIP_PREVIOUS_PRODUCT_INFO
350
11D
  3
ACAD_COLOR
350
FF
  3
ACAD_DETAILVIEWSTYLE
350
117
  3
ACAD_GROUP
350
D
  3
ACAD_LAYOUT
350
1A
  3
ACAD_MATERIAL
350
DC
  3
ACAD_MLEADERSTYLE
350
113
  3
ACAD_MLINESTYLE
350
17
  3
ACAD_PLOTSETTINGS
350
19
  3
ACAD_PLOTSTYLENAME
350
E
  3
ACAD_SCALELIST
350
101
  3
ACAD_SECTIONVIEWSTYLE
350
115
  3
ACAD_TABLESTYLE
350
DA
  3
ACAD_VISUALSTYLE
350
2A
  3
ACDB_RECOMPOSE_DATA
350
CA2
  3
AcDbVariableDictionary
350
141
  3
AEC_PROPERTY_SET_DEFS
350
3B0
  0
DICTIONARY
  5
15D
330
8
100
AcDbDictionary
280
     1
281
     1
  0
DICTIONARY
  5
135
330
2
100
AcDbDictionary
280
     1
281
     1
  3
ACAD_LAYERSTATES
360
136
  0
DICTIONARY
  5
12A
330
10
100
AcDbDictionary
280
     1
281
     1
  3
ADSK_XREC_LAYER_RECONCILED
360
12B
  0
DICTIONARY
  5
12C
330
3B
100
AcDbDictionary
280
     1
281
     1
  3
ADSK_XREC_LAYER_RECONCILED
360
12D
  0
DICTIONARY
  5
12E
330
11F
100
AcDbDictionary
280
     1
281
     1
  3
ADSK_XREC_LAYER_RECONCILED
360
12F
  0
DICTIONARY
  5
130
330
122
100
AcDbDictionary
280
     1
281
     1
  3
ADSK_XREC_LAYER_RECONCILED
360
131
  0
XRECORD
  5
11D
102
{ACAD_REACTORS
330
C
102
}
330
C
100
AcDbXrecord
280
     1
300
ACD
300
2019
300
BDSADV_F_S
  0
DICTIONARY
  5
FF
102
{ACAD_REACTORS
330
C
102
}
330
C
100
AcDbDictionary
281
     1
  0
DICTIONARY
  5
117
102
{ACAD_REACTORS
330
C
102
}
330
C
100
AcDbDictionary
281
     1
  3
Imperial24
350
118
  0
DICTIONARY
  5
D
102
{ACAD_REACTORS
330
C
102
}
330
C
100
AcDbDictionary
281
     1
  0
DICTIONARY
  5
1A
102
{ACAD_REACTORS
330
C
102
}
330
C
100
AcDbDictionary
281
     1
  3
Layout1
350
1E
  3
Layout2
350
26
  3
Model
350
22
  0
DICTIONARY
  5
DC
102
{ACAD_REACTORS
330
C
102
}
330
C
100
AcDbDictionary
281
     1
  3
ByBlock
350
E5
  3
ByLayer
350
DD
  3
Global
350
ED
  0
DICTIONARY
  5
113
102
{ACAD_REACTORS
330
C
102
}
330
C
100
AcDbDictionary
281
     1
  3
Standard
350
114
  0
DICTIONARY
  5
17
102
{ACAD_REACTORS
330
C
102
}
330
C
100
AcDbDictionary
281
     1
  3
Standard
350
18
  0
DICTIONARY
  5
19
102
{ACAD_REACTORS
330
C
102
}
330
C
100
AcDbDictionary
281
     1
  0
ACDBDICTIONARYWDFLT
  5
E
102
{ACAD_REACTORS
330
C
102
}
330
C
100
AcDbDictionary
281
     1
  3
Normal
350
F
100
AcDbDictionaryWithDefault
340
F
  0
DICTIONARY
  5
101
102
{ACAD_REACTORS
330
C
102
}
330
C
100
AcDbDictionary
281
     1
  3
A0
350
102
  3
A1
350
103
  3
A2
350
104
  3
A3
350
105
  3
A4
350
106
  3
A5
350
107
  3
A6
350
108
  3
A7
350
109
  3
A8
350
10A
  3
A9
350
10B
  3
B0
350
10C
  3
B1
350
10D
  3
B2
350
10E
  3
B3
350
10F
  3
B4
350
110
  3
B5
350
111
  3
B6
350
112
  0
DICTIONARY
  5
115
102
{ACAD_REACTORS
330
C
102
}
330
C
100
AcDbDictionary
281
     1
  3
Imperial24
350
116
  0
DICTIONARY
  5
DA
102
{ACAD_REACTORS
330
C
102
}
330
C
100
AcDbDictionary
281
     1
  3
Standard
350
100
  0
DICTIONARY
  5
2A
102
{ACAD_REACTORS
330
C
102
}
330
C
100
AcDbDictionary
281
     1
  3
2dWireframe
350
2F
  3
3D Hidden
350
31
  3
3dWireframe
350
30
  3
Basic
350
32
  3
Brighten
350
36
  3
ColorChange
350
3A
  3
Conceptual
350
34
  3
Dim
350
35
  3
EdgeColorOff
350
FE
  3
Facepattern
350
39
  3
Flat
350
2B
  3
FlatWithEdges
350
2C
  3
Gouraud
350
2D
  3
GouraudWithEdges
350
2E
  3
Hidden
350
F6
  3
JitterOff
350
FC
  3
Linepattern
350
38
  3
OverhangOff
350
FD
  3
Realistic
350
33
  3
Shaded
350
FB
  3
Shaded with edges
350
FA
  3
Shades of Gray
350
F7
  3
Sketchy
350
F8
  3
Thicken
350
37
  3
Wireframe
350
F5
  3
X-Ray
350
F9
  0
XRECORD
  5
CA2
102
{ACAD_REACTORS
330
C
102
}
330
C
100
AcDbXrecord
280
     1
 90
        1
330
100
  0
DICTIONARY
  5
141
102
{ACAD_REACTORS
330
C
102
}
330
C
100
AcDbDictionary
281
     1
  3
CANNOSCALE
350
147
  3
CMLEADERSTYLE
350
143
  3
CTABLESTYLE
350
142
  3
CVIEWDETAILSTYLE
350
144
  3
CVIEWSECTIONSTYLE
350
145
  3
LAYEREVAL
350
149
  3
LAYERNOTIFY
350
14A
  3
LIGHTINGUNITS
350
148
  3
MSLTSCALE
350
146
  0
DICTIONARY
  5
3B0
102
{ACAD_REACTORS
330
C
102
}
330
C
100
AcDbDictionary
281
     1
  0
DICTIONARY
  5
136
102
{ACAD_REACTORS
330
135
102
}
330
135
100
AcDbDictionary
281
     1
  0
XRECORD
  5
12B
102
{ACAD_REACTORS
330
12A
102
}
330
12A
100
AcDbXrecord
280
     1
290
     1
  0
XRECORD
  5
12D
102
{ACAD_REACTORS
330
12C
102
}
330
12C
100
AcDbXrecord
280
     1
290
     1
  0
XRECORD
  5
12F
102
{ACAD_REACTORS
330
12E
102
}
330
12E
100
AcDbXrecord
280
     1
290
     1
  0
XRECORD
  5
131
102
{ACAD_REACTORS
330
130
102
}
330
130
100
AcDbXrecord
280
     1
290
     1
  0
ACDBDETAILVIEWSTYLE
  5
118
102
{ACAD_REACTORS
330
117
102
}
330
117
100
AcDbModelDocViewStyle
 70
     0
  3
Imperial24
290
     0
300
Imperial24
 90
        0
100
AcDbDetailViewStyle
 70
     0
 71
     0
 90
        3
 71
     1
340
11
 62
   256
 40
0.24
340
0
 62
   256
 40
0.24
300

 40
0.36
280
     3
 71
     2
340
16
 90
       25
 62
   256
 71
     3
340
11
 62
   256
 40
0.24
 90
        1
 40
0.75
 90
        1
300
%<\AcVar ViewType \f "%tc1">% %<\AcVar ViewDetailId>%\PSCALE %<\AcVar ViewScale \f "%sn">%
 71
     4
340
16
 90
       25
 62
   256
340
16
 90
       25
 62
   256
280
     0
  0
LAYOUT
  5
1E
102
{ACAD_REACTORS
330
1A
102
}
330
1A
100
AcDbPlotSettings
  1

  2
none_device
  4

  6

 40
0.0
 41
0.0
 42
0.0
 43
0.0
 44
0.0
 45
0.0
 46
0.0
 47
0.0
 48
0.0
 49
0.0
140
0.0
141
0.0
142
1.0
143
1.0
 70
   688
 72
     0
 73
     0
 74
     5
  7

 75
    16
147
1.0
 76
     0
 77
     2
 78
   300
148
0.0
149
0.0
100
AcDbLayout
  1
Layout1
 70
     1
 71
     1
 10
0.0
 20
0.0
 11
12.0
 21
9.0
 12
0.0
 22
0.0
 32
0.0
 14
1.000000000000000E+20
 24
1.000000000000000E+20
 34
1.000000000000000E+20
 15
-1.000000000000000E+20
 25
-1.000000000000000E+20
 35
-1.000000000000000E+20
146
0.0
 13
0.0
 23
0.0
 33
0.0
 16
1.0
 26
0.0
 36
0.0
 17
0.0
 27
1.0
 37
0.0
 76
     0
330
1B
  0
LAYOUT
  5
26
102
{ACAD_REACTORS
330
1A
102
}
330
1A
100
AcDbPlotSettings
  1

  2
none_device
  4

  6

 40
0.0
 41
0.0
 42
0.0
 43
0.0
 44
0.0
 45
0.0
 46
0.0
 47
0.0
 48
0.0
 49
0.0
140
0.0
141
0.0
142
1.0
143
1.0
 70
   688
 72
     0
 73
     0
 74
     5
  7

 75
    16
147
1.0
 76
     0
 77
     2
 78
   300
148
0.0
149
0.0
100
AcDbLayout
  1
Layout2
 70
     1
 71
     2
 10
0.0
 20
0.0
 11
0.0
 21
0.0
 12
0.0
 22
0.0
 32
0.0
 14
0.0
 24
0.0
 34
0.0
 15
0.0
 25
0.0
 35
0.0
146
0.0
 13
0.0
 23
0.0
 33
0.0
 16
1.0
 26
0.0
 36
0.0
 17
0.0
 27
1.0
 37
0.0
 76
     0
330
23
  0
LAYOUT
  5
22
102
{ACAD_XDICTIONARY
360
15F
102
}
102
{ACAD_REACTORS
330
1A
102
}
330
1A
100
AcDbPlotSettings
  1

  2
none_device
  4

  6

 40
0.0
 41
0.0
 42
0.0
 43
0.0
 44
0.0
 45
0.0
 46
0.0
 47
0.0
 48
0.0
 49
0.0
140
0.0
141
0.0
142
1.0
143
1.0
 70
  1712
 72
     0
 73
     0
 74
     0
  7

 75
     0
147
1.0
 76
     0
 77
     2
 78
   300
148
0.0
149
0.0
100
AcDbLayout
  1
Model
 70
     1
 71
     0
 10
0.0
 20
0.0
 11
12.0
 21
9.0
 12
0.0
 22
0.0
 32
0.0
 14
1.000000000000000E+20
 24
1.000000000000000E+20
 34
1.000000000000000E+20
 15
-1.000000000000000E+20
 25
-1.000000000000000E+20
 35
-1.000000000000000E+20
146
0.0
 13
0.0
 23
0.0
 33
0.0
 16
1.0
 26
0.0
 36
0.0
 17
0.0
 27
1.0
 37
0.0
 76
     0
330
1F
331
29
  0
MATERIAL
  5
E5
102
{ACAD_XDICTIONARY
360
E6
102
}
102
{ACAD_REACTORS
330
DC
102
}
330
DC
100
AcDbMaterial
  1
ByBlock
 72
     0
 43
0.0208333333333333
 43
0.0
 43
0.0
 43
0.0
 43
0.0
 43
0.0208333333333333
 43
0.0
 43
0.0
 43
0.0
 43
0.0
 43
1.0
 43
0.0
 43
0.0
 43
0.0
 43
0.0
 43
1.0
 77
     0
 47
0.0208333333333333
 47
0.0
 47
0.0
 47
0.0
 47
0.0
 47
0.0208333333333333
 47
0.0
 47
0.0
 47
0.0
 47
0.0
 47
1.0
 47
0.0
 47
0.0
 47
0.0
 47
0.0
 47
1.0
171
     0
 49
0.0208333333333333
 49
0.0
 49
0.0
 49
0.0
 49
0.0
 49
0.0208333333333333
 49
0.0
 49
0.0
 49
0.0
 49
0.0
 49
1.0
 49
0.0
 49
0.0
 49
0.0
 49
0.0
 49
1.0
175
     0
142
0.0208333333333333
142
0.0
142
0.0
142
0.0
142
0.0
142
0.0208333333333333
142
0.0
142
0.0
142
0.0
142
0.0
142
1.0
142
0.0
142
0.0
142
0.0
142
0.0
142
1.0
179
     0
144
0.0208333333333333
144
0.0
144
0.0
144
0.0
144
0.0
144
0.0208333333333333
144
0.0
144
0.0
144
0.0
144
0.0
144
1.0
144
0.0
144
0.0
144
0.0
144
0.0
144
1.0
147
0.0208333333333333
147
0.0
147
0.0
147
0.0
147
0.0
147
0.0208333333333333
147
0.0
147
0.0
147
0.0
147
0.0
147
1.0
147
0.0
147
0.0
147
0.0
147
0.0
147
1.0
  0
MATERIAL
  5
DD
102
{ACAD_XDICTIONARY
360
DE
102
}
102
{ACAD_REACTORS
330
DC
102
}
330
DC
100
AcDbMaterial
  1
ByLayer
 72
     0
 43
0.0208333333333333
 43
0.0
 43
0.0
 43
0.0
 43
0.0
 43
0.0208333333333333
 43
0.0
 43
0.0
 43
0.0
 43
0.0
 43
1.0
 43
0.0
 43
0.0
 43
0.0
 43
0.0
 43
1.0
 77
     0
 47
0.0208333333333333
 47
0.0
 47
0.0
 47
0.0
 47
0.0
 47
0.0208333333333333
 47
0.0
 47
0.0
 47
0.0
 47
0.0
 47
1.0
 47
0.0
 47
0.0
 47
0.0
 47
0.0
 47
1.0
171
     0
 49
0.0208333333333333
 49
0.0
 49
0.0
 49
0.0
 49
0.0
 49
0.0208333333333333
 49
0.0
 49
0.0
 49
0.0
 49
0.0
 49
1.0
 49
0.0
 49
0.0
 49
0.0
 49
0.0
 49
1.0
175
     0
142
0.0208333333333333
142
0.0
142
0.0
142
0.0
142
0.0
142
0.0208333333333333
142
0.0
142
0.0
142
0.0
142
0.0
142
1.0
142
0.0
142
0.0
142
0.0
142
0.0
142
1.0
179
     0
144
0.0208333333333333
144
0.0
144
0.0
144
0.0
144
0.0
144
0.0208333333333333
144
0.0
144
0.0
144
0.0
144
0.0
144
1.0
144
0.0
144
0.0
144
0.0
144
0.0
144
1.0
147
0.0208333333333333
147
0.0
147
0.0
147
0.0
147
0.0
147
0.0208333333333333
147
0.0
147
0.0
147
0.0
147
0.0
147
1.0
147
0.0
147
0.0
147
0.0
147
0.0
147
1.0
  0
MATERIAL
  5
ED
102
{ACAD_XDICTIONARY
360
EE
102
}
102
{ACAD_REACTORS
330
DC
102
}
330
DC
100
AcDbMaterial
  1
Global
 72
     0
 43
0.0208333333333333
 43
0.0
 43
0.0
 43
0.0
 43
0.0
 43
0.0208333333333333
 43
0.0
 43
0.0
 43
0.0
 43
0.0
 43
1.0
 43
0.0
 43
0.0
 43
0.0
 43
0.0
 43
1.0
 77
     0
 47
0.0208333333333333
 47
0.0
 47
0.0
 47
0.0
 47
0.0
 47
0.0208333333333333
 47
0.0
 47
0.0
 47
0.0
 47
0.0
 47
1.0
 47
0.0
 47
0.0
 47
0.0
 47
0.0
 47
1.0
171
     0
 49
0.0208333333333333
 49
0.0
 49
0.0
 49
0.0
 49
0.0
 49
0.0208333333333333
 49
0.0
 49
0.0
 49
0.0
 49
0.0
 49
1.0
 49
0.0
 49
0.0
 49
0.0
 49
0.0
 49
1.0
175
     0
142
0.0208333333333333
142
0.0
142
0.0
142
0.0
142
0.0
142
0.0208333333333333
142
0.0
142
0.0
142
0.0
142
0.0
142
1.0
142
0.0
142
0.0
142
0.0
142
0.0
142
1.0
179
     0
144
0.0208333333333333
144
0.0
144
0.0
144
0.0
144
0.0
144
0.0208333333333333
144
0.0
144
0.0
144
0.0
144
0.0
144
1.0
144
0.0
144
0.0
144
0.0
144
0.0
144
1.0
147
0.0208333333333333
147
0.0
147
0.0
147
0.0
147
0.0
147
0.0208333333333333
147
0.0
147
0.0
147
0.0
147
0.0
147
1.0
147
0.0
147
0.0
147
0.0
147
0.0
147
1.0
  0
MLEADERSTYLE
  5
114
102
{ACAD_REACTORS
330
113
102
}
330
113
100
AcDbMLeaderStyle
179
     2
170
     2
171
     1
172
     0
 90
        2
 40
0.0
 41
0.0
173
     1
 91
-1056964608
340
14
 92
       -2
290
     1
 42
0.09
291
     1
 43
0.36
  3
Standard
 44
0.18
300

342
11
174
     1
178
     6
175
     1
176
     0
 93
-1056964608
 45
0.18
292
     0
297
     0
 46
0.18
 94
-1056964608
 47
1.0
 49
1.0
140
1.0
293
     1
141
0.0
294
     1
177
     0
142
1.0
295
     0
296
     0
143
0.125
271
     0
272
     9
273
     9
298
     1
  0
MLINESTYLE
  5
18
102
{ACAD_REACTORS
330
17
102
}
330
17
100
AcDbMlineStyle
  2
STANDARD
 70
     0
  3

 62
   256
 51
90.0
 52
90.0
 71
     2
 49
0.5
 62
   256
  6
BYLAYER
 49
-0.5
 62
   256
  6
BYLAYER
  0
ACDBPLACEHOLDER
  5
F
102
{ACAD_REACTORS
330
E
102
}
330
E
  0
SCALE
  5
102
102
{ACAD_REACTORS
330
101
102
}
330
101
100
AcDbScale
 70
     0
300
1:1
140
1.0
141
1.0
290
     1
  0
SCALE
  5
103
102
{ACAD_REACTORS
330
101
102
}
330
101
100
AcDbScale
 70
     0
300
1/128" = 1'-0"
140
0.0078125
141
12.0
290
     0
  0
SCALE
  5
104
102
{ACAD_REACTORS
330
101
102
}
330
101
100
AcDbScale
 70
     0
300
1/64" = 1'-0"
140
0.015625
141
12.0
290
     0
  0
SCALE
  5
105
102
{ACAD_REACTORS
330
101
102
}
330
101
100
AcDbScale
 70
     0
300
1/32" = 1'-0"
140
0.03125
141
12.0
290
     0
  0
SCALE
  5
106
102
{ACAD_REACTORS
330
101
102
}
330
101
100
AcDbScale
 70
     0
300
1/16" = 1'-0"
140
0.0625
141
12.0
290
     0
  0
SCALE
  5
107
102
{ACAD_REACTORS
330
101
102
}
330
101
100
AcDbScale
 70
     0
300
3/32" = 1'-0"
140
0.09375
141
12.0
290
     0
  0
SCALE
  5
108
102
{ACAD_REACTORS
330
101
102
}
330
101
100
AcDbScale
 70
     0
300
1/8" = 1'-0"
140
0.125
141
12.0
290
     0
  0
SCALE
  5
109
102
{ACAD_REACTORS
330
101
102
}
330
101
100
AcDbScale
 70
     0
300
3/16" = 1'-0"
140
0.1875
141
12.0
290
     0
  0
SCALE
  5
10A
102
{ACAD_REACTORS
330
101
102
}
330
101
100
AcDbScale
 70
     0
300
1/4" = 1'-0"
140
0.25
141
12.0
290
     0
  0
SCALE
  5
10B
102
{ACAD_REACTORS
330
101
102
}
330
101
100
AcDbScale
 70
     0
300
3/8" = 1'-0"
140
0.375
141
12.0
290
     0
  0
SCALE
  5
10C
102
{ACAD_REACTORS
330
101
102
}
330
101
100
AcDbScale
 70
     0
300
1/2" = 1'-0"
140
0.5
141
12.0
290
     0
  0
SCALE
  5
10D
102
{ACAD_REACTORS
330
101
102
}
330
101
100
AcDbScale
 70
     0
300
3/4" = 1'-0"
140
0.75
141
12.0
290
     0
  0
SCALE
  5
10E
102
{ACAD_REACTORS
330
101
102
}
330
101
100
AcDbScale
 70
     0
300
1" = 1'-0"
140
1.0
141
12.0
290
     0
  0
SCALE
  5
10F
102
{ACAD_REACTORS
330
101
102
}
330
101
100
AcDbScale
 70
     0
300
1-1/2" = 1'-0"
140
1.5
141
12.0
290
     0
  0
SCALE
  5
110
102
{ACAD_REACTORS
330
101
102
}
330
101
100
AcDbScale
 70
     0
300
3" = 1'-0"
140
3.0
141
12.0
290
     0
  0
SCALE
  5
111
102
{ACAD_REACTORS
330
101
102
}
330
101
100
AcDbScale
 70
     0
300
6" = 1'-0"
140
6.0
141
12.0
290
     0
  0
SCALE
  5
112
102
{ACAD_REACTORS
330
101
102
}
330
101
100
AcDbScale
 70
     0
300
1'-0" = 1'-0"
140
12.0
141
12.0
290
     0
  0
ACDBSECTIONVIEWSTYLE
  5
116
102
{ACAD_REACTORS
330
115
102
}
330
115
100
AcDbModelDocViewStyle
 70
     0
  3
Imperial24
290
     0
300
Imperial24
 90
        0
100
AcDbSectionViewStyle
 70
     0
 71
     0
 90
       78
 71
     1
340
11
 62
   256
 40
0.24
340
0
340
0
 62
   256
 40
0.24
300
I, O, Q, S, X, Z
 40
0.48
 90
        3
 40
0.18
 90
        1
 71
     2
340
16
 90
       25
 62
   256
340
16
 90
       50
 62
   256
 40
0.24
 40
0.0
 40
0.24
 71
     3
340
11
 62
   256
 40
0.24
 90
        1
 40
0.75
 90
        1
300
%<\AcVar ViewType \f "%tc1">% %<\AcVar ViewSectionStartId>%-%<\AcVar ViewSectionEndId>%\PSCALE %<\AcVar ViewScale \f "%sn">%
 71
     4
 62
   256
 62
   257
300
ANSI31
 40
1.0
 90
        0
290
     0
290
     0
 90
        6
 40
0.0
 40
1.570796326794896
 40
0.2617993877991494
 40
1.308996938995747
 40
-0.2617993877991494
 40
1.832595714594046
  0
TABLESTYLE
  5
100
102
{ACAD_XDICTIONARY
360
152
102
}
102
{ACAD_REACTORS
330
DA
102
}
330
DA
100
AcDbTableStyle
280
     0
  3
Standard
 70
     0
 71
     0
 40
0.06
 41
0.06
280
     0
281
     0
  7
Standard
140
0.18
170
     2
 62
     0
 63
     7
283
     0
 90
      512
 91
        0
  1

274
    -2
284
     1
 64
     0
275
    -2
285
     1
 65
     0
276
    -2
286
     1
 66
     0
277
    -2
287
     1
 67
     0
278
    -2
288
     1
 68
     0
279
    -2
289
     1
 69
     0
  7
Standard
140
0.25
170
     5
 62
     0
 63
     7
283
     0
 90
      512
 91
        0
  1

274
    -2
284
     1
 64
     0
275
    -2
285
     1
 65
     0
276
    -2
286
     1
 66
     0
277
    -2
287
     1
 67
     0
278
    -2
288
     1
 68
     0
279
    -2
289
     1
 69
     0
  7
Standard
140
0.18
170
     5
 62
     0
 63
     7
283
     0
 90
      512
 91
        0
  1

274
    -2
284
     1
 64
     0
275
    -2
285
     1
 65
     0
276
    -2
286
     1
 66
     0
277
    -2
287
     1
 67
     0
278
    -2
288
     1
 68
     0
279
    -2
289
     1
 69
     0
  0
VISUALSTYLE
  5
2F
102
{ACAD_REACTORS
330
2A
102
}
330
2A
100
AcDbVisualStyle
  2
2dWireframe
 70
     4
177
     3
291
     0
 70
    58
 90
        0
176
     1
 90
        2
176
     1
 90
        0
176
     1
 90
        0
176
     1
 40
0.6
176
     1
 40
30.0
176
     1
 62
     7
176
     1
 90
        1
176
     1
 90
        4
176
     1
 62
     7
176
     1
 62
   257
176
     1
 90
        1
176
     1
 90
        1
176
     1
 40
1.0
176
     1
 90
        0
176
     1
 62
   257
176
     1
 40
1.0
176
     1
 90
        1
176
     1
 90
        6
176
     1
 90
        2
176
     1
 62
     7
176
     1
 90
        5
176
     1
 90
        0
176
     1
 90
        0
176
     1
290
     0
176
     1
 90
        1
176
     1
 40
0.0
176
     1
 90
        0
176
     1
290
     1
176
     1
290
     1
176
     1
290
     0
176
     1
290
     0
176
     1
290
     0
176
     1
290
     0
176
     1
290
     0
176
     1
290
     0
176
     1
290
     0
176
     1
 90
       50
176
     1
 40
0.0
176
     1
 40
1.0
176
     1
 90
        0
176
     1
 62
    18
420
        0
176
     1
 90
       50
176
     1
 90
        3
176
     1
 62
     5
420
      255
176
     1
290
     0
176
     1
 90
       50
176
     1
 90
       50
176
     1
 90
       50
176
     1
290
     0
176
     1
 90
       50
176
     1
 62
   256
176
     0
 40
1.0
176
     0
 90
        2
176
     1
  1
strokes_ogs.tif
176
     1
290
     0
176
     1
 40
1.0
176
     1
 40
1.0
176
     1
  0
VISUALSTYLE
  5
31
102
{ACAD_REACTORS
330
2A
102
}
330
2A
100
AcDbVisualStyle
  2
3D Hidden
 70
     6
177
     3
291
     0
 70
    58
 90
        1
176
     1
 90
        2
176
     1
 90
        2
176
     1
 90
        0
176
     1
 40
0.6
176
     1
 40
30.0
176
     1
 62
     7
176
     1
 90
        2
176
     1
 90
        2
176
     1
 62
     7
176
     1
 62
   257
176
     1
 90
        2
176
     1
 90
        1
176
     1
 40
40.0
176
     1
 90
        0
176
     1
 62
   257
176
     1
 40
1.0
176
     1
 90
        1
176
     1
 90
        6
176
     1
 90
        2
176
     1
 62
     7
176
     1
 90
        3
176
     1
 90
        0
176
     1
 90
        0
176
     1
290
     0
176
     1
 90
        1
176
     1
 40
0.0
176
     1
 90
        0
176
     1
290
     0
176
     1
290
     1
176
     1
290
     1
176
     1
290
     0
176
     1
290
     0
176
     1
290
     0
176
     1
290
     0
176
     1
290
     0
176
     1
290
     0
176
     1
 90
       50
176
     1
 40
0.0
176
     1
 40
1.0
176
     1
 90
        0
176
     1
 62
    18
420
        0
176
     1
 90
       50
176
     1
 90
        3
176
     1
 62
     5
420
      255
176
     1
290
     0
176
     1
 90
       50
176
     1
 90
       50
176
     1
 90
       50
176
     1
290
     0
176
     1
 90
       50
176
     1
 62
   256
176
     0
 40
1.0
176
     0
 90
        2
176
     1
  1
strokes_ogs.tif
176
     1
290
     0
176
     1
 40
1.0
176
     1
 40
1.0
176
     1
  0
VISUALSTYLE
  5
30
102
{ACAD_REACTORS
330
2A
102
}
330
2A
100
AcDbVisualStyle
  2
3dWireframe
 70
     5
177
     3
291
     0
 70
    58
 90
        0
176
     1
 90
        2
176
     1
 90
        0
176
     1
 90
        0
176
     1
 40
0.6
176
     1
 40
30.0
176
     1
 62
     7
176
     1
 90
        1
176
     1
 90
        4
176
     1
 62
     7
176
     1
 62
   257
176
     1
 90
        1
176
     1
 90
        1
176
     1
 40
1.0
176
     1
 90
        0
176
     1
 62
   257
176
     1
 40
1.0
176
     1
 90
        1
176
     1
 90
        6
176
     1
 90
        2
176
     1
 62
     7
176
     1
 90
        5
176
     1
 90
        0
176
     1
 90
        0
176
     1
290
     0
176
     1
 90
        1
176
     1
 40
0.0
176
     1
 90
        0
176
     1
290
     0
176
     1
290
     1
176
     1
290
     1
176
     1
290
     0
176
     1
290
     0
176
     1
290
     0
176
     1
290
     0
176
     1
290
     0
176
     1
290
     0
176
     1
 90
       50
176
     1
 40
0.0
176
     1
 40
1.0
176
     1
 90
        0
176
     1
 62
    18
420
        0
176
     1
 90
       50
176
     1
 90
        3
176
     1
 62
     5
420
      255
176
     1
290
     0
176
     1
 90
       50
176
     1
 90
       50
176
     1
 90
       50
176
     1
290
     0
176
     1
 90
       50
176
     1
 62
   256
176
     0
 40
1.0
176
     0
 90
        2
176
     1
  1
strokes_ogs.tif
176
     1
290
     0
176
     1
 40
1.0
176
     1
 40
1.0
176
     1
  0
VISUALSTYLE
  5
32
102
{ACAD_REACTORS
330
2A
102
}
330
2A
100
AcDbVisualStyle
  2
Basic
 70
     7
177
     3
291
     1
 70
    58
 90
        1
176
     1
 90
        0
176
     1
 90
        1
176
     1
 90
        0
176
     1
 40
0.6
176
     1
 40
30.0
176
     1
 62
     7
176
     1
 90
        0
176
     1
 90
        4
176
     1
 62
     7
176
     1
 62
   257
176
     1
 90
        1
176
     1
 90
        1
176
     1
 40
1.0
176
     1
 90
        8
176
     1
 62
     7
176
     1
 40
1.0
176
     1
 90
        1
176
     1
 90
        6
176
     1
 90
        2
176
     1
 62
     7
176
     1
 90
        5
176
     1
 90
        0
176
     1
 90
        0
176
     1
290
     0
176
     1
 90
        1
176
     1
 40
0.0
176
     1
 90
        0
176
     1
290
     0
176
     1
290
     1
176
     1
290
     1
176
     1
290
     0
176
     1
290
     0
176
     1
290
     0
176
     1
290
     0
176
     1
290
     0
176
     1
290
     0
176
     1
 90
       50
176
     1
 40
0.0
176
     1
 40
1.0
176
     1
 90
        0
176
     1
 62
    18
420
        0
176
     1
 90
       50
176
     1
 90
        3
176
     1
 62
     5
420
      255
176
     1
290
     0
176
     1
 90
       50
176
     1
 90
       50
176
     1
 90
       50
176
     1
290
     0
176
     1
 90
       50
176
     1
 62
   256
176
     0
 40
1.0
176
     0
 90
        2
176
     1
  1
strokes_ogs.tif
176
     1
290
     0
176
     1
 40
1.0
176
     1
 40
1.0
176
     1
  0
VISUALSTYLE
  5
36
102
{ACAD_REACTORS
330
2A
102
}
330
2A
100
AcDbVisualStyle
  2
Brighten
 70
    12
177
     3
291
     1
 70
    58
 90
        2
176
     1
 90
        2
176
     1
 90
        0
176
     1
 90
        0
176
     1
 40
0.6
176
     1
 40
30.0
176
     1
 62
     7
176
     1
 90
        1
176
     1
 90
        4
176
     1
 62
     7
176
     1
 62
   257
176
     1
 90
        1
176
     1
 90
        1
176
     1
 40
1.0
176
     1
 90
        8
176
     1
 62
     7
176
     1
 40
1.0
176
     1
 90
        1
176
     1
 90
        6
176
     1
 90
        2
176
     1
 62
     7
176
     1
 90
        5
176
     1
 90
        0
176
     1
 90
        0
176
     1
290
     0
176
     1
 90
        1
176
     1
 40
50.0
176
     1
 90
        0
176
     1
290
     0
176
     1
290
     1
176
     1
290
     1
176
     1
290
     0
176
     1
290
     0
176
     1
290
     0
176
     1
290
     0
176
     1
290
     0
176
     1
290
     0
176
     1
 90
       50
176
     1
 40
0.0
176
     1
 40
1.0
176
     1
 90
        0
176
     1
 62
    18
420
        0
176
     1
 90
       50
176
     1
 90
        3
176
     1
 62
     5
420
      255
176
     1
290
     0
176
     1
 90
       50
176
     1
 90
       50
176
     1
 90
       50
176
     1
290
     0
176
     1
 90
       50
176
     1
 62
   256
176
     0
 40
1.0
176
     0
 90
        2
176
     1
  1
strokes_ogs.tif
176
     1
290
     0
176
     1
 40
1.0
176
     1
 40
1.0
176
     1
  0
VISUALSTYLE
  5
3A
102
{ACAD_REACTORS
330
2A
102
}
330
2A
100
AcDbVisualStyle
  2
ColorChange
 70
    16
177
     3
291
     1
 70
    58
 90
        2
176
     1
 90
        2
176
     1
 90
        3
176
     1
 90
        0
176
     1
 40
0.6
176
     1
 40
30.0
176
     1
 62
     8
176
     1
 90
        1
176
     1
 90
        4
176
     1
 62
     7
176
     1
 62
   257
176
     1
 90
        1
176
     1
 90
        1
176
     1
 40
1.0
176
     1
 90
        8
176
     1
 62
     8
176
     1
 40
1.0
176
     1
 90
        1
176
     1
 90
        6
176
     1
 90
        2
176
     1
 62
     7
176
     1
 90
        5
176
     1
 90
        0
176
     1
 90
        0
176
     1
290
     0
176
     1
 90
        1
176
     1
 40
0.0
176
     1
 90
        0
176
     1
290
     0
176
     1
290
     1
176
     1
290
     1
176
     1
290
     0
176
     1
290
     0
176
     1
290
     0
176
     1
290
     0
176
     1
290
     0
176
     1
290
     0
176
     1
 90
       50
176
     1
 40
0.0
176
     1
 40
1.0
176
     1
 90
        0
176
     1
 62
    18
420
        0
176
     1
 90
       50
176
     1
 90
        3
176
     1
 62
     5
420
      255
176
     1
290
     0
176
     1
 90
       50
176
     1
 90
       50
176
     1
 90
       50
176
     1
290
     0
176
     1
 90
       50
176
     1
 62
   256
176
     0
 40
1.0
176
     0
 90
        2
176
     1
  1
strokes_ogs.tif
176
     1
290
     0
176
     1
 40
1.0
176
     1
 40
1.0
176
     1
  0
VISUALSTYLE
  5
34
102
{ACAD_REACTORS
330
2A
102
}
330
2A
100
AcDbVisualStyle
  2
Conceptual
 70
     9
177
     3
291
     0
 70
    58
 90
        3
176
     1
 90
        2
176
     1
 90
        0
176
     1
 90
        0
176
     1
 40
0.6
176
     1
 40
30.0
176
     1
 62
     7
176
     1
 90
        2
176
     1
 90
        2
176
     1
 62
     7
176
     1
 62
   257
176
     1
 90
        1
176
     1
 90
        1
176
     1
 40
40.0
176
     1
 90
        8
176
     1
 62
     7
176
     1
 40
1.0
176
     1
 90
        1
176
     1
 90
        6
176
     1
 90
        2
176
     1
 62
     7
176
     1
 90
        3
176
     1
 90
        0
176
     1
 90
        0
176
     1
290
     0
176
     1
 90
        1
176
     1
 40
0.0
176
     1
 90
        0
176
     1
290
     0
176
     1
290
     1
176
     1
290
     1
176
     1
290
     0
176
     1
290
     0
176
     1
290
     0
176
     1
290
     0
176
     1
290
     0
176
     1
290
     0
176
     1
 90
       50
176
     1
 40
0.0
176
     1
 40
1.0
176
     1
 90
        0
176
     1
 62
    18
420
        0
176
     1
 90
       50
176
     1
 90
        3
176
     1
 62
     5
420
      255
176
     1
290
     0
176
     1
 90
       50
176
     1
 90
       50
176
     1
 90
       50
176
     1
290
     0
176
     1
 90
       50
176
     1
 62
   256
176
     0
 40
1.0
176
     0
 90
        2
176
     1
  1
strokes_ogs.tif
176
     1
290
     0
176
     1
 40
1.0
176
     1
 40
1.0
176
     1
  0
VISUALSTYLE
  5
35
102
{ACAD_REACTORS
330
2A
102
}
330
2A
100
AcDbVisualStyle
  2
Dim
 70
    11
177
     3
291
     1
 70
    58
 90
        2
176
     1
 90
        2
176
     1
 90
        0
176
     1
 90
        0
176
     1
 40
0.6
176
     1
 40
30.0
176
     1
 62
     7
176
     1
 90
        1
176
     1
 90
        4
176
     1
 62
     7
176
     1
 62
   257
176
     1
 90
        1
176
     1
 90
        1
176
     1
 40
1.0
176
     1
 90
        8
176
     1
 62
     7
176
     1
 40
1.0
176
     1
 90
        1
176
     1
 90
        6
176
     1
 90
        2
176
     1
 62
     7
176
     1
 90
        5
176
     1
 90
        0
176
     1
 90
        0
176
     1
290
     0
176
     1
 90
        1
176
     1
 40
-50.0
176
     1
 90
        0
176
     1
290
     0
176
     1
290
     1
176
     1
290
     1
176
     1
290
     0
176
     1
290
     0
176
     1
290
     0
176
     1
290
     0
176
     1
290
     0
176
     1
290
     0
176
     1
 90
       50
176
     1
 40
0.0
176
     1
 40
1.0
176
     1
 90
        0
176
     1
 62
    18
420
        0
176
     1
 90
       50
176
     1
 90
        3
176
     1
 62
     5
420
      255
176
     1
290
     0
176
     1
 90
       50
176
     1
 90
       50
176
     1
 90
       50
176
     1
290
     0
176
     1
 90
       50
176
     1
 62
   256
176
     0
 40
1.0
176
     0
 90
        2
176
     1
  1
strokes_ogs.tif
176
     1
290
     0
176
     1
 40
1.0
176
     1
 40
1.0
176
     1
  0
VISUALSTYLE
  5
FE
102
{ACAD_REACTORS
330
2A
102
}
330
2A
100
AcDbVisualStyle
  2
EdgeColorOff
 70
    22
177
     3
291
     1
 70
    58
 90
        2
176
     0
 90
        2
176
     0
 90
        0
176
     0
 90
        0
176
     0
 40
0.6
176
     0
 40
30.0
176
     0
 62
     7
420
 16777215
176
     0
 90
        1
176
     0
 90
        4
176
     0
 62
     7
176
     0
 62
   257
176
     0
 90
        1
176
     0
 90
        1
176
     0
 40
1.0
176
     0
 90
        8
176
     2
 62
     7
176
     0
 40
1.0
176
     0
 90
        1
176
     0
 90
        6
176
     0
 90
        2
176
     0
 62
     7
176
     0
 90
        5
176
     0
 90
        0
176
     0
 90
        0
176
     0
290
     0
176
     0
 90
        1
176
     0
 40
0.0
176
     0
 90
        0
176
     0
290
     0
176
     0
290
     1
176
     0
290
     1
176
     0
290
     0
176
     0
290
     0
176
     0
290
     0
176
     0
290
     0
176
     0
290
     0
176
     0
290
     0
176
     0
 90
       50
176
     0
 40
0.0
176
     0
 40
1.0
176
     0
 90
        0
176
     0
 62
    18
420
        0
176
     0
 90
       50
176
     0
 90
        3
176
     0
 62
     5
420
      255
176
     0
290
     0
176
     0
 90
       50
176
     0
 90
       50
176
     0
 90
       50
176
     0
290
     0
176
     0
 90
       50
176
     0
 62
   256
176
     0
 40
1.0
176
     0
 90
        2
176
     0
  1
strokes_ogs.tif
176
     0
290
     0
176
     0
 40
1.0
176
     0
 40
1.0
176
     0
  0
VISUALSTYLE
  5
39
102
{ACAD_REACTORS
330
2A
102
}
330
2A
100
AcDbVisualStyle
  2
Facepattern
 70
    15
177
     3
291
     1
 70
    58
 90
        2
176
     1
 90
        2
176
     1
 90
        0
176
     1
 90
        0
176
     1
 40
0.6
176
     1
 40
30.0
176
     1
 62
     7
176
     1
 90
        1
176
     1
 90
        4
176
     1
 62
     7
176
     1
 62
   257
176
     1
 90
        1
176
     1
 90
        1
176
     1
 40
1.0
176
     1
 90
        8
176
     1
 62
     7
176
     1
 40
1.0
176
     1
 90
        1
176
     1
 90
        6
176
     1
 90
        2
176
     1
 62
     7
176
     1
 90
        5
176
     1
 90
        0
176
     1
 90
        0
176
     1
290
     0
176
     1
 90
        1
176
     1
 40
0.0
176
     1
 90
        0
176
     1
290
     0
176
     1
290
     1
176
     1
290
     1
176
     1
290
     0
176
     1
290
     0
176
     1
290
     0
176
     1
290
     0
176
     1
290
     0
176
     1
290
     0
176
     1
 90
       50
176
     1
 40
0.0
176
     1
 40
1.0
176
     1
 90
        0
176
     1
 62
    18
420
        0
176
     1
 90
       50
176
     1
 90
        3
176
     1
 62
     5
420
      255
176
     1
290
     0
176
     1
 90
       50
176
     1
 90
       50
176
     1
 90
       50
176
     1
290
     0
176
     1
 90
       50
176
     1
 62
   256
176
     0
 40
1.0
176
     0
 90
        2
176
     1
  1
strokes_ogs.tif
176
     1
290
     0
176
     1
 40
1.0
176
     1
 40
1.0
176
     1
  0
VISUALSTYLE
  5
2B
102
{ACAD_REACTORS
330
2A
102
}
330
2A
100
AcDbVisualStyle
  2
Flat
 70
     0
177
     3
291
     1
 70
    58
 90
        2
176
     1
 90
        1
176
     1
 90
        1
176
     1
 90
        2
176
     1
 40
0.6
176
     1
 40
30.0
176
     1
 62
     7
176
     1
 90
        0
176
     1
 90
        4
176
     1
 62
     7
176
     1
 62
   257
176
     1
 90
        1
176
     1
 90
        1
176
     1
 40
1.0
176
     1
 90
        8
176
     1
 62
     7
176
     1
 40
1.0
176
     1
 90
        1
176
     1
 90
        6
176
     1
 90
        2
176
     1
 62
     7
176
     1
 90
        5
176
     1
 90
        0
176
     1
 90
        0
176
     1
290
     0
176
     1
 90
       13
176
     1
 40
0.0
176
     1
 90
        0
176
     1
290
     0
176
     1
290
     1
176
     1
290
     1
176
     1
290
     0
176
     1
290
     0
176
     1
290
     0
176
     1
290
     0
176
     1
290
     0
176
     1
290
     0
176
     1
 90
       50
176
     1
 40
0.0
176
     1
 40
1.0
176
     1
 90
        0
176
     1
 62
    18
420
        0
176
     1
 90
       50
176
     1
 90
        3
176
     1
 62
     5
420
      255
176
     1
290
     0
176
     1
 90
       50
176
     1
 90
       50
176
     1
 90
       50
176
     1
290
     0
176
     1
 90
       50
176
     1
 62
   256
176
     0
 40
1.0
176
     0
 90
        2
176
     1
  1
strokes_ogs.tif
176
     1
290
     0
176
     1
 40
1.0
176
     1
 40
1.0
176
     1
  0
VISUALSTYLE
  5
2C
102
{ACAD_REACTORS
330
2A
102
}
330
2A
100
AcDbVisualStyle
  2
FlatWithEdges
 70
     1
177
     3
291
     1
 70
    58
 90
        2
176
     1
 90
        1
176
     1
 90
        1
176
     1
 90
        2
176
     1
 40
0.6
176
     1
 40
30.0
176
     1
 62
     7
176
     1
 90
        1
176
     1
 90
        4
176
     1
 62
     7
176
     1
 62
   257
176
     1
 90
        1
176
     1
 90
        1
176
     1
 40
1.0
176
     1
 90
        0
176
     1
 62
   257
176
     1
 40
1.0
176
     1
 90
        1
176
     1
 90
        6
176
     1
 90
        2
176
     1
 62
     7
176
     1
 90
        5
176
     1
 90
        0
176
     1
 90
        0
176
     1
290
     0
176
     1
 90
       13
176
     1
 40
0.0
176
     1
 90
        0
176
     1
290
     0
176
     1
290
     1
176
     1
290
     1
176
     1
290
     0
176
     1
290
     0
176
     1
290
     0
176
     1
290
     0
176
     1
290
     0
176
     1
290
     0
176
     1
 90
       50
176
     1
 40
0.0
176
     1
 40
1.0
176
     1
 90
        0
176
     1
 62
    18
420
        0
176
     1
 90
       50
176
     1
 90
        3
176
     1
 62
     5
420
      255
176
     1
290
     0
176
     1
 90
       50
176
     1
 90
       50
176
     1
 90
       50
176
     1
290
     0
176
     1
 90
       50
176
     1
 62
   256
176
     0
 40
1.0
176
     0
 90
        2
176
     1
  1
strokes_ogs.tif
176
     1
290
     0
176
     1
 40
1.0
176
     1
 40
1.0
176
     1
  0
VISUALSTYLE
  5
2D
102
{ACAD_REACTORS
330
2A
102
}
330
2A
100
AcDbVisualStyle
  2
Gouraud
 70
     2
177
     3
291
     1
 70
    58
 90
        2
176
     1
 90
        2
176
     1
 90
        1
176
     1
 90
        2
176
     1
 40
0.6
176
     1
 40
30.0
176
     1
 62
     7
176
     1
 90
        0
176
     1
 90
        4
176
     1
 62
     7
176
     1
 62
   257
176
     1
 90
        1
176
     1
 90
        1
176
     1
 40
1.0
176
     1
 90
        0
176
     1
 62
     7
176
     1
 40
1.0
176
     1
 90
        1
176
     1
 90
        6
176
     1
 90
        2
176
     1
 62
     7
176
     1
 90
        5
176
     1
 90
        0
176
     1
 90
        0
176
     1
290
     0
176
     1
 90
       13
176
     1
 40
0.0
176
     1
 90
        0
176
     1
290
     0
176
     1
290
     1
176
     1
290
     1
176
     1
290
     0
176
     1
290
     0
176
     1
290
     0
176
     1
290
     0
176
     1
290
     0
176
     1
290
     0
176
     1
 90
       50
176
     1
 40
0.0
176
     1
 40
1.0
176
     1
 90
        0
176
     1
 62
    18
420
        0
176
     1
 90
       50
176
     1
 90
        3
176
     1
 62
     5
420
      255
176
     1
290
     0
176
     1
 90
       50
176
     1
 90
       50
176
     1
 90
       50
176
     1
290
     0
176
     1
 90
       50
176
     1
 62
   256
176
     0
 40
1.0
176
     0
 90
        2
176
     1
  1
strokes_ogs.tif
176
     1
290
     0
176
     1
 40
1.0
176
     1
 40
1.0
176
     1
  0
VISUALSTYLE
  5
2E
102
{ACAD_REACTORS
330
2A
102
}
330
2A
100
AcDbVisualStyle
  2
GouraudWithEdges
 70
     3
177
     3
291
     1
 70
    58
 90
        2
176
     1
 90
        2
176
     1
 90
        1
176
     1
 90
        2
176
     1
 40
0.6
176
     1
 40
30.0
176
     1
 62
     7
176
     1
 90
        1
176
     1
 90
        4
176
     1
 62
     7
176
     1
 62
   257
176
     1
 90
        1
176
     1
 90
        1
176
     1
 40
1.0
176
     1
 90
        0
176
     1
 62
   257
176
     1
 40
1.0
176
     1
 90
        1
176
     1
 90
        6
176
     1
 90
        2
176
     1
 62
     7
176
     1
 90
        5
176
     1
 90
        0
176
     1
 90
        0
176
     1
290
     0
176
     1
 90
       13
176
     1
 40
0.0
176
     1
 90
        0
176
     1
290
     0
176
     1
290
     1
176
     1
290
     1
176
     1
290
     0
176
     1
290
     0
176
     1
290
     0
176
     1
290
     0
176
     1
290
     0
176
     1
290
     0
176
     1
 90
       50
176
     1
 40
0.0
176
     1
 40
1.0
176
     1
 90
        0
176
     1
 62
    18
420
        0
176
     1
 90
       50
176
     1
 90
        3
176
     1
 62
     5
420
      255
176
     1
290
     0
176
     1
 90
       50
176
     1
 90
       50
176
     1
 90
       50
176
     1
290
     0
176
     1
 90
       50
176
     1
 62
   256
176
     0
 40
1.0
176
     0
 90
        2
176
     1
  1
strokes_ogs.tif
176
     1
290
     0
176
     1
 40
1.0
176
     1
 40
1.0
176
     1
  0
VISUALSTYLE
  5
F6
102
{ACAD_REACTORS
330
2A
102
}
330
2A
100
AcDbVisualStyle
  2
Hidden
 70
     6
177
     3
291
     0
 70
    58
 90
        1
176
     1
 90
        2
176
     1
 90
        2
176
     1
 90
        0
176
     1
 40
0.6
176
     1
 40
30.0
176
     1
 62
     7
420
 16777215
176
     1
 90
        2
176
     1
 90
        2
176
     1
 62
     7
176
     1
 62
   257
176
     1
 90
        2
176
     1
 90
        1
176
     1
 40
40.0
176
     1
 90
        0
176
     1
 62
   257
176
     1
 40
1.0
176
     1
 90
        1
176
     1
 90
        6
176
     1
 90
        2
176
     1
 62
     7
176
     1
 90
        3
176
     1
 90
        0
176
     1
 90
        0
176
     1
290
     0
176
     1
 90
        1
176
     1
 40
0.0
176
     1
 90
        0
176
     1
290
     0
176
     1
290
     1
176
     1
290
     1
176
     1
290
     0
176
     1
290
     0
176
     1
290
     0
176
     1
290
     0
176
     1
290
     0
176
     1
290
     0
176
     1
 90
       50
176
     1
 40
0.0
176
     1
 40
1.0
176
     1
 90
        0
176
     1
 62
    18
420
        0
176
     1
 90
       50
176
     1
 90
        3
176
     1
 62
     5
420
      255
176
     1
290
     0
176
     1
 90
       50
176
     1
 90
       50
176
     1
 90
       50
176
     1
290
     0
176
     1
 90
       50
176
     1
 62
   256
176
     0
 40
1.0
176
     0
 90
        2
176
     1
  1
strokes_ogs.tif
176
     1
290
     0
176
     1
 40
1.0
176
     1
 40
1.0
176
     1
  0
VISUALSTYLE
  5
FC
102
{ACAD_REACTORS
330
2A
102
}
330
2A
100
AcDbVisualStyle
  2
JitterOff
 70
    20
177
     3
291
     1
 70
    58
 90
        2
176
     0
 90
        2
176
     0
 90
        0
176
     0
 90
        0
176
     0
 40
0.6
176
     0
 40
30.0
176
     0
 62
     7
420
 16777215
176
     0
 90
        1
176
     0
 90
        4
176
     0
 62
     7
176
     0
 62
   257
176
     0
 90
        1
176
     0
 90
        1
176
     0
 40
1.0
176
     0
 90
       10
176
     2
 62
     7
176
     0
 40
1.0
176
     0
 90
        1
176
     0
 90
        6
176
     0
 90
        2
176
     0
 62
     7
176
     0
 90
        5
176
     0
 90
        0
176
     0
 90
        0
176
     0
290
     0
176
     0
 90
        1
176
     0
 40
0.0
176
     0
 90
        0
176
     0
290
     0
176
     0
290
     1
176
     0
290
     1
176
     0
290
     0
176
     0
290
     0
176
     0
290
     0
176
     0
290
     0
176
     0
290
     0
176
     0
290
     0
176
     0
 90
       50
176
     0
 40
0.0
176
     0
 40
1.0
176
     0
 90
        0
176
     0
 62
    18
420
        0
176
     0
 90
       50
176
     0
 90
        3
176
     0
 62
     5
420
      255
176
     0
290
     0
176
     0
 90
       50
176
     0
 90
       50
176
     0
 90
       50
176
     0
290
     0
176
     0
 90
       50
176
     0
 62
   256
176
     0
 40
1.0
176
     0
 90
        2
176
     0
  1
strokes_ogs.tif
176
     0
290
     0
176
     0
 40
1.0
176
     0
 40
1.0
176
     0
  0
VISUALSTYLE
  5
38
102
{ACAD_REACTORS
330
2A
102
}
330
2A
100
AcDbVisualStyle
  2
Linepattern
 70
    14
177
     3
291
     1
 70
    58
 90
        2
176
     1
 90
        2
176
     1
 90
        0
176
     1
 90
        0
176
     1
 40
0.6
176
     1
 40
30.0
176
     1
 62
     7
176
     1
 90
        1
176
     1
 90
        4
176
     1
 62
     7
176
     1
 62
   257
176
     1
 90
        7
176
     1
 90
        7
176
     1
 40
1.0
176
     1
 90
        8
176
     1
 62
     7
176
     1
 40
1.0
176
     1
 90
        1
176
     1
 90
        6
176
     1
 90
        2
176
     1
 62
     7
176
     1
 90
        5
176
     1
 90
        0
176
     1
 90
        0
176
     1
290
     0
176
     1
 90
        1
176
     1
 40
0.0
176
     1
 90
        0
176
     1
290
     0
176
     1
290
     1
176
     1
290
     1
176
     1
290
     0
176
     1
290
     0
176
     1
290
     0
176
     1
290
     0
176
     1
290
     0
176
     1
290
     0
176
     1
 90
       50
176
     1
 40
0.0
176
     1
 40
1.0
176
     1
 90
        0
176
     1
 62
    18
420
        0
176
     1
 90
       50
176
     1
 90
        3
176
     1
 62
     5
420
      255
176
     1
290
     0
176
     1
 90
       50
176
     1
 90
       50
176
     1
 90
       50
176
     1
290
     0
176
     1
 90
       50
176
     1
 62
   256
176
     0
 40
1.0
176
     0
 90
        2
176
     1
  1
strokes_ogs.tif
176
     1
290
     0
176
     1
 40
1.0
176
     1
 40
1.0
176
     1
  0
VISUALSTYLE
  5
FD
102
{ACAD_REACTORS
330
2A
102
}
330
2A
100
AcDbVisualStyle
  2
OverhangOff
 70
    21
177
     3
291
     1
 70
    58
 90
        2
176
     0
 90
        2
176
     0
 90
        0
176
     0
 90
        0
176
     0
 40
0.6
176
     0
 40
30.0
176
     0
 62
     7
420
 16777215
176
     0
 90
        1
176
     0
 90
        4
176
     0
 62
     7
176
     0
 62
   257
176
     0
 90
        1
176
     0
 90
        1
176
     0
 40
1.0
176
     0
 90
        9
176
     2
 62
     7
176
     0
 40
1.0
176
     0
 90
        1
176
     0
 90
        6
176
     0
 90
        2
176
     0
 62
     7
176
     0
 90
        5
176
     0
 90
        0
176
     0
 90
        0
176
     0
290
     0
176
     0
 90
        1
176
     0
 40
0.0
176
     0
 90
        0
176
     0
290
     0
176
     0
290
     1
176
     0
290
     1
176
     0
290
     0
176
     0
290
     0
176
     0
290
     0
176
     0
290
     0
176
     0
290
     0
176
     0
290
     0
176
     0
 90
       50
176
     0
 40
0.0
176
     0
 40
1.0
176
     0
 90
        0
176
     0
 62
    18
420
        0
176
     0
 90
       50
176
     0
 90
        3
176
     0
 62
     5
420
      255
176
     0
290
     0
176
     0
 90
       50
176
     0
 90
       50
176
     0
 90
       50
176
     0
290
     0
176
     0
 90
       50
176
     0
 62
   256
176
     0
 40
1.0
176
     0
 90
        2
176
     0
  1
strokes_ogs.tif
176
     0
290
     0
176
     0
 40
1.0
176
     0
 40
1.0
176
     0
  0
VISUALSTYLE
  5
33
102
{ACAD_REACTORS
330
2A
102
}
330
2A
100
AcDbVisualStyle
  2
Realistic
 70
     8
177
     3
291
     0
 70
    58
 90
        2
176
     1
 90
        2
176
     1
 90
        0
176
     1
 90
        0
176
     1
 40
0.6
176
     1
 40
30.0
176
     1
 62
     7
176
     1
 90
        1
176
     1
 90
        0
176
     1
 62
     7
176
     1
 62
   257
176
     1
 90
        1
176
     1
 90
        1
176
     1
 40
1.0
176
     1
 90
        8
176
     1
 62
     8
176
     1
 40
1.0
176
     1
 90
        1
176
     1
 90
        6
176
     1
 90
        2
176
     1
 62
     7
176
     1
 90
        5
176
     1
 90
        0
176
     1
 90
        0
176
     1
290
     0
176
     1
 90
       13
176
     1
 40
0.0
176
     1
 90
        0
176
     1
290
     0
176
     1
290
     1
176
     1
290
     1
176
     1
290
     0
176
     1
290
     0
176
     1
290
     0
176
     1
290
     0
176
     1
290
     0
176
     1
290
     0
176
     1
 90
       50
176
     1
 40
0.0
176
     1
 40
1.0
176
     1
 90
        0
176
     1
 62
    18
420
        0
176
     1
 90
       50
176
     1
 90
        3
176
     1
 62
     5
420
      255
176
     1
290
     0
176
     1
 90
       50
176
     1
 90
       50
176
     1
 90
       50
176
     1
290
     0
176
     1
 90
       50
176
     1
 62
   256
176
     0
 40
1.0
176
     0
 90
        2
176
     1
  1
strokes_ogs.tif
176
     1
290
     0
176
     1
 40
1.0
176
     1
 40
1.0
176
     1
  0
VISUALSTYLE
  5
FB
102
{ACAD_REACTORS
330
2A
102
}
330
2A
100
AcDbVisualStyle
  2
Shaded
 70
    27
177
     3
291
     0
 70
    58
 90
        2
176
     1
 90
        2
176
     1
 90
        1
176
     1
 90
        2
176
     1
 40
0.6
176
     1
 40
30.0
176
     1
 62
     7
420
 16777215
176
     1
 90
        0
176
     1
 90
        4
176
     1
 62
     7
176
     1
 62
   257
176
     1
 90
        1
176
     1
 90
        1
176
     1
 40
1.0
176
     1
 90
        8
176
     1
 62
   257
176
     1
 40
1.0
176
     1
 90
        1
176
     1
 90
        6
176
     1
 90
        2
176
     1
 62
     8
420
  7895160
176
     1
 90
        3
176
     1
 90
        0
176
     1
 90
        0
176
     1
290
     0
176
     1
 90
        5
176
     1
 40
0.0
176
     1
 90
        0
176
     1
290
     0
176
     1
290
     1
176
     1
290
     1
176
     1
290
     0
176
     1
290
     0
176
     1
290
     0
176
     1
290
     0
176
     1
290
     0
176
     1
290
     0
176
     1
 90
       50
176
     1
 40
0.0
176
     1
 40
1.0
176
     1
 90
        0
176
     1
 62
    18
420
        0
176
     1
 90
       50
176
     1
 90
        3
176
     1
 62
     5
420
      255
176
     1
290
     0
176
     1
 90
       50
176
     1
 90
       50
176
     1
 90
       50
176
     1
290
     0
176
     1
 90
       50
176
     1
 62
   256
176
     0
 40
1.0
176
     0
 90
        2
176
     1
  1
strokes_ogs.tif
176
     1
290
     0
176
     1
 40
1.0
176
     1
 40
1.0
176
     1
  0
VISUALSTYLE
  5
FA
102
{ACAD_REACTORS
330
2A
102
}
330
2A
100
AcDbVisualStyle
  2
Shaded with edges
 70
    26
177
     3
291
     0
 70
    58
 90
        2
176
     1
 90
        2
176
     1
 90
        1
176
     1
 90
        2
176
     1
 40
0.6
176
     1
 40
30.0
176
     1
 62
     7
420
 16777215
176
     1
 90
        1
176
     1
 90
        2
176
     1
 62
     7
176
     1
 62
   257
176
     1
 90
        2
176
     1
 90
        1
176
     1
 40
1.0
176
     1
 90
        8
176
     1
 62
   257
176
     1
 40
1.0
176
     1
 90
        1
176
     1
 90
        6
176
     1
 90
        2
176
     1
 62
     7
176
     1
 90
        3
176
     1
 90
        0
176
     1
 90
        0
176
     1
290
     0
176
     1
 90
        5
176
     1
 40
0.0
176
     1
 90
        0
176
     1
290
     0
176
     1
290
     1
176
     1
290
     1
176
     1
290
     0
176
     1
290
     0
176
     1
290
     0
176
     1
290
     0
176
     1
290
     0
176
     1
290
     0
176
     1
 90
       50
176
     1
 40
0.0
176
     1
 40
1.0
176
     1
 90
        0
176
     1
 62
    18
420
        0
176
     1
 90
       50
176
     1
 90
        3
176
     1
 62
     5
420
      255
176
     1
290
     0
176
     1
 90
       50
176
     1
 90
       50
176
     1
 90
       50
176
     1
290
     0
176
     1
 90
       50
176
     1
 62
   256
176
     0
 40
1.0
176
     0
 90
        2
176
     1
  1
strokes_ogs.tif
176
     1
290
     0
176
     1
 40
1.0
176
     1
 40
1.0
176
     1
  0
VISUALSTYLE
  5
F7
102
{ACAD_REACTORS
330
2A
102
}
330
2A
100
AcDbVisualStyle
  2
Shades of Gray
 70
    23
177
     3
291
     0
 70
    58
 90
        2
176
     1
 90
        2
176
     1
 90
        3
176
     1
 90
        0
176
     1
 40
0.6
176
     1
 40
30.0
176
     1
 62
     7
420
 16777215
176
     1
 90
        2
176
     1
 90
        2
176
     1
 62
     7
176
     1
 62
     7
176
     1
 90
        1
176
     1
 90
        1
176
     1
 40
40.0
176
     1
 90
        8
176
     1
 62
     7
176
     1
 40
1.0
176
     1
 90
        1
176
     1
 90
        6
176
     1
 90
        2
176
     1
 62
     7
176
     1
 90
        3
176
     1
 90
        0
176
     1
 90
        0
176
     1
290
     0
176
     1
 90
        1
176
     1
 40
0.0
176
     1
 90
        0
176
     1
290
     0
176
     1
290
     1
176
     1
290
     1
176
     1
290
     0
176
     1
290
     0
176
     1
290
     0
176
     1
290
     0
176
     1
290
     0
176
     1
290
     0
176
     1
 90
       50
176
     1
 40
0.0
176
     1
 40
1.0
176
     1
 90
        0
176
     1
 62
    18
420
        0
176
     1
 90
       50
176
     1
 90
        3
176
     1
 62
     5
420
      255
176
     1
290
     0
176
     1
 90
       50
176
     1
 90
       50
176
     1
 90
       50
176
     1
290
     0
176
     1
 90
       50
176
     1
 62
   256
176
     0
 40
1.0
176
     0
 90
        2
176
     1
  1
strokes_ogs.tif
176
     1
290
     0
176
     1
 40
1.0
176
     1
 40
1.0
176
     1
  0
VISUALSTYLE
  5
F8
102
{ACAD_REACTORS
330
2A
102
}
330
2A
100
AcDbVisualStyle
  2
Sketchy
 70
    24
177
     3
291
     0
 70
    58
 90
        1
176
     1
 90
        2
176
     1
 90
        2
176
     1
 90
        0
176
     1
 40
0.6
176
     1
 40
30.0
176
     1
 62
     7
420
 16777215
176
     1
 90
        2
176
     1
 90
        2
176
     1
 62
     7
176
     1
 62
     7
176
     1
 90
        1
176
     1
 90
        1
176
     1
 40
40.0
176
     1
 90
       11
176
     1
 62
     7
176
     1
 40
1.0
176
     1
 90
        1
176
     1
 90
        6
176
     1
 90
        2
176
     1
 62
     7
176
     1
 90
        6
176
     1
 90
        0
176
     1
 90
        0
176
     1
290
     0
176
     1
 90
        1
176
     1
 40
0.0
176
     1
 90
        0
176
     1
290
     0
176
     1
290
     1
176
     1
290
     1
176
     1
290
     0
176
     1
290
     0
176
     1
290
     0
176
     1
290
     0
176
     1
290
     0
176
     1
290
     0
176
     1
 90
       50
176
     1
 40
0.0
176
     1
 40
1.0
176
     1
 90
        0
176
     1
 62
    18
420
        0
176
     1
 90
       50
176
     1
 90
        3
176
     1
 62
     5
420
      255
176
     1
290
     0
176
     1
 90
       50
176
     1
 90
       50
176
     1
 90
       50
176
     1
290
     0
176
     1
 90
       50
176
     1
 62
   256
176
     0
 40
1.0
176
     0
 90
        2
176
     1
  1
strokes_ogs.tif
176
     1
290
     0
176
     1
 40
1.0
176
     1
 40
1.0
176
     1
  0
VISUALSTYLE
  5
37
102
{ACAD_REACTORS
330
2A
102
}
330
2A
100
AcDbVisualStyle
  2
Thicken
 70
    13
177
     3
291
     1
 70
    58
 90
        2
176
     1
 90
        2
176
     1
 90
        0
176
     1
 90
        0
176
     1
 40
0.6
176
     1
 40
30.0
176
     1
 62
     7
176
     1
 90
        1
176
     1
 90
        4
176
     1
 62
     7
176
     1
 62
   257
176
     1
 90
        1
176
     1
 90
        1
176
     1
 40
1.0
176
     1
 90
       12
176
     1
 62
     7
176
     1
 40
1.0
176
     1
 90
        1
176
     1
 90
        6
176
     1
 90
        2
176
     1
 62
     7
176
     1
 90
        5
176
     1
 90
        0
176
     1
 90
        0
176
     1
290
     0
176
     1
 90
        1
176
     1
 40
0.0
176
     1
 90
        0
176
     1
290
     0
176
     1
290
     1
176
     1
290
     1
176
     1
290
     0
176
     1
290
     0
176
     1
290
     0
176
     1
290
     0
176
     1
290
     0
176
     1
290
     0
176
     1
 90
       50
176
     1
 40
0.0
176
     1
 40
1.0
176
     1
 90
        0
176
     1
 62
    18
420
        0
176
     1
 90
       50
176
     1
 90
        3
176
     1
 62
     5
420
      255
176
     1
290
     0
176
     1
 90
       50
176
     1
 90
       50
176
     1
 90
       50
176
     1
290
     0
176
     1
 90
       50
176
     1
 62
   256
176
     0
 40
1.0
176
     0
 90
        2
176
     1
  1
strokes_ogs.tif
176
     1
290
     0
176
     1
 40
1.0
176
     1
 40
1.0
176
     1
  0
VISUALSTYLE
  5
F5
102
{ACAD_REACTORS
330
2A
102
}
330
2A
100
AcDbVisualStyle
  2
Wireframe
 70
     5
177
     3
291
     0
 70
    58
 90
        0
176
     1
 90
        2
176
     1
 90
        0
176
     1
 90
        0
176
     1
 40
0.6
176
     1
 40
30.0
176
     1
 62
     7
420
 16777215
176
     1
 90
        1
176
     1
 90
        4
176
     1
 62
     7
176
     1
 62
   257
176
     1
 90
        1
176
     1
 90
        1
176
     1
 40
1.0
176
     1
 90
        0
176
     1
 62
   257
176
     1
 40
1.0
176
     1
 90
        1
176
     1
 90
        6
176
     1
 90
        2
176
     1
 62
     7
176
     1
 90
        3
176
     1
 90
        0
176
     1
 90
        0
176
     1
290
     0
176
     1
 90
        1
176
     1
 40
0.0
176
     1
 90
        0
176
     1
290
     0
176
     1
290
     1
176
     1
290
     1
176
     1
290
     0
176
     1
290
     0
176
     1
290
     0
176
     1
290
     0
176
     1
290
     0
176
     1
290
     0
176
     1
 90
       50
176
     1
 40
0.0
176
     1
 40
1.0
176
     1
 90
        0
176
     1
 62
    18
420
        0
176
     1
 90
       50
176
     1
 90
        3
176
     1
 62
     5
420
      255
176
     1
290
     0
176
     1
 90
       50
176
     1
 90
       50
176
     1
 90
       50
176
     1
290
     0
176
     1
 90
       50
176
     1
 62
   256
176
     0
 40
1.0
176
     0
 90
        2
176
     1
  1
strokes_ogs.tif
176
     1
290
     0
176
     1
 40
1.0
176
     1
 40
1.0
176
     1
  0
VISUALSTYLE
  5
F9
102
{ACAD_REACTORS
330
2A
102
}
330
2A
100
AcDbVisualStyle
  2
X-Ray
 70
    25
177
     3
291
     0
 70
    58
 90
        2
176
     1
 90
        2
176
     1
 90
        1
176
     1
 90
        1
176
     1
 40
0.5
176
     1
 40
30.0
176
     1
 62
     7
420
 16777215
176
     1
 90
        1
176
     1
 90
        0
176
     1
 62
     7
176
     1
 62
   257
176
     1
 90
        1
176
     1
 90
        1
176
     1
 40
1.0
176
     1
 90
        8
176
     1
 62
     7
176
     1
 40
1.0
176
     1
 90
        1
176
     1
 90
        6
176
     1
 90
        2
176
     1
 62
     7
176
     1
 90
        3
176
     1
 90
        0
176
     1
 90
        0
176
     1
290
     0
176
     1
 90
       13
176
     1
 40
0.0
176
     1
 90
        0
176
     1
290
     0
176
     1
290
     1
176
     1
290
     1
176
     1
290
     0
176
     1
290
     0
176
     1
290
     0
176
     1
290
     0
176
     1
290
     0
176
     1
290
     0
176
     1
 90
       50
176
     1
 40
0.0
176
     1
 40
1.0
176
     1
 90
        0
176
     1
 62
    18
420
        0
176
     1
 90
       50
176
     1
 90
        3
176
     1
 62
     5
420
      255
176
     1
290
     0
176
     1
 90
       50
176
     1
 90
       50
176
     1
 90
       50
176
     1
290
     0
176
     1
 90
       50
176
     1
 62
   256
176
     0
 40
1.0
176
     0
 90
        2
176
     1
  1
strokes_ogs.tif
176
     1
290
     0
176
     1
 40
1.0
176
     1
 40
1.0
176
     1
  0
DICTIONARYVAR
  5
147
102
{ACAD_REACTORS
330
141
102
}
330
141
100
DictionaryVariables
280
     0
  1
1:1
  0
DICTIONARYVAR
  5
143
102
{ACAD_REACTORS
330
141
102
}
330
141
100
DictionaryVariables
280
     0
  1
STANDARD
  0
DICTIONARYVAR
  5
142
102
{ACAD_REACTORS
330
141
102
}
330
141
100
DictionaryVariables
280
     0
  1
STANDARD
  0
DICTIONARYVAR
  5
144
102
{ACAD_REACTORS
330
141
102
}
330
141
100
DictionaryVariables
280
     0
  1
Imperial24
  0
DICTIONARYVAR
  5
145
102
{ACAD_REACTORS
330
141
102
}
330
141
100
DictionaryVariables
280
     0
  1
Imperial24
  0
DICTIONARYVAR
  5
149
102
{ACAD_REACTORS
330
141
102
}
330
141
100
DictionaryVariables
280
     0
  1
1
  0
DICTIONARYVAR
  5
14A
102
{ACAD_REACTORS
330
141
102
}
330
141
100
DictionaryVariables
280
     0
  1
15
  0
DICTIONARYVAR
  5
148
102
{ACAD_REACTORS
330
141
102
}
330
141
100
DictionaryVariables
280
     0
  1
0
  0
DICTIONARYVAR
  5
146
102
{ACAD_REACTORS
330
141
102
}
330
141
100
DictionaryVariables
280
     0
  1
0
  0
DICTIONARY
  5
15F
330
22
100
AcDbDictionary
280
     1
281
     1
  0
DICTIONARY
  5
E6
330
E5
100
AcDbDictionary
280
     1
281
     1
  3
BUMPTILE
360
E8
  3
DIFFUSETILE
360
E7
  3
OPACITYTILE
360
EB
  3
REFLECTIONTILE
360
EA
  3
REFRACTIONTILE
360
EC
  3
SPECULARTILE
360
E9
  0
DICTIONARY
  5
DE
330
DD
100
AcDbDictionary
280
     1
281
     1
  3
BUMPTILE
360
E0
  3
DIFFUSETILE
360
DF
  3
OPACITYTILE
360
E3
  3
REFLECTIONTILE
360
E2
  3
REFRACTIONTILE
360
E4
  3
SPECULARTILE
360
E1
  0
DICTIONARY
  5
EE
330
ED
100
AcDbDictionary
280
     1
281
     1
  3
BUMPTILE
360
F0
  3
DIFFUSETILE
360
EF
  3
OPACITYTILE
360
F3
  3
REFLECTIONTILE
360
F2
  3
REFRACTIONTILE
360
F4
  3
SPECULARTILE
360
F1
  0
DICTIONARY
  5
152
330
100
100
AcDbDictionary
280
     1
281
     1
  3
ACAD_ROUNDTRIP_2008_TABLESTYLE_CELLSTYLEMAP
360
CA1
  0
XRECORD
  5
E8
102
{ACAD_REACTORS
330
E6
102
}
330
E6
100
AcDbXrecord
280
     1
270
     1
271
     1
  0
XRECORD
  5
E7
102
{ACAD_REACTORS
330
E6
102
}
330
E6
100
AcDbXrecord
280
     1
270
     1
271
     1
  0
XRECORD
  5
EB
102
{ACAD_REACTORS
330
E6
102
}
330
E6
100
AcDbXrecord
280
     1
270
     1
271
     1
  0
XRECORD
  5
EA
102
{ACAD_REACTORS
330
E6
102
}
330
E6
100
AcDbXrecord
280
     1
270
     1
271
     1
  0
XRECORD
  5
EC
102
{ACAD_REACTORS
330
E6
102
}
330
E6
100
AcDbXrecord
280
     1
270
     1
271
     1
  0
XRECORD
  5
E9
102
{ACAD_REACTORS
330
E6
102
}
330
E6
100
AcDbXrecord
280
     1
270
     1
271
     1
  0
XRECORD
  5
E0
102
{ACAD_REACTORS
330
DE
102
}
330
DE
100
AcDbXrecord
280
     1
270
     1
271
     1
  0
XRECORD
  5
DF
102
{ACAD_REACTORS
330
DE
102
}
330
DE
100
AcDbXrecord
280
     1
270
     1
271
     1
  0
XRECORD
  5
E3
102
{ACAD_REACTORS
330
DE
102
}
330
DE
100
AcDbXrecord
280
     1
270
     1
271
     1
  0
XRECORD
  5
E2
102
{ACAD_REACTORS
330
DE
102
}
330
DE
100
AcDbXrecord
280
     1
270
     1
271
     1
  0
XRECORD
  5
E4
102
{ACAD_REACTORS
330
DE
102
}
330
DE
100
AcDbXrecord
280
     1
270
     1
271
     1
  0
XRECORD
  5
E1
102
{ACAD_REACTORS
330
DE
102
}
330
DE
100
AcDbXrecord
280
     1
270
     1
271
     1
  0
XRECORD
  5
F0
102
{ACAD_REACTORS
330
EE
102
}
330
EE
100
AcDbXrecord
280
     1
270
     1
271
     1
  0
XRECORD
  5
EF
102
{ACAD_REACTORS
330
EE
102
}
330
EE
100
AcDbXrecord
280
     1
270
     1
271
     1
  0
XRECORD
  5
F3
102
{ACAD_REACTORS
330
EE
102
}
330
EE
100
AcDbXrecord
280
     1
270
     1
271
     1
  0
XRECORD
  5
F2
102
{ACAD_REACTORS
330
EE
102
}
330
EE
100
AcDbXrecord
280
     1
270
     1
271
     1
  0
XRECORD
  5
F4
102
{ACAD_REACTORS
330
EE
102
}
330
EE
100
AcDbXrecord
280
     1
270
     1
271
     1
  0
XRECORD
  5
F1
102
{ACAD_REACTORS
330
EE
102
}
330
EE
100
AcDbXrecord
280
     1
270
     1
271
     1
  0
CELLSTYLEMAP
  5
CA1
102
{ACAD_REACTORS
330
152
102
}
330
152
100
AcDbCellStyleMap
 90
        3
300
CELLSTYLE
  1
TABLEFORMAT_BEGIN
 90
        5
170
     1
 91
        0
 92
    32768
 62
   257
 93
        1
300
CONTENTFORMAT
  1
CONTENTFORMAT_BEGIN
 90
        0
 91
        0
 92
      512
 93
        0
300

 40
0.0
140
1.0
 94
        5
 62
     0
340
11
144
0.25
309
CONTENTFORMAT_END
171
     0
 94
        0
309
TABLEFORMAT_END
  1
CELLSTYLE_BEGIN
 90
        1
 91
        1
300
_TITLE
309
CELLSTYLE_END
300
CELLSTYLE
  1
TABLEFORMAT_BEGIN
 90
        5
170
     1
 91
        0
 92
        0
 62
   257
 93
        1
300
CONTENTFORMAT
  1
CONTENTFORMAT_BEGIN
 90
        0
 91
        0
 92
      512
 93
        0
300

 40
0.0
140
1.0
 94
        5
 62
     0
340
11
144
0.18
309
CONTENTFORMAT_END
171
     0
 94
        0
309
TABLEFORMAT_END
  1
CELLSTYLE_BEGIN
 90
        2
 91
        1
300
_HEADER
309
CELLSTYLE_END
300
CELLSTYLE
  1
TABLEFORMAT_BEGIN
 90
        5
170
     1
 91
        0
 92
        0
 62
   257
 93
        1
300
CONTENTFORMAT
  1
CONTENTFORMAT_BEGIN
 90
        0
 91
        0
 92
      512
 93
        0
300

 40
0.0
140
1.0
 94
        2
 62
     0
340
11
144
0.18
309
CONTENTFORMAT_END
171
     0
 94
        0
309
TABLEFORMAT_END
  1
CELLSTYLE_BEGIN
 90
        3
 91
        2
300
_DATA
309
CELLSTYLE_END
  0
ENDSEC
  0
SECTION
  2
ACDSDATA
 70
     2
 71
     8
  0
ACDSSCHEMA
 90
        0
  1
AcDb_Thumbnail_Schema
  2
AcDbDs::ID
280
    10
 91
        8
  2
Thumbnail_Data
280
    15
 91
        0
101
ACDSRECORD
 95
        0
 90
        1
  2
AcDbDs::TreatedAsObjectData
280
     1
291
     1
101
ACDSRECORD
 95
        0
 90
        2
  2
AcDbDs::Legacy
280
     1
291
     1
101
ACDSRECORD
  1
AcDbDs::ID
 90
        3
  2
AcDs:Indexable
280
     1
291
     1
101
ACDSRECORD
  1
AcDbDs::ID
 90
        4
  2
AcDbDs::HandleAttribute
280
     7
282
     1
  0
ACDSSCHEMA
 90
        1
  1
AcDbDs::TreatedAsObjectDataSchema
  2
AcDbDs::TreatedAsObjectData
280
     1
 91
        0
  0
ACDSSCHEMA
 90
        2
  1
AcDbDs::LegacySchema
  2
AcDbDs::Legacy
280
     1
 91
        0
  0
ACDSSCHEMA
 90
        3
  1
AcDbDs::IndexedPropertySchema
  2
AcDs:Indexable
280
     1
 91
        0
  0
ACDSSCHEMA
 90
        4
  1
AcDbDs::HandleAttributeSchema
  2
AcDbDs::HandleAttribute
280
     7
 91
        1
284
     1
  0
ACDSRECORD
 90
        0
  2
AcDbDs::ID
280
    10
320
22
  2
Thumbnail_Data
280
    15
 94
     1295
310
89504E470D0A1A0A0000000D49484452000001000000006F08030000003479EE6F00000300504C5445212830FFFFFF2128300000000000000000000000000000000000000000000000000000330000660000990000CC0000FF0033000033330033660033990033CC0033FF0066000066330066660066990066CC0066FF0099
310
000099330099660099990099CC0099FF00CC0000CC3300CC6600CC9900CCCC00CCFF00FF0000FF3300FF6600FF9900FFCC00FFFF3300003300333300663300993300CC3300FF3333003333333333663333993333CC3333FF3366003366333366663366993366CC3366FF3399003399333399663399993399CC3399FF33CC00
310
33CC3333CC6633CC9933CCCC33CCFF33FF0033FF3333FF6633FF9933FFCC33FFFF6600006600336600666600996600CC6600FF6633006633336633666633996633CC6633FF6666006666336666666666996666CC6666FF6699006699336699666699996699CC6699FF66CC0066CC3366CC6666CC9966CCCC66CCFF66FF0066
310
FF3366FF6666FF9966FFCC66FFFF9900009900339900669900999900CC9900FF9933009933339933669933999933CC9933FF9966009966339966669966999966CC9966FF9999009999339999669999999999CC9999FF99CC0099CC3399CC6699CC9999CCCC99CCFF99FF0099FF3399FF6699FF9999FFCC99FFFFCC0000CC00
310
33CC0066CC0099CC00CCCC00FFCC3300CC3333CC3366CC3399CC33CCCC33FFCC6600CC6633CC6666CC6699CC66CCCC66FFCC9900CC9933CC9966CC9999CC99CCCC99FFCCCC00CCCC33CCCC66CCCC99CCCCCCCCCCFFCCFF00CCFF33CCFF66CCFF99CCFFCCCCFFFFFF0000FF0033FF0066FF0099FF00CCFF00FFFF3300FF3333
310
FF3366FF3399FF33CCFF33FFFF6600FF6633FF6666FF6699FF66CCFF66FFFF9900FF9933FF9966FF9999FF99CCFF99FFFFCC00FFCC33FFCC66FFCC99FFCCCCFFCCFFFFFF00FFFF33FFFF66FFFF99FFFFCCFFFFFF0000000D0D0D1A1A1A2828283535354343435050505D5D5D6B6B6B787878868686939393A1A1A1AEAEAEBB
310
BBBBC9C9C9D6D6D6E4E4E4F1F1F1FFFFFF0000000000000000000000000000000000000000000000000000000000002E4550F10000011D4944415478DAEDDADD0AC2300C06D0BEFFFBE65E50B7B5DD0F22822C39E742AC57F65B9A46B03500000000000000E04B112184DA1520003DE04900D503F80D3D95BB1E0101AC9762
310
EC5A63EE888600D6B7FD6BA900D6C9688C65CDA2C679A81C405701AF10F21F81CB00CA5500A7AD41080C1571BDBEF7D68649F062B15B668861D9463F1A7F1E40A26B70DEE4F3E3F7A2455FF7DBB67304B095C01CC072177401C41440A4A880A33D17EA01DBB16F073F0A874A9F8F8061B1D02C3857BB677FF7C65F7A121C03
310
88980681939B32D12DB0FBEACBF51E11ED93005AAA49F0BD9171143E2EF7AD0212FD648E6527574760383BC32418392AA0B5C201743DE0A4AE738FC27C353A78F8096E3E7F90404773A7010000000000000000FCD103BCB3AC66D43F28730000000049454E44AE4260820066C9624580AF7F691A3F2010E0E94CA3B37EDC2A
310
A039256D06D50D3F4521D49AD0F107A2BE55A47DF3603443E0CB025CCF80148688360C910B19107783A3BBA3B6B7B9F1E83C3F40030146D6A076B5CABB9F6719905580AE21F2E91290EC86C89542C798A52905D0D810F9F814A02B8405FB2B521F06AE7AF9A72900CEAC15EB36046037060000000000000000000000000080
310
D1F905C9E15FC2F70BFF650000000049454E44AE4260826082
  0
ENDSEC
  0
EOF
