  0
SECTION
  2
HEADER
  9
$ACADVER
  1
AC1032
  9
$ACADMAINTVER
 90
        4
  9
$DWGCODEPAGE
  3
ANSI_1252
  9
$LASTSAVEDBY
  1
jesse.cowley
  9
$REQUIREDVERSIONS
160
                 0
  9
$INSBASE
 10
0.0
 20
0.0
 30
0.0
  9
$EXTMIN
 10
18.14007476625661
 20
701.2111456267005
 30
0.0
  9
$EXTMAX
 10
10774.42245240859
 20
3417.394410656374
 30
0.0
  9
$LIMMIN
 10
0.0
 20
0.0
  9
$LIMMAX
 10
12.0
 20
9.0
  9
$ORTHOMODE
 70
     0
  9
$REGENMODE
 70
     1
  9
$FILLMODE
 70
     1
  9
$QTEXTMODE
 70
     0
  9
$MIRRTEXT
 70
     1
  9
$LTSCALE
 40
1.0
  9
$ATTMODE
 70
     1
  9
$TEXTSIZE
 40
0.2
  9
$TRACEWID
 40
0.05
  9
$TEXTSTYLE
  7
Standard
  9
$CLAYER
  8
Furniture
  9
$CELTYPE
  6
ByLayer
  9
$CECOLOR
 62
   256
  9
$CELTSCALE
 40
1.0
  9
$DISPSILH
 70
     0
  9
$DIMSCALE
 40
1.0
  9
$DIMASZ
 40
0.18
  9
$DIMEXO
 40
0.0625
  9
$DIMDLI
 40
0.38
  9
$DIMRND
 40
0.0
  9
$DIMDLE
 40
0.0
  9
$DIMEXE
 40
0.18
  9
$DIMTP
 40
0.0
  9
$DIMTM
 40
0.0
  9
$DIMTXT
 40
0.18
  9
$DIMCEN
 40
0.09
  9
$DIMTSZ
 40
0.0
  9
$DIMTOL
 70
     0
  9
$DIMLIM
 70
     0
  9
$DIMTIH
 70
     1
  9
$DIMTOH
 70
     1
  9
$DIMSE1
 70
     0
  9
$DIMSE2
 70
     0
  9
$DIMTAD
 70
     0
  9
$DIMZIN
 70
     0
  9
$DIMBLK
  1

  9
$DIMASO
 70
     1
  9
$DIMSHO
 70
     1
  9
$DIMPOST
  1

  9
$DIMAPOST
  1

  9
$DIMALT
 70
     0
  9
$DIMALTD
 70
     2
  9
$DIMALTF
 40
25.4
  9
$DIMLFAC
 40
1.0
  9
$DIMTOFL
 70
     0
  9
$DIMTVP
 40
0.0
  9
$DIMTIX
 70
     0
  9
$DIMSOXD
 70
     0
  9
$DIMSAH
 70
     0
  9
$DIMBLK1
  1

  9
$DIMBLK2
  1

  9
$DIMSTYLE
  2
Standard
  9
$DIMCLRD
 70
     0
  9
$DIMCLRE
 70
     0
  9
$DIMCLRT
 70
     0
  9
$DIMTFAC
 40
1.0
  9
$DIMGAP
 40
0.09
  9
$DIMJUST
 70
     0
  9
$DIMSD1
 70
     0
  9
$DIMSD2
 70
     0
  9
$DIMTOLJ
 70
     1
  9
$DIMTZIN
 70
     0
  9
$DIMALTZ
 70
     0
  9
$DIMALTTZ
 70
     0
  9
$DIMUPT
 70
     0
  9
$DIMDEC
 70
     4
  9
$DIMTDEC
 70
     4
  9
$DIMALTU
 70
     2
  9
$DIMALTTD
 70
     2
  9
$DIMTXSTY
  7
Standard
  9
$DIMAUNIT
 70
     0
  9
$DIMADEC
 70
     0
  9
$DIMALTRND
 40
0.0
  9
$DIMAZIN
 70
     0
  9
$DIMDSEP
 70
    46
  9
$DIMATFIT
 70
     3
  9
$DIMFRAC
 70
     0
  9
$DIMLDRBLK
  1

  9
$DIMLUNIT
 70
     2
  9
$DIMLWD
 70
    -2
  9
$DIMLWE
 70
    -2
  9
$DIMTMOVE
 70
     0
  9
$DIMFXL
 40
1.0
  9
$DIMFXLON
 70
     0
  9
$DIMJOGANG
 40
0.7853981633974483
  9
$DIMTFILL
 70
     0
  9
$DIMTFILLCLR
 70
     0
  9
$DIMARCSYM
 70
     0
  9
$DIMLTYPE
  6

  9
$DIMLTEX1
  6

  9
$DIMLTEX2
  6

  9
$DIMTXTDIRECTION
 70
     0
  9
$LUNITS
 70
     2
  9
$LUPREC
 70
     4
  9
$SKETCHINC
 40
0.1
  9
$FILLETRAD
 40
0.5
  9
$AUNITS
 70
     0
  9
$AUPREC
 70
     0
  9
$MENU
  1
.
  9
$ELEVATION
 40
0.0
  9
$PELEVATION
 40
0.0
  9
$THICKNESS
 40
0.0
  9
$LIMCHECK
 70
     0
  9
$CHAMFERA
 40
0.5
  9
$CHAMFERB
 40
0.5
  9
$CHAMFERC
 40
1.0
  9
$CHAMFERD
 40
0.0
  9
$SKPOLY
 70
     0
  9
$TDCREATE
 40
2457072.379131945
  9
$TDUCREATE
 40
2457071.920801852
  9
$TDUPDATE
 40
2458444.459849537
  9
$TDUUPDATE
 40
2458444.001516204
  9
$TDINDWG
 40
0.0066672338
  9
$TDUSRTIMER
 40
0.0066672338
  9
$USRTIMER
 70
     1
  9
$ANGBASE
 50
0.0
  9
$ANGDIR
 70
     0
  9
$PDMODE
 70
     0
  9
$PDSIZE
 40
0.0
  9
$PLINEWID
 40
0.0
  9
$SPLFRAME
 70
     0
  9
$SPLINETYPE
 70
     6
  9
$SPLINESEGS
 70
     8
  9
$HANDSEED
  5
266
  9
$SURFTAB1
 70
     6
  9
$SURFTAB2
 70
     6
  9
$SURFTYPE
 70
     6
  9
$SURFU
 70
     6
  9
$SURFV
 70
     6
  9
$UCSBASE
  2

  9
$UCSNAME
  2

  9
$UCSORG
 10
0.0
 20
0.0
 30
0.0
  9
$UCSXDIR
 10
1.0
 20
0.0
 30
0.0
  9
$UCSYDIR
 10
0.0
 20
1.0
 30
0.0
  9
$UCSORTHOREF
  2

  9
$UCSORTHOVIEW
 70
     0
  9
$UCSORGTOP
 10
0.0
 20
0.0
 30
0.0
  9
$UCSORGBOTTOM
 10
0.0
 20
0.0
 30
0.0
  9
$UCSORGLEFT
 10
0.0
 20
0.0
 30
0.0
  9
$UCSORGRIGHT
 10
0.0
 20
0.0
 30
0.0
  9
$UCSORGFRONT
 10
0.0
 20
0.0
 30
0.0
  9
$UCSORGBACK
 10
0.0
 20
0.0
 30
0.0
  9
$PUCSBASE
  2

  9
$PUCSNAME
  2

  9
$PUCSORG
 10
0.0
 20
0.0
 30
0.0
  9
$PUCSXDIR
 10
1.0
 20
0.0
 30
0.0
  9
$PUCSYDIR
 10
0.0
 20
1.0
 30
0.0
  9
$PUCSORTHOREF
  2

  9
$PUCSORTHOVIEW
 70
     0
  9
$PUCSORGTOP
 10
0.0
 20
0.0
 30
0.0
  9
$PUCSORGBOTTOM
 10
0.0
 20
0.0
 30
0.0
  9
$PUCSORGLEFT
 10
0.0
 20
0.0
 30
0.0
  9
$PUCSORGRIGHT
 10
0.0
 20
0.0
 30
0.0
  9
$PUCSORGFRONT
 10
0.0
 20
0.0
 30
0.0
  9
$PUCSORGBACK
 10
0.0
 20
0.0
 30
0.0
  9
$USERI1
 70
     0
  9
$USERI2
 70
     0
  9
$USERI3
 70
     0
  9
$USERI4
 70
     0
  9
$USERI5
 70
     0
  9
$USERR1
 40
0.0
  9
$USERR2
 40
0.0
  9
$USERR3
 40
0.0
  9
$USERR4
 40
0.0
  9
$USERR5
 40
0.0
  9
$WORLDVIEW
 70
     1
  9
$SHADEDGE
 70
     3
  9
$SHADEDIF
 70
    70
  9
$TILEMODE
 70
     1
  9
$MAXACTVP
 70
    64
  9
$PINSBASE
 10
0.0
 20
0.0
 30
0.0
  9
$PLIMCHECK
 70
     0
  9
$PEXTMIN
 10
1.000000000000000E+20
 20
1.000000000000000E+20
 30
1.000000000000000E+20
  9
$PEXTMAX
 10
-1.000000000000000E+20
 20
-1.000000000000000E+20
 30
-1.000000000000000E+20
  9
$PLIMMIN
 10
0.0
 20
0.0
  9
$PLIMMAX
 10
12.0
 20
9.0
  9
$UNITMODE
 70
     0
  9
$VISRETAIN
 70
     1
  9
$PLINEGEN
 70
     0
  9
$PSLTSCALE
 70
     1
  9
$TREEDEPTH
 70
  3020
  9
$CMLSTYLE
  2
Standard
  9
$CMLJUST
 70
     0
  9
$CMLSCALE
 40
1.0
  9
$PROXYGRAPHICS
 70
     1
  9
$MEASUREMENT
 70
     0
  9
$CELWEIGHT
370
    -1
  9
$ENDCAPS
280
     0
  9
$JOINSTYLE
280
     0
  9
$LWDISPLAY
290
     1
  9
$INSUNITS
 70
     1
  9
$HYPERLINKBASE
  1

  9
$STYLESHEET
  1

  9
$XEDIT
290
     1
  9
$CEPSNTYPE
380
     0
  9
$PSTYLEMODE
290
     1
  9
$FINGERPRINTGUID
  2
{79BD88E6-9BCF-408E-9AA7-345441631229}
  9
$VERSIONGUID
  2
{0611DD09-9C48-CA46-A093-2721A45276E1}
  9
$EXTNAMES
290
     1
  9
$PSVPSCALE
 40
0.0
  9
$OLESTARTUP
290
     0
  9
$SORTENTS
280
   127
  9
$INDEXCTL
280
     0
  9
$HIDETEXT
280
     0
  9
$XCLIPFRAME
280
     2
  9
$HALOGAP
280
     0
  9
$OBSCOLOR
 70
   257
  9
$OBSLTYPE
280
     0
  9
$INTERSECTIONDISPLAY
280
     0
  9
$INTERSECTIONCOLOR
 70
   257
  9
$DIMASSOC
280
     1
  9
$PROJECTNAME
  1

  9
$CAMERADISPLAY
290
     0
  9
$LENSLENGTH
 40
50.0
  9
$CAMERAHEIGHT
 40
0.0
  9
$STEPSPERSEC
 40
2.0
  9
$STEPSIZE
 40
6.0
  9
$3DDWFPREC
 40
2.0
  9
$PSOLWIDTH
 40
0.25
  9
$PSOLHEIGHT
 40
4.0
  9
$LOFTANG1
 40
1.570796326794896
  9
$LOFTANG2
 40
1.570796326794896
  9
$LOFTMAG1
 40
0.0
  9
$LOFTMAG2
 40
0.0
  9
$LOFTPARAM
 70
     7
  9
$LOFTNORMALS
280
     1
  9
$LATITUDE
 40
37.795
  9
$LONGITUDE
 40
-122.394
  9
$NORTHDIRECTION
 40
0.0
  9
$TIMEZONE
 70
 -8000
  9
$LIGHTGLYPHDISPLAY
280
     1
  9
$TILEMODELIGHTSYNCH
280
     1
  9
$CMATERIAL
347
DD
  9
$SOLIDHIST
280
     0
  9
$SHOWHIST
280
     1
  9
$DWFFRAME
280
     2
  9
$DGNFRAME
280
     0
  9
$REALWORLDSCALE
290
     1
  9
$INTERFERECOLOR
 62
     1
  9
$INTERFEREOBJVS
345
33
  9
$INTERFEREVPVS
346
F5
  9
$CSHADOW
280
     0
  9
$SHADOWPLANELOCATION
 40
0.0
  0
ENDSEC
  0
SECTION
  2
CLASSES
  0
CLASS
  1
ACDBDICTIONARYWDFLT
  2
AcDbDictionaryWithDefault
  3
ObjectDBX Classes
 90
        0
 91
        1
280
     0
281
     0
  0
CLASS
  1
VISUALSTYLE
  2
AcDbVisualStyle
  3
ObjectDBX Classes
 90
     4095
 91
       26
280
     0
281
     0
  0
CLASS
  1
MATERIAL
  2
AcDbMaterial
  3
ObjectDBX Classes
 90
     1153
 91
        3
280
     0
281
     0
  0
CLASS
  1
TABLESTYLE
  2
AcDbTableStyle
  3
ObjectDBX Classes
 90
     4095
 91
        1
280
     0
281
     0
  0
CLASS
  1
SCALE
  2
AcDbScale
  3
ObjectDBX Classes
 90
     1153
 91
       17
280
     0
281
     0
  0
CLASS
  1
MLEADERSTYLE
  2
AcDbMLeaderStyle
  3
ACDB_MLEADERSTYLE_CLASS
 90
     4095
 91
        1
280
     0
281
     0
  0
CLASS
  1
ACDBSECTIONVIEWSTYLE
  2
AcDbSectionViewStyle
  3
ObjectDBX Classes
 90
     1025
 91
        1
280
     0
281
     0
  0
CLASS
  1
ACDBDETAILVIEWSTYLE
  2
AcDbDetailViewStyle
  3
ObjectDBX Classes
 90
     1025
 91
        1
280
     0
281
     0
  0
CLASS
  1
DICTIONARYVAR
  2
AcDbDictionaryVar
  3
ObjectDBX Classes
 90
        0
 91
        9
280
     0
281
     0
  0
CLASS
  1
CELLSTYLEMAP
  2
AcDbCellStyleMap
  3
ObjectDBX Classes
 90
     1152
 91
        1
280
     0
281
     0
  0
CLASS
  1
EXACXREFPANELOBJECT
  2
ExAcXREFPanelObject
  3
EXAC_ESW
 90
     1025
 91
        1
280
     0
281
     0
  0
CLASS
  1
NPOCOLLECTION
  2
AcDbImpNonPersistentObjectsCollection
  3
ObjectDBX Classes
 90
     1153
 91
        1
280
     0
281
     0
  0
CLASS
  1
SORTENTSTABLE
  2
AcDbSortentsTable
  3
ObjectDBX Classes
 90
        0
 91
        1
280
     0
281
     0
  0
ENDSEC
  0
SECTION
  2
TABLES
  0
TABLE
  2
VPORT
  5
8
102
{ACAD_XDICTIONARY
360
15D
102
}
330
0
100
AcDbSymbolTable
 70
     1
  0
VPORT
  5
29
330
8
100
AcDbSymbolTableRecord
100
AcDbViewportTableRecord
  2
*Active
 70
     0
 10
0.0
 20
0.0
 11
1.0
 21
1.0
 12
5350.80748261604
 22
-48.54405776664134
 13
0.0
 23
0.0
 14
0.5
 24
0.5
 15
0.5
 25
0.5
 16
0.0
 26
0.0
 36
1.0
 17
223.999755859375
 27
-114.5
 37
0.0
 40
7680.481208858239
 41
2.292712066905615
 42
50.0
 43
0.0
 44
0.0
 50
0.0
 51
0.0
 71
     0
 72
   100
 73
     1
 74
     3
 75
     0
 76
     1
 77
     0
 78
     0
281
     0
 65
     1
110
0.0
120
0.0
130
0.0
111
1.0
121
0.0
131
0.0
112
0.0
122
1.0
132
0.0
 79
     0
146
0.0
348
2F
 60
     3
 61
     5
292
     1
282
     1
141
0.0
142
0.0
 63
   250
421
  3355443
1001
ACAD_NAV_VCDISPLAY
1070
     3
  0
ENDTAB
  0
TABLE
  2
LTYPE
  5
5
330
0
100
AcDbSymbolTable
 70
     1
  0
LTYPE
  5
14
330
5
100
AcDbSymbolTableRecord
100
AcDbLinetypeTableRecord
  2
ByBlock
 70
     0
  3

 72
    65
 73
     0
 40
0.0
  0
LTYPE
  5
15
330
5
100
AcDbSymbolTableRecord
100
AcDbLinetypeTableRecord
  2
ByLayer
 70
     0
  3

 72
    65
 73
     0
 40
0.0
  0
LTYPE
  5
16
330
5
100
AcDbSymbolTableRecord
100
AcDbLinetypeTableRecord
  2
Continuous
 70
     0
  3
Solid line
 72
    65
 73
     0
 40
0.0
  0
ENDTAB
  0
TABLE
  2
LAYER
  5
2
102
{ACAD_XDICTIONARY
360
135
102
}
330
0
100
AcDbSymbolTable
 70
     5
  0
LAYER
  5
10
102
{ACAD_XDICTIONARY
360
12A
102
}
330
2
100
AcDbSymbolTableRecord
100
AcDbLayerTableRecord
  2
0
 70
     0
 62
     7
  6
Continuous
370
    -3
390
F
347
ED
348
0
  0
LAYER
  5
3B
102
{ACAD_XDICTIONARY
360
12C
102
}
330
2
100
AcDbSymbolTableRecord
100
AcDbLayerTableRecord
  2
Furniture
 70
     0
 62
     7
  6
Continuous
370
    -3
390
F
347
ED
348
0
  0
LAYER
  5
11F
102
{ACAD_XDICTIONARY
360
12E
102
}
330
2
100
AcDbSymbolTableRecord
100
AcDbLayerTableRecord
  2
Text
 70
     0
 62
     7
  6
Continuous
370
    -3
390
F
347
ED
348
0
1001
AcAecLayerStandard
1000

1000

1001
AcCmTransparency
1071
        0
  0
LAYER
  5
122
102
{ACAD_XDICTIONARY
360
130
102
}
330
2
100
AcDbSymbolTableRecord
100
AcDbLayerTableRecord
  2
Dimension
 70
     0
 62
     7
  6
Continuous
370
    -3
390
F
347
ED
348
0
1001
AcAecLayerStandard
1000

1000

1001
AcCmTransparency
1071
        0
  0
LAYER
  5
204
330
2
100
AcDbSymbolTableRecord
100
AcDbLayerTableRecord
  2
Locked
 70
     0
 62
     7
  6
Continuous
370
    -3
390
F
347
ED
348
0
1001
AcAecLayerStandard
1000

1000

1001
AcCmTransparency
1071
        0
  0
ENDTAB
  0
TABLE
  2
STYLE
  5
3
330
0
100
AcDbSymbolTable
 70
     1
  0
STYLE
  5
11
330
3
100
AcDbSymbolTableRecord
100
AcDbTextStyleTableRecord
  2
Standard
 70
     0
 40
0.0
 41
1.000099999999999
 50
0.0
 71
     0
 42
0.2
  3
apercu_regular-webfont.ttf
  4

1001
ACAD
1000
Apercu
1071
        2
  0
ENDTAB
  0
TABLE
  2
VIEW
  5
6
330
0
100
AcDbSymbolTable
 70
     1
  0
ENDTAB
  0
TABLE
  2
UCS
  5
7
330
0
100
AcDbSymbolTable
 70
     0
  0
ENDTAB
  0
TABLE
  2
APPID
  5
9
330
0
100
AcDbSymbolTable
 70
     7
  0
APPID
  5
12
330
9
100
AcDbSymbolTableRecord
100
AcDbRegAppTableRecord
  2
ACAD
 70
     0
  0
APPID
  5
120
330
9
100
AcDbSymbolTableRecord
100
AcDbRegAppTableRecord
  2
AcAecLayerStandard
 70
     0
  0
APPID
  5
121
330
9
100
AcDbSymbolTableRecord
100
AcDbRegAppTableRecord
  2
AcCmTransparency
 70
     0
  0
APPID
  5
123
330
9
100
AcDbSymbolTableRecord
100
AcDbRegAppTableRecord
  2
ACAD_EXEMPT_FROM_CAD_STANDARDS
 70
     0
  0
APPID
  5
13B
330
9
100
AcDbSymbolTableRecord
100
AcDbRegAppTableRecord
  2
ACAD_NAV_VCDISPLAY
 70
     0
  0
APPID
  5
19B
330
9
100
AcDbSymbolTableRecord
100
AcDbRegAppTableRecord
  2
ACAD_MLEADERVER
 70
     0
  0
APPID
  5
202
330
9
100
AcDbSymbolTableRecord
100
AcDbRegAppTableRecord
  2
AcadAnnoPO
 70
     0
  0
ENDTAB
  0
TABLE
  2
DIMSTYLE
  5
A
330
0
100
AcDbSymbolTable
 70
     1
100
AcDbDimStyleTable
 71
     1
340
27
  0
DIMSTYLE
105
27
330
A
100
AcDbSymbolTableRecord
100
AcDbDimStyleTableRecord
  2
Standard
 70
     0
340
11
  0
ENDTAB
  0
TABLE
  2
BLOCK_RECORD
  5
1
330
0
100
AcDbSymbolTable
 70
     3
  0
BLOCK_RECORD
  5
1F
330
1
100
AcDbSymbolTableRecord
100
AcDbBlockTableRecord
  2
*Model_Space
340
22
 70
     0
280
     1
281
     0
  0
BLOCK_RECORD
  5
1B
330
1
100
AcDbSymbolTableRecord
100
AcDbBlockTableRecord
  2
*Paper_Space
340
1E
 70
     0
280
     1
281
     0
  0
BLOCK_RECORD
  5
23
330
1
100
AcDbSymbolTableRecord
100
AcDbBlockTableRecord
  2
*Paper_Space0
340
26
 70
     0
280
     1
281
     0
  0
BLOCK_RECORD
  5
45
330
1
100
AcDbSymbolTableRecord
100
AcDbBlockTableRecord
  2
block 2
340
0
102
{BLKREFS
331
46
102
}
 70
     0
280
     1
281
     0
  0
BLOCK_RECORD
  5
205
102
{ACAD_XDICTIONARY
360
207
102
}
330
1
100
AcDbSymbolTableRecord
100
AcDbBlockTableRecord
  2
A$C44844FEA
340
0
 70
     1
280
     1
281
     0
  0
ENDTAB
  0
ENDSEC
  0
SECTION
  2
BLOCKS
  0
BLOCK
  5
20
330
1F
100
AcDbEntity
  8
0
100
AcDbBlockBegin
  2
*Model_Space
 70
     0
 10
0.0
 20
0.0
 30
0.0
  3
*Model_Space
  1

  0
ENDBLK
  5
21
330
1F
100
AcDbEntity
  8
0
100
AcDbBlockEnd
  0
BLOCK
  5
1C
330
1B
100
AcDbEntity
 67
     1
  8
0
100
AcDbBlockBegin
  2
*Paper_Space
 70
     0
 10
0.0
 20
0.0
 30
0.0
  3
*Paper_Space
  1

  0
ENDBLK
  5
1D
330
1B
100
AcDbEntity
 67
     1
  8
0
100
AcDbBlockEnd
  0
BLOCK
  5
24
330
23
100
AcDbEntity
 67
     1
  8
0
100
AcDbBlockBegin
  2
*Paper_Space0
 70
     0
 10
0.0
 20
0.0
 30
0.0
  3
*Paper_Space0
  1

  0
ENDBLK
  5
25
330
23
100
AcDbEntity
 67
     1
  8
0
100
AcDbBlockEnd
  0
BLOCK
  5
47
330
45
100
AcDbEntity
  8
0
100
AcDbBlockBegin
  2
block 2
 70
     0
 10
0.0
 20
0.0
 30
0.0
  3
block 2
  1

  0
SPLINE
  5
49
330
45
100
AcDbEntity
  8
Furniture
 62
     7
370
     9
100
AcDbSpline
210
0.0
220
0.0
230
1.0
 70
    11
 71
     3
 72
    62
 73
    58
 74
     0
 42
0.000000001
 43
0.0000000001
 40
0.0
 40
0.0
 40
0.0
 40
0.0
 40
1.0
 40
1.0
 40
1.0
 40
2.0
 40
2.0
 40
2.0
 40
3.0
 40
3.0
 40
3.0
 40
4.0
 40
4.0
 40
4.0
 40
5.0
 40
5.0
 40
5.0
 40
6.0
 40
6.0
 40
6.0
 40
7.0
 40
7.0
 40
7.0
 40
8.0
 40
8.0
 40
8.0
 40
9.0
 40
9.0
 40
9.0
 40
10.0
 40
10.0
 40
10.0
 40
11.0
 40
11.0
 40
11.0
 40
12.0
 40
12.0
 40
12.0
 40
13.0
 40
13.0
 40
13.0
 40
14.0
 40
14.0
 40
14.0
 40
15.0
 40
15.0
 40
15.0
 40
16.0
 40
16.0
 40
16.0
 40
17.0
 40
17.0
 40
17.0
 40
18.0
 40
18.0
 40
18.0
 40
19.0
 40
19.0
 40
19.0
 40
19.0
 10
196.72802734375
 20
-123.013671875
 30
0.0
 10
196.72802734375
 20
-123.013671875
 30
0.0
 10
186.24755859375
 20
-122.5322265625
 30
0.0
 10
185.56201171875
 20
-123.837890625
 30
0.0
 10
184.87451171875
 20
-125.1416015625
 30
0.0
 10
183.98193359375
 20
-131.802734375
 30
0.0
 10
184.60107421875
 20
-134.6171875
 30
0.0
 10
185.21826171875
 20
-137.4326171875
 30
0.0
 10
186.45458984375
 20
-139.767578125
 30
0.0
 10
186.31591796875
 20
-141.140625
 30
0.0
 10
186.18115234375
 20
-142.513671875
 30
0.0
 10
186.18115234375
 20
-143.26953125
 30
0.0
 10
185.69873046875
 20
-143.26953125
 30
0.0
 10
185.21826171875
 20
-143.26953125
 30
0.0
 10
182.60888671875
 20
-143.1318359375
 30
0.0
 10
181.64794921875
 20
-144.57421875
 30
0.0
 10
180.68701171875
 20
-146.015625
 30
0.0
 10
180.54833984375
 20
-147.251953125
 30
0.0
 10
181.30419921875
 20
-148.212890625
 30
0.0
 10
182.06005859375
 20
-149.173828125
 30
0.0
 10
187.04443359375
 20
-153.6376953125
 30
0.0
 10
188.77490234375
 20
-153.84375
 30
0.0
 10
190.50537109375
 20
-154.0498046875
 30
0.0
 10
195.58740234375
 20
-154.5302734375
 30
0.0
 10
195.58740234375
 20
-154.5302734375
 30
0.0
 10
195.58740234375
 20
-154.5302734375
 30
0.0
 10
203.27685546875
 20
-154.32421875
 30
0.0
 10
204.51318359375
 20
-153.775390625
 30
0.0
 10
205.74951171875
 20
-153.2255859375
 30
0.0
 10
209.59326171875
 20
-150.2041015625
 30
0.0
 10
210.21240234375
 20
-149.2431640625
 30
0.0
 10
210.82958984375
 20
-148.28125
 30
0.0
 10
211.51708984375
 20
-147.1142578125
 30
0.0
 10
210.96630859375
 20
-145.947265625
 30
0.0
 10
210.96630859375
 20
-145.947265625
 30
0.0
 10
210.65966796875
 20
-144.986328125
 30
0.0
 10
209.62841796875
 20
-144.298828125
 30
0.0
 10
208.59912109375
 20
-143.6123046875
 30
0.0
 10
206.70654296875
 20
-143.310546875
 30
0.0
 10
206.70654296875
 20
-143.310546875
 30
0.0
 10
206.70654296875
 20
-143.310546875
 30
0.0
 10
206.36669921875
 20
-142.3076171875
 30
0.0
 10
206.40185546875
 20
-141.5869140625
 30
0.0
 10
206.43505859375
 20
-140.8662109375
 30
0.0
 10
206.74560546875
 20
-138.943359375
 30
0.0
 10
207.36279296875
 20
-137.9140625
 30
0.0
 10
207.97998046875
 20
-136.8828125
 30
0.0
 10
208.83935546875
 20
-134.1708984375
 30
0.0
 10
208.77099609375
 20
-132.0078125
 30
0.0
 10
208.70068359375
 20
-129.845703125
 30
0.0
 10
208.46044921875
 20
-125.279296875
 30
0.0
 10
208.46044921875
 20
-125.279296875
 30
0.0
 10
208.46044921875
 20
-125.279296875
 30
0.0
 10
208.46044921875
 20
-123.5966796875
 30
0.0
 10
205.20068359375
 20
-123.322265625
 30
0.0
 10
203.02685546875
 20
-123.138671875
 30
0.0
 10
196.72802734375
 20
-123.013671875
 30
0.0
 10
196.72802734375
 20
-123.013671875
 30
0.0
  0
SPLINE
  5
4A
330
45
100
AcDbEntity
  8
Furniture
 62
     7
370
     9
100
AcDbSpline
210
0.0
220
0.0
230
1.0
 70
     8
 71
     3
 72
    14
 73
    10
 74
     0
 42
0.000000001
 43
0.0000000001
 40
0.0
 40
0.0
 40
0.0
 40
0.0
 40
1.0
 40
1.0
 40
1.0
 40
2.0
 40
2.0
 40
2.0
 40
3.0
 40
3.0
 40
3.0
 40
3.0
 10
185.82177734375
 20
-143.244140625
 30
0.0
 10
185.82177734375
 20
-143.244140625
 30
0.0
 10
189.39208984375
 20
-143.984375
 30
0.0
 10
189.87451171875
 20
-145.4326171875
 30
0.0
 10
187.28857421875
 20
-145.76171875
 30
0.0
 10
186.30419921875
 20
-146.11328125
 30
0.0
 10
184.54052734375
 20
-146.427734375
 30
0.0
 10
182.74560546875
 20
-146.748046875
 30
0.0
 10
181.85302734375
 20
-147.1181640625
 30
0.0
 10
181.13232421875
 20
-147.962890625
 30
0.0
  0
SPLINE
  5
4B
330
45
100
AcDbEntity
  8
Furniture
 62
     7
370
     9
100
AcDbSpline
210
0.0
220
0.0
230
1.0
 70
     8
 71
     3
 72
    11
 73
     7
 74
     0
 42
0.000000001
 43
0.0000000001
 40
0.0
 40
0.0
 40
0.0
 40
0.0
 40
1.0
 40
1.0
 40
1.0
 40
2.0
 40
2.0
 40
2.0
 40
2.0
 10
206.70654296875
 20
-143.310546875
 30
0.0
 10
206.70654296875
 20
-143.310546875
 30
0.0
 10
203.44873046875
 20
-143.44140625
 30
0.0
 10
202.75146484375
 20
-145.923828125
 30
0.0
 10
203.72802734375
 20
-146.2109375
 30
0.0
 10
210.74560546875
 20
-147.390625
 30
0.0
 10
210.61669921875
 20
-148.580078125
 30
0.0
  0
POLYLINE
  5
4C
330
45
100
AcDbEntity
  8
Furniture
 62
     7
370
     9
100
AcDb2dPolyline
 66
     1
 10
0.0
 20
0.0
 30
0.0
  0
VERTEX
  5
4D
330
4C
100
AcDbEntity
  8
Furniture
 62
     7
370
     9
100
AcDbVertex
100
AcDb2dVertex
 10
202.75146484375
 20
-145.923828125
 30
0.0
  0
VERTEX
  5
4E
330
4C
100
AcDbEntity
  8
Furniture
 62
     7
370
     9
100
AcDbVertex
100
AcDb2dVertex
 10
189.87451171875
 20
-145.4326171875
 30
0.0
  0
SEQEND
  5
4F
330
4C
100
AcDbEntity
  8
Furniture
370
     9
  0
POLYLINE
  5
50
330
45
100
AcDbEntity
  8
Furniture
 62
     7
370
     9
100
AcDb2dPolyline
 66
     1
 10
0.0
 20
0.0
 30
0.0
  0
VERTEX
  5
51
330
50
100
AcDbEntity
  8
Furniture
 62
     7
370
     9
100
AcDbVertex
100
AcDb2dVertex
 10
182.76708984375
 20
-149.6708984375
 30
0.0
  0
VERTEX
  5
52
330
50
100
AcDbEntity
  8
Furniture
 62
     7
370
     9
100
AcDbVertex
100
AcDb2dVertex
 10
179.93115234375
 20
-165.962890625
 30
0.0
  0
VERTEX
  5
53
330
50
100
AcDbEntity
  8
Furniture
 62
     7
370
     9
100
AcDbVertex
100
AcDb2dVertex
 10
181.34912109375
 20
-165.962890625
 30
0.0
  0
VERTEX
  5
54
330
50
100
AcDbEntity
  8
Furniture
 62
     7
370
     9
100
AcDbVertex
100
AcDb2dVertex
 10
183.26123046875
 20
-156.658203125
 30
0.0
  0
VERTEX
  5
55
330
50
100
AcDbEntity
  8
Furniture
 62
     7
370
     9
100
AcDbVertex
100
AcDb2dVertex
 10
209.14794921875
 20
-156.830078125
 30
0.0
  0
VERTEX
  5
56
330
50
100
AcDbEntity
  8
Furniture
 62
     7
370
     9
100
AcDbVertex
100
AcDb2dVertex
 10
210.61865234375
 20
-165.9970703125
 30
0.0
  0
VERTEX
  5
57
330
50
100
AcDbEntity
  8
Furniture
 62
     7
370
     9
100
AcDbVertex
100
AcDb2dVertex
 10
212.20458984375
 20
-165.962890625
 30
0.0
  0
VERTEX
  5
58
330
50
100
AcDbEntity
  8
Furniture
 62
     7
370
     9
100
AcDbVertex
100
AcDb2dVertex
 10
209.58154296875
 20
-149.953125
 30
0.0
  0
SEQEND
  5
59
330
50
100
AcDbEntity
  8
Furniture
370
     9
  0
POLYLINE
  5
5A
330
45
100
AcDbEntity
  8
Furniture
370
     0
100
AcDb2dPolyline
 66
     1
 10
0.0
 20
0.0
 30
0.0
  0
VERTEX
  5
5B
330
5A
100
AcDbEntity
  8
Furniture
370
     0
100
AcDbVertex
100
AcDb2dVertex
 10
208.07958984375
 20
-151.2724609375
 30
0.0
  0
VERTEX
  5
D7
330
5A
100
AcDbEntity
  8
0
100
AcDbVertex
100
AcDb2dVertex
 10
208.07958984375
 20
-151.2724609375
 30
0.0
  0
SEQEND
  5
5C
330
5A
100
AcDbEntity
  8
Furniture
370
     0
  0
POLYLINE
  5
5D
330
45
100
AcDbEntity
  8
Furniture
 62
     7
370
     9
100
AcDb2dPolyline
 66
     1
 10
0.0
 20
0.0
 30
0.0
  0
VERTEX
  5
5E
330
5D
100
AcDbEntity
  8
Furniture
 62
     7
370
     9
100
AcDbVertex
100
AcDb2dVertex
 10
208.07958984375
 20
-151.2724609375
 30
0.0
  0
VERTEX
  5
5F
330
5D
100
AcDbEntity
  8
Furniture
 62
     7
370
     9
100
AcDbVertex
100
AcDb2dVertex
 10
208.73583984375
 20
-154.5302734375
 30
0.0
  0
VERTEX
  5
60
330
5D
100
AcDbEntity
  8
Furniture
 62
     7
370
     9
100
AcDbVertex
100
AcDb2dVertex
 10
183.63818359375
 20
-154.255859375
 30
0.0
  0
VERTEX
  5
61
330
5D
100
AcDbEntity
  8
Furniture
 62
     7
370
     9
100
AcDbVertex
100
AcDb2dVertex
 10
184.32373046875
 20
-151.0244140625
 30
0.0
  0
SEQEND
  5
62
330
5D
100
AcDbEntity
  8
Furniture
370
     9
  0
POLYLINE
  5
63
330
45
100
AcDbEntity
  8
Furniture
 62
     7
370
     9
100
AcDb2dPolyline
 66
     1
 10
0.0
 20
0.0
 30
0.0
  0
VERTEX
  5
64
330
63
100
AcDbEntity
  8
Furniture
 62
     7
370
     9
100
AcDbVertex
100
AcDb2dVertex
 10
209.47802734375
 20
-158.88671875
 30
0.0
  0
VERTEX
  5
65
330
63
100
AcDbEntity
  8
Furniture
 62
     7
370
     9
100
AcDbVertex
100
AcDb2dVertex
 10
205.64599609375
 20
-156.8076171875
 30
0.0
  0
SEQEND
  5
66
330
63
100
AcDbEntity
  8
Furniture
370
     9
  0
POLYLINE
  5
67
330
45
100
AcDbEntity
  8
Furniture
 62
     7
370
     9
100
AcDb2dPolyline
 66
     1
 10
0.0
 20
0.0
 30
0.0
  0
VERTEX
  5
68
330
67
100
AcDbEntity
  8
Furniture
 62
     7
370
     9
100
AcDbVertex
100
AcDb2dVertex
 10
186.48779296875
 20
-156.6806640625
 30
0.0
  0
VERTEX
  5
69
330
67
100
AcDbEntity
  8
Furniture
 62
     7
370
     9
100
AcDbVertex
100
AcDb2dVertex
 10
182.88037109375
 20
-158.51171875
 30
0.0
  0
SEQEND
  5
6A
330
67
100
AcDbEntity
  8
Furniture
370
     9
  0
SPLINE
  5
6B
330
45
100
AcDbEntity
  8
Furniture
 62
     7
370
     9
100
AcDbSpline
210
0.0
220
0.0
230
1.0
 70
     8
 71
     3
 72
    26
 73
    22
 74
     0
 42
0.000000001
 43
0.0000000001
 40
0.0
 40
0.0
 40
0.0
 40
0.0
 40
1.0
 40
1.0
 40
1.0
 40
2.0
 40
2.0
 40
2.0
 40
3.0
 40
3.0
 40
3.0
 40
4.0
 40
4.0
 40
4.0
 40
5.0
 40
5.0
 40
5.0
 40
6.0
 40
6.0
 40
6.0
 40
7.0
 40
7.0
 40
7.0
 40
7.0
 10
206.48388671875
 20
-140.828125
 30
0.0
 10
206.48388671875
 20
-140.828125
 30
0.0
 10
207.36279296875
 20
-140.828125
 30
0.0
 10
207.36279296875
 20
-140.828125
 30
0.0
 10
207.36279296875
 20
-140.828125
 30
0.0
 10
210.61865234375
 20
-141.1748046875
 30
0.0
 10
210.61865234375
 20
-141.1748046875
 30
0.0
 10
210.61865234375
 20
-141.1748046875
 30
0.0
 10
210.78466796875
 20
-141.318359375
 30
0.0
 10
210.69287109375
 20
-141.521484375
 30
0.0
 10
210.60107421875
 20
-141.724609375
 30
0.0
 10
210.07373046875
 20
-142.2734375
 30
0.0
 10
209.85693359375
 20
-142.341796875
 30
0.0
 10
209.64013671875
 20
-142.4111328125
 30
0.0
 10
209.13623046875
 20
-142.353515625
 30
0.0
 10
208.98779296875
 20
-142.341796875
 30
0.0
 10
208.83935546875
 20
-142.3310546875
 30
0.0
 10
207.94677734375
 20
-142.154296875
 30
0.0
 10
207.94677734375
 20
-142.154296875
 30
0.0
 10
207.94677734375
 20
-142.154296875
 30
0.0
 10
208.07373046875
 20
-143.712890625
 30
0.0
 10
208.07373046875
 20
-143.712890625
 30
0.0
  0
SPLINE
  5
6C
330
45
100
AcDbEntity
  8
Furniture
 62
     7
370
     9
100
AcDbSpline
210
0.0
220
0.0
230
1.0
 70
     8
 71
     3
 72
    26
 73
    22
 74
     0
 42
0.000000001
 43
0.0000000001
 40
0.0
 40
0.0
 40
0.0
 40
0.0
 40
1.0
 40
1.0
 40
1.0
 40
2.0
 40
2.0
 40
2.0
 40
3.0
 40
3.0
 40
3.0
 40
4.0
 40
4.0
 40
4.0
 40
5.0
 40
5.0
 40
5.0
 40
6.0
 40
6.0
 40
6.0
 40
7.0
 40
7.0
 40
7.0
 40
7.0
 10
186.28662109375
 20
-140.412109375
 30
0.0
 10
186.28662109375
 20
-140.412109375
 30
0.0
 10
185.51513671875
 20
-140.412109375
 30
0.0
 10
185.51513671875
 20
-140.412109375
 30
0.0
 10
185.51513671875
 20
-140.412109375
 30
0.0
 10
182.26123046875
 20
-140.7587890625
 30
0.0
 10
182.26123046875
 20
-140.7587890625
 30
0.0
 10
182.26123046875
 20
-140.7587890625
 30
0.0
 10
182.09326171875
 20
-140.90234375
 30
0.0
 10
182.18505859375
 20
-141.10546875
 30
0.0
 10
182.27685546875
 20
-141.30859375
 30
0.0
 10
182.80419921875
 20
-141.857421875
 30
0.0
 10
183.02099609375
 20
-141.92578125
 30
0.0
 10
183.23779296875
 20
-141.994140625
 30
0.0
 10
183.74169921875
 20
-141.9375
 30
0.0
 10
183.89013671875
 20
-141.92578125
 30
0.0
 10
184.04052734375
 20
-141.9140625
 30
0.0
 10
184.93115234375
 20
-141.73828125
 30
0.0
 10
184.93115234375
 20
-141.73828125
 30
0.0
 10
184.93115234375
 20
-141.73828125
 30
0.0
 10
184.81787109375
 20
-143.27734375
 30
0.0
 10
184.81787109375
 20
-143.27734375
 30
0.0
  0
SPLINE
  5
6D
330
45
100
AcDbEntity
  8
Furniture
 62
     7
370
     9
100
AcDbSpline
210
0.0
220
0.0
230
1.0
 70
     8
 71
     3
 72
    11
 73
     7
 74
     0
 42
0.000000001
 43
0.0000000001
 40
0.0
 40
0.0
 40
0.0
 40
0.0
 40
1.0
 40
1.0
 40
1.0
 40
2.0
 40
2.0
 40
2.0
 40
2.0
 10
184.52294921875
 20
-134.18359375
 30
0.0
 10
184.52294921875
 20
-134.18359375
 30
0.0
 10
190.99169921875
 20
-135.02734375
 30
0.0
 10
195.99365234375
 20
-135.15234375
 30
0.0
 10
200.99560546875
 20
-135.27734375
 30
0.0
 10
208.54052734375
 20
-134.443359375
 30
0.0
 10
208.54052734375
 20
-134.443359375
 30
0.0
  0
ENDBLK
  5
48
330
45
100
AcDbEntity
  8
0
100
AcDbBlockEnd
  0
BLOCK
  5
209
330
205
100
AcDbEntity
  8
0
100
AcDbBlockBegin
  2
A$C44844FEA
 70
     0
 10
0.0
 20
0.0
 30
0.0
  3
A$C44844FEA
  1

  0
TEXT
  5
206
330
205
100
AcDbEntity
  8
Dimension
100
AcDbText
 10
8.138590494210802
 20
82.40608878040802
 30
0.0
 40
226.2274036186056
  1
119
 41
1.000099999999999
100
AcDbText
  0
ENDBLK
  5
20A
330
205
100
AcDbEntity
  8
0
100
AcDbBlockEnd
  0
ENDSEC
  0
SECTION
  2
ENTITIES
  0
MTEXT
  5
3C
330
1F
100
AcDbEntity
  8
Text
100
AcDbMText
 10
36.72489606357795
 20
1981.990191942546
 30
0.0
 40
121.6376566073447
 41
0.0
 46
0.0
 71
     7
 72
     1
  1
Armchair
 73
     1
 44
1.0
  0
POLYLINE
  5
3D
330
1F
100
AcDbEntity
  8
0
100
AcDb2dPolyline
 66
     1
 10
0.0
 20
0.0
 30
0.0
  0
VERTEX
  5
3E
330
3D
100
AcDbEntity
  8
0
100
AcDbVertex
100
AcDb2dVertex
 10
36.72489606357795
 20
2407.464687229003
 30
0.0
  0
VERTEX
  5
3F
330
3D
100
AcDbEntity
  8
0
100
AcDbVertex
100
AcDb2dVertex
 10
10774.42245240859
 20
2407.464687229003
 30
0.0
  0
SEQEND
  5
40
330
3D
100
AcDbEntity
  8
0
  0
MTEXT
  5
41
330
1F
100
AcDbEntity
  8
Text
100
AcDbMText
 10
36.72489606357795
 20
3280.444719629047
 30
0.0
 40
100.1721877942839
 41
0.0
 46
0.0
 71
     7
 72
     1
  1
SWEENEY
 73
     1
 44
1.0
  0
MTEXT
  5
42
102
{ACAD_XDICTIONARY
360
181
102
}
330
1F
100
AcDbEntity
  8
0
100
AcDbMText
 10
36.72489606357795
 20
3000.555952237546
 30
0.0
 40
100.1721877942839
 41
0.0
 46
0.0
 71
     7
 72
     1
  1
\fApercu Medium|b0|i0|c0|p34;\W1.0004;—
 73
     1
 44
1.0
  0
MTEXT
  5
43
330
1F
100
AcDbEntity
  8
Text
100
AcDbMText
 10
36.72489606357795
 20
2705.931870489652
 30
0.0
 40
128.7928128783649
 41
0.0
 46
0.0
 71
     7
 72
     1
  1
DIMENSIONS 
 73
     1
 44
1.0
  0
MTEXT
  5
44
330
1F
100
AcDbEntity
  8
Text
100
AcDbMText
 10
6691.034614053926
 20
732.5711733974007
 30
0.0
 40
93.01703152326359
 41
0.0
 46
0.0
 71
     7
 72
     1
  1
{\fApercu|b0|i0|c0|p34;\W1.0004;SW70}
 73
     1
 44
1.0
  0
INSERT
  5
46
330
1F
100
AcDbEntity
  8
Furniture
100
AcDbBlockReference
  2
block 2
 10
636.0740456209646
 20
4469.956567534187
 30
0.0
 41
21.0445772677067
 42
21.0445772677067
 43
21.0445772677067
  0
POLYLINE
  5
6E
330
1F
100
AcDbEntity
  8
Furniture
100
AcDb2dPolyline
 66
     1
 10
0.0
 20
0.0
 30
0.0
  0
VERTEX
  5
6F
330
6E
100
AcDbEntity
  8
Furniture
100
AcDbVertex
100
AcDb2dVertex
 10
6641.464769942882
 20
1332.218317457114
 30
0.0
  0
VERTEX
  5
70
330
6E
100
AcDbEntity
  8
Furniture
100
AcDbVertex
100
AcDb2dVertex
 10
6691.034614053926
 20
1320.66846157386
 30
0.0
  0
VERTEX
  5
71
330
6E
100
AcDbEntity
  8
Furniture
100
AcDbVertex
100
AcDb2dVertex
 10
6568.836316755309
 20
979.3928267032187
 30
0.0
  0
VERTEX
  5
72
330
6E
100
AcDbEntity
  8
Furniture
100
AcDbVertex
100
AcDb2dVertex
 10
6518.074494634962
 20
979.3928267032187
 30
0.0
  0
VERTEX
  5
73
330
6E
100
AcDbEntity
  8
Furniture
100
AcDbVertex
100
AcDb2dVertex
 10
6641.464769942882
 20
1332.218317457114
 30
0.0
  0
SEQEND
  5
74
330
6E
100
AcDbEntity
  8
Furniture
  0
POLYLINE
  5
75
330
1F
100
AcDbEntity
  8
Furniture
100
AcDb2dPolyline
 66
     1
 10
0.0
 20
0.0
 30
0.0
  0
VERTEX
  5
76
330
75
100
AcDbEntity
  8
Furniture
100
AcDbVertex
100
AcDb2dVertex
 10
7221.423725504097
 20
979.7627509130025
 30
0.0
  0
VERTEX
  5
77
330
75
100
AcDbEntity
  8
Furniture
100
AcDbVertex
100
AcDb2dVertex
 10
7275.5148655125
 20
979.2284159433148
 30
0.0
  0
VERTEX
  5
78
330
75
100
AcDbEntity
  8
Furniture
100
AcDbVertex
100
AcDb2dVertex
 10
7117.639433314725
 20
1427.905379721218
 30
0.0
  0
VERTEX
  5
79
330
75
100
AcDbEntity
  8
Furniture
100
AcDbVertex
100
AcDb2dVertex
 10
7062.274109917066
 20
1433.659756317856
 30
0.0
  0
VERTEX
  5
7A
330
75
100
AcDbEntity
  8
Furniture
100
AcDbVertex
100
AcDb2dVertex
 10
7221.423725504097
 20
979.7627509130025
 30
0.0
  0
SEQEND
  5
7B
330
75
100
AcDbEntity
  8
Furniture
  0
POLYLINE
  5
7C
330
1F
100
AcDbEntity
  8
Furniture
100
AcDb2dPolyline
 66
     1
 10
0.0
 20
0.0
 30
0.0
  0
VERTEX
  5
7D
330
7C
100
AcDbEntity
  8
Furniture
100
AcDbVertex
100
AcDb2dVertex
 10
7168.894487714782
 20
1121.42317191525
 30
0.0
  0
VERTEX
  5
7E
330
7C
100
AcDbEntity
  8
Furniture
100
AcDbVertex
100
AcDb2dVertex
 10
6619.598138875658
 20
1121.197107120383
 30
0.0
  0
SEQEND
  5
7F
330
7C
100
AcDbEntity
  8
Furniture
  0
POLYLINE
  5
80
330
1F
100
AcDbEntity
  8
Furniture
100
AcDb2dPolyline
 66
     1
 10
0.0
 20
0.0
 30
0.0
  0
VERTEX
  5
81
330
80
100
AcDbEntity
  8
Furniture
100
AcDbVertex
100
AcDb2dVertex
 10
6976.944925526911
 20
1173.027599180106
 30
0.0
  0
VERTEX
  5
82
330
80
100
AcDbEntity
  8
Furniture
100
AcDbVertex
100
AcDb2dVertex
 10
6976.944925526911
 20
1121.42317191525
 30
0.0
  0
SEQEND
  5
83
330
80
100
AcDbEntity
  8
Furniture
  0
POLYLINE
  5
84
330
1F
100
AcDbEntity
  8
Furniture
100
AcDb2dPolyline
 66
     1
 10
0.0
 20
0.0
 30
0.0
  0
VERTEX
  5
85
330
84
100
AcDbEntity
  8
Furniture
100
AcDbVertex
100
AcDb2dVertex
 10
6638.176554744802
 20
1173.027599180106
 30
0.0
  0
VERTEX
  5
86
330
84
100
AcDbEntity
  8
Furniture
100
AcDbVertex
100
AcDb2dVertex
 10
7153.645389733691
 20
1173.027599180106
 30
0.0
  0
SEQEND
  5
87
330
84
100
AcDbEntity
  8
Furniture
  0
SPLINE
  5
88
330
1F
100
AcDbEntity
  8
Furniture
100
AcDbSpline
210
0.0
220
0.0
230
1.0
 70
     8
 71
     3
 72
    20
 73
    16
 74
     0
 42
0.000000001
 43
0.0000000001
 40
0.0
 40
0.0
 40
0.0
 40
0.0
 40
1.0
 40
1.0
 40
1.0
 40
2.0
 40
2.0
 40
2.0
 40
3.0
 40
3.0
 40
3.0
 40
4.0
 40
4.0
 40
4.0
 40
5.0
 40
5.0
 40
5.0
 40
5.0
 10
7062.274109917066
 20
1433.659756317856
 30
0.0
 10
7062.274109917066
 20
1433.659756317856
 30
0.0
 10
6886.683418339636
 20
1453.142431366475
 30
0.0
 10
6877.517518474991
 20
1454.704333585563
 30
0.0
 10
6870.036828899362
 20
1455.978516974818
 30
0.0
 10
6856.185222377454
 20
1479.776974470917
 30
0.0
 10
6858.363664946181
 20
1483.763935398587
 30
0.0
 10
6860.706518274811
 20
1484.914810717915
 30
0.0
 10
6871.269909598641
 20
1483.2296004289
 30
0.0
 10
6937.198624320128
 20
1476.324348512933
 30
0.0
 10
7004.565933190775
 20
1469.254685837063
 30
0.0
 10
7106.08957743147
 20
1458.465229718366
 30
0.0
 10
7106.08957743147
 20
1458.465229718366
 30
0.0
 10
7106.08957743147
 20
1458.465229718366
 30
0.0
 10
7117.639433314725
 20
1427.905379721218
 30
0.0
 10
7117.639433314725
 20
1427.905379721218
 30
0.0
  0
SPLINE
  5
89
330
1F
100
AcDbEntity
  8
Furniture
100
AcDbSpline
210
0.0
220
0.0
230
1.0
 70
     8
 71
     3
 72
    35
 73
    31
 74
     0
 42
0.000000001
 43
0.0000000001
 40
0.0
 40
0.0
 40
0.0
 40
0.0
 40
1.0
 40
1.0
 40
1.0
 40
2.0
 40
2.0
 40
2.0
 40
3.0
 40
3.0
 40
3.0
 40
4.0
 40
4.0
 40
4.0
 40
5.0
 40
5.0
 40
5.0
 40
6.0
 40
6.0
 40
6.0
 40
7.0
 40
7.0
 40
7.0
 40
8.0
 40
8.0
 40
8.0
 40
9.0
 40
9.0
 40
9.0
 40
10.0
 40
10.0
 40
10.0
 40
10.0
 10
6617.378593616954
 20
1263.330209057355
 30
0.0
 10
6617.378593616954
 20
1263.330209057355
 30
0.0
 10
6535.378727114855
 20
1272.249492782145
 30
0.0
 10
6525.020849240904
 20
1318.366710935205
 30
0.0
 10
6514.621868676979
 20
1364.483929088265
 30
0.0
 10
6544.585729669475
 20
1389.844288803451
 30
0.0
 10
6552.682959594746
 20
1395.619216745078
 30
0.0
 10
6560.739086830039
 20
1401.373593341716
 30
0.0
 10
6584.948571225898
 20
1405.422208304351
 30
0.0
 10
6597.649302428478
 20
1405.997645964015
 30
0.0
 10
6610.308930941082
 20
1406.573083623679
 30
0.0
 10
6617.378593616954
 20
1405.997645964015
 30
0.0
 10
6617.378593616954
 20
1405.997645964015
 30
0.0
 10
6617.378593616954
 20
1405.997645964015
 30
0.0
 10
6644.341958241202
 20
1423.87731610357
 30
0.0
 10
6663.372503700085
 20
1427.905379721218
 30
0.0
 10
6682.40304915897
 20
1431.933443338864
 30
0.0
 10
6740.60445816497
 20
1442.311872557802
 30
0.0
 10
6768.842006178473
 20
1441.736434898138
 30
0.0
 10
6797.120656881957
 20
1441.160997238474
 30
0.0
 10
6876.777670055424
 20
1436.536944616175
 30
0.0
 10
6896.013728964186
 20
1433.659756317856
 30
0.0
 10
6915.290890562926
 20
1430.782568019537
 30
0.0
 10
6978.136903536214
 20
1424.452753763234
 30
0.0
 10
6995.975470985793
 20
1417.547501847268
 30
0.0
 10
6997.783989344738
 20
1416.8076534277
 30
0.0
 10
6999.551405013704
 20
1416.108907698108
 30
0.0
 10
7001.195512612745
 20
1415.389610623529
 30
0.0
 10
7016.115789074028
 20
1409.039245022238
 30
0.0
 10
7025.404997008601
 20
1402.545020006032
 30
0.0
 10
7025.404997008601
 20
1402.545020006032
 30
0.0
  0
SPLINE
  5
8A
330
1F
100
AcDbEntity
  8
Furniture
100
AcDbSpline
210
0.0
220
0.0
230
1.0
 70
     8
 71
     3
 72
     8
 73
     4
 74
     0
 42
0.000000001
 43
0.0000000001
 40
0.0
 40
0.0
 40
0.0
 40
0.0
 40
1.0
 40
1.0
 40
1.0
 40
1.0
 10
7022.116781810523
 20
1438.139949525239
 30
0.0
 10
7022.116781810523
 20
1438.139949525239
 30
0.0
 10
7005.881219270007
 20
1424.781575283042
 30
0.0
 10
7001.195512612745
 20
1415.389610623529
 30
0.0
  0
SPLINE
  5
8B
330
1F
100
AcDbEntity
  8
Furniture
100
AcDbSpline
210
0.0
220
0.0
230
1.0
 70
     8
 71
     3
 72
    32
 73
    28
 74
     0
 42
0.000000001
 43
0.0000000001
 40
0.0
 40
0.0
 40
0.0
 40
0.0
 40
1.0
 40
1.0
 40
1.0
 40
2.0
 40
2.0
 40
2.0
 40
3.0
 40
3.0
 40
3.0
 40
4.0
 40
4.0
 40
4.0
 40
5.0
 40
5.0
 40
5.0
 40
6.0
 40
6.0
 40
6.0
 40
7.0
 40
7.0
 40
7.0
 40
8.0
 40
8.0
 40
8.0
 40
9.0
 40
9.0
 40
9.0
 40
9.0
 10
7045.586417786814
 20
1464.87724935462
 30
0.0
 10
7045.586417786814
 20
1464.87724935462
 30
0.0
 10
7117.063995655058
 20
1616.97775361077
 30
0.0
 10
7172.963654022407
 20
1607.770751056148
 30
0.0
 10
7172.963654022407
 20
1607.770751056148
 30
0.0
 10
7110.651976018806
 20
1614.306078762331
 30
0.0
 10
7168.894487714782
 20
1729.599124144981
 30
0.0
 10
7227.136999410759
 20
1844.892169527632
 30
0.0
 10
7266.348965647854
 20
1867.950778604162
 30
0.0
 10
7266.348965647854
 20
1867.950778604162
 30
0.0
 10
7266.348965647854
 20
1867.950778604162
 30
0.0
 10
7270.952466925165
 20
1878.699132032884
 30
0.0
 10
7302.478230136749
 20
1880.240482906984
 30
0.0
 10
7334.003993348334
 20
1881.781833781083
 30
0.0
 10
7353.979900676664
 20
1877.19888384876
 30
0.0
 10
7360.926255282605
 20
1869.471578133274
 30
0.0
 10
7367.790404508596
 20
1861.785375107764
 30
0.0
 10
7373.955808004994
 20
1854.119723427242
 30
0.0
 10
7373.17485689545
 20
1837.205966502122
 30
0.0
 10
7372.435008475882
 20
1820.292209577003
 30
0.0
 10
7305.560931884947
 20
1659.601243115871
 30
0.0
 10
7283.242171227986
 20
1610.401323214611
 30
0.0
 10
7260.964513260998
 20
1561.22195465834
 30
0.0
 10
7214.066343998395
 20
1450.963988797748
 30
0.0
 10
7196.39218730872
 20
1415.389610623529
 30
0.0
 10
7178.718030619044
 20
1379.81523244931
 30
0.0
 10
7151.302536405059
 20
1332.218317457114
 30
0.0
 10
7151.302536405059
 20
1332.218317457114
 30
0.0
  0
SPLINE
  5
8C
330
1F
100
AcDbEntity
  8
Furniture
100
AcDbSpline
210
0.0
220
0.0
230
1.0
 70
     8
 71
     3
 72
     8
 73
     4
 74
     0
 42
0.000000001
 43
0.0000000001
 40
0.0
 40
0.0
 40
0.0
 40
0.0
 40
1.0
 40
1.0
 40
1.0
 40
1.0
 10
7113.899088526908
 20
1286.471023513837
 30
0.0
 10
7113.899088526908
 20
1286.471023513837
 30
0.0
 10
7022.116781810523
 20
1173.767447599673
 30
0.0
 10
6997.496270514905
 20
1173.027599180106
 30
0.0
  0
SPLINE
  5
8D
330
1F
100
AcDbEntity
  8
Furniture
100
AcDbSpline
210
0.0
220
0.0
230
1.0
 70
     8
 71
     3
 72
    20
 73
    16
 74
     0
 42
0.000000001
 43
0.0000000001
 40
0.0
 40
0.0
 40
0.0
 40
0.0
 40
1.0
 40
1.0
 40
1.0
 40
2.0
 40
2.0
 40
2.0
 40
3.0
 40
3.0
 40
3.0
 40
4.0
 40
4.0
 40
4.0
 40
5.0
 40
5.0
 40
5.0
 40
5.0
 10
6525.842903040424
 20
1315.612830706814
 30
0.0
 10
6525.842903040424
 20
1315.612830706814
 30
0.0
 10
6573.809742242403
 20
1358.297974246879
 30
0.0
 10
6639.902867723795
 20
1371.348078314256
 30
0.0
 10
6639.902867723795
 20
1371.348078314256
 30
0.0
 10
6696.00803954102
 20
1389.042786348919
 30
0.0
 10
6759.799414383756
 20
1394.406687390786
 30
0.0
 10
6823.63189191647
 20
1399.79113977764
 30
0.0
 10
6891.245816926972
 20
1396.708438029441
 30
0.0
 10
6940.44573682823
 20
1394.406687390786
 30
0.0
 10
6989.645656729492
 20
1392.10493675213
 30
0.0
 10
6999.099275423969
 20
1395.783627504982
 30
0.0
 10
7011.676698556621
 20
1397.407183759033
 30
0.0
 10
7024.254121689274
 20
1399.010188668097
 30
0.0
 10
7062.767342196777
 20
1427.905379721218
 30
0.0
 10
7062.767342196777
 20
1427.905379721218
 30
0.0
  0
SPLINE
  5
8E
330
1F
100
AcDbEntity
  8
Furniture
100
AcDbSpline
210
0.0
220
0.0
230
1.0
 70
     8
 71
     3
 72
    17
 73
    13
 74
     0
 42
0.000000001
 43
0.0000000001
 40
0.0
 40
0.0
 40
0.0
 40
0.0
 40
1.0
 40
1.0
 40
1.0
 40
2.0
 40
2.0
 40
2.0
 40
3.0
 40
3.0
 40
3.0
 40
4.0
 40
4.0
 40
4.0
 40
4.0
 10
7101.77379498399
 20
1458.896807963113
 30
0.0
 10
7101.77379498399
 20
1458.896807963113
 30
0.0
 10
7225.616199881648
 20
1730.297869874573
 30
0.0
 10
7245.592107209979
 20
1764.906334834356
 30
0.0
 10
7265.56801453831
 20
1799.473697104164
 30
0.0
 10
7285.585024556616
 20
1835.602961593059
 30
0.0
 10
7294.792027111238
 20
1845.590915257224
 30
0.0
 10
7304.040132355837
 20
1855.599420266378
 30
0.0
 10
7302.519332826725
 20
1864.046023056443
 30
0.0
 10
7322.495240155056
 20
1862.525223527332
 30
0.0
 10
7342.471147483386
 20
1860.963321308244
 30
0.0
 10
7369.516717487588
 20
1857.551798040237
 30
0.0
 10
7369.516717487588
 20
1857.551798040237
 30
0.0
  0
SPLINE
  5
8F
330
1F
100
AcDbEntity
  8
Furniture
100
AcDbSpline
210
0.0
220
0.0
230
1.0
 70
     8
 71
     3
 72
     8
 73
     4
 74
     0
 42
0.000000001
 43
0.0000000001
 40
0.0
 40
0.0
 40
0.0
 40
0.0
 40
1.0
 40
1.0
 40
1.0
 40
1.0
 10
7170.415287243894
 20
1608.05846988598
 30
0.0
 10
7170.415287243894
 20
1608.05846988598
 30
0.0
 10
7175.142096591134
 20
1487.791999016234
 30
0.0
 10
7127.750695048817
 20
1399.215702117977
 30
0.0
  0
SPLINE
  5
90
330
1F
100
AcDbEntity
  8
Furniture
100
AcDbSpline
210
0.0
220
0.0
230
1.0
 70
     8
 71
     3
 72
     8
 73
     4
 74
     0
 42
0.000000001
 43
0.0000000001
 40
0.0
 40
0.0
 40
0.0
 40
0.0
 40
1.0
 40
1.0
 40
1.0
 40
1.0
 10
6617.378593616954
 20
1405.997645964015
 30
0.0
 10
6617.378593616954
 20
1405.997645964015
 30
0.0
 10
6575.782671361252
 20
1377.431276430702
 30
0.0
 10
6556.094482862753
 20
1337.356153704112
 30
0.0
  0
SPLINE
  5
91
330
1F
100
AcDbEntity
  8
Furniture
100
AcDbSpline
210
0.0
220
0.0
230
1.0
 70
     8
 71
     3
 72
    14
 73
    10
 74
     0
 42
0.000000001
 43
0.0000000001
 40
0.0
 40
0.0
 40
0.0
 40
0.0
 40
1.0
 40
1.0
 40
1.0
 40
2.0
 40
2.0
 40
2.0
 40
3.0
 40
3.0
 40
3.0
 40
3.0
 10
6665.920870478597
 20
1250.506169784846
 30
0.0
 10
6665.920870478597
 20
1250.506169784846
 30
0.0
 10
6895.890420894258
 20
1186.632589562158
 30
0.0
 10
6938.71942384924
 20
1179.0285919166
 30
0.0
 10
6938.71942384924
 20
1179.0285919166
 30
0.0
 10
6988.371473340236
 20
1166.533374163899
 30
0.0
 10
7001.195512612745
 20
1180.015056476024
 30
0.0
 10
7027.953363787114
 20
1208.088193729625
 30
0.0
 10
7101.77379498399
 20
1321.017834438656
 30
0.0
 10
7101.77379498399
 20
1321.017834438656
 30
0.0
  0
SPLINE
  5
92
330
1F
100
AcDbEntity
  8
Furniture
100
AcDbSpline
210
0.0
220
0.0
230
1.0
 70
    11
 71
     3
 72
    23
 73
    19
 74
     0
 42
0.000000001
 43
0.0000000001
 40
0.0
 40
0.0
 40
0.0
 40
0.0
 40
1.0
 40
1.0
 40
1.0
 40
2.0
 40
2.0
 40
2.0
 40
3.0
 40
3.0
 40
3.0
 40
4.0
 40
4.0
 40
4.0
 40
5.0
 40
5.0
 40
5.0
 40
6.0
 40
6.0
 40
6.0
 40
6.0
 10
2260.236564349701
 20
1528.606970162392
 30
0.0
 10
2260.236564349701
 20
1528.606970162392
 30
0.0
 10
2291.700673526321
 20
1528.606970162392
 30
0.0
 10
2291.700673526321
 20
1528.606970162392
 30
0.0
 10
2291.700673526321
 20
1528.606970162392
 30
0.0
 10
2252.385950564287
 20
1276.40086446972
 30
0.0
 10
2242.541856315038
 20
1274.263524590968
 30
0.0
 10
2232.718313410776
 20
1272.105633367228
 30
0.0
 10
2220.901290042679
 20
1271.468541672601
 30
0.0
 10
2212.064211697842
 20
1274.263524590968
 30
0.0
 10
2203.227133353003
 20
1277.058507509335
 30
0.0
 10
2188.450716306636
 20
1280.963263057054
 30
0.0
 10
2190.444196770471
 20
1301.596813425001
 30
0.0
 10
2192.417125889319
 20
1322.230363792948
 30
0.0
 10
2216.010069935536
 20
1404.826219299699
 30
0.0
 10
2216.010069935536
 20
1404.826219299699
 30
0.0
 10
2216.010069935536
 20
1404.826219299699
 30
0.0
 10
2260.236564349701
 20
1528.606970162392
 30
0.0
 10
2260.236564349701
 20
1528.606970162392
 30
0.0
  0
POLYLINE
  5
93
330
1F
100
AcDbEntity
  8
Furniture
100
AcDb2dPolyline
 66
     1
 10
0.0
 20
0.0
 30
0.0
  0
VERTEX
  5
94
330
93
100
AcDbEntity
  8
Furniture
100
AcDbVertex
100
AcDb2dVertex
 10
2865.227058106293
 20
1274.222421900992
 30
0.0
  0
VERTEX
  5
D8
330
93
100
AcDbEntity
  8
0
100
AcDbVertex
100
AcDb2dVertex
 10
2865.227058106293
 20
1274.222421900992
 30
0.0
  0
SEQEND
  5
95
330
93
100
AcDbEntity
  8
Furniture
  0
SPLINE
  5
96
330
1F
100
AcDbEntity
  8
Furniture
100
AcDbSpline
210
0.0
220
0.0
230
1.0
 70
     8
 71
     3
 72
    29
 73
    25
 74
     0
 42
0.000000001
 43
0.0000000001
 40
0.0
 40
0.0
 40
0.0
 40
0.0
 40
1.0
 40
1.0
 40
1.0
 40
2.0
 40
2.0
 40
2.0
 40
3.0
 40
3.0
 40
3.0
 40
4.0
 40
4.0
 40
4.0
 40
5.0
 40
5.0
 40
5.0
 40
6.0
 40
6.0
 40
6.0
 40
7.0
 40
7.0
 40
7.0
 40
8.0
 40
8.0
 40
8.0
 40
8.0
 10
2242.72681841993
 20
1645.461917764131
 30
0.0
 10
2240.014040881514
 20
1663.547101353566
 30
0.0
 10
2239.048127667079
 20
1687.345558849664
 30
0.0
 10
2253.865647403423
 20
1713.507421019382
 30
0.0
 10
2276.944807824941
 20
1754.301840820551
 30
0.0
 10
2306.435987882714
 20
1788.211560050743
 30
0.0
 10
2361.020360170828
 20
1801.487728912987
 30
0.0
 10
2415.563629768966
 20
1814.743346430244
 30
0.0
 10
2465.708911539673
 20
1833.917751304043
 30
0.0
 10
2533.528350000056
 20
1835.397448143179
 30
0.0
 10
2601.347788460439
 20
1836.877144982314
 30
0.0
 10
2666.248935932527
 20
1814.743346430244
 30
0.0
 10
2710.49598169168
 20
1801.487728912987
 30
0.0
 10
2754.722476105845
 20
1788.211560050743
 30
0.0
 10
2788.632195336036
 20
1771.975997510227
 30
0.0
 10
2807.806600209835
 20
1749.862750303144
 30
0.0
 10
2826.960453738646
 20
1727.749503096062
 30
0.0
 10
2853.512791463136
 20
1654.031828624124
 30
0.0
 10
2840.257173945879
 20
1630.418333232918
 30
0.0
 10
2826.960453738646
 20
1606.8253891867
 30
0.0
 10
2788.632195336036
 20
1577.354760473916
 30
0.0
 10
2784.193104818629
 20
1564.058040266683
 30
0.0
 10
2783.535461779014
 20
1562.023457112872
 30
0.0
 10
2784.994607273161
 20
1554.131740637482
 30
0.0
 10
2787.954000951432
 20
1541.965344404589
 30
0.0
  0
SPLINE
  5
97
330
1F
100
AcDbEntity
  8
Furniture
100
AcDbSpline
210
0.0
220
0.0
230
1.0
 70
     8
 71
     3
 72
    17
 73
    13
 74
     0
 42
0.000000001
 43
0.0000000001
 40
0.0
 40
0.0
 40
0.0
 40
0.0
 40
1.0
 40
1.0
 40
1.0
 40
2.0
 40
2.0
 40
2.0
 40
3.0
 40
3.0
 40
3.0
 40
4.0
 40
4.0
 40
4.0
 40
4.0
 10
2266.484173226052
 20
1588.801859632229
 30
0.0
 10
2266.484173226052
 20
1588.801859632229
 30
0.0
 10
2291.700673526321
 20
1528.606970162392
 30
0.0
 10
2291.700673526321
 20
1528.606970162392
 30
0.0
 10
2291.700673526321
 20
1528.606970162392
 30
0.0
 10
2316.670557686736
 20
1542.910706274037
 30
0.0
 10
2291.700673526321
 20
1565.537737105819
 30
0.0
 10
2266.730789365908
 20
1588.205870627577
 30
0.0
 10
2247.042600867409
 20
1604.441433168093
 30
0.0
 10
2246.528817242709
 20
1621.067471263381
 30
0.0
 10
2246.323303792829
 20
1627.006809964911
 30
0.0
 10
2244.247617949041
 20
1635.309553340061
 30
0.0
 10
2242.72681841993
 20
1645.461917764131
 30
0.0
  0
POLYLINE
  5
98
330
1F
100
AcDbEntity
  8
Furniture
100
AcDb2dPolyline
 66
     1
 10
0.0
 20
0.0
 30
0.0
  0
VERTEX
  5
99
330
98
100
AcDbEntity
  8
Furniture
100
AcDbVertex
100
AcDb2dVertex
 10
2260.236564349701
 20
1528.606970162392
 30
0.0
  0
VERTEX
  5
9A
330
98
100
AcDbEntity
  8
Furniture
100
AcDbVertex
100
AcDb2dVertex
 10
2190.25923466558
 20
1713.507421019382
 30
0.0
  0
VERTEX
  5
9B
330
98
100
AcDbEntity
  8
Furniture
100
AcDbVertex
100
AcDb2dVertex
 10
2214.037140816689
 20
1713.507421019382
 30
0.0
  0
VERTEX
  5
9C
330
98
100
AcDbEntity
  8
Furniture
100
AcDbVertex
100
AcDb2dVertex
 10
2241.000505440938
 20
1649.592738106717
 30
0.0
  0
SEQEND
  5
9D
330
98
100
AcDbEntity
  8
Furniture
  0
POLYLINE
  5
9E
330
1F
100
AcDbEntity
  8
Furniture
100
AcDb2dPolyline
 66
     1
 10
0.0
 20
0.0
 30
0.0
  0
VERTEX
  5
9F
330
9E
100
AcDbEntity
  8
Furniture
100
AcDbVertex
100
AcDb2dVertex
 10
2190.25923466558
 20
1713.507421019382
 30
0.0
  0
VERTEX
  5
A0
330
9E
100
AcDbEntity
  8
Furniture
100
AcDbVertex
100
AcDb2dVertex
 10
2190.25923466558
 20
1674.192698057347
 30
0.0
  0
VERTEX
  5
A1
330
9E
100
AcDbEntity
  8
Furniture
100
AcDbVertex
100
AcDb2dVertex
 10
2253.865647403423
 20
1510.768402712812
 30
0.0
  0
SEQEND
  5
A2
330
9E
100
AcDbEntity
  8
Furniture
  0
POLYLINE
  5
A3
330
1F
100
AcDbEntity
  8
Furniture
100
AcDb2dPolyline
 66
     1
 10
0.0
 20
0.0
 30
0.0
  0
VERTEX
  5
A4
330
A3
100
AcDbEntity
  8
Furniture
100
AcDbVertex
100
AcDb2dVertex
 10
2787.954000951432
 20
1541.985895749577
 30
0.0
  0
VERTEX
  5
A5
330
A3
100
AcDbEntity
  8
Furniture
100
AcDbVertex
100
AcDb2dVertex
 10
2784.193104818629
 20
1533.107714714763
 30
0.0
  0
VERTEX
  5
A6
330
A3
100
AcDbEntity
  8
Furniture
100
AcDbVertex
100
AcDb2dVertex
 10
2811.485290962687
 20
1533.107714714763
 30
0.0
  0
VERTEX
  5
A7
330
A3
100
AcDbEntity
  8
Furniture
100
AcDbVertex
100
AcDb2dVertex
 10
2881.524274681773
 20
1713.507421019382
 30
0.0
  0
VERTEX
  5
A8
330
A3
100
AcDbEntity
  8
Furniture
100
AcDbVertex
100
AcDb2dVertex
 10
2860.150875894258
 20
1713.507421019382
 30
0.0
  0
VERTEX
  5
A9
330
A3
100
AcDbEntity
  8
Furniture
100
AcDbVertex
100
AcDb2dVertex
 10
2841.531357335135
 20
1669.260375260228
 30
0.0
  0
SEQEND
  5
AA
330
A3
100
AcDbEntity
  8
Furniture
  0
POLYLINE
  5
AB
330
1F
100
AcDbEntity
  8
Furniture
100
AcDb2dPolyline
 66
     1
 10
0.0
 20
0.0
 30
0.0
  0
VERTEX
  5
AC
330
AB
100
AcDbEntity
  8
Furniture
100
AcDbVertex
100
AcDb2dVertex
 10
2810.087799503503
 20
1594.576787573856
 30
0.0
  0
VERTEX
  5
AD
330
AB
100
AcDbEntity
  8
Furniture
100
AcDbVertex
100
AcDb2dVertex
 10
2787.954000951432
 20
1541.985895749577
 30
0.0
  0
SEQEND
  5
AE
330
AB
100
AcDbEntity
  8
Furniture
  0
SPLINE
  5
AF
330
1F
100
AcDbEntity
  8
Furniture
100
AcDbSpline
210
0.0
220
0.0
230
1.0
 70
     8
 71
     3
 72
    14
 73
    10
 74
     0
 42
0.000000001
 43
0.0000000001
 40
0.0
 40
0.0
 40
0.0
 40
0.0
 40
1.0
 40
1.0
 40
1.0
 40
2.0
 40
2.0
 40
2.0
 40
3.0
 40
3.0
 40
3.0
 40
3.0
 10
2865.227058106293
 20
1274.222421900992
 30
0.0
 10
2870.405997043268
 20
1275.743221430104
 30
0.0
 10
2875.338319840386
 20
1278.414896278543
 30
0.0
 10
2877.845583928922
 20
1283.16225697077
 30
0.0
 10
2884.483668360044
 20
1295.698577413447
 30
0.0
 10
2884.483668360044
 20
1303.076510264137
 30
0.0
 10
2877.845583928922
 20
1331.067442137786
 30
0.0
 10
2871.207499497799
 20
1359.099476701411
 30
0.0
 10
2822.562465911216
 20
1514.673158260531
 30
0.0
 10
2811.485290962687
 20
1533.107714714763
 30
0.0
  0
SPLINE
  5
B0
330
1F
100
AcDbEntity
  8
Furniture
100
AcDbSpline
210
0.0
220
0.0
230
1.0
 70
     8
 71
     3
 72
    17
 73
    13
 74
     0
 42
0.000000001
 43
0.0000000001
 40
0.0
 40
0.0
 40
0.0
 40
0.0
 40
1.0
 40
1.0
 40
1.0
 40
2.0
 40
2.0
 40
2.0
 40
3.0
 40
3.0
 40
3.0
 40
4.0
 40
4.0
 40
4.0
 40
4.0
 10
2784.193104818629
 20
1533.107714714763
 30
0.0
 10
2784.193104818629
 20
1533.107714714763
 30
0.0
 10
2818.863223813377
 20
1322.230363792948
 30
0.0
 10
2818.863223813377
 20
1322.230363792948
 30
0.0
 10
2818.863223813377
 20
1322.230363792948
 30
0.0
 10
2821.80206614666
 20
1294.218880574311
 30
0.0
 10
2826.241156664067
 20
1286.101099304053
 30
0.0
 10
2826.241156664067
 20
1286.101099304053
 30
0.0
 10
2834.338386589337
 20
1269.701126003633
 30
0.0
 10
2847.614555451581
 20
1272.372800852073
 30
0.0
 10
2847.614555451581
 20
1272.372800852073
 30
0.0
 10
2856.739352626251
 20
1271.715157812457
 30
0.0
 10
2865.227058106293
 20
1274.222421900992
 30
0.0
  0
POLYLINE
  5
B1
330
1F
100
AcDbEntity
  8
Furniture
100
AcDb2dPolyline
 66
     1
 10
0.0
 20
0.0
 30
0.0
  0
VERTEX
  5
B2
330
B1
100
AcDbEntity
  8
Furniture
100
AcDbVertex
100
AcDb2dVertex
 10
2881.524274681773
 20
1713.507421019382
 30
0.0
  0
VERTEX
  5
B3
330
B1
100
AcDbEntity
  8
Furniture
100
AcDbVertex
100
AcDb2dVertex
 10
2885.942813854192
 20
1672.466385078356
 30
0.0
  0
VERTEX
  5
B4
330
B1
100
AcDbEntity
  8
Furniture
100
AcDbVertex
100
AcDb2dVertex
 10
2820.856704277212
 20
1510.768402712812
 30
0.0
  0
SEQEND
  5
B5
330
B1
100
AcDbEntity
  8
Furniture
  0
SPLINE
  5
B6
330
1F
100
AcDbEntity
  8
Furniture
100
AcDbSpline
210
0.0
220
0.0
230
1.0
 70
     8
 71
     3
 72
    14
 73
    10
 74
     0
 42
0.000000001
 43
0.0000000001
 40
0.0
 40
0.0
 40
0.0
 40
0.0
 40
1.0
 40
1.0
 40
1.0
 40
2.0
 40
2.0
 40
2.0
 40
3.0
 40
3.0
 40
3.0
 40
3.0
 10
2787.954000951432
 20
1541.965344404589
 30
0.0
 10
2787.954000951432
 20
1541.965344404589
 30
0.0
 10
2708.995733507556
 20
1508.055625174397
 30
0.0
 10
2704.577194335138
 20
1484.442129783191
 30
0.0
 10
2704.577194335138
 20
1484.442129783191
 30
0.0
 10
2725.231296048072
 20
1199.847104389439
 30
0.0
 10
2753.242779266709
 20
1140.864744273894
 30
0.0
 10
2781.254262485346
 20
1081.902935503336
 30
0.0
 10
2800.695834843989
 20
1054.466889944363
 30
0.0
 10
2799.298343384805
 20
1053.418771349976
 30
0.0
  0
SPLINE
  5
B7
330
1F
100
AcDbEntity
  8
Furniture
100
AcDbSpline
210
0.0
220
0.0
230
1.0
 70
     8
 71
     3
 72
    14
 73
    10
 74
     0
 42
0.000000001
 43
0.0000000001
 40
0.0
 40
0.0
 40
0.0
 40
0.0
 40
1.0
 40
1.0
 40
1.0
 40
2.0
 40
2.0
 40
2.0
 40
3.0
 40
3.0
 40
3.0
 40
3.0
 10
2302.716194439887
 20
1544.904186737872
 30
0.0
 10
2302.716194439887
 20
1544.904186737872
 30
0.0
 10
2358.040415147569
 20
1516.892703519235
 30
0.0
 10
2366.898044837394
 20
1487.380972116474
 30
0.0
 10
2375.755674527221
 20
1457.91034340369
 30
0.0
 10
2365.418347998259
 20
1282.44295989619
 30
0.0
 10
2347.744191308583
 20
1217.541812424103
 30
0.0
 10
2330.04948327392
 20
1152.681767641991
 30
0.0
 10
2289.76884709745
 20
1061.742066070114
 30
0.0
 10
2283.356827461195
 20
1053.418771349976
 30
0.0
  0
SPLINE
  5
B8
330
1F
100
AcDbEntity
  8
Furniture
100
AcDbSpline
210
0.0
220
0.0
230
1.0
 70
     8
 71
     3
 72
     8
 73
     4
 74
     0
 42
0.000000001
 43
0.0000000001
 40
0.0
 40
0.0
 40
0.0
 40
0.0
 40
1.0
 40
1.0
 40
1.0
 40
1.0
 10
2706.755636903865
 20
1489.88823620501
 30
0.0
 10
2706.755636903865
 20
1489.88823620501
 30
0.0
 10
2506.976012275567
 20
1539.725247800897
 30
0.0
 10
2366.898044837394
 20
1487.380972116474
 30
0.0
  0
SPLINE
  5
B9
330
1F
100
AcDbEntity
  8
Furniture
100
AcDbSpline
210
0.0
220
0.0
230
1.0
 70
     8
 71
     3
 72
    17
 73
    13
 74
     0
 42
0.000000001
 43
0.0000000001
 40
0.0
 40
0.0
 40
0.0
 40
0.0
 40
1.0
 40
1.0
 40
1.0
 40
2.0
 40
2.0
 40
2.0
 40
3.0
 40
3.0
 40
3.0
 40
4.0
 40
4.0
 40
4.0
 40
4.0
 10
2295.091645449341
 20
1566.174828800447
 30
0.0
 10
2317.739227626111
 20
1563.338743192103
 30
0.0
 10
2344.784797630312
 20
1560.625965653688
 30
0.0
 10
2366.898044837394
 20
1560.543760273736
 30
0.0
 10
2414.577165209543
 20
1560.379349513832
 30
0.0
 10
2452.905423612153
 20
1577.560273923795
 30
0.0
 10
2529.582491762361
 20
1577.560273923795
 30
0.0
 10
2606.280111257558
 20
1577.560273923795
 30
0.0
 10
2643.621905100745
 20
1560.543760273736
 30
0.0
 10
2691.794257752605
 20
1560.543760273736
 30
0.0
 10
2718.305492787119
 20
1560.543760273736
 30
0.0
 10
2756.140518910016
 20
1563.831975471815
 30
0.0
 10
2786.022174522561
 20
1567.716179674546
 30
0.0
  0
SPLINE
  5
BA
330
1F
100
AcDbEntity
  8
Furniture
100
AcDbSpline
210
0.0
220
0.0
230
1.0
 70
     8
 71
     3
 72
     8
 73
     4
 74
     0
 42
0.000000001
 43
0.0000000001
 40
0.0
 40
0.0
 40
0.0
 40
0.0
 40
1.0
 40
1.0
 40
1.0
 40
1.0
 10
2291.844532941237
 20
1566.606407045195
 30
0.0
 10
2292.913202880613
 20
1566.462547630278
 30
0.0
 10
2294.002424164977
 20
1566.33923956035
 30
0.0
 10
2295.091645449341
 20
1566.174828800447
 30
0.0
  0
SPLINE
  5
BB
330
1F
100
AcDbEntity
  8
Furniture
100
AcDbSpline
210
0.0
220
0.0
230
1.0
 70
     8
 71
     3
 72
    26
 73
    22
 74
     0
 42
0.000000001
 43
0.0000000001
 40
0.0
 40
0.0
 40
0.0
 40
0.0
 40
1.0
 40
1.0
 40
1.0
 40
2.0
 40
2.0
 40
2.0
 40
3.0
 40
3.0
 40
3.0
 40
4.0
 40
4.0
 40
4.0
 40
5.0
 40
5.0
 40
5.0
 40
6.0
 40
6.0
 40
6.0
 40
7.0
 40
7.0
 40
7.0
 40
7.0
 10
2212.064211697842
 20
1274.263524590968
 30
0.0
 10
2212.064211697842
 20
1274.263524590968
 30
0.0
 10
2209.125369364558
 20
1251.451531654294
 30
0.0
 10
2204.706830192139
 20
1205.745340400993
 30
0.0
 10
2200.267739674732
 20
1160.039149147693
 30
0.0
 10
2223.860683720951
 20
1098.097395353877
 30
0.0
 10
2253.865647403423
 20
1075.984148146794
 30
0.0
 10
2289.04955002287
 20
1050.048350771944
 30
0.0
 10
2318.746243530522
 20
1023.311050942564
 30
0.0
 10
2389.011292044477
 20
1002.245922329868
 30
0.0
 10
2456.851281849848
 20
981.9411934817299
 30
0.0
 10
2626.399878000805
 20
985.7842949944851
 30
0.0
 10
2682.443395783067
 20
996.4504430432544
 30
0.0
 10
2738.466362220341
 20
1007.096039747036
 30
0.0
 10
2809.265745703983
 20
1052.391204100576
 30
0.0
 10
2843.196016279163
 20
1090.740013848174
 30
0.0
 10
2877.105735509354
 20
1129.068272250785
 30
0.0
 10
2875.646590015206
 20
1214.582418745832
 30
0.0
 10
2871.207499497799
 20
1248.512689321011
 30
0.0
 10
2870.611510493148
 20
1253.136741943309
 30
0.0
 10
2868.474170614396
 20
1262.097128358075
 30
0.0
 10
2865.227058106293
 20
1274.222421900992
 30
0.0
  0
POLYLINE
  5
BC
330
1F
100
AcDbEntity
  8
Furniture
100
AcDb2dPolyline
 66
     1
 10
0.0
 20
0.0
 30
0.0
  0
VERTEX
  5
BD
330
BC
100
AcDbEntity
  8
Furniture
100
AcDbVertex
100
AcDb2dVertex
 10
2190.25923466558
 20
977.9131298640827
 30
0.0
  0
VERTEX
  5
BE
330
BC
100
AcDbEntity
  8
Furniture
100
AcDbVertex
100
AcDb2dVertex
 10
2240.97995409595
 20
1088.438263209519
 30
0.0
  0
VERTEX
  5
BF
330
BC
100
AcDbEntity
  8
Furniture
100
AcDbVertex
100
AcDb2dVertex
 10
2256.886695116659
 20
1073.744051543102
 30
0.0
  0
VERTEX
  5
C0
330
BC
100
AcDbEntity
  8
Furniture
100
AcDbVertex
100
AcDb2dVertex
 10
2213.461703157025
 20
977.9131298640827
 30
0.0
  0
VERTEX
  5
C1
330
BC
100
AcDbEntity
  8
Furniture
100
AcDbVertex
100
AcDb2dVertex
 10
2190.25923466558
 20
977.9131298640827
 30
0.0
  0
VERTEX
  5
C2
330
BC
100
AcDbEntity
  8
Furniture
100
AcDbVertex
100
AcDb2dVertex
 10
2190.084548233181
 20
979.4133780482066
 30
0.0
  0
VERTEX
  5
C3
330
BC
100
AcDbEntity
  8
Furniture
100
AcDbVertex
100
AcDb2dVertex
 10
2185.9434522181
 20
1015.008307567414
 30
0.0
  0
VERTEX
  5
C4
330
BC
100
AcDbEntity
  8
Furniture
100
AcDbVertex
100
AcDb2dVertex
 10
2225.258175180134
 20
1107.222192528546
 30
0.0
  0
VERTEX
  5
C5
330
BC
100
AcDbEntity
  8
Furniture
100
AcDbVertex
100
AcDb2dVertex
 10
2224.713564537952
 20
1114.168547134488
 30
0.0
  0
SEQEND
  5
C6
330
BC
100
AcDbEntity
  8
Furniture
  0
POLYLINE
  5
C7
330
1F
100
AcDbEntity
  8
Furniture
100
AcDb2dPolyline
 66
     1
 10
0.0
 20
0.0
 30
0.0
  0
VERTEX
  5
C8
330
C7
100
AcDbEntity
  8
Furniture
100
AcDbVertex
100
AcDb2dVertex
 10
2820.856704277212
 20
1068.9555881609
 30
0.0
  0
VERTEX
  5
C9
330
C7
100
AcDbEntity
  8
Furniture
100
AcDbVertex
100
AcDb2dVertex
 10
2860.068670514306
 20
977.9131298640827
 30
0.0
  0
VERTEX
  5
CA
330
C7
100
AcDbEntity
  8
Furniture
100
AcDbVertex
100
AcDb2dVertex
 10
2885.942813854192
 20
977.9131298640827
 30
0.0
  0
VERTEX
  5
CB
330
C7
100
AcDbEntity
  8
Furniture
100
AcDbVertex
100
AcDb2dVertex
 10
2836.783996642908
 20
1083.875864622184
 30
0.0
  0
SEQEND
  5
CC
330
C7
100
AcDbEntity
  8
Furniture
  0
POLYLINE
  5
CD
330
1F
100
AcDbEntity
  8
Furniture
100
AcDb2dPolyline
 66
     1
 10
0.0
 20
0.0
 30
0.0
  0
VERTEX
  5
CE
330
CD
100
AcDbEntity
  8
Furniture
100
AcDbVertex
100
AcDb2dVertex
 10
2850.347884334985
 20
1100.358043302556
 30
0.0
  0
VERTEX
  5
CF
330
CD
100
AcDbEntity
  8
Furniture
100
AcDbVertex
100
AcDb2dVertex
 10
2885.942813854192
 20
1015.953669436861
 30
0.0
  0
VERTEX
  5
D0
330
CD
100
AcDbEntity
  8
Furniture
100
AcDbVertex
100
AcDb2dVertex
 10
2885.942813854192
 20
977.9131298640827
 30
0.0
  0
SEQEND
  5
D1
330
CD
100
AcDbEntity
  8
Furniture
  0
MTEXT
  5
D2
330
1F
100
AcDbEntity
  8
Dimension
100
AcDbMText
 10
7451.968713579423
 20
1398.599161768337
 30
0.0
 40
93.01703152326359
 41
0.0
 46
0.0
 71
     7
 72
     1
  1
\fApercu|b0|i0|c0|p34;\W1.0004;90
 73
     1
 44
1.0
  0
MTEXT
  5
D3
330
1F
100
AcDbEntity
  8
Dimension
100
AcDbMText
 10
5193.468380451239
 20
1206.444086130585
 30
0.0
 40
93.01703152326359
 41
0.0
 46
0.0
 71
     7
 72
     1
  1
\fApercu|b0|i0|c0|p34;\W1.0004;40
 73
     1
 44
1.0
  0
MTEXT
  5
D4
330
1F
100
AcDbEntity
  8
Dimension
100
AcDbMText
 10
2477.443729527819
 20
1926.39880375002
 30
0.0
 40
93.01703152326359
 41
0.0
 46
0.0
 71
     7
 72
     1
  1
\fApercu|b0|i0|c0|p34;\W1.0004;70
 73
     1
 44
1.0
  0
MTEXT
  5
D5
330
1F
100
AcDbEntity
  8
Dimension
100
AcDbMText
 10
6823.056454256804
 20
1958.99323690098
 30
0.0
 40
93.01703152326359
 41
0.0
 46
0.0
 71
     7
 72
     1
  1
\fApercu|b0|i0|c0|p34;\W1.0004;87
 73
     1
 44
1.0
  0
MTEXT
  5
D6
330
1F
100
AcDbEntity
  8
Dimension
100
AcDbMText
 10
2964.52088141579
 20
1371.759105214015
 30
0.0
 40
93.01703152326359
 41
0.0
 46
0.0
 71
     7
 72
     1
  1
\fApercu|b0|i0|c0|p34;\W1.0004;87
 73
     1
 44
1.0
  0
ENDSEC
  0
SECTION
  2
OBJECTS
  0
DICTIONARY
  5
C
330
0
100
AcDbDictionary
281
     1
  3
ACAD_CIP_PREVIOUS_PRODUCT_INFO
350
11D
  3
ACAD_COLOR
350
FF
  3
ACAD_DETAILVIEWSTYLE
350
117
  3
ACAD_GROUP
350
D
  3
ACAD_LAYOUT
350
1A
  3
ACAD_MATERIAL
350
DC
  3
ACAD_MLEADERSTYLE
350
113
  3
ACAD_MLINESTYLE
350
17
  3
ACAD_PLOTSETTINGS
350
19
  3
ACAD_PLOTSTYLENAME
350
E
  3
ACAD_SCALELIST
350
101
  3
ACAD_SECTIONVIEWSTYLE
350
115
  3
ACAD_TABLESTYLE
350
DA
  3
ACAD_VISUALSTYLE
350
2A
  3
ACDB_RECOMPOSE_DATA
350
265
  3
AcDbVariableDictionary
350
141
  0
DICTIONARY
  5
15D
330
8
100
AcDbDictionary
280
     1
281
     1
  0
DICTIONARY
  5
135
330
2
100
AcDbDictionary
280
     1
281
     1
  3
ACAD_LAYERSTATES
360
136
  0
DICTIONARY
  5
12A
330
10
100
AcDbDictionary
280
     1
281
     1
  3
ADSK_XREC_LAYER_RECONCILED
360
12B
  0
DICTIONARY
  5
12C
330
3B
100
AcDbDictionary
280
     1
281
     1
  3
ADSK_XREC_LAYER_RECONCILED
360
12D
  0
DICTIONARY
  5
12E
330
11F
100
AcDbDictionary
280
     1
281
     1
  3
ADSK_XREC_LAYER_RECONCILED
360
12F
  0
DICTIONARY
  5
130
330
122
100
AcDbDictionary
280
     1
281
     1
  3
ADSK_XREC_LAYER_RECONCILED
360
131
  0
DICTIONARY
  5
207
330
205
100
AcDbDictionary
280
     1
281
     1
  3
ACAD_SORTENTS
360
208
  0
DICTIONARY
  5
181
330
42
100
AcDbDictionary
280
     1
281
     1
  0
XRECORD
  5
11D
102
{ACAD_REACTORS
330
C
102
}
330
C
100
AcDbXrecord
280
     1
300
AMECH_PP
300
2018
300
PDSP_F_S
  0
DICTIONARY
  5
FF
102
{ACAD_REACTORS
330
C
102
}
330
C
100
AcDbDictionary
281
     1
  0
DICTIONARY
  5
117
102
{ACAD_REACTORS
330
C
102
}
330
C
100
AcDbDictionary
281
     1
  3
Imperial24
350
118
  0
DICTIONARY
  5
D
102
{ACAD_REACTORS
330
C
102
}
330
C
100
AcDbDictionary
281
     1
  0
DICTIONARY
  5
1A
102
{ACAD_REACTORS
330
C
102
}
330
C
100
AcDbDictionary
281
     1
  3
Layout1
350
1E
  3
Layout2
350
26
  3
Model
350
22
  0
DICTIONARY
  5
DC
102
{ACAD_REACTORS
330
C
102
}
330
C
100
AcDbDictionary
281
     1
  3
ByBlock
350
E5
  3
ByLayer
350
DD
  3
Global
350
ED
  0
DICTIONARY
  5
113
102
{ACAD_REACTORS
330
C
102
}
330
C
100
AcDbDictionary
281
     1
  3
Standard
350
114
  0
DICTIONARY
  5
17
102
{ACAD_REACTORS
330
C
102
}
330
C
100
AcDbDictionary
281
     1
  3
Standard
350
18
  0
DICTIONARY
  5
19
102
{ACAD_REACTORS
330
C
102
}
330
C
100
AcDbDictionary
281
     1
  0
ACDBDICTIONARYWDFLT
  5
E
102
{ACAD_REACTORS
330
C
102
}
330
C
100
AcDbDictionary
281
     1
  3
Normal
350
F
100
AcDbDictionaryWithDefault
340
F
  0
DICTIONARY
  5
101
102
{ACAD_REACTORS
330
C
102
}
330
C
100
AcDbDictionary
281
     1
  3
A0
350
102
  3
A1
350
103
  3
A2
350
104
  3
A3
350
105
  3
A4
350
106
  3
A5
350
107
  3
A6
350
108
  3
A7
350
109
  3
A8
350
10A
  3
A9
350
10B
  3
B0
350
10C
  3
B1
350
10D
  3
B2
350
10E
  3
B3
350
10F
  3
B4
350
110
  3
B5
350
111
  3
B6
350
112
  0
DICTIONARY
  5
115
102
{ACAD_REACTORS
330
C
102
}
330
C
100
AcDbDictionary
281
     1
  3
Imperial24
350
116
  0
DICTIONARY
  5
DA
102
{ACAD_REACTORS
330
C
102
}
330
C
100
AcDbDictionary
281
     1
  3
Standard
350
100
  0
DICTIONARY
  5
2A
102
{ACAD_REACTORS
330
C
102
}
330
C
100
AcDbDictionary
281
     1
  3
2dWireframe
350
2F
  3
3D Hidden
350
31
  3
3dWireframe
350
30
  3
Basic
350
32
  3
Brighten
350
36
  3
ColorChange
350
3A
  3
Conceptual
350
34
  3
Dim
350
35
  3
EdgeColorOff
350
FE
  3
Facepattern
350
39
  3
Flat
350
2B
  3
FlatWithEdges
350
2C
  3
Gouraud
350
2D
  3
GouraudWithEdges
350
2E
  3
Hidden
350
F6
  3
JitterOff
350
FC
  3
Linepattern
350
38
  3
OverhangOff
350
FD
  3
Realistic
350
33
  3
Shaded
350
FB
  3
Shaded with edges
350
FA
  3
Shades of Gray
350
F7
  3
Sketchy
350
F8
  3
Thicken
350
37
  3
Wireframe
350
F5
  3
X-Ray
350
F9
  0
XRECORD
  5
265
102
{ACAD_REACTORS
330
C
102
}
330
C
100
AcDbXrecord
280
     1
 90
        1
330
100
  0
DICTIONARY
  5
141
102
{ACAD_REACTORS
330
C
102
}
330
C
100
AcDbDictionary
281
     1
  3
CANNOSCALE
350
147
  3
CMLEADERSTYLE
350
143
  3
CTABLESTYLE
350
142
  3
CVIEWDETAILSTYLE
350
144
  3
CVIEWSECTIONSTYLE
350
145
  3
LAYEREVAL
350
149
  3
LAYERNOTIFY
350
14A
  3
LIGHTINGUNITS
350
148
  3
MSLTSCALE
350
146
  0
DICTIONARY
  5
136
102
{ACAD_REACTORS
330
135
102
}
330
135
100
AcDbDictionary
281
     1
  0
XRECORD
  5
12B
102
{ACAD_REACTORS
330
12A
102
}
330
12A
100
AcDbXrecord
280
     1
290
     1
  0
XRECORD
  5
12D
102
{ACAD_REACTORS
330
12C
102
}
330
12C
100
AcDbXrecord
280
     1
290
     1
  0
XRECORD
  5
12F
102
{ACAD_REACTORS
330
12E
102
}
330
12E
100
AcDbXrecord
280
     1
290
     1
  0
XRECORD
  5
131
102
{ACAD_REACTORS
330
130
102
}
330
130
100
AcDbXrecord
280
     1
290
     1
  0
SORTENTSTABLE
  5
208
102
{ACAD_REACTORS
330
207
102
}
330
207
100
AcDbSortentsTable
330
205
  0
ACDBDETAILVIEWSTYLE
  5
118
102
{ACAD_REACTORS
330
117
102
}
330
117
100
AcDbModelDocViewStyle
 70
     0
  3
Imperial24
290
     0
300
Imperial24
 90
        0
100
AcDbDetailViewStyle
 70
     0
 71
     0
 90
        3
 71
     1
340
11
 62
   256
 40
0.24
340
0
 62
   256
 40
0.24
300

 40
0.36
280
     3
 71
     2
340
16
 90
       25
 62
   256
 71
     3
340
11
 62
   256
 40
0.24
 90
        1
 40
0.75
 90
        1
300
%<\AcVar ViewType \f "%tc1">% %<\AcVar ViewDetailId>%\PSCALE %<\AcVar ViewScale \f "%sn">%
 71
     4
340
16
 90
       25
 62
   256
340
16
 90
       25
 62
   256
280
     0
  0
LAYOUT
  5
1E
102
{ACAD_REACTORS
330
1A
102
}
330
1A
100
AcDbPlotSettings
  1

  2
none_device
  4

  6

 40
0.0
 41
0.0
 42
0.0
 43
0.0
 44
0.0
 45
0.0
 46
0.0
 47
0.0
 48
0.0
 49
0.0
140
0.0
141
0.0
142
1.0
143
1.0
 70
   688
 72
     0
 73
     0
 74
     5
  7

 75
    16
147
1.0
 76
     0
 77
     2
 78
   300
148
0.0
149
0.0
100
AcDbLayout
  1
Layout1
 70
     1
 71
     1
 10
0.0
 20
0.0
 11
12.0
 21
9.0
 12
0.0
 22
0.0
 32
0.0
 14
1.000000000000000E+20
 24
1.000000000000000E+20
 34
1.000000000000000E+20
 15
-1.000000000000000E+20
 25
-1.000000000000000E+20
 35
-1.000000000000000E+20
146
0.0
 13
0.0
 23
0.0
 33
0.0
 16
1.0
 26
0.0
 36
0.0
 17
0.0
 27
1.0
 37
0.0
 76
     0
330
1B
  0
LAYOUT
  5
26
102
{ACAD_REACTORS
330
1A
102
}
330
1A
100
AcDbPlotSettings
  1

  2
none_device
  4

  6

 40
0.0
 41
0.0
 42
0.0
 43
0.0
 44
0.0
 45
0.0
 46
0.0
 47
0.0
 48
0.0
 49
0.0
140
0.0
141
0.0
142
1.0
143
1.0
 70
   688
 72
     0
 73
     0
 74
     5
  7

 75
    16
147
1.0
 76
     0
 77
     2
 78
   300
148
0.0
149
0.0
100
AcDbLayout
  1
Layout2
 70
     1
 71
     2
 10
0.0
 20
0.0
 11
0.0
 21
0.0
 12
0.0
 22
0.0
 32
0.0
 14
0.0
 24
0.0
 34
0.0
 15
0.0
 25
0.0
 35
0.0
146
0.0
 13
0.0
 23
0.0
 33
0.0
 16
1.0
 26
0.0
 36
0.0
 17
0.0
 27
1.0
 37
0.0
 76
     0
330
23
  0
LAYOUT
  5
22
102
{ACAD_XDICTIONARY
360
15F
102
}
102
{ACAD_REACTORS
330
1A
102
}
330
1A
100
AcDbPlotSettings
  1

  2
none_device
  4

  6

 40
0.0
 41
0.0
 42
0.0
 43
0.0
 44
0.0
 45
0.0
 46
0.0
 47
0.0
 48
0.0
 49
0.0
140
0.0
141
0.0
142
1.0
143
1.0
 70
  1712
 72
     0
 73
     0
 74
     0
  7

 75
     0
147
1.0
 76
     0
 77
     2
 78
   300
148
0.0
149
0.0
100
AcDbLayout
  1
Model
 70
     1
 71
     0
 10
0.0
 20
0.0
 11
12.0
 21
9.0
 12
0.0
 22
0.0
 32
0.0
 14
1.000000000000000E+20
 24
1.000000000000000E+20
 34
1.000000000000000E+20
 15
-1.000000000000000E+20
 25
-1.000000000000000E+20
 35
-1.000000000000000E+20
146
0.0
 13
0.0
 23
0.0
 33
0.0
 16
1.0
 26
0.0
 36
0.0
 17
0.0
 27
1.0
 37
0.0
 76
     0
330
1F
331
29
  0
MATERIAL
  5
E5
102
{ACAD_XDICTIONARY
360
E6
102
}
102
{ACAD_REACTORS
330
DC
102
}
330
DC
100
AcDbMaterial
  1
ByBlock
 72
     0
 43
0.0208333333333333
 43
0.0
 43
0.0
 43
0.0
 43
0.0
 43
0.0208333333333333
 43
0.0
 43
0.0
 43
0.0
 43
0.0
 43
1.0
 43
0.0
 43
0.0
 43
0.0
 43
0.0
 43
1.0
 77
     0
 47
0.0208333333333333
 47
0.0
 47
0.0
 47
0.0
 47
0.0
 47
0.0208333333333333
 47
0.0
 47
0.0
 47
0.0
 47
0.0
 47
1.0
 47
0.0
 47
0.0
 47
0.0
 47
0.0
 47
1.0
171
     0
 49
0.0208333333333333
 49
0.0
 49
0.0
 49
0.0
 49
0.0
 49
0.0208333333333333
 49
0.0
 49
0.0
 49
0.0
 49
0.0
 49
1.0
 49
0.0
 49
0.0
 49
0.0
 49
0.0
 49
1.0
175
     0
142
0.0208333333333333
142
0.0
142
0.0
142
0.0
142
0.0
142
0.0208333333333333
142
0.0
142
0.0
142
0.0
142
0.0
142
1.0
142
0.0
142
0.0
142
0.0
142
0.0
142
1.0
179
     0
144
0.0208333333333333
144
0.0
144
0.0
144
0.0
144
0.0
144
0.0208333333333333
144
0.0
144
0.0
144
0.0
144
0.0
144
1.0
144
0.0
144
0.0
144
0.0
144
0.0
144
1.0
147
0.0208333333333333
147
0.0
147
0.0
147
0.0
147
0.0
147
0.0208333333333333
147
0.0
147
0.0
147
0.0
147
0.0
147
1.0
147
0.0
147
0.0
147
0.0
147
0.0
147
1.0
  0
MATERIAL
  5
DD
102
{ACAD_XDICTIONARY
360
DE
102
}
102
{ACAD_REACTORS
330
DC
102
}
330
DC
100
AcDbMaterial
  1
ByLayer
 72
     0
 43
0.0208333333333333
 43
0.0
 43
0.0
 43
0.0
 43
0.0
 43
0.0208333333333333
 43
0.0
 43
0.0
 43
0.0
 43
0.0
 43
1.0
 43
0.0
 43
0.0
 43
0.0
 43
0.0
 43
1.0
 77
     0
 47
0.0208333333333333
 47
0.0
 47
0.0
 47
0.0
 47
0.0
 47
0.0208333333333333
 47
0.0
 47
0.0
 47
0.0
 47
0.0
 47
1.0
 47
0.0
 47
0.0
 47
0.0
 47
0.0
 47
1.0
171
     0
 49
0.0208333333333333
 49
0.0
 49
0.0
 49
0.0
 49
0.0
 49
0.0208333333333333
 49
0.0
 49
0.0
 49
0.0
 49
0.0
 49
1.0
 49
0.0
 49
0.0
 49
0.0
 49
0.0
 49
1.0
175
     0
142
0.0208333333333333
142
0.0
142
0.0
142
0.0
142
0.0
142
0.0208333333333333
142
0.0
142
0.0
142
0.0
142
0.0
142
1.0
142
0.0
142
0.0
142
0.0
142
0.0
142
1.0
179
     0
144
0.0208333333333333
144
0.0
144
0.0
144
0.0
144
0.0
144
0.0208333333333333
144
0.0
144
0.0
144
0.0
144
0.0
144
1.0
144
0.0
144
0.0
144
0.0
144
0.0
144
1.0
147
0.0208333333333333
147
0.0
147
0.0
147
0.0
147
0.0
147
0.0208333333333333
147
0.0
147
0.0
147
0.0
147
0.0
147
1.0
147
0.0
147
0.0
147
0.0
147
0.0
147
1.0
  0
MATERIAL
  5
ED
102
{ACAD_XDICTIONARY
360
EE
102
}
102
{ACAD_REACTORS
330
DC
102
}
330
DC
100
AcDbMaterial
  1
Global
 72
     0
 43
0.0208333333333333
 43
0.0
 43
0.0
 43
0.0
 43
0.0
 43
0.0208333333333333
 43
0.0
 43
0.0
 43
0.0
 43
0.0
 43
1.0
 43
0.0
 43
0.0
 43
0.0
 43
0.0
 43
1.0
 77
     0
 47
0.0208333333333333
 47
0.0
 47
0.0
 47
0.0
 47
0.0
 47
0.0208333333333333
 47
0.0
 47
0.0
 47
0.0
 47
0.0
 47
1.0
 47
0.0
 47
0.0
 47
0.0
 47
0.0
 47
1.0
171
     0
 49
0.0208333333333333
 49
0.0
 49
0.0
 49
0.0
 49
0.0
 49
0.0208333333333333
 49
0.0
 49
0.0
 49
0.0
 49
0.0
 49
1.0
 49
0.0
 49
0.0
 49
0.0
 49
0.0
 49
1.0
175
     0
142
0.0208333333333333
142
0.0
142
0.0
142
0.0
142
0.0
142
0.0208333333333333
142
0.0
142
0.0
142
0.0
142
0.0
142
1.0
142
0.0
142
0.0
142
0.0
142
0.0
142
1.0
179
     0
144
0.0208333333333333
144
0.0
144
0.0
144
0.0
144
0.0
144
0.0208333333333333
144
0.0
144
0.0
144
0.0
144
0.0
144
1.0
144
0.0
144
0.0
144
0.0
144
0.0
144
1.0
147
0.0208333333333333
147
0.0
147
0.0
147
0.0
147
0.0
147
0.0208333333333333
147
0.0
147
0.0
147
0.0
147
0.0
147
1.0
147
0.0
147
0.0
147
0.0
147
0.0
147
1.0
  0
MLEADERSTYLE
  5
114
102
{ACAD_REACTORS
330
113
102
}
330
113
100
AcDbMLeaderStyle
179
     2
170
     2
171
     1
172
     0
 90
        2
 40
0.0
 41
0.0
173
     1
 91
-1056964608
340
14
 92
       -2
290
     1
 42
0.09
291
     1
 43
0.36
  3
Standard
 44
0.18
300

342
11
174
     1
178
     6
175
     1
176
     0
 93
-1056964608
 45
0.18
292
     0
297
     0
 46
0.18
 94
-1056964608
 47
1.0
 49
1.0
140
1.0
293
     1
141
0.0
294
     1
177
     0
142
1.0
295
     0
296
     0
143
0.125
271
     0
272
     9
273
     9
298
     1
  0
MLINESTYLE
  5
18
102
{ACAD_REACTORS
330
17
102
}
330
17
100
AcDbMlineStyle
  2
STANDARD
 70
     0
  3

 62
   256
 51
90.0
 52
90.0
 71
     2
 49
0.5
 62
   256
  6
BYLAYER
 49
-0.5
 62
   256
  6
BYLAYER
  0
ACDBPLACEHOLDER
  5
F
102
{ACAD_REACTORS
330
E
102
}
330
E
  0
SCALE
  5
102
102
{ACAD_REACTORS
330
101
102
}
330
101
100
AcDbScale
 70
     0
300
1:1
140
1.0
141
1.0
290
     1
  0
SCALE
  5
103
102
{ACAD_REACTORS
330
101
102
}
330
101
100
AcDbScale
 70
     0
300
1/128" = 1'-0"
140
0.0078125
141
12.0
290
     0
  0
SCALE
  5
104
102
{ACAD_REACTORS
330
101
102
}
330
101
100
AcDbScale
 70
     0
300
1/64" = 1'-0"
140
0.015625
141
12.0
290
     0
  0
SCALE
  5
105
102
{ACAD_REACTORS
330
101
102
}
330
101
100
AcDbScale
 70
     0
300
1/32" = 1'-0"
140
0.03125
141
12.0
290
     0
  0
SCALE
  5
106
102
{ACAD_REACTORS
330
101
102
}
330
101
100
AcDbScale
 70
     0
300
1/16" = 1'-0"
140
0.0625
141
12.0
290
     0
  0
SCALE
  5
107
102
{ACAD_REACTORS
330
101
102
}
330
101
100
AcDbScale
 70
     0
300
3/32" = 1'-0"
140
0.09375
141
12.0
290
     0
  0
SCALE
  5
108
102
{ACAD_REACTORS
330
101
102
}
330
101
100
AcDbScale
 70
     0
300
1/8" = 1'-0"
140
0.125
141
12.0
290
     0
  0
SCALE
  5
109
102
{ACAD_REACTORS
330
101
102
}
330
101
100
AcDbScale
 70
     0
300
3/16" = 1'-0"
140
0.1875
141
12.0
290
     0
  0
SCALE
  5
10A
102
{ACAD_REACTORS
330
101
102
}
330
101
100
AcDbScale
 70
     0
300
1/4" = 1'-0"
140
0.25
141
12.0
290
     0
  0
SCALE
  5
10B
102
{ACAD_REACTORS
330
101
102
}
330
101
100
AcDbScale
 70
     0
300
3/8" = 1'-0"
140
0.375
141
12.0
290
     0
  0
SCALE
  5
10C
102
{ACAD_REACTORS
330
101
102
}
330
101
100
AcDbScale
 70
     0
300
1/2" = 1'-0"
140
0.5
141
12.0
290
     0
  0
SCALE
  5
10D
102
{ACAD_REACTORS
330
101
102
}
330
101
100
AcDbScale
 70
     0
300
3/4" = 1'-0"
140
0.75
141
12.0
290
     0
  0
SCALE
  5
10E
102
{ACAD_REACTORS
330
101
102
}
330
101
100
AcDbScale
 70
     0
300
1" = 1'-0"
140
1.0
141
12.0
290
     0
  0
SCALE
  5
10F
102
{ACAD_REACTORS
330
101
102
}
330
101
100
AcDbScale
 70
     0
300
1-1/2" = 1'-0"
140
1.5
141
12.0
290
     0
  0
SCALE
  5
110
102
{ACAD_REACTORS
330
101
102
}
330
101
100
AcDbScale
 70
     0
300
3" = 1'-0"
140
3.0
141
12.0
290
     0
  0
SCALE
  5
111
102
{ACAD_REACTORS
330
101
102
}
330
101
100
AcDbScale
 70
     0
300
6" = 1'-0"
140
6.0
141
12.0
290
     0
  0
SCALE
  5
112
102
{ACAD_REACTORS
330
101
102
}
330
101
100
AcDbScale
 70
     0
300
1'-0" = 1'-0"
140
12.0
141
12.0
290
     0
  0
ACDBSECTIONVIEWSTYLE
  5
116
102
{ACAD_REACTORS
330
115
102
}
330
115
100
AcDbModelDocViewStyle
 70
     0
  3
Imperial24
290
     0
300
Imperial24
 90
        0
100
AcDbSectionViewStyle
 70
     0
 71
     0
 90
       78
 71
     1
340
11
 62
   256
 40
0.24
340
0
340
0
 62
   256
 40
0.24
300
I, O, Q, S, X, Z
 40
0.48
 90
        3
 40
0.18
 90
        1
 71
     2
340
16
 90
       25
 62
   256
340
16
 90
       50
 62
   256
 40
0.24
 40
0.0
 40
0.24
 71
     3
340
11
 62
   256
 40
0.24
 90
        1
 40
0.75
 90
        1
300
%<\AcVar ViewType \f "%tc1">% %<\AcVar ViewSectionStartId>%-%<\AcVar ViewSectionEndId>%\PSCALE %<\AcVar ViewScale \f "%sn">%
 71
     4
 62
   256
 62
   257
300
ANSI31
 40
1.0
 90
        0
290
     0
290
     0
 90
        6
 40
0.0
 40
1.570796326794896
 40
0.2617993877991494
 40
1.308996938995747
 40
-0.2617993877991494
 40
1.832595714594046
  0
TABLESTYLE
  5
100
102
{ACAD_XDICTIONARY
360
152
102
}
102
{ACAD_REACTORS
330
DA
102
}
330
DA
100
AcDbTableStyle
280
     0
  3
Standard
 70
     0
 71
     0
 40
0.06
 41
0.06
280
     0
281
     0
  7
Standard
140
0.18
170
     2
 62
     0
 63
     7
283
     0
 90
      512
 91
        0
  1

274
    -2
284
     1
 64
     0
275
    -2
285
     1
 65
     0
276
    -2
286
     1
 66
     0
277
    -2
287
     1
 67
     0
278
    -2
288
     1
 68
     0
279
    -2
289
     1
 69
     0
  7
Standard
140
0.25
170
     5
 62
     0
 63
     7
283
     0
 90
      512
 91
        0
  1

274
    -2
284
     1
 64
     0
275
    -2
285
     1
 65
     0
276
    -2
286
     1
 66
     0
277
    -2
287
     1
 67
     0
278
    -2
288
     1
 68
     0
279
    -2
289
     1
 69
     0
  7
Standard
140
0.18
170
     5
 62
     0
 63
     7
283
     0
 90
      512
 91
        0
  1

274
    -2
284
     1
 64
     0
275
    -2
285
     1
 65
     0
276
    -2
286
     1
 66
     0
277
    -2
287
     1
 67
     0
278
    -2
288
     1
 68
     0
279
    -2
289
     1
 69
     0
  0
VISUALSTYLE
  5
2F
102
{ACAD_REACTORS
330
2A
102
}
330
2A
100
AcDbVisualStyle
  2
2dWireframe
 70
     4
177
     3
291
     0
 70
    58
 90
        0
176
     1
 90
        2
176
     1
 90
        0
176
     1
 90
        0
176
     1
 40
0.6
176
     1
 40
30.0
176
     1
 62
     7
176
     1
 90
        1
176
     1
 90
        4
176
     1
 62
     7
176
     1
 62
   257
176
     1
 90
        1
176
     1
 90
        1
176
     1
 40
1.0
176
     1
 90
        0
176
     1
 62
   257
176
     1
 40
1.0
176
     1
 90
        1
176
     1
 90
        6
176
     1
 90
        2
176
     1
 62
     7
176
     1
 90
        5
176
     1
 90
        0
176
     1
 90
        0
176
     1
290
     0
176
     1
 90
        1
176
     1
 40
0.0
176
     1
 90
        0
176
     1
290
     1
176
     1
290
     1
176
     1
290
     0
176
     1
290
     0
176
     1
290
     0
176
     1
290
     0
176
     1
290
     0
176
     1
290
     0
176
     1
290
     0
176
     1
 90
       50
176
     1
 40
0.0
176
     1
 40
1.0
176
     1
 90
        0
176
     1
 62
    18
420
        0
176
     1
 90
       50
176
     1
 90
        3
176
     1
 62
     5
420
      255
176
     1
290
     0
176
     1
 90
       50
176
     1
 90
       50
176
     1
 90
       50
176
     1
290
     0
176
     1
 90
       50
176
     1
 62
   256
176
     0
 40
1.0
176
     0
 90
        2
176
     1
  1
strokes_ogs.tif
176
     1
290
     0
176
     1
 40
1.0
176
     1
 40
1.0
176
     1
  0
VISUALSTYLE
  5
31
102
{ACAD_REACTORS
330
2A
102
}
330
2A
100
AcDbVisualStyle
  2
3D Hidden
 70
     6
177
     3
291
     0
 70
    58
 90
        1
176
     1
 90
        2
176
     1
 90
        2
176
     1
 90
        0
176
     1
 40
0.6
176
     1
 40
30.0
176
     1
 62
     7
176
     1
 90
        2
176
     1
 90
        2
176
     1
 62
     7
176
     1
 62
   257
176
     1
 90
        2
176
     1
 90
        1
176
     1
 40
40.0
176
     1
 90
        0
176
     1
 62
   257
176
     1
 40
1.0
176
     1
 90
        1
176
     1
 90
        6
176
     1
 90
        2
176
     1
 62
     7
176
     1
 90
        3
176
     1
 90
        0
176
     1
 90
        0
176
     1
290
     0
176
     1
 90
        1
176
     1
 40
0.0
176
     1
 90
        0
176
     1
290
     0
176
     1
290
     1
176
     1
290
     1
176
     1
290
     0
176
     1
290
     0
176
     1
290
     0
176
     1
290
     0
176
     1
290
     0
176
     1
290
     0
176
     1
 90
       50
176
     1
 40
0.0
176
     1
 40
1.0
176
     1
 90
        0
176
     1
 62
    18
420
        0
176
     1
 90
       50
176
     1
 90
        3
176
     1
 62
     5
420
      255
176
     1
290
     0
176
     1
 90
       50
176
     1
 90
       50
176
     1
 90
       50
176
     1
290
     0
176
     1
 90
       50
176
     1
 62
   256
176
     0
 40
1.0
176
     0
 90
        2
176
     1
  1
strokes_ogs.tif
176
     1
290
     0
176
     1
 40
1.0
176
     1
 40
1.0
176
     1
  0
VISUALSTYLE
  5
30
102
{ACAD_REACTORS
330
2A
102
}
330
2A
100
AcDbVisualStyle
  2
3dWireframe
 70
     5
177
     3
291
     0
 70
    58
 90
        0
176
     1
 90
        2
176
     1
 90
        0
176
     1
 90
        0
176
     1
 40
0.6
176
     1
 40
30.0
176
     1
 62
     7
176
     1
 90
        1
176
     1
 90
        4
176
     1
 62
     7
176
     1
 62
   257
176
     1
 90
        1
176
     1
 90
        1
176
     1
 40
1.0
176
     1
 90
        0
176
     1
 62
   257
176
     1
 40
1.0
176
     1
 90
        1
176
     1
 90
        6
176
     1
 90
        2
176
     1
 62
     7
176
     1
 90
        5
176
     1
 90
        0
176
     1
 90
        0
176
     1
290
     0
176
     1
 90
        1
176
     1
 40
0.0
176
     1
 90
        0
176
     1
290
     0
176
     1
290
     1
176
     1
290
     1
176
     1
290
     0
176
     1
290
     0
176
     1
290
     0
176
     1
290
     0
176
     1
290
     0
176
     1
290
     0
176
     1
 90
       50
176
     1
 40
0.0
176
     1
 40
1.0
176
     1
 90
        0
176
     1
 62
    18
420
        0
176
     1
 90
       50
176
     1
 90
        3
176
     1
 62
     5
420
      255
176
     1
290
     0
176
     1
 90
       50
176
     1
 90
       50
176
     1
 90
       50
176
     1
290
     0
176
     1
 90
       50
176
     1
 62
   256
176
     0
 40
1.0
176
     0
 90
        2
176
     1
  1
strokes_ogs.tif
176
     1
290
     0
176
     1
 40
1.0
176
     1
 40
1.0
176
     1
  0
VISUALSTYLE
  5
32
102
{ACAD_REACTORS
330
2A
102
}
330
2A
100
AcDbVisualStyle
  2
Basic
 70
     7
177
     3
291
     1
 70
    58
 90
        1
176
     1
 90
        0
176
     1
 90
        1
176
     1
 90
        0
176
     1
 40
0.6
176
     1
 40
30.0
176
     1
 62
     7
176
     1
 90
        0
176
     1
 90
        4
176
     1
 62
     7
176
     1
 62
   257
176
     1
 90
        1
176
     1
 90
        1
176
     1
 40
1.0
176
     1
 90
        8
176
     1
 62
     7
176
     1
 40
1.0
176
     1
 90
        1
176
     1
 90
        6
176
     1
 90
        2
176
     1
 62
     7
176
     1
 90
        5
176
     1
 90
        0
176
     1
 90
        0
176
     1
290
     0
176
     1
 90
        1
176
     1
 40
0.0
176
     1
 90
        0
176
     1
290
     0
176
     1
290
     1
176
     1
290
     1
176
     1
290
     0
176
     1
290
     0
176
     1
290
     0
176
     1
290
     0
176
     1
290
     0
176
     1
290
     0
176
     1
 90
       50
176
     1
 40
0.0
176
     1
 40
1.0
176
     1
 90
        0
176
     1
 62
    18
420
        0
176
     1
 90
       50
176
     1
 90
        3
176
     1
 62
     5
420
      255
176
     1
290
     0
176
     1
 90
       50
176
     1
 90
       50
176
     1
 90
       50
176
     1
290
     0
176
     1
 90
       50
176
     1
 62
   256
176
     0
 40
1.0
176
     0
 90
        2
176
     1
  1
strokes_ogs.tif
176
     1
290
     0
176
     1
 40
1.0
176
     1
 40
1.0
176
     1
  0
VISUALSTYLE
  5
36
102
{ACAD_REACTORS
330
2A
102
}
330
2A
100
AcDbVisualStyle
  2
Brighten
 70
    12
177
     3
291
     1
 70
    58
 90
        2
176
     1
 90
        2
176
     1
 90
        0
176
     1
 90
        0
176
     1
 40
0.6
176
     1
 40
30.0
176
     1
 62
     7
176
     1
 90
        1
176
     1
 90
        4
176
     1
 62
     7
176
     1
 62
   257
176
     1
 90
        1
176
     1
 90
        1
176
     1
 40
1.0
176
     1
 90
        8
176
     1
 62
     7
176
     1
 40
1.0
176
     1
 90
        1
176
     1
 90
        6
176
     1
 90
        2
176
     1
 62
     7
176
     1
 90
        5
176
     1
 90
        0
176
     1
 90
        0
176
     1
290
     0
176
     1
 90
        1
176
     1
 40
50.0
176
     1
 90
        0
176
     1
290
     0
176
     1
290
     1
176
     1
290
     1
176
     1
290
     0
176
     1
290
     0
176
     1
290
     0
176
     1
290
     0
176
     1
290
     0
176
     1
290
     0
176
     1
 90
       50
176
     1
 40
0.0
176
     1
 40
1.0
176
     1
 90
        0
176
     1
 62
    18
420
        0
176
     1
 90
       50
176
     1
 90
        3
176
     1
 62
     5
420
      255
176
     1
290
     0
176
     1
 90
       50
176
     1
 90
       50
176
     1
 90
       50
176
     1
290
     0
176
     1
 90
       50
176
     1
 62
   256
176
     0
 40
1.0
176
     0
 90
        2
176
     1
  1
strokes_ogs.tif
176
     1
290
     0
176
     1
 40
1.0
176
     1
 40
1.0
176
     1
  0
VISUALSTYLE
  5
3A
102
{ACAD_REACTORS
330
2A
102
}
330
2A
100
AcDbVisualStyle
  2
ColorChange
 70
    16
177
     3
291
     1
 70
    58
 90
        2
176
     1
 90
        2
176
     1
 90
        3
176
     1
 90
        0
176
     1
 40
0.6
176
     1
 40
30.0
176
     1
 62
     8
176
     1
 90
        1
176
     1
 90
        4
176
     1
 62
     7
176
     1
 62
   257
176
     1
 90
        1
176
     1
 90
        1
176
     1
 40
1.0
176
     1
 90
        8
176
     1
 62
     8
176
     1
 40
1.0
176
     1
 90
        1
176
     1
 90
        6
176
     1
 90
        2
176
     1
 62
     7
176
     1
 90
        5
176
     1
 90
        0
176
     1
 90
        0
176
     1
290
     0
176
     1
 90
        1
176
     1
 40
0.0
176
     1
 90
        0
176
     1
290
     0
176
     1
290
     1
176
     1
290
     1
176
     1
290
     0
176
     1
290
     0
176
     1
290
     0
176
     1
290
     0
176
     1
290
     0
176
     1
290
     0
176
     1
 90
       50
176
     1
 40
0.0
176
     1
 40
1.0
176
     1
 90
        0
176
     1
 62
    18
420
        0
176
     1
 90
       50
176
     1
 90
        3
176
     1
 62
     5
420
      255
176
     1
290
     0
176
     1
 90
       50
176
     1
 90
       50
176
     1
 90
       50
176
     1
290
     0
176
     1
 90
       50
176
     1
 62
   256
176
     0
 40
1.0
176
     0
 90
        2
176
     1
  1
strokes_ogs.tif
176
     1
290
     0
176
     1
 40
1.0
176
     1
 40
1.0
176
     1
  0
VISUALSTYLE
  5
34
102
{ACAD_REACTORS
330
2A
102
}
330
2A
100
AcDbVisualStyle
  2
Conceptual
 70
     9
177
     3
291
     0
 70
    58
 90
        3
176
     1
 90
        2
176
     1
 90
        0
176
     1
 90
        0
176
     1
 40
0.6
176
     1
 40
30.0
176
     1
 62
     7
176
     1
 90
        2
176
     1
 90
        2
176
     1
 62
     7
176
     1
 62
   257
176
     1
 90
        1
176
     1
 90
        1
176
     1
 40
40.0
176
     1
 90
        8
176
     1
 62
     7
176
     1
 40
1.0
176
     1
 90
        1
176
     1
 90
        6
176
     1
 90
        2
176
     1
 62
     7
176
     1
 90
        3
176
     1
 90
        0
176
     1
 90
        0
176
     1
290
     0
176
     1
 90
        1
176
     1
 40
0.0
176
     1
 90
        0
176
     1
290
     0
176
     1
290
     1
176
     1
290
     1
176
     1
290
     0
176
     1
290
     0
176
     1
290
     0
176
     1
290
     0
176
     1
290
     0
176
     1
290
     0
176
     1
 90
       50
176
     1
 40
0.0
176
     1
 40
1.0
176
     1
 90
        0
176
     1
 62
    18
420
        0
176
     1
 90
       50
176
     1
 90
        3
176
     1
 62
     5
420
      255
176
     1
290
     0
176
     1
 90
       50
176
     1
 90
       50
176
     1
 90
       50
176
     1
290
     0
176
     1
 90
       50
176
     1
 62
   256
176
     0
 40
1.0
176
     0
 90
        2
176
     1
  1
strokes_ogs.tif
176
     1
290
     0
176
     1
 40
1.0
176
     1
 40
1.0
176
     1
  0
VISUALSTYLE
  5
35
102
{ACAD_REACTORS
330
2A
102
}
330
2A
100
AcDbVisualStyle
  2
Dim
 70
    11
177
     3
291
     1
 70
    58
 90
        2
176
     1
 90
        2
176
     1
 90
        0
176
     1
 90
        0
176
     1
 40
0.6
176
     1
 40
30.0
176
     1
 62
     7
176
     1
 90
        1
176
     1
 90
        4
176
     1
 62
     7
176
     1
 62
   257
176
     1
 90
        1
176
     1
 90
        1
176
     1
 40
1.0
176
     1
 90
        8
176
     1
 62
     7
176
     1
 40
1.0
176
     1
 90
        1
176
     1
 90
        6
176
     1
 90
        2
176
     1
 62
     7
176
     1
 90
        5
176
     1
 90
        0
176
     1
 90
        0
176
     1
290
     0
176
     1
 90
        1
176
     1
 40
-50.0
176
     1
 90
        0
176
     1
290
     0
176
     1
290
     1
176
     1
290
     1
176
     1
290
     0
176
     1
290
     0
176
     1
290
     0
176
     1
290
     0
176
     1
290
     0
176
     1
290
     0
176
     1
 90
       50
176
     1
 40
0.0
176
     1
 40
1.0
176
     1
 90
        0
176
     1
 62
    18
420
        0
176
     1
 90
       50
176
     1
 90
        3
176
     1
 62
     5
420
      255
176
     1
290
     0
176
     1
 90
       50
176
     1
 90
       50
176
     1
 90
       50
176
     1
290
     0
176
     1
 90
       50
176
     1
 62
   256
176
     0
 40
1.0
176
     0
 90
        2
176
     1
  1
strokes_ogs.tif
176
     1
290
     0
176
     1
 40
1.0
176
     1
 40
1.0
176
     1
  0
VISUALSTYLE
  5
FE
102
{ACAD_REACTORS
330
2A
102
}
330
2A
100
AcDbVisualStyle
  2
EdgeColorOff
 70
    22
177
     3
291
     1
 70
    58
 90
        2
176
     0
 90
        2
176
     0
 90
        0
176
     0
 90
        0
176
     0
 40
0.6
176
     0
 40
30.0
176
     0
 62
     7
420
 16777215
176
     0
 90
        1
176
     0
 90
        4
176
     0
 62
     7
176
     0
 62
   257
176
     0
 90
        1
176
     0
 90
        1
176
     0
 40
1.0
176
     0
 90
        8
176
     2
 62
     7
176
     0
 40
1.0
176
     0
 90
        1
176
     0
 90
        6
176
     0
 90
        2
176
     0
 62
     7
176
     0
 90
        5
176
     0
 90
        0
176
     0
 90
        0
176
     0
290
     0
176
     0
 90
        1
176
     0
 40
0.0
176
     0
 90
        0
176
     0
290
     0
176
     0
290
     1
176
     0
290
     1
176
     0
290
     0
176
     0
290
     0
176
     0
290
     0
176
     0
290
     0
176
     0
290
     0
176
     0
290
     0
176
     0
 90
       50
176
     0
 40
0.0
176
     0
 40
1.0
176
     0
 90
        0
176
     0
 62
    18
420
        0
176
     0
 90
       50
176
     0
 90
        3
176
     0
 62
     5
420
      255
176
     0
290
     0
176
     0
 90
       50
176
     0
 90
       50
176
     0
 90
       50
176
     0
290
     0
176
     0
 90
       50
176
     0
 62
   256
176
     0
 40
1.0
176
     0
 90
        2
176
     0
  1
strokes_ogs.tif
176
     0
290
     0
176
     0
 40
1.0
176
     0
 40
1.0
176
     0
  0
VISUALSTYLE
  5
39
102
{ACAD_REACTORS
330
2A
102
}
330
2A
100
AcDbVisualStyle
  2
Facepattern
 70
    15
177
     3
291
     1
 70
    58
 90
        2
176
     1
 90
        2
176
     1
 90
        0
176
     1
 90
        0
176
     1
 40
0.6
176
     1
 40
30.0
176
     1
 62
     7
176
     1
 90
        1
176
     1
 90
        4
176
     1
 62
     7
176
     1
 62
   257
176
     1
 90
        1
176
     1
 90
        1
176
     1
 40
1.0
176
     1
 90
        8
176
     1
 62
     7
176
     1
 40
1.0
176
     1
 90
        1
176
     1
 90
        6
176
     1
 90
        2
176
     1
 62
     7
176
     1
 90
        5
176
     1
 90
        0
176
     1
 90
        0
176
     1
290
     0
176
     1
 90
        1
176
     1
 40
0.0
176
     1
 90
        0
176
     1
290
     0
176
     1
290
     1
176
     1
290
     1
176
     1
290
     0
176
     1
290
     0
176
     1
290
     0
176
     1
290
     0
176
     1
290
     0
176
     1
290
     0
176
     1
 90
       50
176
     1
 40
0.0
176
     1
 40
1.0
176
     1
 90
        0
176
     1
 62
    18
420
        0
176
     1
 90
       50
176
     1
 90
        3
176
     1
 62
     5
420
      255
176
     1
290
     0
176
     1
 90
       50
176
     1
 90
       50
176
     1
 90
       50
176
     1
290
     0
176
     1
 90
       50
176
     1
 62
   256
176
     0
 40
1.0
176
     0
 90
        2
176
     1
  1
strokes_ogs.tif
176
     1
290
     0
176
     1
 40
1.0
176
     1
 40
1.0
176
     1
  0
VISUALSTYLE
  5
2B
102
{ACAD_REACTORS
330
2A
102
}
330
2A
100
AcDbVisualStyle
  2
Flat
 70
     0
177
     3
291
     1
 70
    58
 90
        2
176
     1
 90
        1
176
     1
 90
        1
176
     1
 90
        2
176
     1
 40
0.6
176
     1
 40
30.0
176
     1
 62
     7
176
     1
 90
        0
176
     1
 90
        4
176
     1
 62
     7
176
     1
 62
   257
176
     1
 90
        1
176
     1
 90
        1
176
     1
 40
1.0
176
     1
 90
        8
176
     1
 62
     7
176
     1
 40
1.0
176
     1
 90
        1
176
     1
 90
        6
176
     1
 90
        2
176
     1
 62
     7
176
     1
 90
        5
176
     1
 90
        0
176
     1
 90
        0
176
     1
290
     0
176
     1
 90
       13
176
     1
 40
0.0
176
     1
 90
        0
176
     1
290
     0
176
     1
290
     1
176
     1
290
     1
176
     1
290
     0
176
     1
290
     0
176
     1
290
     0
176
     1
290
     0
176
     1
290
     0
176
     1
290
     0
176
     1
 90
       50
176
     1
 40
0.0
176
     1
 40
1.0
176
     1
 90
        0
176
     1
 62
    18
420
        0
176
     1
 90
       50
176
     1
 90
        3
176
     1
 62
     5
420
      255
176
     1
290
     0
176
     1
 90
       50
176
     1
 90
       50
176
     1
 90
       50
176
     1
290
     0
176
     1
 90
       50
176
     1
 62
   256
176
     0
 40
1.0
176
     0
 90
        2
176
     1
  1
strokes_ogs.tif
176
     1
290
     0
176
     1
 40
1.0
176
     1
 40
1.0
176
     1
  0
VISUALSTYLE
  5
2C
102
{ACAD_REACTORS
330
2A
102
}
330
2A
100
AcDbVisualStyle
  2
FlatWithEdges
 70
     1
177
     3
291
     1
 70
    58
 90
        2
176
     1
 90
        1
176
     1
 90
        1
176
     1
 90
        2
176
     1
 40
0.6
176
     1
 40
30.0
176
     1
 62
     7
176
     1
 90
        1
176
     1
 90
        4
176
     1
 62
     7
176
     1
 62
   257
176
     1
 90
        1
176
     1
 90
        1
176
     1
 40
1.0
176
     1
 90
        0
176
     1
 62
   257
176
     1
 40
1.0
176
     1
 90
        1
176
     1
 90
        6
176
     1
 90
        2
176
     1
 62
     7
176
     1
 90
        5
176
     1
 90
        0
176
     1
 90
        0
176
     1
290
     0
176
     1
 90
       13
176
     1
 40
0.0
176
     1
 90
        0
176
     1
290
     0
176
     1
290
     1
176
     1
290
     1
176
     1
290
     0
176
     1
290
     0
176
     1
290
     0
176
     1
290
     0
176
     1
290
     0
176
     1
290
     0
176
     1
 90
       50
176
     1
 40
0.0
176
     1
 40
1.0
176
     1
 90
        0
176
     1
 62
    18
420
        0
176
     1
 90
       50
176
     1
 90
        3
176
     1
 62
     5
420
      255
176
     1
290
     0
176
     1
 90
       50
176
     1
 90
       50
176
     1
 90
       50
176
     1
290
     0
176
     1
 90
       50
176
     1
 62
   256
176
     0
 40
1.0
176
     0
 90
        2
176
     1
  1
strokes_ogs.tif
176
     1
290
     0
176
     1
 40
1.0
176
     1
 40
1.0
176
     1
  0
VISUALSTYLE
  5
2D
102
{ACAD_REACTORS
330
2A
102
}
330
2A
100
AcDbVisualStyle
  2
Gouraud
 70
     2
177
     3
291
     1
 70
    58
 90
        2
176
     1
 90
        2
176
     1
 90
        1
176
     1
 90
        2
176
     1
 40
0.6
176
     1
 40
30.0
176
     1
 62
     7
176
     1
 90
        0
176
     1
 90
        4
176
     1
 62
     7
176
     1
 62
   257
176
     1
 90
        1
176
     1
 90
        1
176
     1
 40
1.0
176
     1
 90
        0
176
     1
 62
     7
176
     1
 40
1.0
176
     1
 90
        1
176
     1
 90
        6
176
     1
 90
        2
176
     1
 62
     7
176
     1
 90
        5
176
     1
 90
        0
176
     1
 90
        0
176
     1
290
     0
176
     1
 90
       13
176
     1
 40
0.0
176
     1
 90
        0
176
     1
290
     0
176
     1
290
     1
176
     1
290
     1
176
     1
290
     0
176
     1
290
     0
176
     1
290
     0
176
     1
290
     0
176
     1
290
     0
176
     1
290
     0
176
     1
 90
       50
176
     1
 40
0.0
176
     1
 40
1.0
176
     1
 90
        0
176
     1
 62
    18
420
        0
176
     1
 90
       50
176
     1
 90
        3
176
     1
 62
     5
420
      255
176
     1
290
     0
176
     1
 90
       50
176
     1
 90
       50
176
     1
 90
       50
176
     1
290
     0
176
     1
 90
       50
176
     1
 62
   256
176
     0
 40
1.0
176
     0
 90
        2
176
     1
  1
strokes_ogs.tif
176
     1
290
     0
176
     1
 40
1.0
176
     1
 40
1.0
176
     1
  0
VISUALSTYLE
  5
2E
102
{ACAD_REACTORS
330
2A
102
}
330
2A
100
AcDbVisualStyle
  2
GouraudWithEdges
 70
     3
177
     3
291
     1
 70
    58
 90
        2
176
     1
 90
        2
176
     1
 90
        1
176
     1
 90
        2
176
     1
 40
0.6
176
     1
 40
30.0
176
     1
 62
     7
176
     1
 90
        1
176
     1
 90
        4
176
     1
 62
     7
176
     1
 62
   257
176
     1
 90
        1
176
     1
 90
        1
176
     1
 40
1.0
176
     1
 90
        0
176
     1
 62
   257
176
     1
 40
1.0
176
     1
 90
        1
176
     1
 90
        6
176
     1
 90
        2
176
     1
 62
     7
176
     1
 90
        5
176
     1
 90
        0
176
     1
 90
        0
176
     1
290
     0
176
     1
 90
       13
176
     1
 40
0.0
176
     1
 90
        0
176
     1
290
     0
176
     1
290
     1
176
     1
290
     1
176
     1
290
     0
176
     1
290
     0
176
     1
290
     0
176
     1
290
     0
176
     1
290
     0
176
     1
290
     0
176
     1
 90
       50
176
     1
 40
0.0
176
     1
 40
1.0
176
     1
 90
        0
176
     1
 62
    18
420
        0
176
     1
 90
       50
176
     1
 90
        3
176
     1
 62
     5
420
      255
176
     1
290
     0
176
     1
 90
       50
176
     1
 90
       50
176
     1
 90
       50
176
     1
290
     0
176
     1
 90
       50
176
     1
 62
   256
176
     0
 40
1.0
176
     0
 90
        2
176
     1
  1
strokes_ogs.tif
176
     1
290
     0
176
     1
 40
1.0
176
     1
 40
1.0
176
     1
  0
VISUALSTYLE
  5
F6
102
{ACAD_REACTORS
330
2A
102
}
330
2A
100
AcDbVisualStyle
  2
Hidden
 70
     6
177
     3
291
     0
 70
    58
 90
        1
176
     1
 90
        2
176
     1
 90
        2
176
     1
 90
        0
176
     1
 40
0.6
176
     1
 40
30.0
176
     1
 62
     7
420
 16777215
176
     1
 90
        2
176
     1
 90
        2
176
     1
 62
     7
176
     1
 62
   257
176
     1
 90
        2
176
     1
 90
        1
176
     1
 40
40.0
176
     1
 90
        0
176
     1
 62
   257
176
     1
 40
1.0
176
     1
 90
        1
176
     1
 90
        6
176
     1
 90
        2
176
     1
 62
     7
176
     1
 90
        3
176
     1
 90
        0
176
     1
 90
        0
176
     1
290
     0
176
     1
 90
        1
176
     1
 40
0.0
176
     1
 90
        0
176
     1
290
     0
176
     1
290
     1
176
     1
290
     1
176
     1
290
     0
176
     1
290
     0
176
     1
290
     0
176
     1
290
     0
176
     1
290
     0
176
     1
290
     0
176
     1
 90
       50
176
     1
 40
0.0
176
     1
 40
1.0
176
     1
 90
        0
176
     1
 62
    18
420
        0
176
     1
 90
       50
176
     1
 90
        3
176
     1
 62
     5
420
      255
176
     1
290
     0
176
     1
 90
       50
176
     1
 90
       50
176
     1
 90
       50
176
     1
290
     0
176
     1
 90
       50
176
     1
 62
   256
176
     0
 40
1.0
176
     0
 90
        2
176
     1
  1
strokes_ogs.tif
176
     1
290
     0
176
     1
 40
1.0
176
     1
 40
1.0
176
     1
  0
VISUALSTYLE
  5
FC
102
{ACAD_REACTORS
330
2A
102
}
330
2A
100
AcDbVisualStyle
  2
JitterOff
 70
    20
177
     3
291
     1
 70
    58
 90
        2
176
     0
 90
        2
176
     0
 90
        0
176
     0
 90
        0
176
     0
 40
0.6
176
     0
 40
30.0
176
     0
 62
     7
420
 16777215
176
     0
 90
        1
176
     0
 90
        4
176
     0
 62
     7
176
     0
 62
   257
176
     0
 90
        1
176
     0
 90
        1
176
     0
 40
1.0
176
     0
 90
       10
176
     2
 62
     7
176
     0
 40
1.0
176
     0
 90
        1
176
     0
 90
        6
176
     0
 90
        2
176
     0
 62
     7
176
     0
 90
        5
176
     0
 90
        0
176
     0
 90
        0
176
     0
290
     0
176
     0
 90
        1
176
     0
 40
0.0
176
     0
 90
        0
176
     0
290
     0
176
     0
290
     1
176
     0
290
     1
176
     0
290
     0
176
     0
290
     0
176
     0
290
     0
176
     0
290
     0
176
     0
290
     0
176
     0
290
     0
176
     0
 90
       50
176
     0
 40
0.0
176
     0
 40
1.0
176
     0
 90
        0
176
     0
 62
    18
420
        0
176
     0
 90
       50
176
     0
 90
        3
176
     0
 62
     5
420
      255
176
     0
290
     0
176
     0
 90
       50
176
     0
 90
       50
176
     0
 90
       50
176
     0
290
     0
176
     0
 90
       50
176
     0
 62
   256
176
     0
 40
1.0
176
     0
 90
        2
176
     0
  1
strokes_ogs.tif
176
     0
290
     0
176
     0
 40
1.0
176
     0
 40
1.0
176
     0
  0
VISUALSTYLE
  5
38
102
{ACAD_REACTORS
330
2A
102
}
330
2A
100
AcDbVisualStyle
  2
Linepattern
 70
    14
177
     3
291
     1
 70
    58
 90
        2
176
     1
 90
        2
176
     1
 90
        0
176
     1
 90
        0
176
     1
 40
0.6
176
     1
 40
30.0
176
     1
 62
     7
176
     1
 90
        1
176
     1
 90
        4
176
     1
 62
     7
176
     1
 62
   257
176
     1
 90
        7
176
     1
 90
        7
176
     1
 40
1.0
176
     1
 90
        8
176
     1
 62
     7
176
     1
 40
1.0
176
     1
 90
        1
176
     1
 90
        6
176
     1
 90
        2
176
     1
 62
     7
176
     1
 90
        5
176
     1
 90
        0
176
     1
 90
        0
176
     1
290
     0
176
     1
 90
        1
176
     1
 40
0.0
176
     1
 90
        0
176
     1
290
     0
176
     1
290
     1
176
     1
290
     1
176
     1
290
     0
176
     1
290
     0
176
     1
290
     0
176
     1
290
     0
176
     1
290
     0
176
     1
290
     0
176
     1
 90
       50
176
     1
 40
0.0
176
     1
 40
1.0
176
     1
 90
        0
176
     1
 62
    18
420
        0
176
     1
 90
       50
176
     1
 90
        3
176
     1
 62
     5
420
      255
176
     1
290
     0
176
     1
 90
       50
176
     1
 90
       50
176
     1
 90
       50
176
     1
290
     0
176
     1
 90
       50
176
     1
 62
   256
176
     0
 40
1.0
176
     0
 90
        2
176
     1
  1
strokes_ogs.tif
176
     1
290
     0
176
     1
 40
1.0
176
     1
 40
1.0
176
     1
  0
VISUALSTYLE
  5
FD
102
{ACAD_REACTORS
330
2A
102
}
330
2A
100
AcDbVisualStyle
  2
OverhangOff
 70
    21
177
     3
291
     1
 70
    58
 90
        2
176
     0
 90
        2
176
     0
 90
        0
176
     0
 90
        0
176
     0
 40
0.6
176
     0
 40
30.0
176
     0
 62
     7
420
 16777215
176
     0
 90
        1
176
     0
 90
        4
176
     0
 62
     7
176
     0
 62
   257
176
     0
 90
        1
176
     0
 90
        1
176
     0
 40
1.0
176
     0
 90
        9
176
     2
 62
     7
176
     0
 40
1.0
176
     0
 90
        1
176
     0
 90
        6
176
     0
 90
        2
176
     0
 62
     7
176
     0
 90
        5
176
     0
 90
        0
176
     0
 90
        0
176
     0
290
     0
176
     0
 90
        1
176
     0
 40
0.0
176
     0
 90
        0
176
     0
290
     0
176
     0
290
     1
176
     0
290
     1
176
     0
290
     0
176
     0
290
     0
176
     0
290
     0
176
     0
290
     0
176
     0
290
     0
176
     0
290
     0
176
     0
 90
       50
176
     0
 40
0.0
176
     0
 40
1.0
176
     0
 90
        0
176
     0
 62
    18
420
        0
176
     0
 90
       50
176
     0
 90
        3
176
     0
 62
     5
420
      255
176
     0
290
     0
176
     0
 90
       50
176
     0
 90
       50
176
     0
 90
       50
176
     0
290
     0
176
     0
 90
       50
176
     0
 62
   256
176
     0
 40
1.0
176
     0
 90
        2
176
     0
  1
strokes_ogs.tif
176
     0
290
     0
176
     0
 40
1.0
176
     0
 40
1.0
176
     0
  0
VISUALSTYLE
  5
33
102
{ACAD_REACTORS
330
2A
102
}
330
2A
100
AcDbVisualStyle
  2
Realistic
 70
     8
177
     3
291
     0
 70
    58
 90
        2
176
     1
 90
        2
176
     1
 90
        0
176
     1
 90
        0
176
     1
 40
0.6
176
     1
 40
30.0
176
     1
 62
     7
176
     1
 90
        1
176
     1
 90
        0
176
     1
 62
     7
176
     1
 62
   257
176
     1
 90
        1
176
     1
 90
        1
176
     1
 40
1.0
176
     1
 90
        8
176
     1
 62
     8
176
     1
 40
1.0
176
     1
 90
        1
176
     1
 90
        6
176
     1
 90
        2
176
     1
 62
     7
176
     1
 90
        5
176
     1
 90
        0
176
     1
 90
        0
176
     1
290
     0
176
     1
 90
       13
176
     1
 40
0.0
176
     1
 90
        0
176
     1
290
     0
176
     1
290
     1
176
     1
290
     1
176
     1
290
     0
176
     1
290
     0
176
     1
290
     0
176
     1
290
     0
176
     1
290
     0
176
     1
290
     0
176
     1
 90
       50
176
     1
 40
0.0
176
     1
 40
1.0
176
     1
 90
        0
176
     1
 62
    18
420
        0
176
     1
 90
       50
176
     1
 90
        3
176
     1
 62
     5
420
      255
176
     1
290
     0
176
     1
 90
       50
176
     1
 90
       50
176
     1
 90
       50
176
     1
290
     0
176
     1
 90
       50
176
     1
 62
   256
176
     0
 40
1.0
176
     0
 90
        2
176
     1
  1
strokes_ogs.tif
176
     1
290
     0
176
     1
 40
1.0
176
     1
 40
1.0
176
     1
  0
VISUALSTYLE
  5
FB
102
{ACAD_REACTORS
330
2A
102
}
330
2A
100
AcDbVisualStyle
  2
Shaded
 70
    27
177
     3
291
     0
 70
    58
 90
        2
176
     1
 90
        2
176
     1
 90
        1
176
     1
 90
        2
176
     1
 40
0.6
176
     1
 40
30.0
176
     1
 62
     7
420
 16777215
176
     1
 90
        0
176
     1
 90
        4
176
     1
 62
     7
176
     1
 62
   257
176
     1
 90
        1
176
     1
 90
        1
176
     1
 40
1.0
176
     1
 90
        8
176
     1
 62
   257
176
     1
 40
1.0
176
     1
 90
        1
176
     1
 90
        6
176
     1
 90
        2
176
     1
 62
     8
420
  7895160
176
     1
 90
        3
176
     1
 90
        0
176
     1
 90
        0
176
     1
290
     0
176
     1
 90
        5
176
     1
 40
0.0
176
     1
 90
        0
176
     1
290
     0
176
     1
290
     1
176
     1
290
     1
176
     1
290
     0
176
     1
290
     0
176
     1
290
     0
176
     1
290
     0
176
     1
290
     0
176
     1
290
     0
176
     1
 90
       50
176
     1
 40
0.0
176
     1
 40
1.0
176
     1
 90
        0
176
     1
 62
    18
420
        0
176
     1
 90
       50
176
     1
 90
        3
176
     1
 62
     5
420
      255
176
     1
290
     0
176
     1
 90
       50
176
     1
 90
       50
176
     1
 90
       50
176
     1
290
     0
176
     1
 90
       50
176
     1
 62
   256
176
     0
 40
1.0
176
     0
 90
        2
176
     1
  1
strokes_ogs.tif
176
     1
290
     0
176
     1
 40
1.0
176
     1
 40
1.0
176
     1
  0
VISUALSTYLE
  5
FA
102
{ACAD_REACTORS
330
2A
102
}
330
2A
100
AcDbVisualStyle
  2
Shaded with edges
 70
    26
177
     3
291
     0
 70
    58
 90
        2
176
     1
 90
        2
176
     1
 90
        1
176
     1
 90
        2
176
     1
 40
0.6
176
     1
 40
30.0
176
     1
 62
     7
420
 16777215
176
     1
 90
        1
176
     1
 90
        2
176
     1
 62
     7
176
     1
 62
   257
176
     1
 90
        2
176
     1
 90
        1
176
     1
 40
1.0
176
     1
 90
        8
176
     1
 62
   257
176
     1
 40
1.0
176
     1
 90
        1
176
     1
 90
        6
176
     1
 90
        2
176
     1
 62
     7
176
     1
 90
        3
176
     1
 90
        0
176
     1
 90
        0
176
     1
290
     0
176
     1
 90
        5
176
     1
 40
0.0
176
     1
 90
        0
176
     1
290
     0
176
     1
290
     1
176
     1
290
     1
176
     1
290
     0
176
     1
290
     0
176
     1
290
     0
176
     1
290
     0
176
     1
290
     0
176
     1
290
     0
176
     1
 90
       50
176
     1
 40
0.0
176
     1
 40
1.0
176
     1
 90
        0
176
     1
 62
    18
420
        0
176
     1
 90
       50
176
     1
 90
        3
176
     1
 62
     5
420
      255
176
     1
290
     0
176
     1
 90
       50
176
     1
 90
       50
176
     1
 90
       50
176
     1
290
     0
176
     1
 90
       50
176
     1
 62
   256
176
     0
 40
1.0
176
     0
 90
        2
176
     1
  1
strokes_ogs.tif
176
     1
290
     0
176
     1
 40
1.0
176
     1
 40
1.0
176
     1
  0
VISUALSTYLE
  5
F7
102
{ACAD_REACTORS
330
2A
102
}
330
2A
100
AcDbVisualStyle
  2
Shades of Gray
 70
    23
177
     3
291
     0
 70
    58
 90
        2
176
     1
 90
        2
176
     1
 90
        3
176
     1
 90
        0
176
     1
 40
0.6
176
     1
 40
30.0
176
     1
 62
     7
420
 16777215
176
     1
 90
        2
176
     1
 90
        2
176
     1
 62
     7
176
     1
 62
     7
176
     1
 90
        1
176
     1
 90
        1
176
     1
 40
40.0
176
     1
 90
        8
176
     1
 62
     7
176
     1
 40
1.0
176
     1
 90
        1
176
     1
 90
        6
176
     1
 90
        2
176
     1
 62
     7
176
     1
 90
        3
176
     1
 90
        0
176
     1
 90
        0
176
     1
290
     0
176
     1
 90
        1
176
     1
 40
0.0
176
     1
 90
        0
176
     1
290
     0
176
     1
290
     1
176
     1
290
     1
176
     1
290
     0
176
     1
290
     0
176
     1
290
     0
176
     1
290
     0
176
     1
290
     0
176
     1
290
     0
176
     1
 90
       50
176
     1
 40
0.0
176
     1
 40
1.0
176
     1
 90
        0
176
     1
 62
    18
420
        0
176
     1
 90
       50
176
     1
 90
        3
176
     1
 62
     5
420
      255
176
     1
290
     0
176
     1
 90
       50
176
     1
 90
       50
176
     1
 90
       50
176
     1
290
     0
176
     1
 90
       50
176
     1
 62
   256
176
     0
 40
1.0
176
     0
 90
        2
176
     1
  1
strokes_ogs.tif
176
     1
290
     0
176
     1
 40
1.0
176
     1
 40
1.0
176
     1
  0
VISUALSTYLE
  5
F8
102
{ACAD_REACTORS
330
2A
102
}
330
2A
100
AcDbVisualStyle
  2
Sketchy
 70
    24
177
     3
291
     0
 70
    58
 90
        1
176
     1
 90
        2
176
     1
 90
        2
176
     1
 90
        0
176
     1
 40
0.6
176
     1
 40
30.0
176
     1
 62
     7
420
 16777215
176
     1
 90
        2
176
     1
 90
        2
176
     1
 62
     7
176
     1
 62
     7
176
     1
 90
        1
176
     1
 90
        1
176
     1
 40
40.0
176
     1
 90
       11
176
     1
 62
     7
176
     1
 40
1.0
176
     1
 90
        1
176
     1
 90
        6
176
     1
 90
        2
176
     1
 62
     7
176
     1
 90
        6
176
     1
 90
        0
176
     1
 90
        0
176
     1
290
     0
176
     1
 90
        1
176
     1
 40
0.0
176
     1
 90
        0
176
     1
290
     0
176
     1
290
     1
176
     1
290
     1
176
     1
290
     0
176
     1
290
     0
176
     1
290
     0
176
     1
290
     0
176
     1
290
     0
176
     1
290
     0
176
     1
 90
       50
176
     1
 40
0.0
176
     1
 40
1.0
176
     1
 90
        0
176
     1
 62
    18
420
        0
176
     1
 90
       50
176
     1
 90
        3
176
     1
 62
     5
420
      255
176
     1
290
     0
176
     1
 90
       50
176
     1
 90
       50
176
     1
 90
       50
176
     1
290
     0
176
     1
 90
       50
176
     1
 62
   256
176
     0
 40
1.0
176
     0
 90
        2
176
     1
  1
strokes_ogs.tif
176
     1
290
     0
176
     1
 40
1.0
176
     1
 40
1.0
176
     1
  0
VISUALSTYLE
  5
37
102
{ACAD_REACTORS
330
2A
102
}
330
2A
100
AcDbVisualStyle
  2
Thicken
 70
    13
177
     3
291
     1
 70
    58
 90
        2
176
     1
 90
        2
176
     1
 90
        0
176
     1
 90
        0
176
     1
 40
0.6
176
     1
 40
30.0
176
     1
 62
     7
176
     1
 90
        1
176
     1
 90
        4
176
     1
 62
     7
176
     1
 62
   257
176
     1
 90
        1
176
     1
 90
        1
176
     1
 40
1.0
176
     1
 90
       12
176
     1
 62
     7
176
     1
 40
1.0
176
     1
 90
        1
176
     1
 90
        6
176
     1
 90
        2
176
     1
 62
     7
176
     1
 90
        5
176
     1
 90
        0
176
     1
 90
        0
176
     1
290
     0
176
     1
 90
        1
176
     1
 40
0.0
176
     1
 90
        0
176
     1
290
     0
176
     1
290
     1
176
     1
290
     1
176
     1
290
     0
176
     1
290
     0
176
     1
290
     0
176
     1
290
     0
176
     1
290
     0
176
     1
290
     0
176
     1
 90
       50
176
     1
 40
0.0
176
     1
 40
1.0
176
     1
 90
        0
176
     1
 62
    18
420
        0
176
     1
 90
       50
176
     1
 90
        3
176
     1
 62
     5
420
      255
176
     1
290
     0
176
     1
 90
       50
176
     1
 90
       50
176
     1
 90
       50
176
     1
290
     0
176
     1
 90
       50
176
     1
 62
   256
176
     0
 40
1.0
176
     0
 90
        2
176
     1
  1
strokes_ogs.tif
176
     1
290
     0
176
     1
 40
1.0
176
     1
 40
1.0
176
     1
  0
VISUALSTYLE
  5
F5
102
{ACAD_REACTORS
330
2A
102
}
330
2A
100
AcDbVisualStyle
  2
Wireframe
 70
     5
177
     3
291
     0
 70
    58
 90
        0
176
     1
 90
        2
176
     1
 90
        0
176
     1
 90
        0
176
     1
 40
0.6
176
     1
 40
30.0
176
     1
 62
     7
420
 16777215
176
     1
 90
        1
176
     1
 90
        4
176
     1
 62
     7
176
     1
 62
   257
176
     1
 90
        1
176
     1
 90
        1
176
     1
 40
1.0
176
     1
 90
        0
176
     1
 62
   257
176
     1
 40
1.0
176
     1
 90
        1
176
     1
 90
        6
176
     1
 90
        2
176
     1
 62
     7
176
     1
 90
        3
176
     1
 90
        0
176
     1
 90
        0
176
     1
290
     0
176
     1
 90
        1
176
     1
 40
0.0
176
     1
 90
        0
176
     1
290
     0
176
     1
290
     1
176
     1
290
     1
176
     1
290
     0
176
     1
290
     0
176
     1
290
     0
176
     1
290
     0
176
     1
290
     0
176
     1
290
     0
176
     1
 90
       50
176
     1
 40
0.0
176
     1
 40
1.0
176
     1
 90
        0
176
     1
 62
    18
420
        0
176
     1
 90
       50
176
     1
 90
        3
176
     1
 62
     5
420
      255
176
     1
290
     0
176
     1
 90
       50
176
     1
 90
       50
176
     1
 90
       50
176
     1
290
     0
176
     1
 90
       50
176
     1
 62
   256
176
     0
 40
1.0
176
     0
 90
        2
176
     1
  1
strokes_ogs.tif
176
     1
290
     0
176
     1
 40
1.0
176
     1
 40
1.0
176
     1
  0
VISUALSTYLE
  5
F9
102
{ACAD_REACTORS
330
2A
102
}
330
2A
100
AcDbVisualStyle
  2
X-Ray
 70
    25
177
     3
291
     0
 70
    58
 90
        2
176
     1
 90
        2
176
     1
 90
        1
176
     1
 90
        1
176
     1
 40
0.5
176
     1
 40
30.0
176
     1
 62
     7
420
 16777215
176
     1
 90
        1
176
     1
 90
        0
176
     1
 62
     7
176
     1
 62
   257
176
     1
 90
        1
176
     1
 90
        1
176
     1
 40
1.0
176
     1
 90
        8
176
     1
 62
     7
176
     1
 40
1.0
176
     1
 90
        1
176
     1
 90
        6
176
     1
 90
        2
176
     1
 62
     7
176
     1
 90
        3
176
     1
 90
        0
176
     1
 90
        0
176
     1
290
     0
176
     1
 90
       13
176
     1
 40
0.0
176
     1
 90
        0
176
     1
290
     0
176
     1
290
     1
176
     1
290
     1
176
     1
290
     0
176
     1
290
     0
176
     1
290
     0
176
     1
290
     0
176
     1
290
     0
176
     1
290
     0
176
     1
 90
       50
176
     1
 40
0.0
176
     1
 40
1.0
176
     1
 90
        0
176
     1
 62
    18
420
        0
176
     1
 90
       50
176
     1
 90
        3
176
     1
 62
     5
420
      255
176
     1
290
     0
176
     1
 90
       50
176
     1
 90
       50
176
     1
 90
       50
176
     1
290
     0
176
     1
 90
       50
176
     1
 62
   256
176
     0
 40
1.0
176
     0
 90
        2
176
     1
  1
strokes_ogs.tif
176
     1
290
     0
176
     1
 40
1.0
176
     1
 40
1.0
176
     1
  0
DICTIONARYVAR
  5
147
102
{ACAD_REACTORS
330
141
102
}
330
141
100
DictionaryVariables
280
     0
  1
1:1
  0
DICTIONARYVAR
  5
143
102
{ACAD_REACTORS
330
141
102
}
330
141
100
DictionaryVariables
280
     0
  1
STANDARD
  0
DICTIONARYVAR
  5
142
102
{ACAD_REACTORS
330
141
102
}
330
141
100
DictionaryVariables
280
     0
  1
STANDARD
  0
DICTIONARYVAR
  5
144
102
{ACAD_REACTORS
330
141
102
}
330
141
100
DictionaryVariables
280
     0
  1
Imperial24
  0
DICTIONARYVAR
  5
145
102
{ACAD_REACTORS
330
141
102
}
330
141
100
DictionaryVariables
280
     0
  1
Imperial24
  0
DICTIONARYVAR
  5
149
102
{ACAD_REACTORS
330
141
102
}
330
141
100
DictionaryVariables
280
     0
  1
1
  0
DICTIONARYVAR
  5
14A
102
{ACAD_REACTORS
330
141
102
}
330
141
100
DictionaryVariables
280
     0
  1
15
  0
DICTIONARYVAR
  5
148
102
{ACAD_REACTORS
330
141
102
}
330
141
100
DictionaryVariables
280
     0
  1
0
  0
DICTIONARYVAR
  5
146
102
{ACAD_REACTORS
330
141
102
}
330
141
100
DictionaryVariables
280
     0
  1
0
  0
DICTIONARY
  5
15F
330
22
100
AcDbDictionary
280
     1
281
     1
  0
DICTIONARY
  5
E6
330
E5
100
AcDbDictionary
280
     1
281
     1
  3
BUMPTILE
360
E8
  3
DIFFUSETILE
360
E7
  3
OPACITYTILE
360
EB
  3
REFLECTIONTILE
360
EA
  3
REFRACTIONTILE
360
EC
  3
SPECULARTILE
360
E9
  0
DICTIONARY
  5
DE
330
DD
100
AcDbDictionary
280
     1
281
     1
  3
BUMPTILE
360
E0
  3
DIFFUSETILE
360
DF
  3
OPACITYTILE
360
E3
  3
REFLECTIONTILE
360
E2
  3
REFRACTIONTILE
360
E4
  3
SPECULARTILE
360
E1
  0
DICTIONARY
  5
EE
330
ED
100
AcDbDictionary
280
     1
281
     1
  3
BUMPTILE
360
F0
  3
DIFFUSETILE
360
EF
  3
OPACITYTILE
360
F3
  3
REFLECTIONTILE
360
F2
  3
REFRACTIONTILE
360
F4
  3
SPECULARTILE
360
F1
  0
DICTIONARY
  5
152
330
100
100
AcDbDictionary
280
     1
281
     1
  3
ACAD_ROUNDTRIP_2008_TABLESTYLE_CELLSTYLEMAP
360
264
  0
XRECORD
  5
E8
102
{ACAD_REACTORS
330
E6
102
}
330
E6
100
AcDbXrecord
280
     1
270
     1
271
     1
  0
XRECORD
  5
E7
102
{ACAD_REACTORS
330
E6
102
}
330
E6
100
AcDbXrecord
280
     1
270
     1
271
     1
  0
XRECORD
  5
EB
102
{ACAD_REACTORS
330
E6
102
}
330
E6
100
AcDbXrecord
280
     1
270
     1
271
     1
  0
XRECORD
  5
EA
102
{ACAD_REACTORS
330
E6
102
}
330
E6
100
AcDbXrecord
280
     1
270
     1
271
     1
  0
XRECORD
  5
EC
102
{ACAD_REACTORS
330
E6
102
}
330
E6
100
AcDbXrecord
280
     1
270
     1
271
     1
  0
XRECORD
  5
E9
102
{ACAD_REACTORS
330
E6
102
}
330
E6
100
AcDbXrecord
280
     1
270
     1
271
     1
  0
XRECORD
  5
E0
102
{ACAD_REACTORS
330
DE
102
}
330
DE
100
AcDbXrecord
280
     1
270
     1
271
     1
  0
XRECORD
  5
DF
102
{ACAD_REACTORS
330
DE
102
}
330
DE
100
AcDbXrecord
280
     1
270
     1
271
     1
  0
XRECORD
  5
E3
102
{ACAD_REACTORS
330
DE
102
}
330
DE
100
AcDbXrecord
280
     1
270
     1
271
     1
  0
XRECORD
  5
E2
102
{ACAD_REACTORS
330
DE
102
}
330
DE
100
AcDbXrecord
280
     1
270
     1
271
     1
  0
XRECORD
  5
E4
102
{ACAD_REACTORS
330
DE
102
}
330
DE
100
AcDbXrecord
280
     1
270
     1
271
     1
  0
XRECORD
  5
E1
102
{ACAD_REACTORS
330
DE
102
}
330
DE
100
AcDbXrecord
280
     1
270
     1
271
     1
  0
XRECORD
  5
F0
102
{ACAD_REACTORS
330
EE
102
}
330
EE
100
AcDbXrecord
280
     1
270
     1
271
     1
  0
XRECORD
  5
EF
102
{ACAD_REACTORS
330
EE
102
}
330
EE
100
AcDbXrecord
280
     1
270
     1
271
     1
  0
XRECORD
  5
F3
102
{ACAD_REACTORS
330
EE
102
}
330
EE
100
AcDbXrecord
280
     1
270
     1
271
     1
  0
XRECORD
  5
F2
102
{ACAD_REACTORS
330
EE
102
}
330
EE
100
AcDbXrecord
280
     1
270
     1
271
     1
  0
XRECORD
  5
F4
102
{ACAD_REACTORS
330
EE
102
}
330
EE
100
AcDbXrecord
280
     1
270
     1
271
     1
  0
XRECORD
  5
F1
102
{ACAD_REACTORS
330
EE
102
}
330
EE
100
AcDbXrecord
280
     1
270
     1
271
     1
  0
CELLSTYLEMAP
  5
264
102
{ACAD_REACTORS
330
152
102
}
330
152
100
AcDbCellStyleMap
 90
        3
300
CELLSTYLE
  1
TABLEFORMAT_BEGIN
 90
        5
170
     1
 91
        0
 92
    32768
 62
   257
 93
        1
300
CONTENTFORMAT
  1
CONTENTFORMAT_BEGIN
 90
        0
 91
        0
 92
      512
 93
        0
300

 40
0.0
140
1.0
 94
        5
 62
     0
340
11
144
0.25
309
CONTENTFORMAT_END
171
     0
 94
        0
309
TABLEFORMAT_END
  1
CELLSTYLE_BEGIN
 90
        1
 91
        1
300
_TITLE
309
CELLSTYLE_END
300
CELLSTYLE
  1
TABLEFORMAT_BEGIN
 90
        5
170
     1
 91
        0
 92
        0
 62
   257
 93
        1
300
CONTENTFORMAT
  1
CONTENTFORMAT_BEGIN
 90
        0
 91
        0
 92
      512
 93
        0
300

 40
0.0
140
1.0
 94
        5
 62
     0
340
11
144
0.18
309
CONTENTFORMAT_END
171
     0
 94
        0
309
TABLEFORMAT_END
  1
CELLSTYLE_BEGIN
 90
        2
 91
        1
300
_HEADER
309
CELLSTYLE_END
300
CELLSTYLE
  1
TABLEFORMAT_BEGIN
 90
        5
170
     1
 91
        0
 92
        0
 62
   257
 93
        1
300
CONTENTFORMAT
  1
CONTENTFORMAT_BEGIN
 90
        0
 91
        0
 92
      512
 93
        0
300

 40
0.0
140
1.0
 94
        2
 62
     0
340
11
144
0.18
309
CONTENTFORMAT_END
171
     0
 94
        0
309
TABLEFORMAT_END
  1
CELLSTYLE_BEGIN
 90
        3
 91
        2
300
_DATA
309
CELLSTYLE_END
  0
ENDSEC
  0
SECTION
  2
ACDSDATA
 70
     2
 71
     8
  0
ACDSSCHEMA
 90
        0
  1
AcDb_Thumbnail_Schema
  2
AcDbDs::ID
280
    10
 91
        8
  2
Thumbnail_Data
280
    15
 91
        0
101
ACDSRECORD
 95
        0
 90
        1
  2
AcDbDs::TreatedAsObjectData
280
     1
291
     1
101
ACDSRECORD
 95
        0
 90
        2
  2
AcDbDs::Legacy
280
     1
291
     1
101
ACDSRECORD
  1
AcDbDs::ID
 90
        3
  2
AcDs:Indexable
280
     1
291
     1
101
ACDSRECORD
  1
AcDbDs::ID
 90
        4
  2
AcDbDs::HandleAttribute
280
     7
282
     1
  0
ACDSSCHEMA
 90
        1
  1
AcDbDs::TreatedAsObjectDataSchema
  2
AcDbDs::TreatedAsObjectData
280
     1
 91
        0
  0
ACDSSCHEMA
 90
        2
  1
AcDbDs::LegacySchema
  2
AcDbDs::Legacy
280
     1
 91
        0
  0
ACDSSCHEMA
 90
        3
  1
AcDbDs::IndexedPropertySchema
  2
AcDs:Indexable
280
     1
 91
        0
  0
ACDSSCHEMA
 90
        4
  1
AcDbDs::HandleAttributeSchema
  2
AcDbDs::HandleAttribute
280
     7
 91
        1
284
     1
  0
ACDSRECORD
 90
        0
  2
AcDbDs::ID
280
    10
320
22
  2
Thumbnail_Data
280
    15
 94
     1067
310
89504E470D0A1A0A0000000D49484452000001000000006F08030000003479EE6F00000300504C5445212830FFFFFF2128300000000000000000000000000000000000000000000000000000330000660000990000CC0000FF0033000033330033660033990033CC0033FF0066000066330066660066990066CC0066FF0099
310
000099330099660099990099CC0099FF00CC0000CC3300CC6600CC9900CCCC00CCFF00FF0000FF3300FF6600FF9900FFCC00FFFF3300003300333300663300993300CC3300FF3333003333333333663333993333CC3333FF3366003366333366663366993366CC3366FF3399003399333399663399993399CC3399FF33CC00
310
33CC3333CC6633CC9933CCCC33CCFF33FF0033FF3333FF6633FF9933FFCC33FFFF6600006600336600666600996600CC6600FF6633006633336633666633996633CC6633FF6666006666336666666666996666CC6666FF6699006699336699666699996699CC6699FF66CC0066CC3366CC6666CC9966CCCC66CCFF66FF0066
310
FF3366FF6666FF9966FFCC66FFFF9900009900339900669900999900CC9900FF9933009933339933669933999933CC9933FF9966009966339966669966999966CC9966FF9999009999339999669999999999CC9999FF99CC0099CC3399CC6699CC9999CCCC99CCFF99FF0099FF3399FF6699FF9999FFCC99FFFFCC0000CC00
310
33CC0066CC0099CC00CCCC00FFCC3300CC3333CC3366CC3399CC33CCCC33FFCC6600CC6633CC6666CC6699CC66CCCC66FFCC9900CC9933CC9966CC9999CC99CCCC99FFCCCC00CCCC33CCCC66CCCC99CCCCCCCCCCFFCCFF00CCFF33CCFF66CCFF99CCFFCCCCFFFFFF0000FF0033FF0066FF0099FF00CCFF00FFFF3300FF3333
310
FF3366FF3399FF33CCFF33FFFF6600FF6633FF6666FF6699FF66CCFF66FFFF9900FF9933FF9966FF9999FF99CCFF99FFFFCC00FFCC33FFCC66FFCC99FFCCCCFFCCFFFFFF00FFFF33FFFF66FFFF99FFFFCCFFFFFF0000000D0D0D1A1A1A2828283535354343435050505D5D5D6B6B6B787878868686939393A1A1A1AEAEAEBB
310
BBBBC9C9C9D6D6D6E4E4E4F1F1F1FFFFFF0000000000000000000000000000000000000000000000000000000000002E4550F1000000E64944415478DAEDD7CB0EC220104051FEFF7F67AF31A2D5C8236A8C03E76CBAD0C4720B144B01605A5402C0AE4B400001BC06377E170820C0E6017010FA631E0FF0C34D5080F6773E
310
FB0501F2CF929982ABFEEFBEDC78E7EEE3E9BAD8F86FB7DDBCFF5D02340BCC2D81F3C77957C0757CD19D018B4E80E35BA23FB2FE4B245207A8979763A8D3636685A48C5003944E80D27CC28FA78C9C014A0D30D8039A01726F018700E35D329A05160810EF07C8FD572B62740C28A335903AC07D936F0CA17F501A9FA3724C
310
80CE16BE7A00BEB2880410000000000000000000000000000000000098740255270E7DBFDE87CA0000000049454E44AE426082
  0
ENDSEC
  0
EOF
