  0
SECTION
  2
HEADER
  9
$ACADVER
  1
AC1032
  9
$ACADMAINTVER
 90
        4
  9
$DWGCODEPAGE
  3
ANSI_1252
  9
$LASTSAVEDBY
  1
jesse.cowley
  9
$REQUIREDVERSIONS
160
                 0
  9
$INSBASE
 10
0.0
 20
0.0
 30
0.0
  9
$EXTMIN
 10
-2295.195577276917
 20
-924.1430722926336
 30
0.0
  9
$EXTMAX
 10
9968.853435234597
 20
2391.399856387938
 30
0.0
  9
$LIMMIN
 10
0.0
 20
0.0
  9
$LIMMAX
 10
12.0
 20
9.0
  9
$ORTHOMODE
 70
     0
  9
$REGENMODE
 70
     1
  9
$FILLMODE
 70
     1
  9
$QTEXTMODE
 70
     0
  9
$MIRRTEXT
 70
     1
  9
$LTSCALE
 40
1.0
  9
$ATTMODE
 70
     1
  9
$TEXTSIZE
 40
0.2
  9
$TRACEWID
 40
0.05
  9
$TEXTSTYLE
  7
Standard
  9
$CLAYER
  8
0
  9
$CELTYPE
  6
ByLayer
  9
$CECOLOR
 62
   256
  9
$CELTSCALE
 40
1.0
  9
$DISPSILH
 70
     0
  9
$DIMSCALE
 40
1.0
  9
$DIMASZ
 40
0.18
  9
$DIMEXO
 40
0.0625
  9
$DIMDLI
 40
0.38
  9
$DIMRND
 40
0.0
  9
$DIMDLE
 40
0.0
  9
$DIMEXE
 40
0.18
  9
$DIMTP
 40
0.0
  9
$DIMTM
 40
0.0
  9
$DIMTXT
 40
0.18
  9
$DIMCEN
 40
0.09
  9
$DIMTSZ
 40
0.0
  9
$DIMTOL
 70
     0
  9
$DIMLIM
 70
     0
  9
$DIMTIH
 70
     1
  9
$DIMTOH
 70
     1
  9
$DIMSE1
 70
     0
  9
$DIMSE2
 70
     0
  9
$DIMTAD
 70
     0
  9
$DIMZIN
 70
     0
  9
$DIMBLK
  1

  9
$DIMASO
 70
     1
  9
$DIMSHO
 70
     1
  9
$DIMPOST
  1

  9
$DIMAPOST
  1

  9
$DIMALT
 70
     0
  9
$DIMALTD
 70
     2
  9
$DIMALTF
 40
25.4
  9
$DIMLFAC
 40
1.0
  9
$DIMTOFL
 70
     0
  9
$DIMTVP
 40
0.0
  9
$DIMTIX
 70
     0
  9
$DIMSOXD
 70
     0
  9
$DIMSAH
 70
     0
  9
$DIMBLK1
  1

  9
$DIMBLK2
  1

  9
$DIMSTYLE
  2
Standard
  9
$DIMCLRD
 70
     0
  9
$DIMCLRE
 70
     0
  9
$DIMCLRT
 70
     0
  9
$DIMTFAC
 40
1.0
  9
$DIMGAP
 40
0.09
  9
$DIMJUST
 70
     0
  9
$DIMSD1
 70
     0
  9
$DIMSD2
 70
     0
  9
$DIMTOLJ
 70
     1
  9
$DIMTZIN
 70
     0
  9
$DIMALTZ
 70
     0
  9
$DIMALTTZ
 70
     0
  9
$DIMUPT
 70
     0
  9
$DIMDEC
 70
     4
  9
$DIMTDEC
 70
     4
  9
$DIMALTU
 70
     2
  9
$DIMALTTD
 70
     2
  9
$DIMTXSTY
  7
Standard
  9
$DIMAUNIT
 70
     0
  9
$DIMADEC
 70
     0
  9
$DIMALTRND
 40
0.0
  9
$DIMAZIN
 70
     0
  9
$DIMDSEP
 70
    46
  9
$DIMATFIT
 70
     3
  9
$DIMFRAC
 70
     0
  9
$DIMLDRBLK
  1

  9
$DIMLUNIT
 70
     2
  9
$DIMLWD
 70
    -2
  9
$DIMLWE
 70
    -2
  9
$DIMTMOVE
 70
     0
  9
$DIMFXL
 40
1.0
  9
$DIMFXLON
 70
     0
  9
$DIMJOGANG
 40
0.7853981633974483
  9
$DIMTFILL
 70
     0
  9
$DIMTFILLCLR
 70
     0
  9
$DIMARCSYM
 70
     0
  9
$DIMLTYPE
  6

  9
$DIMLTEX1
  6

  9
$DIMLTEX2
  6

  9
$DIMTXTDIRECTION
 70
     0
  9
$LUNITS
 70
     2
  9
$LUPREC
 70
     4
  9
$SKETCHINC
 40
0.1
  9
$FILLETRAD
 40
0.5
  9
$AUNITS
 70
     0
  9
$AUPREC
 70
     0
  9
$MENU
  1
.
  9
$ELEVATION
 40
0.0
  9
$PELEVATION
 40
0.0
  9
$THICKNESS
 40
0.0
  9
$LIMCHECK
 70
     0
  9
$CHAMFERA
 40
0.5
  9
$CHAMFERB
 40
0.5
  9
$CHAMFERC
 40
1.0
  9
$CHAMFERD
 40
0.0
  9
$SKPOLY
 70
     0
  9
$TDCREATE
 40
2456645.608935185
  9
$TDUCREATE
 40
2456645.150602674
  9
$TDUPDATE
 40
2458444.455057871
  9
$TDUUPDATE
 40
2458443.996724537
  9
$TDINDWG
 40
0.0107228125
  9
$TDUSRTIMER
 40
0.0107228125
  9
$USRTIMER
 70
     1
  9
$ANGBASE
 50
0.0
  9
$ANGDIR
 70
     0
  9
$PDMODE
 70
     0
  9
$PDSIZE
 40
0.0
  9
$PLINEWID
 40
0.0
  9
$SPLFRAME
 70
     0
  9
$SPLINETYPE
 70
     6
  9
$SPLINESEGS
 70
     8
  9
$HANDSEED
  5
2A9
  9
$SURFTAB1
 70
     6
  9
$SURFTAB2
 70
     6
  9
$SURFTYPE
 70
     6
  9
$SURFU
 70
     6
  9
$SURFV
 70
     6
  9
$UCSBASE
  2

  9
$UCSNAME
  2

  9
$UCSORG
 10
0.0
 20
0.0
 30
0.0
  9
$UCSXDIR
 10
1.0
 20
0.0
 30
0.0
  9
$UCSYDIR
 10
0.0
 20
1.0
 30
0.0
  9
$UCSORTHOREF
  2

  9
$UCSORTHOVIEW
 70
     0
  9
$UCSORGTOP
 10
0.0
 20
0.0
 30
0.0
  9
$UCSORGBOTTOM
 10
0.0
 20
0.0
 30
0.0
  9
$UCSORGLEFT
 10
0.0
 20
0.0
 30
0.0
  9
$UCSORGRIGHT
 10
0.0
 20
0.0
 30
0.0
  9
$UCSORGFRONT
 10
0.0
 20
0.0
 30
0.0
  9
$UCSORGBACK
 10
0.0
 20
0.0
 30
0.0
  9
$PUCSBASE
  2

  9
$PUCSNAME
  2

  9
$PUCSORG
 10
0.0
 20
0.0
 30
0.0
  9
$PUCSXDIR
 10
1.0
 20
0.0
 30
0.0
  9
$PUCSYDIR
 10
0.0
 20
1.0
 30
0.0
  9
$PUCSORTHOREF
  2

  9
$PUCSORTHOVIEW
 70
     0
  9
$PUCSORGTOP
 10
0.0
 20
0.0
 30
0.0
  9
$PUCSORGBOTTOM
 10
0.0
 20
0.0
 30
0.0
  9
$PUCSORGLEFT
 10
0.0
 20
0.0
 30
0.0
  9
$PUCSORGRIGHT
 10
0.0
 20
0.0
 30
0.0
  9
$PUCSORGFRONT
 10
0.0
 20
0.0
 30
0.0
  9
$PUCSORGBACK
 10
0.0
 20
0.0
 30
0.0
  9
$USERI1
 70
     0
  9
$USERI2
 70
     0
  9
$USERI3
 70
     0
  9
$USERI4
 70
     0
  9
$USERI5
 70
     0
  9
$USERR1
 40
0.0
  9
$USERR2
 40
0.0
  9
$USERR3
 40
0.0
  9
$USERR4
 40
0.0
  9
$USERR5
 40
0.0
  9
$WORLDVIEW
 70
     1
  9
$SHADEDGE
 70
     3
  9
$SHADEDIF
 70
    70
  9
$TILEMODE
 70
     1
  9
$MAXACTVP
 70
    64
  9
$PINSBASE
 10
0.0
 20
0.0
 30
0.0
  9
$PLIMCHECK
 70
     0
  9
$PEXTMIN
 10
1.000000000000000E+20
 20
1.000000000000000E+20
 30
1.000000000000000E+20
  9
$PEXTMAX
 10
-1.000000000000000E+20
 20
-1.000000000000000E+20
 30
-1.000000000000000E+20
  9
$PLIMMIN
 10
0.0
 20
0.0
  9
$PLIMMAX
 10
12.0
 20
9.0
  9
$UNITMODE
 70
     0
  9
$VISRETAIN
 70
     1
  9
$PLINEGEN
 70
     0
  9
$PSLTSCALE
 70
     1
  9
$TREEDEPTH
 70
  3020
  9
$CMLSTYLE
  2
Standard
  9
$CMLJUST
 70
     0
  9
$CMLSCALE
 40
1.0
  9
$PROXYGRAPHICS
 70
     1
  9
$MEASUREMENT
 70
     0
  9
$CELWEIGHT
370
    -1
  9
$ENDCAPS
280
     0
  9
$JOINSTYLE
280
     0
  9
$LWDISPLAY
290
     1
  9
$INSUNITS
 70
     1
  9
$HYPERLINKBASE
  1

  9
$STYLESHEET
  1

  9
$XEDIT
290
     1
  9
$CEPSNTYPE
380
     0
  9
$PSTYLEMODE
290
     1
  9
$FINGERPRINTGUID
  2
{FD1E1F3F-A43C-47F8-B66E-92334ACCE6A0}
  9
$VERSIONGUID
  2
{8B5B44F8-6E33-A148-8DCD-427E46D0865E}
  9
$EXTNAMES
290
     1
  9
$PSVPSCALE
 40
0.0
  9
$OLESTARTUP
290
     0
  9
$SORTENTS
280
   127
  9
$INDEXCTL
280
     0
  9
$HIDETEXT
280
     0
  9
$XCLIPFRAME
280
     2
  9
$HALOGAP
280
     0
  9
$OBSCOLOR
 70
   257
  9
$OBSLTYPE
280
     0
  9
$INTERSECTIONDISPLAY
280
     0
  9
$INTERSECTIONCOLOR
 70
   257
  9
$DIMASSOC
280
     1
  9
$PROJECTNAME
  1

  9
$CAMERADISPLAY
290
     0
  9
$LENSLENGTH
 40
50.0
  9
$CAMERAHEIGHT
 40
0.0
  9
$STEPSPERSEC
 40
2.0
  9
$STEPSIZE
 40
6.0
  9
$3DDWFPREC
 40
2.0
  9
$PSOLWIDTH
 40
0.25
  9
$PSOLHEIGHT
 40
4.0
  9
$LOFTANG1
 40
1.570796326794896
  9
$LOFTANG2
 40
1.570796326794896
  9
$LOFTMAG1
 40
0.0
  9
$LOFTMAG2
 40
0.0
  9
$LOFTPARAM
 70
     7
  9
$LOFTNORMALS
280
     1
  9
$LATITUDE
 40
37.795
  9
$LONGITUDE
 40
-122.394
  9
$NORTHDIRECTION
 40
0.0
  9
$TIMEZONE
 70
 -8000
  9
$LIGHTGLYPHDISPLAY
280
     1
  9
$TILEMODELIGHTSYNCH
280
     1
  9
$CMATERIAL
347
FB
  9
$SOLIDHIST
280
     1
  9
$SHOWHIST
280
     1
  9
$DWFFRAME
280
     2
  9
$DGNFRAME
280
     0
  9
$REALWORLDSCALE
290
     1
  9
$INTERFERECOLOR
 62
     1
  9
$INTERFEREOBJVS
345
33
  9
$INTERFEREVPVS
346
1E1
  9
$CSHADOW
280
     0
  9
$SHADOWPLANELOCATION
 40
0.0
  0
ENDSEC
  0
SECTION
  2
CLASSES
  0
CLASS
  1
ACDBDICTIONARYWDFLT
  2
AcDbDictionaryWithDefault
  3
ObjectDBX Classes
 90
        0
 91
        1
280
     0
281
     0
  0
CLASS
  1
VISUALSTYLE
  2
AcDbVisualStyle
  3
ObjectDBX Classes
 90
     4095
 91
       26
280
     0
281
     0
  0
CLASS
  1
MATERIAL
  2
AcDbMaterial
  3
ObjectDBX Classes
 90
     1153
 91
        3
280
     0
281
     0
  0
CLASS
  1
TABLESTYLE
  2
AcDbTableStyle
  3
ObjectDBX Classes
 90
     4095
 91
        1
280
     0
281
     0
  0
CLASS
  1
SCALE
  2
AcDbScale
  3
ObjectDBX Classes
 90
     1153
 91
       33
280
     0
281
     0
  0
CLASS
  1
MLEADERSTYLE
  2
AcDbMLeaderStyle
  3
ACDB_MLEADERSTYLE_CLASS
 90
     4095
 91
        1
280
     0
281
     0
  0
CLASS
  1
EXACXREFPANELOBJECT
  2
ExAcXREFPanelObject
  3
EXAC_ESW
 90
     1025
 91
        1
280
     0
281
     0
  0
CLASS
  1
NPOCOLLECTION
  2
AcDbImpNonPersistentObjectsCollection
  3
ObjectDBX Classes
 90
     1153
 91
        1
280
     0
281
     0
  0
CLASS
  1
SORTENTSTABLE
  2
AcDbSortentsTable
  3
ObjectDBX Classes
 90
        0
 91
        1
280
     0
281
     0
  0
CLASS
  1
DICTIONARYVAR
  2
AcDbDictionaryVar
  3
ObjectDBX Classes
 90
        0
 91
        9
280
     0
281
     0
  0
CLASS
  1
ACDBSECTIONVIEWSTYLE
  2
AcDbSectionViewStyle
  3
ObjectDBX Classes
 90
     1025
 91
        1
280
     0
281
     0
  0
CLASS
  1
ACDBDETAILVIEWSTYLE
  2
AcDbDetailViewStyle
  3
ObjectDBX Classes
 90
     1025
 91
        1
280
     0
281
     0
  0
CLASS
  1
CELLSTYLEMAP
  2
AcDbCellStyleMap
  3
ObjectDBX Classes
 90
     1152
 91
        1
280
     0
281
     0
  0
ENDSEC
  0
SECTION
  2
TABLES
  0
TABLE
  2
VPORT
  5
8
330
0
100
AcDbSymbolTable
 70
     1
  0
VPORT
  5
29
330
8
100
AcDbSymbolTableRecord
100
AcDbViewportTableRecord
  2
*Active
 70
     0
 10
0.0
 20
0.0
 11
1.0
 21
1.0
 12
5604.825960109092
 22
-562.6550066800355
 13
0.0
 23
0.0
 14
0.5
 24
0.5
 15
0.5
 25
0.5
 16
0.0
 26
0.0
 36
1.0
 17
148.4999796178229
 27
-105.0008259828643
 37
0.0
 40
11660.47082168845
 41
2.292712066905615
 42
50.0
 43
0.0
 44
0.0
 50
0.0
 51
0.0
 71
     0
 72
   100
 73
     1
 74
     3
 75
     0
 76
     0
 77
     0
 78
     0
281
     0
 65
     1
110
0.0
120
0.0
130
0.0
111
1.0
121
0.0
131
0.0
112
0.0
122
1.0
132
0.0
 79
     0
146
0.0
348
2F
 60
     3
 61
     5
292
     1
282
     1
141
0.0
142
0.0
 63
   250
421
  3355443
1001
ACAD_NAV_VCDISPLAY
1070
     3
  0
ENDTAB
  0
TABLE
  2
LTYPE
  5
5
330
0
100
AcDbSymbolTable
 70
     1
  0
LTYPE
  5
14
330
5
100
AcDbSymbolTableRecord
100
AcDbLinetypeTableRecord
  2
ByBlock
 70
     0
  3

 72
    65
 73
     0
 40
0.0
  0
LTYPE
  5
15
330
5
100
AcDbSymbolTableRecord
100
AcDbLinetypeTableRecord
  2
ByLayer
 70
     0
  3

 72
    65
 73
     0
 40
0.0
  0
LTYPE
  5
16
330
5
100
AcDbSymbolTableRecord
100
AcDbLinetypeTableRecord
  2
Continuous
 70
     0
  3
Solid line
 72
    65
 73
     0
 40
0.0
  0
ENDTAB
  0
TABLE
  2
LAYER
  5
2
102
{ACAD_XDICTIONARY
360
1D0
102
}
330
0
100
AcDbSymbolTable
 70
     4
  0
LAYER
  5
10
102
{ACAD_XDICTIONARY
360
1C9
102
}
330
2
100
AcDbSymbolTableRecord
100
AcDbLayerTableRecord
  2
0
 70
     0
 62
     7
  6
Continuous
370
    -3
390
F
347
10B
348
0
  0
LAYER
  5
3B
102
{ACAD_XDICTIONARY
360
1CB
102
}
330
2
100
AcDbSymbolTableRecord
100
AcDbLayerTableRecord
  2
Furniture
 70
     0
 62
     7
  6
Continuous
370
    -3
390
F
347
10B
348
0
  0
LAYER
  5
1F4
330
2
100
AcDbSymbolTableRecord
100
AcDbLayerTableRecord
  2
Dimensions
 70
     0
 62
     7
  6
Continuous
370
    -3
390
F
347
10B
348
0
1001
AcAecLayerStandard
1000

1000

1001
AcCmTransparency
1071
        0
  0
LAYER
  5
1F7
330
2
100
AcDbSymbolTableRecord
100
AcDbLayerTableRecord
  2
Text
 70
     0
 62
     7
  6
Continuous
370
    -3
390
F
347
10B
348
0
1001
AcAecLayerStandard
1000

1000

1001
AcCmTransparency
1071
        0
  0
ENDTAB
  0
TABLE
  2
STYLE
  5
3
330
0
100
AcDbSymbolTable
 70
     1
  0
STYLE
  5
11
330
3
100
AcDbSymbolTableRecord
100
AcDbTextStyleTableRecord
  2
Standard
 70
     0
 40
0.0
 41
1.000099999999999
 50
0.0
 71
     0
 42
0.2
  3
apercu_regular-webfont.ttf
  4

1001
ACAD
1000
Apercu
1071
        2
  0
ENDTAB
  0
TABLE
  2
VIEW
  5
6
330
0
100
AcDbSymbolTable
 70
     1
  0
ENDTAB
  0
TABLE
  2
UCS
  5
7
330
0
100
AcDbSymbolTable
 70
     0
  0
ENDTAB
  0
TABLE
  2
APPID
  5
9
330
0
100
AcDbSymbolTable
 70
     6
  0
APPID
  5
12
330
9
100
AcDbSymbolTableRecord
100
AcDbRegAppTableRecord
  2
ACAD
 70
     0
  0
APPID
  5
1F2
330
9
100
AcDbSymbolTableRecord
100
AcDbRegAppTableRecord
  2
ACAD_EXEMPT_FROM_CAD_STANDARDS
 70
     0
  0
APPID
  5
1F5
330
9
100
AcDbSymbolTableRecord
100
AcDbRegAppTableRecord
  2
AcAecLayerStandard
 70
     0
  0
APPID
  5
1F6
330
9
100
AcDbSymbolTableRecord
100
AcDbRegAppTableRecord
  2
AcCmTransparency
 70
     0
  0
APPID
  5
1FF
330
9
100
AcDbSymbolTableRecord
100
AcDbRegAppTableRecord
  2
ACAD_NAV_VCDISPLAY
 70
     0
  0
APPID
  5
24D
330
9
100
AcDbSymbolTableRecord
100
AcDbRegAppTableRecord
  2
AcadAnnoPO
 70
     0
  0
ENDTAB
  0
TABLE
  2
DIMSTYLE
  5
A
330
0
100
AcDbSymbolTable
 70
     1
100
AcDbDimStyleTable
 71
     0
  0
DIMSTYLE
105
27
330
A
100
AcDbSymbolTableRecord
100
AcDbDimStyleTableRecord
  2
Standard
 70
     0
340
11
  0
ENDTAB
  0
TABLE
  2
BLOCK_RECORD
  5
1
330
0
100
AcDbSymbolTable
 70
     7
  0
BLOCK_RECORD
  5
1F
102
{ACAD_XDICTIONARY
360
154
102
}
330
1
100
AcDbSymbolTableRecord
100
AcDbBlockTableRecord
  2
*Model_Space
340
22
 70
     0
280
     1
281
     0
  0
BLOCK_RECORD
  5
1B
330
1
100
AcDbSymbolTableRecord
100
AcDbBlockTableRecord
  2
*Paper_Space
340
1E
 70
     0
280
     1
281
     0
  0
BLOCK_RECORD
  5
23
330
1
100
AcDbSymbolTableRecord
100
AcDbBlockTableRecord
  2
*Paper_Space0
340
26
 70
     0
280
     1
281
     0
  0
BLOCK_RECORD
  5
3F
330
1
100
AcDbSymbolTableRecord
100
AcDbBlockTableRecord
  2
block 2
340
0
 70
     0
280
     1
281
     0
  0
BLOCK_RECORD
  5
52
330
1
100
AcDbSymbolTableRecord
100
AcDbBlockTableRecord
  2
block 3
340
0
 70
     0
280
     1
281
     0
  0
BLOCK_RECORD
  5
56
330
1
100
AcDbSymbolTableRecord
100
AcDbBlockTableRecord
  2
block 4
340
0
102
{BLKREFS
331
57
331
156
102
}
 70
     0
280
     1
281
     0
  0
BLOCK_RECORD
  5
AD
330
1
100
AcDbSymbolTableRecord
100
AcDbBlockTableRecord
  2
block 5
340
0
 70
     0
280
     1
281
     0
  0
BLOCK_RECORD
  5
C6
330
1
100
AcDbSymbolTableRecord
100
AcDbBlockTableRecord
  2
block 6
340
0
 70
     0
280
     1
281
     0
  0
BLOCK_RECORD
  5
CA
330
1
100
AcDbSymbolTableRecord
100
AcDbBlockTableRecord
  2
block 7
340
0
102
{BLKREFS
331
CB
102
}
 70
     0
280
     1
281
     0
  0
ENDTAB
  0
ENDSEC
  0
SECTION
  2
BLOCKS
  0
BLOCK
  5
20
330
1F
100
AcDbEntity
  8
0
100
AcDbBlockBegin
  2
*Model_Space
 70
     0
 10
0.0
 20
0.0
 30
0.0
  3
*Model_Space
  1

  0
ENDBLK
  5
21
330
1F
100
AcDbEntity
  8
0
100
AcDbBlockEnd
  0
BLOCK
  5
1C
330
1B
100
AcDbEntity
 67
     1
  8
0
100
AcDbBlockBegin
  2
*Paper_Space
 70
     0
 10
0.0
 20
0.0
 30
0.0
  3
*Paper_Space
  1

  0
ENDBLK
  5
1D
330
1B
100
AcDbEntity
 67
     1
  8
0
100
AcDbBlockEnd
  0
BLOCK
  5
24
330
23
100
AcDbEntity
 67
     1
  8
0
100
AcDbBlockBegin
  2
*Paper_Space0
 70
     0
 10
0.0
 20
0.0
 30
0.0
  3
*Paper_Space0
  1

  0
ENDBLK
  5
25
330
23
100
AcDbEntity
 67
     1
  8
0
100
AcDbBlockEnd
  0
BLOCK
  5
41
330
3F
100
AcDbEntity
  8
0
100
AcDbBlockBegin
  2
block 2
 70
     0
 10
0.0
 20
0.0
 30
0.0
  3
block 2
  1

  0
SPLINE
  5
43
330
3F
100
AcDbEntity
  8
Furniture
 62
   250
370
     9
100
AcDbSpline
210
0.0
220
0.0
230
1.0
 70
     8
 71
     3
 72
     8
 73
     4
 74
     0
 42
0.000000001
 43
0.0000000001
 40
0.0
 40
0.0
 40
0.0
 40
0.0
 40
1.0
 40
1.0
 40
1.0
 40
1.0
 10
152.2015624619496
 20
-108.9194498425618
 30
0.0
 10
152.1374836859239
 20
-108.9828395994904
 30
0.0
 10
151.9576497015939
 20
-109.2019476723523
 30
0.0
 10
152.0575574706662
 20
-110.1810438092603
 30
0.0
  0
SPLINE
  5
44
330
3F
100
AcDbEntity
  8
Furniture
 62
   250
370
     9
100
AcDbSpline
210
0.0
220
0.0
230
1.0
 70
     8
 71
     3
 72
    29
 73
    25
 74
     0
 42
0.000000001
 43
0.0000000001
 40
0.0
 40
0.0
 40
0.0
 40
0.0
 40
1.0
 40
1.0
 40
1.0
 40
2.0
 40
2.0
 40
2.0
 40
3.0
 40
3.0
 40
3.0
 40
4.0
 40
4.0
 40
4.0
 40
5.0
 40
5.0
 40
5.0
 40
6.0
 40
6.0
 40
6.0
 40
7.0
 40
7.0
 40
7.0
 40
8.0
 40
8.0
 40
8.0
 40
8.0
 10
152.0575574706662
 20
-110.1810438092603
 30
0.0
 10
152.0575574706662
 20
-110.1810438092603
 30
0.0
 10
152.4751030434784
 20
-113.9616915947734
 30
0.0
 10
152.4751030434784
 20
-113.9616915947734
 30
0.0
 10
152.4751030434784
 20
-113.9616915947734
 30
0.0
 10
152.4854383299342
 20
-114.038172714546
 30
0.0
 10
152.4854383299342
 20
-114.038172714546
 30
0.0
 10
152.4854383299342
 20
-114.169430852534
 30
0.0
 10
152.6983452309226
 20
-114.706865748233
 30
0.0
 10
153.0035806909158
 20
-114.8698187646853
 30
0.0
 10
153.5024305171799
 20
-115.1371581743407
 30
0.0
 10
157.3878092054447
 20
-115.3562662472026
 30
0.0
 10
159.5279025208819
 20
-115.0124457177746
 30
0.0
 10
159.5279025208819
 20
-115.0124457177746
 30
0.0
 10
159.5637315139285
 20
-115.003488469513
 30
0.0
 10
159.5637315139285
 20
-115.003488469513
 30
0.0
 10
160.5883029112418
 20
-114.8401909435122
 30
0.0
 10
161.4351073815162
 20
-114.4371147717379
 30
0.0
 10
161.5577527807911
 20
-112.900257675768
 30
0.0
 10
161.5577527807911
 20
-112.900257675768
 30
0.0
 10
161.5949598120318
 20
-111.6720811352764
 30
0.0
 10
161.5949598120318
 20
-111.6720811352764
 30
0.0
 10
161.5949598120318
 20
-111.6720811352764
 30
0.0
 10
161.681087199163
 20
-109.0937716741154
 30
0.0
 10
161.681087199163
 20
-109.0937716741154
 30
0.0
  0
SPLINE
  5
45
330
3F
100
AcDbEntity
  8
Furniture
 62
   250
370
     9
100
AcDbSpline
210
0.0
220
0.0
230
1.0
 70
     8
 71
     3
 72
    20
 73
    16
 74
     0
 42
0.000000001
 43
0.0000000001
 40
0.0
 40
0.0
 40
0.0
 40
0.0
 40
1.0
 40
1.0
 40
1.0
 40
2.0
 40
2.0
 40
2.0
 40
3.0
 40
3.0
 40
3.0
 40
4.0
 40
4.0
 40
4.0
 40
5.0
 40
5.0
 40
5.0
 40
5.0
 10
161.681087199163
 20
-109.0937716741154
 30
0.0
 10
161.681087199163
 20
-109.0937716741154
 30
0.0
 10
161.8974391956367
 20
-107.4869791397949
 30
0.0
 10
161.8974391956367
 20
-107.4869791397949
 30
0.0
 10
161.8974391956367
 20
-107.4869791397949
 30
0.0
 10
162.0228406712998
 20
-106.6629122997231
 30
0.0
 10
162.0228406712998
 20
-106.6629122997231
 30
0.0
 10
162.0269747858821
 20
-106.5698947216214
 30
0.0
 10
162.2571071642968
 20
-105.3573933655877
 30
0.0
 10
162.2770887181113
 20
-105.1870333938421
 30
0.0
 10
162.2970702719257
 20
-105.016328912548
 30
0.0
 10
162.3039604628962
 20
-105.0080606833834
 30
0.0
 10
162.3170518257402
 20
-104.7300414777237
 30
0.0
 10
162.3315212267782
 20
-104.5546861175245
 30
0.0
 10
162.3170518257402
 20
-104.1715914995647
 30
0.0
 10
162.3170518257402
 20
-104.1715914995647
 30
0.0
  0
SPLINE
  5
46
330
3F
100
AcDbEntity
  8
Furniture
 62
   250
370
     9
100
AcDbSpline
210
0.0
220
0.0
230
1.0
 70
     8
 71
     3
 72
     8
 73
     4
 74
     0
 42
0.000000001
 43
0.0000000001
 40
0.0
 40
0.0
 40
0.0
 40
0.0
 40
1.0
 40
1.0
 40
1.0
 40
1.0
 10
162.1585774334187
 20
-103.9538614648969
 30
0.0
 10
162.1964734837564
 20
-103.7926309961872
 30
0.0
 10
162.1158582494016
 20
-103.7364759397777
 30
0.0
 10
161.9725422772152
 20
-103.7364759397777
 30
0.0
  0
SPLINE
  5
47
330
3F
100
AcDbEntity
  8
Furniture
 62
   250
370
     9
100
AcDbSpline
210
0.0
220
0.0
230
1.0
 70
     8
 71
     3
 72
     8
 73
     4
 74
     0
 42
0.000000001
 43
0.0000000001
 40
0.0
 40
0.0
 40
0.0
 40
0.0
 40
1.0
 40
1.0
 40
1.0
 40
1.0
 10
162.1585774334187
 20
-103.9538614648969
 30
0.0
 10
162.2681314698496
 20
-103.9793551714878
 30
0.0
 10
162.3170518257402
 20
-104.0966606727605
 30
0.0
 10
162.3170518257402
 20
-104.1715914995647
 30
0.0
  0
SPLINE
  5
48
330
3F
100
AcDbEntity
  8
Furniture
 62
   250
370
     9
100
AcDbSpline
210
0.0
220
0.0
230
1.0
 70
     8
 71
     3
 72
    11
 73
     7
 74
     0
 42
0.000000001
 43
0.0000000001
 40
0.0
 40
0.0
 40
0.0
 40
0.0
 40
1.0
 40
1.0
 40
1.0
 40
2.0
 40
2.0
 40
2.0
 40
2.0
 10
153.4321505692808
 20
-107.2713161624183
 30
0.0
 10
153.4321505692808
 20
-107.2713161624183
 30
0.0
 10
153.3453341630526
 20
-108.2910644260522
 30
0.0
 10
153.3453341630526
 20
-108.2910644260522
 30
0.0
 10
153.3453341630526
 20
-108.2910644260522
 30
0.0
 10
152.5219563420778
 20
-108.357210259369
 30
0.0
 10
152.3855305608619
 20
-108.6838053113707
 30
0.0
  0
SPLINE
  5
49
330
3F
100
AcDbEntity
  8
Furniture
 62
   250
370
     9
100
AcDbSpline
210
0.0
220
0.0
230
1.0
 70
     8
 71
     3
 72
     8
 73
     4
 74
     0
 42
0.000000001
 43
0.0000000001
 40
0.0
 40
0.0
 40
0.0
 40
0.0
 40
1.0
 40
1.0
 40
1.0
 40
1.0
 10
152.2015624619496
 20
-108.9194498425618
 30
0.0
 10
152.0988986164891
 20
-108.8739745821565
 30
0.0
 10
152.2015624619496
 20
-108.5835530327499
 30
0.0
 10
152.3855305608619
 20
-108.6838053113707
 30
0.0
  0
SPLINE
  5
4A
330
3F
100
AcDbEntity
  8
Furniture
 62
   250
370
     9
100
AcDbSpline
210
0.0
220
0.0
230
1.0
 70
     8
 71
     3
 72
    14
 73
    10
 74
     0
 42
0.000000001
 43
0.0000000001
 40
0.0
 40
0.0
 40
0.0
 40
0.0
 40
1.0
 40
1.0
 40
1.0
 40
2.0
 40
2.0
 40
2.0
 40
3.0
 40
3.0
 40
3.0
 40
3.0
 10
153.4321505692808
 20
-107.2713161624183
 30
0.0
 10
153.6367892411047
 20
-105.6176703294983
 30
0.0
 10
153.5003634598888
 20
-104.5252305511256
 30
0.0
 10
156.2640190581562
 20
-104.1715914995647
 30
0.0
 10
156.2640190581562
 20
-104.1715914995647
 30
0.0
 10
156.3191405859202
 20
-104.1636677799486
 30
0.0
 10
156.3191405859202
 20
-104.1636677799486
 30
0.0
 10
156.3191405859202
 20
-104.1636677799486
 30
0.0
 10
161.9725422772152
 20
-103.7364759397777
 30
0.0
 10
161.9725422772152
 20
-103.7364759397777
 30
0.0
  0
SPLINE
  5
4B
330
3F
100
AcDbEntity
  8
Furniture
 62
   250
370
     9
100
AcDbSpline
210
0.0
220
0.0
230
1.0
 70
     8
 71
     3
 72
     8
 73
     4
 74
     0
 42
0.000000001
 43
0.0000000001
 40
0.0
 40
0.0
 40
0.0
 40
0.0
 40
1.0
 40
1.0
 40
1.0
 40
1.0
 10
152.3855305608619
 20
-108.6838053113707
 30
0.0
 10
152.4055121146764
 20
-108.8825873208696
 30
0.0
 10
153.2364691457186
 20
-108.812651882519
 30
0.0
 10
153.3453341630526
 20
-108.2910644260522
 30
0.0
  0
POLYLINE
  5
4C
330
3F
100
AcDbEntity
  8
Furniture
 62
   250
370
     9
100
AcDb2dPolyline
 66
     1
 10
0.0
 20
0.0
 30
0.0
  0
VERTEX
  5
4D
330
4C
100
AcDbEntity
  8
Furniture
 62
   250
370
     9
100
AcDbVertex
100
AcDb2dVertex
 10
162.1585774334187
 20
-103.9698811589033
 30
0.0
  0
VERTEX
  5
4E
330
4C
100
AcDbEntity
  8
Furniture
 62
   250
370
     9
100
AcDbVertex
100
AcDb2dVertex
 10
156.3653048654225
 20
-104.3739908593231
 30
0.0
  0
SEQEND
  5
4F
330
4C
100
AcDbEntity
  8
Furniture
370
     9
  0
SPLINE
  5
50
330
3F
100
AcDbEntity
  8
Furniture
 62
   250
370
     9
100
AcDbSpline
210
0.0
220
0.0
230
1.0
 70
     8
 71
     3
 72
     8
 73
     4
 74
     0
 42
0.000000001
 43
0.0000000001
 40
0.0
 40
0.0
 40
0.0
 40
0.0
 40
1.0
 40
1.0
 40
1.0
 40
1.0
 10
156.3653048654225
 20
-104.3739908593231
 30
0.0
 10
153.4321505692808
 20
-104.4602905012287
 30
0.0
 10
153.7883734424557
 20
-106.274305528987
 30
0.0
 10
153.490028173433
 20
-108.2910644260522
 30
0.0
  0
SPLINE
  5
51
330
3F
100
AcDbEntity
  8
Furniture
 62
   250
370
     9
100
AcDbSpline
210
0.0
220
0.0
230
1.0
 70
     8
 71
     3
 72
     8
 73
     4
 74
     0
 42
0.000000001
 43
0.0000000001
 40
0.0
 40
0.0
 40
0.0
 40
0.0
 40
1.0
 40
1.0
 40
1.0
 40
1.0
 10
152.2015624619496
 20
-108.9194498425618
 30
0.0
 10
152.8072102482565
 20
-109.094116183664
 30
0.0
 10
153.4039007863018
 20
-109.0114338920179
 30
0.0
 10
153.490028173433
 20
-108.2910644260522
 30
0.0
  0
ENDBLK
  5
42
330
3F
100
AcDbEntity
  8
0
100
AcDbBlockEnd
  0
BLOCK
  5
54
330
52
100
AcDbEntity
  8
0
100
AcDbBlockBegin
  2
block 3
 70
     0
 10
0.0
 20
0.0
 30
0.0
  3
block 3
  1

  0
INSERT
  5
57
330
52
100
AcDbEntity
  8
Furniture
100
AcDbBlockReference
  2
block 4
 10
0.0
 20
0.0
 30
0.0
  0
POLYLINE
  5
67
330
52
100
AcDbEntity
  8
Furniture
 62
   250
370
     9
100
AcDb2dPolyline
 66
     1
 10
0.0
 20
0.0
 30
0.0
  0
VERTEX
  5
68
330
67
100
AcDbEntity
  8
Furniture
 62
   250
370
     9
100
AcDbVertex
100
AcDb2dVertex
 10
124.9708387274378
 20
-115.1815999061004
 30
0.0
  0
VERTEX
  5
EF
330
67
100
AcDbEntity
  8
0
100
AcDbVertex
100
AcDb2dVertex
 10
124.9708387274378
 20
-115.1815999061004
 30
0.0
  0
SEQEND
  5
69
330
67
100
AcDbEntity
  8
Furniture
370
     9
  0
POLYLINE
  5
6A
330
52
100
AcDbEntity
  8
Furniture
 62
   250
370
     9
100
AcDb2dPolyline
 66
     1
 10
0.0
 20
0.0
 30
0.0
  0
VERTEX
  5
6B
330
6A
100
AcDbEntity
  8
Furniture
 62
   250
370
     9
100
AcDbVertex
100
AcDb2dVertex
 10
124.9708387274378
 20
-109.3996961532056
 30
0.0
  0
VERTEX
  5
F0
330
6A
100
AcDbEntity
  8
0
100
AcDbVertex
100
AcDb2dVertex
 10
124.9708387274378
 20
-109.3996961532056
 30
0.0
  0
SEQEND
  5
6C
330
6A
100
AcDbEntity
  8
Furniture
370
     9
  0
POLYLINE
  5
6D
330
52
100
AcDbEntity
  8
Furniture
 62
   250
370
     9
100
AcDb2dPolyline
 66
     1
 10
0.0
 20
0.0
 30
0.0
  0
VERTEX
  5
6E
330
6D
100
AcDbEntity
  8
Furniture
 62
   250
370
     9
100
AcDbVertex
100
AcDb2dVertex
 10
124.9708387274378
 20
-108.0822916396461
 30
0.0
  0
VERTEX
  5
F1
330
6D
100
AcDbEntity
  8
0
100
AcDbVertex
100
AcDb2dVertex
 10
124.9708387274378
 20
-108.0822916396461
 30
0.0
  0
SEQEND
  5
6F
330
6D
100
AcDbEntity
  8
Furniture
370
     9
  0
POLYLINE
  5
70
330
52
100
AcDbEntity
  8
Furniture
 62
   250
370
     9
100
AcDb2dPolyline
 66
     1
 10
0.0
 20
0.0
 30
0.0
  0
VERTEX
  5
71
330
70
100
AcDbEntity
  8
Furniture
 62
   250
370
     9
100
AcDbVertex
100
AcDb2dVertex
 10
124.9708387274378
 20
-109.2736056584455
 30
0.0
  0
VERTEX
  5
F2
330
70
100
AcDbEntity
  8
0
100
AcDbVertex
100
AcDb2dVertex
 10
124.9708387274378
 20
-109.2736056584455
 30
0.0
  0
SEQEND
  5
72
330
70
100
AcDbEntity
  8
Furniture
370
     9
  0
SPLINE
  5
73
330
52
100
AcDbEntity
  8
Furniture
 62
   250
370
     9
100
AcDbSpline
210
0.0
220
0.0
230
1.0
 70
    11
 71
     3
 72
   263
 73
   259
 74
     0
 42
0.000000001
 43
0.0000000001
 40
0.0
 40
0.0
 40
0.0
 40
0.0
 40
1.0
 40
1.0
 40
1.0
 40
2.0
 40
2.0
 40
2.0
 40
3.0
 40
3.0
 40
3.0
 40
4.0
 40
4.0
 40
4.0
 40
5.0
 40
5.0
 40
5.0
 40
6.0
 40
6.0
 40
6.0
 40
7.0
 40
7.0
 40
7.0
 40
8.0
 40
8.0
 40
8.0
 40
9.0
 40
9.0
 40
9.0
 40
10.0
 40
10.0
 40
10.0
 40
11.0
 40
11.0
 40
11.0
 40
12.0
 40
12.0
 40
12.0
 40
13.0
 40
13.0
 40
13.0
 40
14.0
 40
14.0
 40
14.0
 40
15.0
 40
15.0
 40
15.0
 40
16.0
 40
16.0
 40
16.0
 40
17.0
 40
17.0
 40
17.0
 40
18.0
 40
18.0
 40
18.0
 40
19.0
 40
19.0
 40
19.0
 40
20.0
 40
20.0
 40
20.0
 40
21.0
 40
21.0
 40
21.0
 40
22.0
 40
22.0
 40
22.0
 40
23.0
 40
23.0
 40
23.0
 40
24.0
 40
24.0
 40
24.0
 40
25.0
 40
25.0
 40
25.0
 40
26.0
 40
26.0
 40
26.0
 40
27.0
 40
27.0
 40
27.0
 40
28.0
 40
28.0
 40
28.0
 40
29.0
 40
29.0
 40
29.0
 40
30.0
 40
30.0
 40
30.0
 40
31.0
 40
31.0
 40
31.0
 40
32.0
 40
32.0
 40
32.0
 40
33.0
 40
33.0
 40
33.0
 40
34.0
 40
34.0
 40
34.0
 40
35.0
 40
35.0
 40
35.0
 40
36.0
 40
36.0
 40
36.0
 40
37.0
 40
37.0
 40
37.0
 40
38.0
 40
38.0
 40
38.0
 40
39.0
 40
39.0
 40
39.0
 40
40.0
 40
40.0
 40
40.0
 40
41.0
 40
41.0
 40
41.0
 40
42.0
 40
42.0
 40
42.0
 40
43.0
 40
43.0
 40
43.0
 40
44.0
 40
44.0
 40
44.0
 40
45.0
 40
45.0
 40
45.0
 40
46.0
 40
46.0
 40
46.0
 40
47.0
 40
47.0
 40
47.0
 40
48.0
 40
48.0
 40
48.0
 40
49.0
 40
49.0
 40
49.0
 40
50.0
 40
50.0
 40
50.0
 40
51.0
 40
51.0
 40
51.0
 40
52.0
 40
52.0
 40
52.0
 40
53.0
 40
53.0
 40
53.0
 40
54.0
 40
54.0
 40
54.0
 40
55.0
 40
55.0
 40
55.0
 40
56.0
 40
56.0
 40
56.0
 40
57.0
 40
57.0
 40
57.0
 40
58.0
 40
58.0
 40
58.0
 40
59.0
 40
59.0
 40
59.0
 40
60.0
 40
60.0
 40
60.0
 40
61.0
 40
61.0
 40
61.0
 40
62.0
 40
62.0
 40
62.0
 40
63.0
 40
63.0
 40
63.0
 40
64.0
 40
64.0
 40
64.0
 40
65.0
 40
65.0
 40
65.0
 40
66.0
 40
66.0
 40
66.0
 40
67.0
 40
67.0
 40
67.0
 40
68.0
 40
68.0
 40
68.0
 40
69.0
 40
69.0
 40
69.0
 40
70.0
 40
70.0
 40
70.0
 40
71.0
 40
71.0
 40
71.0
 40
72.0
 40
72.0
 40
72.0
 40
73.0
 40
73.0
 40
73.0
 40
74.0
 40
74.0
 40
74.0
 40
75.0
 40
75.0
 40
75.0
 40
76.0
 40
76.0
 40
76.0
 40
77.0
 40
77.0
 40
77.0
 40
78.0
 40
78.0
 40
78.0
 40
79.0
 40
79.0
 40
79.0
 40
80.0
 40
80.0
 40
80.0
 40
81.0
 40
81.0
 40
81.0
 40
82.0
 40
82.0
 40
82.0
 40
83.0
 40
83.0
 40
83.0
 40
84.0
 40
84.0
 40
84.0
 40
85.0
 40
85.0
 40
85.0
 40
86.0
 40
86.0
 40
86.0
 40
86.0
 10
124.9708387274378
 20
-115.1815999061004
 30
0.0
 10
124.9708387274378
 20
-115.1815999061004
 30
0.0
 10
124.6072088989697
 20
-115.1888346066194
 30
0.0
 10
124.6072088989697
 20
-115.1888346066194
 30
0.0
 10
124.6072088989697
 20
-115.1888346066194
 30
0.0
 10
124.0131021825384
 20
-115.1853895111342
 30
0.0
 10
124.0131021825384
 20
-115.1853895111342
 30
0.0
 10
124.0131021825384
 20
-115.1853895111342
 30
0.0
 10
123.4138278228792
 20
-115.1509385562817
 30
0.0
 10
123.4138278228792
 20
-115.1509385562817
 30
0.0
 10
123.4138278228792
 20
-115.1509385562817
 30
0.0
 10
122.3413695983209
 20
-115.0648111691505
 30
0.0
 10
122.3413695983209
 20
-115.0648111691505
 30
0.0
 10
122.3413695983209
 20
-115.0648111691505
 30
0.0
 10
121.8204711609511
 20
-114.9921196544117
 30
0.0
 10
121.8204711609511
 20
-114.9921196544117
 30
0.0
 10
121.8204711609511
 20
-114.9921196544117
 30
0.0
 10
121.556576846781
 20
-114.9139159868965
 30
0.0
 10
121.556576846781
 20
-114.9139159868965
 30
0.0
 10
121.556576846781
 20
-114.9139159868965
 30
0.0
 10
121.3417751432756
 20
-114.8174533133095
 30
0.0
 10
121.3417751432756
 20
-114.8174533133095
 30
0.0
 10
121.3417751432756
 20
-114.8174533133095
 30
0.0
 10
121.2385945334924
 20
-114.7423502317311
 30
0.0
 10
121.2385945334924
 20
-114.7423502317311
 30
0.0
 10
121.2385945334924
 20
-114.7423502317311
 30
0.0
 10
121.1180161915087
 20
-114.6183267942621
 30
0.0
 10
121.1180161915087
 20
-114.6183267942621
 30
0.0
 10
121.1180161915087
 20
-114.6183267942621
 30
0.0
 10
120.9886528560375
 20
-114.465364554717
 30
0.0
 10
120.9886528560375
 20
-114.465364554717
 30
0.0
 10
120.9886528560375
 20
-114.465364554717
 30
0.0
 10
120.8892618512881
 20
-114.2886311563237
 30
0.0
 10
120.8839219532859
 20
-114.2906982136148
 30
0.0
 10
120.8787543100581
 20
-114.2924207613574
 30
0.0
 10
120.7738511525322
 20
-114.0392062431916
 30
0.0
 10
120.7738511525322
 20
-114.0392062431916
 30
0.0
 10
120.7738511525322
 20
-114.0464409437106
 30
0.0
 10
120.6863457272069
 20
-113.6819498413712
 30
0.0
 10
120.6863457272069
 20
-113.6819498413712
 30
0.0
 10
120.6863457272069
 20
-113.6819498413712
 30
0.0
 10
120.6446600718354
 20
-113.3284830445845
 30
0.0
 10
120.6446600718354
 20
-113.3284830445845
 30
0.0
 10
120.6446600718354
 20
-113.3284830445845
 30
0.0
 10
120.5816148244553
 20
-112.7745116905564
 30
0.0
 10
120.5816148244553
 20
-112.7745116905564
 30
0.0
 10
120.5816148244553
 20
-112.7745116905564
 30
0.0
 10
120.4977267493894
 20
-111.535310844512
 30
0.0
 10
120.4977267493894
 20
-111.535310844512
 30
0.0
 10
120.4977267493894
 20
-111.535310844512
 30
0.0
 10
120.3859334008931
 20
-110.0377278370739
 30
0.0
 10
120.3859334008931
 20
-110.0377278370739
 30
0.0
 10
120.3859334008931
 20
-110.0377278370739
 30
0.0
 10
120.322888153513
 20
-109.2901421167747
 30
0.0
 10
120.322888153513
 20
-109.2901421167747
 30
0.0
 10
120.322888153513
 20
-109.2901421167747
 30
0.0
 10
120.322888153513
 20
-108.8608832193125
 30
0.0
 10
120.322888153513
 20
-108.8608832193125
 30
0.0
 10
120.322888153513
 20
-108.8608832193125
 30
0.0
 10
120.3404581404878
 20
-108.5143066134964
 30
0.0
 10
120.3404581404878
 20
-108.5143066134964
 30
0.0
 10
120.3404581404878
 20
-108.5143066134964
 30
0.0
 10
120.3649183184331
 20
-107.9968532716119
 30
0.0
 10
120.3649183184331
 20
-107.9968532716119
 30
0.0
 10
120.3649183184331
 20
-107.9968532716119
 30
0.0
 10
120.3544107772031
 20
-107.6978189834922
 30
0.0
 10
120.3544107772031
 20
-107.6978189834922
 30
0.0
 10
120.3544107772031
 20
-107.6978189834922
 30
0.0
 10
120.322888153513
 20
-107.4315131024824
 30
0.0
 10
120.322888153513
 20
-107.4315131024824
 30
0.0
 10
120.322888153513
 20
-107.4315131024824
 30
0.0
 10
120.2319376327024
 20
-106.881331353488
 30
0.0
 10
120.2319376327024
 20
-106.881331353488
 30
0.0
 10
120.2319376327024
 20
-106.881331353488
 30
0.0
 10
120.1447767169256
 20
-106.4555175515111
 30
0.0
 10
120.1447767169256
 20
-106.4555175515111
 30
0.0
 10
120.1447767169256
 20
-106.4555175515111
 30
0.0
 10
120.0257486679102
 20
-105.9635579162174
 30
0.0
 10
120.0257486679102
 20
-105.9635579162174
 30
0.0
 10
120.0257486679102
 20
-105.9635579162174
 30
0.0
 10
119.9105102239286
 20
-105.4640190708562
 30
0.0
 10
119.9105102239286
 20
-105.4640190708562
 30
0.0
 10
119.9105102239286
 20
-105.4640190708562
 30
0.0
 10
119.8791598550128
 20
-105.2709214689079
 30
0.0
 10
119.8791598550128
 20
-105.2709214689079
 30
0.0
 10
119.8791598550128
 20
-105.2709214689079
 30
0.0
 10
119.8791598550128
 20
-105.1141696243291
 30
0.0
 10
119.8791598550128
 20
-105.1141696243291
 30
0.0
 10
119.8791598550128
 20
-105.1141696243291
 30
0.0
 10
119.8791598550128
 20
-104.9463934741974
 30
0.0
 10
119.8791598550128
 20
-104.9463934741974
 30
0.0
 10
119.8791598550128
 20
-104.9463934741974
 30
0.0
 10
119.8965575872133
 20
-104.8518256031273
 30
0.0
 10
119.8965575872133
 20
-104.8518256031273
 30
0.0
 10
119.8965575872133
 20
-104.8518256031273
 30
0.0
 10
119.9210177651586
 20
-104.7314195159178
 30
0.0
 10
119.9210177651586
 20
-104.7314195159178
 30
0.0
 10
119.9210177651586
 20
-104.7314195159178
 30
0.0
 10
119.9663207707897
 20
-104.6113579382569
 30
0.0
 10
119.9663207707897
 20
-104.6113579382569
 30
0.0
 10
119.9663207707897
 20
-104.6113579382569
 30
0.0
 10
120.0119682859692
 20
-104.5238525129315
 30
0.0
 10
120.0119682859692
 20
-104.5238525129315
 30
0.0
 10
120.0119682859692
 20
-104.5238525129315
 30
0.0
 10
120.1561455320269
 20
-104.3826035980363
 30
0.0
 10
120.1561455320269
 20
-104.3826035980363
 30
0.0
 10
120.1561455320269
 20
-104.3826035980363
 30
0.0
 10
120.3848998722475
 20
-104.2530680077909
 30
0.0
 10
120.3848998722475
 20
-104.2530680077909
 30
0.0
 10
120.3848998722475
 20
-104.2530680077909
 30
0.0
 10
120.6520670271286
 20
-104.1721082638875
 30
0.0
 10
120.6520670271286
 20
-104.1721082638875
 30
0.0
 10
120.6520670271286
 20
-104.1721082638875
 30
0.0
 10
121.0963120899516
 20
-104.0294813107982
 30
0.0
 10
121.0963120899516
 20
-104.0294813107982
 30
0.0
 10
121.0963120899516
 20
-104.0294813107982
 30
0.0
 10
121.6079087695112
 20
-103.9554117578653
 30
0.0
 10
121.6079087695112
 20
-103.9554117578653
 30
0.0
 10
121.6079087695112
 20
-103.9554117578653
 30
0.0
 10
122.0910834113175
 20
-103.8885769054515
 30
0.0
 10
122.0910834113175
 20
-103.8885769054515
 30
0.0
 10
122.0910834113175
 20
-103.8885769054515
 30
0.0
 10
122.863818328659
 20
-103.8219143078119
 30
0.0
 10
122.863818328659
 20
-103.8219143078119
 30
0.0
 10
122.863818328659
 20
-103.8219143078119
 30
0.0
 10
124.9708387274378
 20
-103.7442274046195
 30
0.0
 10
124.9708387274378
 20
-103.7442274046195
 30
0.0
 10
124.9708387274378
 20
-103.7442274046195
 30
0.0
 10
125.0834933498055
 20
-103.7442274046195
 30
0.0
 10
125.0834933498055
 20
-103.7442274046195
 30
0.0
 10
125.0834933498055
 20
-103.7442274046195
 30
0.0
 10
127.1905137485843
 20
-103.8219143078119
 30
0.0
 10
127.1905137485843
 20
-103.8219143078119
 30
0.0
 10
127.1905137485843
 20
-103.8219143078119
 30
0.0
 10
127.9632486659258
 20
-103.8885769054515
 30
0.0
 10
127.9632486659258
 20
-103.8885769054515
 30
0.0
 10
127.9632486659258
 20
-103.8885769054515
 30
0.0
 10
128.4464233077321
 20
-103.9554117578653
 30
0.0
 10
128.4464233077321
 20
-103.9554117578653
 30
0.0
 10
128.4464233077321
 20
-103.9554117578653
 30
0.0
 10
128.9580199872917
 20
-104.0294813107982
 30
0.0
 10
128.9580199872917
 20
-104.0294813107982
 30
0.0
 10
128.9580199872917
 20
-104.0294813107982
 30
0.0
 10
129.4022650501147
 20
-104.1721082638875
 30
0.0
 10
129.4022650501147
 20
-104.1721082638875
 30
0.0
 10
129.4022650501147
 20
-104.1721082638875
 30
0.0
 10
129.6694322049958
 20
-104.2530680077909
 30
0.0
 10
129.6694322049958
 20
-104.2530680077909
 30
0.0
 10
129.6694322049958
 20
-104.2530680077909
 30
0.0
 10
129.8981865452164
 20
-104.3826035980363
 30
0.0
 10
129.8981865452164
 20
-104.3826035980363
 30
0.0
 10
129.8981865452164
 20
-104.3826035980363
 30
0.0
 10
130.0423637912741
 20
-104.5238525129315
 30
0.0
 10
130.0423637912741
 20
-104.5238525129315
 30
0.0
 10
130.0423637912741
 20
-104.5238525129315
 30
0.0
 10
130.0880113064537
 20
-104.6113579382569
 30
0.0
 10
130.0880113064537
 20
-104.6113579382569
 30
0.0
 10
130.0880113064537
 20
-104.6113579382569
 30
0.0
 10
130.1333143120847
 20
-104.7314195159178
 30
0.0
 10
130.1333143120847
 20
-104.7314195159178
 30
0.0
 10
130.1333143120847
 20
-104.7314195159178
 30
0.0
 10
130.15777449003
 20
-104.8518256031273
 30
0.0
 10
130.15777449003
 20
-104.8518256031273
 30
0.0
 10
130.15777449003
 20
-104.8518256031273
 30
0.0
 10
130.1751722222305
 20
-104.9463934741974
 30
0.0
 10
130.1751722222305
 20
-104.9463934741974
 30
0.0
 10
130.1751722222305
 20
-104.9463934741974
 30
0.0
 10
130.1751722222305
 20
-105.1141696243291
 30
0.0
 10
130.1751722222305
 20
-105.1141696243291
 30
0.0
 10
130.1751722222305
 20
-105.1141696243291
 30
0.0
 10
130.1751722222305
 20
-105.2709214689079
 30
0.0
 10
130.1751722222305
 20
-105.2709214689079
 30
0.0
 10
130.1751722222305
 20
-105.2709214689079
 30
0.0
 10
130.1438218533147
 20
-105.4640190708562
 30
0.0
 10
130.1438218533147
 20
-105.4640190708562
 30
0.0
 10
130.1438218533147
 20
-105.4640190708562
 30
0.0
 10
130.0284111545588
 20
-105.9635579162174
 30
0.0
 10
130.0284111545588
 20
-105.9635579162174
 30
0.0
 10
130.0284111545588
 20
-105.9635579162174
 30
0.0
 10
129.9095553603177
 20
-106.4555175515111
 30
0.0
 10
129.9095553603177
 20
-106.4555175515111
 30
0.0
 10
129.9095553603177
 20
-106.4555175515111
 30
0.0
 10
129.8223944445409
 20
-106.881331353488
 30
0.0
 10
129.8223944445409
 20
-106.881331353488
 30
0.0
 10
129.8223944445409
 20
-106.881331353488
 30
0.0
 10
129.7314439237303
 20
-107.4315131024824
 30
0.0
 10
129.7314439237303
 20
-107.4315131024824
 30
0.0
 10
129.7314439237303
 20
-107.4315131024824
 30
0.0
 10
129.6999213000403
 20
-107.6978189834922
 30
0.0
 10
129.6999213000403
 20
-107.6978189834922
 30
0.0
 10
129.6999213000403
 20
-107.6978189834922
 30
0.0
 10
129.6894137588103
 20
-107.9968532716119
 30
0.0
 10
129.6894137588103
 20
-107.9968532716119
 30
0.0
 10
129.6894137588103
 20
-107.9968532716119
 30
0.0
 10
129.7138739367555
 20
-108.5143066134964
 30
0.0
 10
129.7138739367555
 20
-108.5143066134964
 30
0.0
 10
129.7138739367555
 20
-108.5143066134964
 30
0.0
 10
129.7314439237303
 20
-108.8608832193125
 30
0.0
 10
129.7314439237303
 20
-108.8608832193125
 30
0.0
 10
129.7314439237303
 20
-108.8608832193125
 30
0.0
 10
129.7314439237303
 20
-109.2901421167747
 30
0.0
 10
129.7314439237303
 20
-109.2901421167747
 30
0.0
 10
129.7314439237303
 20
-109.2901421167747
 30
0.0
 10
129.6683986763502
 20
-110.0377278370739
 30
0.0
 10
129.6683986763502
 20
-110.0377278370739
 30
0.0
 10
129.6683986763502
 20
-110.0377278370739
 30
0.0
 10
129.5566053278539
 20
-111.535310844512
 30
0.0
 10
129.5566053278539
 20
-111.535310844512
 30
0.0
 10
129.5566053278539
 20
-111.535310844512
 30
0.0
 10
129.4727172527881
 20
-112.7745116905564
 30
0.0
 10
129.4727172527881
 20
-112.7745116905564
 30
0.0
 10
129.4727172527881
 20
-112.7745116905564
 30
0.0
 10
129.409672005408
 20
-113.3284830445845
 30
0.0
 10
129.409672005408
 20
-113.3284830445845
 30
0.0
 10
129.409672005408
 20
-113.3284830445845
 30
0.0
 10
129.3679863500365
 20
-113.6819498413712
 30
0.0
 10
129.3679863500365
 20
-113.6819498413712
 30
0.0
 10
129.3679863500365
 20
-113.6819498413712
 30
0.0
 10
129.2804809247111
 20
-114.0464409437106
 30
0.0
 10
129.2804809247111
 20
-114.0392062431916
 30
0.0
 10
129.2804809247111
 20
-114.0392062431916
 30
0.0
 10
129.1755777671852
 20
-114.2924207613574
 30
0.0
 10
129.1704101239574
 20
-114.2906982136148
 30
0.0
 10
129.1650702259552
 20
-114.2886311563237
 30
0.0
 10
129.0656792212058
 20
-114.465364554717
 30
0.0
 10
129.0656792212058
 20
-114.465364554717
 30
0.0
 10
129.0656792212058
 20
-114.465364554717
 30
0.0
 10
128.9363158857346
 20
-114.6183267942621
 30
0.0
 10
128.9363158857346
 20
-114.6183267942621
 30
0.0
 10
128.9363158857346
 20
-114.6183267942621
 30
0.0
 10
128.8155652889766
 20
-114.7423502317311
 30
0.0
 10
128.8155652889766
 20
-114.7423502317311
 30
0.0
 10
128.8155652889766
 20
-114.7423502317311
 30
0.0
 10
128.7125569339677
 20
-114.8174533133095
 30
0.0
 10
128.7125569339677
 20
-114.8174533133095
 30
0.0
 10
128.7125569339677
 20
-114.8174533133095
 30
0.0
 10
128.4977552304623
 20
-114.9139159868965
 30
0.0
 10
128.4977552304623
 20
-114.9139159868965
 30
0.0
 10
128.4977552304623
 20
-114.9139159868965
 30
0.0
 10
128.2338609162922
 20
-114.9921196544117
 30
0.0
 10
128.2338609162922
 20
-114.9921196544117
 30
0.0
 10
128.2338609162922
 20
-114.9921196544117
 30
0.0
 10
127.7129624789224
 20
-115.0648111691505
 30
0.0
 10
127.7129624789224
 20
-115.0648111691505
 30
0.0
 10
127.7129624789224
 20
-115.0648111691505
 30
0.0
 10
126.6403319995899
 20
-115.1509385562817
 30
0.0
 10
126.6403319995899
 20
-115.1509385562817
 30
0.0
 10
126.6403319995899
 20
-115.1509385562817
 30
0.0
 10
126.0412298947049
 20
-115.1853895111342
 30
0.0
 10
126.0412298947049
 20
-115.1853895111342
 30
0.0
 10
126.0412298947049
 20
-115.1853895111342
 30
0.0
 10
125.4471231782736
 20
-115.1888346066194
 30
0.0
 10
125.4471231782736
 20
-115.1888346066194
 30
0.0
 10
125.4471231782736
 20
-115.1888346066194
 30
0.0
 10
125.0834933498055
 20
-115.1815999061004
 30
0.0
 10
125.0834933498055
 20
-115.1815999061004
 30
0.0
 10
125.0834933498055
 20
-115.1815999061004
 30
0.0
 10
124.9708387274378
 20
-115.1815999061004
 30
0.0
 10
124.9708387274378
 20
-115.1815999061004
 30
0.0
  0
POLYLINE
  5
74
330
52
100
AcDbEntity
  8
Furniture
 62
   250
370
     9
100
AcDb2dPolyline
 66
     1
 10
0.0
 20
0.0
 30
0.0
  0
VERTEX
  5
75
330
74
100
AcDbEntity
  8
Furniture
 62
   250
370
     9
100
AcDbVertex
100
AcDb2dVertex
 10
119.9158501219307
 20
-104.7572577320572
 30
0.0
  0
VERTEX
  5
76
330
74
100
AcDbEntity
  8
Furniture
 62
   250
370
     9
100
AcDbVertex
100
AcDb2dVertex
 10
119.9158501219307
 20
-104.7889526105215
 30
0.0
  0
VERTEX
  5
77
330
74
100
AcDbEntity
  8
Furniture
 62
   250
370
     9
100
AcDbVertex
100
AcDb2dVertex
 10
119.9158501219307
 20
-104.9146985957331
 30
0.0
  0
VERTEX
  5
78
330
74
100
AcDbEntity
  8
Furniture
 62
   250
370
     9
100
AcDbVertex
100
AcDb2dVertex
 10
119.9158501219307
 20
-105.0621486825018
 30
0.0
  0
VERTEX
  5
79
330
74
100
AcDbEntity
  8
Furniture
 62
   250
370
     9
100
AcDbVertex
100
AcDb2dVertex
 10
119.9289414847747
 20
-105.2071872024308
 30
0.0
  0
VERTEX
  5
7A
330
74
100
AcDbEntity
  8
Furniture
 62
   250
370
     9
100
AcDbVertex
100
AcDb2dVertex
 10
119.9551242104626
 20
-105.3711737475287
 30
0.0
  0
VERTEX
  5
7B
330
74
100
AcDbEntity
  8
Furniture
 62
   250
370
     9
100
AcDbVertex
100
AcDb2dVertex
 10
120.0179972030684
 20
-105.7623643398788
 30
0.0
  0
VERTEX
  5
7C
330
74
100
AcDbEntity
  8
Furniture
 62
   250
370
     9
100
AcDbVertex
100
AcDb2dVertex
 10
120.0860378389021
 20
-106.0083441575257
 30
0.0
  0
VERTEX
  5
7D
330
74
100
AcDbEntity
  8
Furniture
 62
   250
370
     9
100
AcDbVertex
100
AcDb2dVertex
 10
120.1936970728161
 20
-106.4617187233846
 30
0.0
  0
VERTEX
  5
7E
330
74
100
AcDbEntity
  8
Furniture
 62
   250
370
     9
100
AcDbVertex
100
AcDb2dVertex
 10
120.2722452498798
 20
-106.8086398387492
 30
0.0
  0
VERTEX
  5
7F
330
74
100
AcDbEntity
  8
Furniture
 62
   250
370
     9
100
AcDbVertex
100
AcDb2dVertex
 10
120.322888153513
 20
-107.0494520131682
 30
0.0
  0
VERTEX
  5
80
330
74
100
AcDbEntity
  8
Furniture
 62
   250
370
     9
100
AcDbVertex
100
AcDb2dVertex
 10
120.3876559486357
 20
-107.2923312448783
 30
0.0
  0
VERTEX
  5
81
330
74
100
AcDbEntity
  8
Furniture
 62
   250
370
     9
100
AcDbVertex
100
AcDb2dVertex
 10
120.4346815020094
 20
-107.5741400555717
 30
0.0
  0
VERTEX
  5
82
330
74
100
AcDbEntity
  8
Furniture
 62
   250
370
     9
100
AcDbVertex
100
AcDb2dVertex
 10
120.4687879473133
 20
-107.8307996692228
 30
0.0
  0
VERTEX
  5
83
330
74
100
AcDbEntity
  8
Furniture
 62
   250
370
     9
100
AcDbVertex
100
AcDb2dVertex
 10
120.4872192081594
 20
-108.0685112577051
 30
0.0
  0
VERTEX
  5
84
330
74
100
AcDbEntity
  8
Furniture
 62
   250
370
     9
100
AcDbVertex
100
AcDb2dVertex
 10
120.5030666473916
 20
-108.2573024902968
 30
0.0
  0
VERTEX
  5
85
330
74
100
AcDbEntity
  8
Furniture
 62
   250
370
     9
100
AcDbVertex
100
AcDb2dVertex
 10
120.5030666473916
 20
-108.5387667914417
 30
0.0
  0
VERTEX
  5
86
330
74
100
AcDbEntity
  8
Furniture
 62
   250
370
     9
100
AcDbVertex
100
AcDb2dVertex
 10
120.5264932966913
 20
-108.6428086750962
 30
0.0
  0
VERTEX
  5
87
330
74
100
AcDbEntity
  8
Furniture
 62
   250
370
     9
100
AcDbVertex
100
AcDb2dVertex
 10
120.5816148244553
 20
-108.7547742783668
 30
0.0
  0
VERTEX
  5
88
330
74
100
AcDbEntity
  8
Furniture
 62
   250
370
     9
100
AcDbVertex
100
AcDb2dVertex
 10
120.702193166439
 20
-108.8588161620214
 30
0.0
  0
VERTEX
  5
89
330
74
100
AcDbEntity
  8
Furniture
 62
   250
370
     9
100
AcDbVertex
100
AcDb2dVertex
 10
120.9380099524044
 20
-108.9787054849081
 30
0.0
  0
VERTEX
  5
8A
330
74
100
AcDbEntity
  8
Furniture
 62
   250
370
     9
100
AcDbVertex
100
AcDb2dVertex
 10
121.3521104297314
 20
-109.0937716741154
 30
0.0
  0
VERTEX
  5
8B
330
74
100
AcDbEntity
  8
Furniture
 62
   250
370
     9
100
AcDbVertex
100
AcDb2dVertex
 10
122.0731689147942
 20
-109.1950574813818
 30
0.0
  0
VERTEX
  5
8C
330
74
100
AcDbEntity
  8
Furniture
 62
   250
370
     9
100
AcDbVertex
100
AcDb2dVertex
 10
122.8905178186697
 20
-109.2849744735468
 30
0.0
  0
VERTEX
  5
8D
330
74
100
AcDbEntity
  8
Furniture
 62
   250
370
     9
100
AcDbVertex
100
AcDb2dVertex
 10
123.8761596369997
 20
-109.3728244084207
 30
0.0
  0
VERTEX
  5
8E
330
74
100
AcDbEntity
  8
Furniture
 62
   250
370
     9
100
AcDbVertex
100
AcDb2dVertex
 10
124.9708387274378
 20
-109.3996961532056
 30
0.0
  0
VERTEX
  5
8F
330
74
100
AcDbEntity
  8
Furniture
 62
   250
370
     9
100
AcDbVertex
100
AcDb2dVertex
 10
125.0834933498055
 20
-109.3996961532056
 30
0.0
  0
VERTEX
  5
90
330
74
100
AcDbEntity
  8
Furniture
 62
   250
370
     9
100
AcDbVertex
100
AcDb2dVertex
 10
126.1781724402436
 20
-109.3728244084207
 30
0.0
  0
VERTEX
  5
91
330
74
100
AcDbEntity
  8
Furniture
 62
   250
370
     9
100
AcDbVertex
100
AcDb2dVertex
 10
127.1638142585736
 20
-109.2849744735468
 30
0.0
  0
VERTEX
  5
92
330
74
100
AcDbEntity
  8
Furniture
 62
   250
370
     9
100
AcDbVertex
100
AcDb2dVertex
 10
127.9811631624491
 20
-109.1950574813818
 30
0.0
  0
VERTEX
  5
93
330
74
100
AcDbEntity
  8
Furniture
 62
   250
370
     9
100
AcDbVertex
100
AcDb2dVertex
 10
128.7022216475119
 20
-109.0937716741154
 30
0.0
  0
VERTEX
  5
94
330
74
100
AcDbEntity
  8
Furniture
 62
   250
370
     9
100
AcDbVertex
100
AcDb2dVertex
 10
129.1163221248389
 20
-108.9787054849081
 30
0.0
  0
VERTEX
  5
95
330
74
100
AcDbEntity
  8
Furniture
 62
   250
370
     9
100
AcDbVertex
100
AcDb2dVertex
 10
129.3521389108043
 20
-108.8588161620214
 30
0.0
  0
VERTEX
  5
96
330
74
100
AcDbEntity
  8
Furniture
 62
   250
370
     9
100
AcDbVertex
100
AcDb2dVertex
 10
129.4727172527881
 20
-108.7547742783668
 30
0.0
  0
VERTEX
  5
97
330
74
100
AcDbEntity
  8
Furniture
 62
   250
370
     9
100
AcDbVertex
100
AcDb2dVertex
 10
129.5278387805521
 20
-108.6428086750962
 30
0.0
  0
VERTEX
  5
98
330
74
100
AcDbEntity
  8
Furniture
 62
   250
370
     9
100
AcDbVertex
100
AcDb2dVertex
 10
129.5512654298518
 20
-108.5387667914417
 30
0.0
  0
VERTEX
  5
99
330
74
100
AcDbEntity
  8
Furniture
 62
   250
370
     9
100
AcDbVertex
100
AcDb2dVertex
 10
129.5512654298518
 20
-108.2573024902968
 30
0.0
  0
VERTEX
  5
9A
330
74
100
AcDbEntity
  8
Furniture
 62
   250
370
     9
100
AcDbVertex
100
AcDb2dVertex
 10
129.5671128690839
 20
-108.0685112577051
 30
0.0
  0
VERTEX
  5
9B
330
74
100
AcDbEntity
  8
Furniture
 62
   250
370
     9
100
AcDbVertex
100
AcDb2dVertex
 10
129.5853718751557
 20
-107.8307996692228
 30
0.0
  0
VERTEX
  5
9C
330
74
100
AcDbEntity
  8
Furniture
 62
   250
370
     9
100
AcDbVertex
100
AcDb2dVertex
 10
129.6196505752339
 20
-107.5741400555717
 30
0.0
  0
VERTEX
  5
9D
330
74
100
AcDbEntity
  8
Furniture
 62
   250
370
     9
100
AcDbVertex
100
AcDb2dVertex
 10
129.6666761286076
 20
-107.2923312448783
 30
0.0
  0
VERTEX
  5
9E
330
74
100
AcDbEntity
  8
Furniture
 62
   250
370
     9
100
AcDbVertex
100
AcDb2dVertex
 10
129.7314439237303
 20
-107.0494520131682
 30
0.0
  0
VERTEX
  5
9F
330
74
100
AcDbEntity
  8
Furniture
 62
   250
370
     9
100
AcDbVertex
100
AcDb2dVertex
 10
129.7820868273635
 20
-106.8086398387492
 30
0.0
  0
VERTEX
  5
A0
330
74
100
AcDbEntity
  8
Furniture
 62
   250
370
     9
100
AcDbVertex
100
AcDb2dVertex
 10
129.8606350044272
 20
-106.4617187233846
 30
0.0
  0
VERTEX
  5
A1
330
74
100
AcDbEntity
  8
Furniture
 62
   250
370
     9
100
AcDbVertex
100
AcDb2dVertex
 10
129.968121983567
 20
-106.0083441575257
 30
0.0
  0
VERTEX
  5
A2
330
74
100
AcDbEntity
  8
Furniture
 62
   250
370
     9
100
AcDbVertex
100
AcDb2dVertex
 10
130.0363348741749
 20
-105.7623643398788
 30
0.0
  0
VERTEX
  5
A3
330
74
100
AcDbEntity
  8
Furniture
 62
   250
370
     9
100
AcDbVertex
100
AcDb2dVertex
 10
130.0990356120065
 20
-105.3711737475287
 30
0.0
  0
VERTEX
  5
A4
330
74
100
AcDbEntity
  8
Furniture
 62
   250
370
     9
100
AcDbVertex
100
AcDb2dVertex
 10
130.1253905924686
 20
-105.2071872024308
 30
0.0
  0
VERTEX
  5
A5
330
74
100
AcDbEntity
  8
Furniture
 62
   250
370
     9
100
AcDbVertex
100
AcDb2dVertex
 10
130.1384819553126
 20
-105.0621486825018
 30
0.0
  0
VERTEX
  5
A6
330
74
100
AcDbEntity
  8
Furniture
 62
   250
370
     9
100
AcDbVertex
100
AcDb2dVertex
 10
130.1384819553126
 20
-104.9146985957331
 30
0.0
  0
VERTEX
  5
A7
330
74
100
AcDbEntity
  8
Furniture
 62
   250
370
     9
100
AcDbVertex
100
AcDb2dVertex
 10
130.1384819553126
 20
-104.7889526105215
 30
0.0
  0
VERTEX
  5
A8
330
74
100
AcDbEntity
  8
Furniture
 62
   250
370
     9
100
AcDbVertex
100
AcDb2dVertex
 10
130.1384819553126
 20
-104.7572577320572
 30
0.0
  0
SEQEND
  5
A9
330
74
100
AcDbEntity
  8
Furniture
370
     9
  0
SPLINE
  5
AA
330
52
100
AcDbEntity
  8
Furniture
 62
   250
370
     9
100
AcDbSpline
210
0.0
220
0.0
230
1.0
 70
    24
 71
     3
 72
     8
 73
     4
 74
     0
 42
0.000000001
 43
0.0000000001
 40
0.0
 40
0.0
 40
0.0
 40
0.0
 40
1.0
 40
1.0
 40
1.0
 40
1.0
 10
120.702193166439
 20
-108.6128363443745
 30
0.0
 10
120.702193166439
 20
-108.6066351725011
 30
0.0
 10
120.702193166439
 20
-108.6018120388217
 30
0.0
 10
120.702193166439
 20
-108.6018120388217
 30
0.0
  0
SPLINE
  5
AB
330
52
100
AcDbEntity
  8
Furniture
 62
   250
370
     9
100
AcDbSpline
210
0.0
220
0.0
230
1.0
 70
     8
 71
     3
 72
    14
 73
    10
 74
     0
 42
0.000000001
 43
0.0000000001
 40
0.0
 40
0.0
 40
0.0
 40
0.0
 40
1.0
 40
1.0
 40
1.0
 40
2.0
 40
2.0
 40
2.0
 40
3.0
 40
3.0
 40
3.0
 40
3.0
 10
120.702193166439
 20
-108.6018120388217
 30
0.0
 10
121.3645127734783
 20
-107.9348415528774
 30
0.0
 10
124.5550157023682
 20
-108.080913601452
 30
0.0
 10
124.9708387274378
 20
-108.0822916396461
 30
0.0
 10
124.9708387274378
 20
-108.0822916396461
 30
0.0
 10
125.0834933498055
 20
-108.0822916396461
 30
0.0
 10
125.0834933498055
 20
-108.0822916396461
 30
0.0
 10
125.4993163748752
 20
-108.080913601452
 30
0.0
 10
128.689819303765
 20
-107.9348415528774
 30
0.0
 10
129.3521389108043
 20
-108.6018120388217
 30
0.0
  0
SPLINE
  5
AC
330
52
100
AcDbEntity
  8
Furniture
 62
   250
370
     9
100
AcDbSpline
210
0.0
220
0.0
230
1.0
 70
     8
 71
     3
 72
   188
 73
   184
 74
     0
 42
0.000000001
 43
0.0000000001
 40
0.0
 40
0.0
 40
0.0
 40
0.0
 40
1.0
 40
1.0
 40
1.0
 40
2.0
 40
2.0
 40
2.0
 40
3.0
 40
3.0
 40
3.0
 40
4.0
 40
4.0
 40
4.0
 40
5.0
 40
5.0
 40
5.0
 40
6.0
 40
6.0
 40
6.0
 40
7.0
 40
7.0
 40
7.0
 40
8.0
 40
8.0
 40
8.0
 40
9.0
 40
9.0
 40
9.0
 40
10.0
 40
10.0
 40
10.0
 40
11.0
 40
11.0
 40
11.0
 40
12.0
 40
12.0
 40
12.0
 40
13.0
 40
13.0
 40
13.0
 40
14.0
 40
14.0
 40
14.0
 40
15.0
 40
15.0
 40
15.0
 40
16.0
 40
16.0
 40
16.0
 40
17.0
 40
17.0
 40
17.0
 40
18.0
 40
18.0
 40
18.0
 40
19.0
 40
19.0
 40
19.0
 40
20.0
 40
20.0
 40
20.0
 40
21.0
 40
21.0
 40
21.0
 40
22.0
 40
22.0
 40
22.0
 40
23.0
 40
23.0
 40
23.0
 40
24.0
 40
24.0
 40
24.0
 40
25.0
 40
25.0
 40
25.0
 40
26.0
 40
26.0
 40
26.0
 40
27.0
 40
27.0
 40
27.0
 40
28.0
 40
28.0
 40
28.0
 40
29.0
 40
29.0
 40
29.0
 40
30.0
 40
30.0
 40
30.0
 40
31.0
 40
31.0
 40
31.0
 40
32.0
 40
32.0
 40
32.0
 40
33.0
 40
33.0
 40
33.0
 40
34.0
 40
34.0
 40
34.0
 40
35.0
 40
35.0
 40
35.0
 40
36.0
 40
36.0
 40
36.0
 40
37.0
 40
37.0
 40
37.0
 40
38.0
 40
38.0
 40
38.0
 40
39.0
 40
39.0
 40
39.0
 40
40.0
 40
40.0
 40
40.0
 40
41.0
 40
41.0
 40
41.0
 40
42.0
 40
42.0
 40
42.0
 40
43.0
 40
43.0
 40
43.0
 40
44.0
 40
44.0
 40
44.0
 40
45.0
 40
45.0
 40
45.0
 40
46.0
 40
46.0
 40
46.0
 40
47.0
 40
47.0
 40
47.0
 40
48.0
 40
48.0
 40
48.0
 40
49.0
 40
49.0
 40
49.0
 40
50.0
 40
50.0
 40
50.0
 40
51.0
 40
51.0
 40
51.0
 40
52.0
 40
52.0
 40
52.0
 40
53.0
 40
53.0
 40
53.0
 40
54.0
 40
54.0
 40
54.0
 40
55.0
 40
55.0
 40
55.0
 40
56.0
 40
56.0
 40
56.0
 40
57.0
 40
57.0
 40
57.0
 40
58.0
 40
58.0
 40
58.0
 40
59.0
 40
59.0
 40
59.0
 40
60.0
 40
60.0
 40
60.0
 40
61.0
 40
61.0
 40
61.0
 40
61.0
 10
119.9844075220872
 20
-104.5767347286301
 30
0.0
 10
119.9844075220872
 20
-104.5767347286301
 30
0.0
 10
119.9716606687918
 20
-104.6258273392949
 30
0.0
 10
119.9675265542095
 20
-104.6368516448477
 30
0.0
 10
119.9633924396272
 20
-104.6477036956263
 30
0.0
 10
119.9697658662749
 20
-104.6952460133227
 30
0.0
 10
119.9697658662749
 20
-104.6952460133227
 30
0.0
 10
119.9697658662749
 20
-104.6952460133227
 30
0.0
 10
119.9647704778213
 20
-104.7700045853526
 30
0.0
 10
119.9701103758234
 20
-104.7753444833548
 30
0.0
 10
119.9752780190513
 20
-104.7806843813569
 30
0.0
 10
119.9682155733065
 20
-104.879214112235
 30
0.0
 10
119.9701103758234
 20
-104.8847262650114
 30
0.0
 10
119.9716606687918
 20
-104.8900661630136
 30
0.0
 10
119.9804456622792
 20
-104.9922132441512
 30
0.0
 10
119.9804456622792
 20
-104.9922132441512
 30
0.0
 10
119.9804456622792
 20
-104.9922132441512
 30
0.0
 10
119.9945705537687
 20
-105.1014227710337
 30
0.0
 10
119.9945705537687
 20
-105.1014227710337
 30
0.0
 10
119.9945705537687
 20
-105.1014227710337
 30
0.0
 10
120.0257486679102
 20
-105.2290635587622
 30
0.0
 10
120.0257486679102
 20
-105.2290635587622
 30
0.0
 10
120.0257486679102
 20
-105.2290635587622
 30
0.0
 10
120.0626111896024
 20
-105.4714260261495
 30
0.0
 10
120.0626111896024
 20
-105.4714260261495
 30
0.0
 10
120.0626111896024
 20
-105.4714260261495
 30
0.0
 10
120.0906887178072
 20
-105.6245605204688
 30
0.0
 10
120.0906887178072
 20
-105.6245605204688
 30
0.0
 10
120.0906887178072
 20
-105.6245605204688
 30
0.0
 10
120.1413316214404
 20
-105.8719183763098
 30
0.0
 10
120.1413316214404
 20
-105.8719183763098
 30
0.0
 10
120.1413316214404
 20
-105.8719183763098
 30
0.0
 10
120.1954196205588
 20
-106.1495930724209
 30
0.0
 10
120.1954196205588
 20
-106.1495930724209
 30
0.0
 10
120.1954196205588
 20
-106.1495930724209
 30
0.0
 10
120.2810302433672
 20
-106.5009928119164
 30
0.0
 10
120.2810302433672
 20
-106.5009928119164
 30
0.0
 10
120.2810302433672
 20
-106.5009928119164
 30
0.0
 10
120.3352904972599
 20
-106.7359483240104
 30
0.0
 10
120.3352904972599
 20
-106.7359483240104
 30
0.0
 10
120.3352904972599
 20
-106.7359483240104
 30
0.0
 10
120.3964409421231
 20
-106.9908853899189
 30
0.0
 10
120.3964409421231
 20
-106.9908853899189
 30
0.0
 10
120.3964409421231
 20
-106.9908853899189
 30
0.0
 10
120.4400214000115
 20
-107.1658962405696
 30
0.0
 10
120.4400214000115
 20
-107.1658962405696
 30
0.0
 10
120.4400214000115
 20
-107.1658962405696
 30
0.0
 10
120.4801567624147
 20
-107.3719129505876
 30
0.0
 10
120.4801567624147
 20
-107.3719129505876
 30
0.0
 10
120.4801567624147
 20
-107.3719129505876
 30
0.0
 10
120.5082342906194
 20
-107.5469238012383
 30
0.0
 10
120.5082342906194
 20
-107.5469238012383
 30
0.0
 10
120.5082342906194
 20
-107.5469238012383
 30
0.0
 10
120.5395846595352
 20
-107.805305962632
 30
0.0
 10
120.5395846595352
 20
-107.805305962632
 30
0.0
 10
120.5395846595352
 20
-107.805305962632
 30
0.0
 10
120.5659396399974
 20
-108.025792073688
 30
0.0
 10
120.5659396399974
 20
-108.025792073688
 30
0.0
 10
120.5659396399974
 20
-108.025792073688
 30
0.0
 10
120.5816148244553
 20
-108.191845676077
 30
0.0
 10
120.5816148244553
 20
-108.191845676077
 30
0.0
 10
120.5816148244553
 20
-108.191845676077
 30
0.0
 10
120.5886772702
 20
-108.3262044000018
 30
0.0
 10
120.5886772702
 20
-108.3262044000018
 30
0.0
 10
120.5886772702
 20
-108.3262044000018
 30
0.0
 10
120.5886772702
 20
-108.4450601942429
 30
0.0
 10
120.5886772702
 20
-108.4450601942429
 30
0.0
 10
120.5886772702
 20
-108.4450601942429
 30
0.0
 10
120.5955674611705
 20
-108.5687391221634
 30
0.0
 10
120.5955674611705
 20
-108.5687391221634
 30
0.0
 10
120.5955674611705
 20
-108.5687391221634
 30
0.0
 10
120.702193166439
 20
-108.7320366481642
 30
0.0
 10
120.702193166439
 20
-108.7320366481642
 30
0.0
 10
120.702193166439
 20
-108.7320366481642
 30
0.0
 10
120.9380099524044
 20
-108.8522704805994
 30
0.0
 10
120.9380099524044
 20
-108.8522704805994
 30
0.0
 10
120.9380099524044
 20
-108.8522704805994
 30
0.0
 10
121.3521104297314
 20
-108.9669921602582
 30
0.0
 10
121.3521104297314
 20
-108.9669921602582
 30
0.0
 10
121.3521104297314
 20
-108.9669921602582
 30
0.0
 10
122.0731689147942
 20
-109.0682779675246
 30
0.0
 10
122.0731689147942
 20
-109.0682779675246
 30
0.0
 10
122.0731689147942
 20
-109.0682779675246
 30
0.0
 10
122.8905178186697
 20
-109.1585394692381
 30
0.0
 10
122.8905178186697
 20
-109.1585394692381
 30
0.0
 10
122.8905178186697
 20
-109.1585394692381
 30
0.0
 10
123.8761596369997
 20
-109.2460448945635
 30
0.0
 10
123.8761596369997
 20
-109.2460448945635
 30
0.0
 10
123.8761596369997
 20
-109.2460448945635
 30
0.0
 10
124.9708387274378
 20
-109.2736056584455
 30
0.0
 10
124.9708387274378
 20
-109.2736056584455
 30
0.0
 10
124.9708387274378
 20
-109.2736056584455
 30
0.0
 10
125.0834933498055
 20
-109.2736056584455
 30
0.0
 10
125.0834933498055
 20
-109.2736056584455
 30
0.0
 10
125.0834933498055
 20
-109.2736056584455
 30
0.0
 10
126.1781724402436
 20
-109.2460448945635
 30
0.0
 10
126.1781724402436
 20
-109.2460448945635
 30
0.0
 10
126.1781724402436
 20
-109.2460448945635
 30
0.0
 10
127.1638142585736
 20
-109.1585394692381
 30
0.0
 10
127.1638142585736
 20
-109.1585394692381
 30
0.0
 10
127.1638142585736
 20
-109.1585394692381
 30
0.0
 10
127.9811631624491
 20
-109.0682779675246
 30
0.0
 10
127.9811631624491
 20
-109.0682779675246
 30
0.0
 10
127.9811631624491
 20
-109.0682779675246
 30
0.0
 10
128.7022216475119
 20
-108.9669921602582
 30
0.0
 10
128.7022216475119
 20
-108.9669921602582
 30
0.0
 10
128.7022216475119
 20
-108.9669921602582
 30
0.0
 10
129.1163221248389
 20
-108.8522704805994
 30
0.0
 10
129.1163221248389
 20
-108.8522704805994
 30
0.0
 10
129.1163221248389
 20
-108.8522704805994
 30
0.0
 10
129.3521389108043
 20
-108.7320366481642
 30
0.0
 10
129.3521389108043
 20
-108.7320366481642
 30
0.0
 10
129.3521389108043
 20
-108.7320366481642
 30
0.0
 10
129.4587646160728
 20
-108.5687391221634
 30
0.0
 10
129.4587646160728
 20
-108.5687391221634
 30
0.0
 10
129.4587646160728
 20
-108.5687391221634
 30
0.0
 10
129.4656548070433
 20
-108.4450601942429
 30
0.0
 10
129.4656548070433
 20
-108.4450601942429
 30
0.0
 10
129.4656548070433
 20
-108.4450601942429
 30
0.0
 10
129.4656548070433
 20
-108.3262044000018
 30
0.0
 10
129.4656548070433
 20
-108.3262044000018
 30
0.0
 10
129.4656548070433
 20
-108.3262044000018
 30
0.0
 10
129.4727172527881
 20
-108.191845676077
 30
0.0
 10
129.4727172527881
 20
-108.191845676077
 30
0.0
 10
129.4727172527881
 20
-108.191845676077
 30
0.0
 10
129.4883924372459
 20
-108.025792073688
 30
0.0
 10
129.4883924372459
 20
-108.025792073688
 30
0.0
 10
129.4883924372459
 20
-108.025792073688
 30
0.0
 10
129.5147474177081
 20
-107.805305962632
 30
0.0
 10
129.5147474177081
 20
-107.805305962632
 30
0.0
 10
129.5147474177081
 20
-107.805305962632
 30
0.0
 10
129.5460977866239
 20
-107.5469238012383
 30
0.0
 10
129.5460977866239
 20
-107.5469238012383
 30
0.0
 10
129.5460977866239
 20
-107.5469238012383
 30
0.0
 10
129.5741753148287
 20
-107.3719129505876
 30
0.0
 10
129.5741753148287
 20
-107.3719129505876
 30
0.0
 10
129.5741753148287
 20
-107.3719129505876
 30
0.0
 10
129.6143106772318
 20
-107.1658962405696
 30
0.0
 10
129.6143106772318
 20
-107.1658962405696
 30
0.0
 10
129.6143106772318
 20
-107.1658962405696
 30
0.0
 10
129.6578911351202
 20
-106.9908853899189
 30
0.0
 10
129.6578911351202
 20
-106.9908853899189
 30
0.0
 10
129.6578911351202
 20
-106.9908853899189
 30
0.0
 10
129.7190415799834
 20
-106.7359483240104
 30
0.0
 10
129.7190415799834
 20
-106.7359483240104
 30
0.0
 10
129.7190415799834
 20
-106.7359483240104
 30
0.0
 10
129.7733018338761
 20
-106.5009928119164
 30
0.0
 10
129.7733018338761
 20
-106.5009928119164
 30
0.0
 10
129.7733018338761
 20
-106.5009928119164
 30
0.0
 10
129.8589124566845
 20
-106.1495930724209
 30
0.0
 10
129.8589124566845
 20
-106.1495930724209
 30
0.0
 10
129.8589124566845
 20
-106.1495930724209
 30
0.0
 10
129.913000455803
 20
-105.8719183763098
 30
0.0
 10
129.913000455803
 20
-105.8719183763098
 30
0.0
 10
129.913000455803
 20
-105.8719183763098
 30
0.0
 10
129.9636433594362
 20
-105.6245605204688
 30
0.0
 10
129.9636433594362
 20
-105.6245605204688
 30
0.0
 10
129.9636433594362
 20
-105.6245605204688
 30
0.0
 10
129.9917208876409
 20
-105.4714260261495
 30
0.0
 10
129.9917208876409
 20
-105.4714260261495
 30
0.0
 10
129.9917208876409
 20
-105.4714260261495
 30
0.0
 10
130.0284111545588
 20
-105.2290635587622
 30
0.0
 10
130.0284111545588
 20
-105.2290635587622
 30
0.0
 10
130.0284111545588
 20
-105.2290635587622
 30
0.0
 10
130.0597615234746
 20
-105.1014227710337
 30
0.0
 10
130.0597615234746
 20
-105.1014227710337
 30
0.0
 10
130.0597615234746
 20
-105.1014227710337
 30
0.0
 10
130.0738864149641
 20
-104.9922132441512
 30
0.0
 10
130.0738864149641
 20
-104.9922132441512
 30
0.0
 10
130.0738864149641
 20
-104.9922132441512
 30
0.0
 10
130.0826714084516
 20
-104.8900661630136
 30
0.0
 10
130.0842217014199
 20
-104.8847262650114
 30
0.0
 10
130.0861165039368
 20
-104.879214112235
 30
0.0
 10
130.079054058192
 20
-104.7806843813569
 30
0.0
 10
130.0842217014199
 20
-104.7753444833548
 30
0.0
 10
130.089561599422
 20
-104.7700045853526
 30
0.0
 10
130.0845662109684
 20
-104.6952460133227
 30
0.0
 10
130.0845662109684
 20
-104.6952460133227
 30
0.0
 10
130.0845662109684
 20
-104.6952460133227
 30
0.0
 10
130.0909396376161
 20
-104.6477036956263
 30
0.0
 10
130.0868055230338
 20
-104.6368516448477
 30
0.0
 10
130.0826714084516
 20
-104.6258273392949
 30
0.0
 10
130.0699245551561
 20
-104.5767347286301
 30
0.0
 10
130.0699245551561
 20
-104.5767347286301
 30
0.0
  0
ENDBLK
  5
55
330
52
100
AcDbEntity
  8
0
100
AcDbBlockEnd
  0
BLOCK
  5
58
330
56
100
AcDbEntity
  8
0
100
AcDbBlockBegin
  2
block 4
 70
     0
 10
0.0
 20
0.0
 30
0.0
  3
block 4
  1

  0
POLYLINE
  5
5A
330
56
100
AcDbEntity
  8
Furniture
 62
   250
370
     9
100
AcDb2dPolyline
 66
     1
 10
0.0
 20
0.0
 30
0.0
  0
VERTEX
  5
5B
330
5A
100
AcDbEntity
  8
Furniture
 62
   250
370
     9
100
AcDbVertex
100
AcDb2dVertex
 10
125.0834933498055
 20
-115.1815999061004
 30
0.0
  0
VERTEX
  5
F3
330
5A
100
AcDbEntity
  8
0
100
AcDbVertex
100
AcDb2dVertex
 10
125.0834933498055
 20
-115.1815999061004
 30
0.0
  0
SEQEND
  5
5C
330
5A
100
AcDbEntity
  8
Furniture
370
     9
  0
POLYLINE
  5
5D
330
56
100
AcDbEntity
  8
Furniture
 62
   250
370
     9
100
AcDb2dPolyline
 66
     1
 10
0.0
 20
0.0
 30
0.0
  0
VERTEX
  5
5E
330
5D
100
AcDbEntity
  8
Furniture
 62
   250
370
     9
100
AcDbVertex
100
AcDb2dVertex
 10
125.0834933498055
 20
-109.3996961532056
 30
0.0
  0
VERTEX
  5
F4
330
5D
100
AcDbEntity
  8
0
100
AcDbVertex
100
AcDb2dVertex
 10
125.0834933498055
 20
-109.3996961532056
 30
0.0
  0
SEQEND
  5
5F
330
5D
100
AcDbEntity
  8
Furniture
370
     9
  0
POLYLINE
  5
60
330
56
100
AcDbEntity
  8
Furniture
 62
   250
370
     9
100
AcDb2dPolyline
 66
     1
 10
0.0
 20
0.0
 30
0.0
  0
VERTEX
  5
61
330
60
100
AcDbEntity
  8
Furniture
 62
   250
370
     9
100
AcDbVertex
100
AcDb2dVertex
 10
125.0834933498055
 20
-108.0822916396461
 30
0.0
  0
VERTEX
  5
F5
330
60
100
AcDbEntity
  8
0
100
AcDbVertex
100
AcDb2dVertex
 10
125.0834933498055
 20
-108.0822916396461
 30
0.0
  0
SEQEND
  5
62
330
60
100
AcDbEntity
  8
Furniture
370
     9
  0
POLYLINE
  5
63
330
56
100
AcDbEntity
  8
Furniture
 62
   250
370
     9
100
AcDb2dPolyline
 66
     1
 10
0.0
 20
0.0
 30
0.0
  0
VERTEX
  5
64
330
63
100
AcDbEntity
  8
Furniture
 62
   250
370
     9
100
AcDbVertex
100
AcDb2dVertex
 10
125.0834933498055
 20
-109.2736056584455
 30
0.0
  0
VERTEX
  5
F6
330
63
100
AcDbEntity
  8
0
100
AcDbVertex
100
AcDb2dVertex
 10
125.0834933498055
 20
-109.2736056584455
 30
0.0
  0
SEQEND
  5
65
330
63
100
AcDbEntity
  8
Furniture
370
     9
  0
SPLINE
  5
66
330
56
100
AcDbEntity
  8
Furniture
 62
   250
370
     9
100
AcDbSpline
210
0.0
220
0.0
230
1.0
 70
    24
 71
     3
 72
     8
 73
     4
 74
     0
 42
0.000000001
 43
0.0000000001
 40
0.0
 40
0.0
 40
0.0
 40
0.0
 40
1.0
 40
1.0
 40
1.0
 40
1.0
 10
129.3521389108043
 20
-108.6128363443745
 30
0.0
 10
129.3521389108043
 20
-108.6066351725011
 30
0.0
 10
129.3521389108043
 20
-108.6018120388217
 30
0.0
 10
129.3521389108043
 20
-108.6018120388217
 30
0.0
  0
ENDBLK
  5
59
330
56
100
AcDbEntity
  8
0
100
AcDbBlockEnd
  0
BLOCK
  5
AF
330
AD
100
AcDbEntity
  8
0
100
AcDbBlockBegin
  2
block 5
 70
     0
 10
0.0
 20
0.0
 30
0.0
  3
block 5
  1

  0
SPLINE
  5
B1
330
AD
100
AcDbEntity
  8
Furniture
 62
   250
370
     9
100
AcDbSpline
210
0.0
220
0.0
230
1.0
 70
     8
 71
     3
 72
     8
 73
     4
 74
     0
 42
0.000000001
 43
0.0000000001
 40
0.0
 40
0.0
 40
0.0
 40
0.0
 40
1.0
 40
1.0
 40
1.0
 40
1.0
 10
90.15022512937218
 20
-113.8624728447982
 30
0.0
 10
89.28188881231495
 20
-113.9169053534652
 30
0.0
 10
88.6428235998011
 20
-113.7742784003759
 30
0.0
 10
88.52017820052621
 20
-113.1217773154695
 30
0.0
  0
SPLINE
  5
B2
330
AD
100
AcDbEntity
  8
Furniture
 62
   250
370
     9
100
AcDbSpline
210
0.0
220
0.0
230
1.0
 70
     8
 71
     3
 72
     8
 73
     4
 74
     0
 42
0.000000001
 43
0.0000000001
 40
0.0
 40
0.0
 40
0.0
 40
0.0
 40
1.0
 40
1.0
 40
1.0
 40
1.0
 10
90.38983152037131
 20
-113.9224175062416
 30
0.0
 10
90.39155406811392
 20
-113.5854871677842
 30
0.0
 10
90.58551294393348
 20
-113.7177788344178
 30
0.0
 10
90.6533813249929
 20
-113.5134846721424
 30
0.0
  0
SPLINE
  5
B3
330
AD
100
AcDbEntity
  8
Furniture
 62
   250
370
     9
100
AcDbSpline
210
0.0
220
0.0
230
1.0
 70
     8
 71
     3
 72
     8
 73
     4
 74
     0
 42
0.000000001
 43
0.0000000001
 40
0.0
 40
0.0
 40
0.0
 40
0.0
 40
1.0
 40
1.0
 40
1.0
 40
1.0
 10
90.6533813249929
 20
-113.5134846721424
 30
0.0
 10
90.75604517045334
 20
-113.3112575671583
 30
0.0
 10
90.70764157888559
 20
-111.9104817428557
 30
0.0
 10
90.70764157888559
 20
-110.0701117346352
 30
0.0
  0
SPLINE
  5
B4
330
AD
100
AcDbEntity
  8
Furniture
 62
   250
370
     9
100
AcDbSpline
210
0.0
220
0.0
230
1.0
 70
     8
 71
     3
 72
     8
 73
     4
 74
     0
 42
0.000000001
 43
0.0000000001
 40
0.0
 40
0.0
 40
0.0
 40
0.0
 40
1.0
 40
1.0
 40
1.0
 40
1.0
 10
90.40343964753803
 20
-114.0057888169846
 30
0.0
 10
90.37122800475094
 20
-113.9637586520646
 30
0.0
 10
90.32713078253975
 20
-113.7177788344178
 30
0.0
 10
90.04756128391171
 20
-113.7260470635824
 30
0.0
  0
SPLINE
  5
B5
330
AD
100
AcDbEntity
  8
Furniture
 62
   250
370
     9
100
AcDbSpline
210
0.0
220
0.0
230
1.0
 70
     8
 71
     3
 72
     8
 73
     4
 74
     0
 42
0.000000001
 43
0.0000000001
 40
0.0
 40
0.0
 40
0.0
 40
0.0
 40
1.0
 40
1.0
 40
1.0
 40
1.0
 10
88.69346650343429
 20
-113.3408853883314
 30
0.0
 10
88.56823728254545
 20
-113.2044596071155
 30
0.0
 10
88.27006426829708
 20
-112.1471598026924
 30
0.0
 10
88.8255859152936
 20
-109.570572889274
 30
0.0
  0
SPLINE
  5
B6
330
AD
100
AcDbEntity
  8
Furniture
 62
   250
370
     9
100
AcDbSpline
210
0.0
220
0.0
230
1.0
 70
     8
 71
     3
 72
     8
 73
     4
 74
     0
 42
0.000000001
 43
0.0000000001
 40
0.0
 40
0.0
 40
0.0
 40
0.0
 40
1.0
 40
1.0
 40
1.0
 40
1.0
 10
90.04756128391171
 20
-113.7260470635824
 30
0.0
 10
89.18353133621106
 20
-113.7687662475995
 30
0.0
 10
88.90912948081092
 20
-113.6288953708983
 30
0.0
 10
88.69346650343429
 20
-113.3408853883314
 30
0.0
  0
SPLINE
  5
B7
330
AD
100
AcDbEntity
  8
Furniture
 62
   250
370
     9
100
AcDbSpline
210
0.0
220
0.0
230
1.0
 70
     8
 71
     3
 72
    14
 73
    10
 74
     0
 42
0.000000001
 43
0.0000000001
 40
0.0
 40
0.0
 40
0.0
 40
0.0
 40
1.0
 40
1.0
 40
1.0
 40
2.0
 40
2.0
 40
2.0
 40
3.0
 40
3.0
 40
3.0
 40
3.0
 10
96.95670027958028
 20
-113.8624728447982
 30
0.0
 10
96.72226153180902
 20
-114.8770534652043
 30
0.0
 10
94.29364146948215
 20
-115.2329318288306
 30
0.0
 10
93.59049748094266
 20
-115.1847004920371
 30
0.0
 10
93.59049748094266
 20
-115.1847004920371
 30
0.0
 10
93.51625567323551
 20
-115.1847004920371
 30
0.0
 10
93.51625567323551
 20
-115.1847004920371
 30
0.0
 10
92.81328393947029
 20
-115.2329318288306
 30
0.0
 10
90.38449162236915
 20
-114.8770534652043
 30
0.0
 10
90.15022512937218
 20
-113.8624728447982
 30
0.0
  0
SPLINE
  5
B8
330
AD
100
AcDbEntity
  8
Furniture
 62
   250
370
     9
100
AcDbSpline
210
0.0
220
0.0
230
1.0
 70
     8
 71
     3
 72
     8
 73
     4
 74
     0
 42
0.000000001
 43
0.0000000001
 40
0.0
 40
0.0
 40
0.0
 40
0.0
 40
1.0
 40
1.0
 40
1.0
 40
1.0
 10
96.95670027958028
 20
-113.8624728447982
 30
0.0
 10
97.82486434186324
 20
-113.9169053534652
 30
0.0
 10
98.46410180915135
 20
-113.7742784003759
 30
0.0
 10
98.58657495365198
 20
-113.1217773154695
 30
0.0
  0
SPLINE
  5
B9
330
AD
100
AcDbEntity
  8
Furniture
 62
   250
370
     9
100
AcDbSpline
210
0.0
220
0.0
230
1.0
 70
     8
 71
     3
 72
    14
 73
    10
 74
     0
 42
0.000000001
 43
0.0000000001
 40
0.0
 40
0.0
 40
0.0
 40
0.0
 40
1.0
 40
1.0
 40
1.0
 40
2.0
 40
2.0
 40
2.0
 40
3.0
 40
3.0
 40
3.0
 40
3.0
 10
98.58657495365198
 20
-113.1217773154695
 30
0.0
 10
99.18309323692298
 20
-109.90784773728
 30
0.0
 10
97.44676511235706
 20
-105.0297647849405
 30
0.0
 10
93.59049748094266
 20
-104.892994494176
 30
0.0
 10
93.59049748094266
 20
-104.892994494176
 30
0.0
 10
93.51625567323551
 20
-104.892994494176
 30
0.0
 10
93.51625567323551
 20
-104.892994494176
 30
0.0
 10
89.66016029659538
 20
-105.0297647849405
 30
0.0
 10
87.92383217202946
 20
-109.90784773728
 30
0.0
 10
88.52017820052621
 20
-113.1217773154695
 30
0.0
  0
SPLINE
  5
BA
330
AD
100
AcDbEntity
  8
Furniture
 62
   250
370
     9
100
AcDbSpline
210
0.0
220
0.0
230
1.0
 70
     8
 71
     3
 72
    14
 73
    10
 74
     0
 42
0.000000001
 43
0.0000000001
 40
0.0
 40
0.0
 40
0.0
 40
0.0
 40
1.0
 40
1.0
 40
1.0
 40
2.0
 40
2.0
 40
2.0
 40
3.0
 40
3.0
 40
3.0
 40
3.0
 10
96.71709388858115
 20
-113.9224175062416
 30
0.0
 10
96.71709388858115
 20
-114.4088649887589
 30
0.0
 10
95.29030759336492
 20
-115.065155678699
 30
0.0
 10
93.59049748094266
 20
-115.065155678699
 30
0.0
 10
93.59049748094266
 20
-115.065155678699
 30
0.0
 10
93.51625567323551
 20
-115.065155678699
 30
0.0
 10
93.51625567323551
 20
-115.065155678699
 30
0.0
 10
91.81661781558752
 20
-115.065155678699
 30
0.0
 10
90.38983152037131
 20
-114.4088649887589
 30
0.0
 10
90.38983152037131
 20
-113.9224175062416
 30
0.0
  0
SPLINE
  5
BB
330
AD
100
AcDbEntity
  8
Furniture
 62
   250
370
     9
100
AcDbSpline
210
0.0
220
0.0
230
1.0
 70
     8
 71
     3
 72
     8
 73
     4
 74
     0
 42
0.000000001
 43
0.0000000001
 40
0.0
 40
0.0
 40
0.0
 40
0.0
 40
1.0
 40
1.0
 40
1.0
 40
1.0
 10
96.71709388858115
 20
-113.9224175062416
 30
0.0
 10
96.71519908606427
 20
-113.5854871677842
 30
0.0
 10
96.52124021024469
 20
-113.7177788344178
 30
0.0
 10
96.45337182918527
 20
-113.5134846721424
 30
0.0
  0
SPLINE
  5
BC
330
AD
100
AcDbEntity
  8
Furniture
 62
   250
370
     9
100
AcDbSpline
210
0.0
220
0.0
230
1.0
 70
     8
 71
     3
 72
    14
 73
    10
 74
     0
 42
0.000000001
 43
0.0000000001
 40
0.0
 40
0.0
 40
0.0
 40
0.0
 40
1.0
 40
1.0
 40
1.0
 40
2.0
 40
2.0
 40
2.0
 40
3.0
 40
3.0
 40
3.0
 40
3.0
 10
96.39928383006685
 20
-110.0701117346352
 30
0.0
 10
96.39928383006685
 20
-108.6844943304678
 30
0.0
 10
95.14302976137051
 20
-107.5627712404704
 30
0.0
 10
93.59049748094266
 20
-107.5627712404704
 30
0.0
 10
93.59049748094266
 20
-107.5627712404704
 30
0.0
 10
93.51625567323551
 20
-107.5627712404704
 30
0.0
 10
93.51625567323551
 20
-107.5627712404704
 30
0.0
 10
91.96389564758195
 20
-107.5627712404704
 30
0.0
 10
90.70764157888559
 20
-108.6844943304678
 30
0.0
 10
90.70764157888559
 20
-110.0701117346352
 30
0.0
  0
SPLINE
  5
BD
330
AD
100
AcDbEntity
  8
Furniture
 62
   250
370
     9
100
AcDbSpline
210
0.0
220
0.0
230
1.0
 70
     8
 71
     3
 72
     8
 73
     4
 74
     0
 42
0.000000001
 43
0.0000000001
 40
0.0
 40
0.0
 40
0.0
 40
0.0
 40
1.0
 40
1.0
 40
1.0
 40
1.0
 10
96.45337182918527
 20
-113.5134846721424
 30
0.0
 10
96.3508802384991
 20
-113.3112575671583
 30
0.0
 10
96.39928383006685
 20
-111.9104817428557
 30
0.0
 10
96.39928383006685
 20
-110.0701117346352
 30
0.0
  0
SPLINE
  5
BE
330
AD
100
AcDbEntity
  8
Furniture
 62
   250
370
     9
100
AcDbSpline
210
0.0
220
0.0
230
1.0
 70
     8
 71
     3
 72
    14
 73
    10
 74
     0
 42
0.000000001
 43
0.0000000001
 40
0.0
 40
0.0
 40
0.0
 40
0.0
 40
1.0
 40
1.0
 40
1.0
 40
2.0
 40
2.0
 40
2.0
 40
3.0
 40
3.0
 40
3.0
 40
3.0
 10
98.28116723888458
 20
-109.570572889274
 30
0.0
 10
97.7699150688735
 20
-107.377425103364
 30
0.0
 10
96.06562633232041
 20
-105.1474147957617
 30
0.0
 10
93.59049748094266
 20
-104.9954860848622
 30
0.0
 10
93.59049748094266
 20
-104.9954860848622
 30
0.0
 10
93.51625567323551
 20
-104.9954860848622
 30
0.0
 10
93.51625567323551
 20
-104.9954860848622
 30
0.0
 10
91.04129907663205
 20
-105.1474147957617
 30
0.0
 10
89.33701034007894
 20
-107.377425103364
 30
0.0
 10
88.8255859152936
 20
-109.570572889274
 30
0.0
  0
SPLINE
  5
BF
330
AD
100
AcDbEntity
  8
Furniture
 62
   250
370
     9
100
AcDbSpline
210
0.0
220
0.0
230
1.0
 70
     8
 71
     3
 72
     8
 73
     4
 74
     0
 42
0.000000001
 43
0.0000000001
 40
0.0
 40
0.0
 40
0.0
 40
0.0
 40
1.0
 40
1.0
 40
1.0
 40
1.0
 10
96.70348576141442
 20
-114.0057888169846
 30
0.0
 10
96.7356974042015
 20
-113.9637586520646
 30
0.0
 10
96.77962237163844
 20
-113.7177788344178
 30
0.0
 10
97.05919187026646
 20
-113.7260470635824
 30
0.0
  0
SPLINE
  5
C0
330
AD
100
AcDbEntity
  8
Furniture
 62
   250
370
     9
100
AcDbSpline
210
0.0
220
0.0
230
1.0
 70
     8
 71
     3
 72
     8
 73
     4
 74
     0
 42
0.000000001
 43
0.0000000001
 40
0.0
 40
0.0
 40
0.0
 40
0.0
 40
1.0
 40
1.0
 40
1.0
 40
1.0
 10
98.41345890551817
 20
-113.3408853883314
 30
0.0
 10
98.53868812640699
 20
-113.2044596071155
 30
0.0
 10
98.83703339542963
 20
-112.1471598026924
 30
0.0
 10
98.28116723888458
 20
-109.570572889274
 30
0.0
  0
SPLINE
  5
C1
330
AD
100
AcDbEntity
  8
Furniture
 62
   250
370
     9
100
AcDbSpline
210
0.0
220
0.0
230
1.0
 70
     8
 71
     3
 72
     8
 73
     4
 74
     0
 42
0.000000001
 43
0.0000000001
 40
0.0
 40
0.0
 40
0.0
 40
0.0
 40
1.0
 40
1.0
 40
1.0
 40
1.0
 10
97.05919187026646
 20
-113.7260470635824
 30
0.0
 10
97.92356632751564
 20
-113.7687662475995
 30
0.0
 10
98.19779592814153
 20
-113.6288953708983
 30
0.0
 10
98.41345890551817
 20
-113.3408853883314
 30
0.0
  0
ENDBLK
  5
B0
330
AD
100
AcDbEntity
  8
0
100
AcDbBlockEnd
  0
BLOCK
  5
C8
330
C6
100
AcDbEntity
  8
0
100
AcDbBlockBegin
  2
block 6
 70
     0
 10
0.0
 20
0.0
 30
0.0
  3
block 6
  1

  0
INSERT
  5
CB
330
C6
100
AcDbEntity
  8
Furniture
100
AcDbBlockReference
  2
block 7
 10
0.0
 20
0.0
 30
0.0
  0
POLYLINE
  5
DD
330
C6
100
AcDbEntity
  8
Furniture
 62
   250
370
     9
100
AcDb2dPolyline
 66
     1
 10
0.0
 20
0.0
 30
0.0
  0
VERTEX
  5
DE
330
DD
100
AcDbEntity
  8
Furniture
 62
   250
370
     9
100
AcDbVertex
100
AcDb2dVertex
 10
191.8022460457994
 20
-114.9593912473018
 30
0.0
  0
VERTEX
  5
DF
330
DD
100
AcDbEntity
  8
Furniture
 62
   250
370
     9
100
AcDbVertex
100
AcDb2dVertex
 10
191.8022460457994
 20
-115.1888346066194
 30
0.0
  0
VERTEX
  5
E0
330
DD
100
AcDbEntity
  8
Furniture
 62
   250
370
     9
100
AcDbVertex
100
AcDb2dVertex
 10
185.549397740071
 20
-115.1888346066194
 30
0.0
  0
VERTEX
  5
E1
330
DD
100
AcDbEntity
  8
Furniture
 62
   250
370
     9
100
AcDbVertex
100
AcDb2dVertex
 10
185.549397740071
 20
-115.0214029660363
 30
0.0
  0
SEQEND
  5
E2
330
DD
100
AcDbEntity
  8
Furniture
370
     9
  0
ENDBLK
  5
C9
330
C6
100
AcDbEntity
  8
0
100
AcDbBlockEnd
  0
BLOCK
  5
CC
330
CA
100
AcDbEntity
  8
0
100
AcDbBlockBegin
  2
block 7
 70
     0
 10
0.0
 20
0.0
 30
0.0
  3
block 7
  1

  0
SPLINE
  5
CE
330
CA
100
AcDbEntity
  8
Furniture
 62
   250
370
     9
100
AcDbSpline
210
0.0
220
0.0
230
1.0
 70
     8
 71
     3
 72
     8
 73
     4
 74
     0
 42
0.000000001
 43
0.0000000001
 40
0.0
 40
0.0
 40
0.0
 40
0.0
 40
1.0
 40
1.0
 40
1.0
 40
1.0
 10
184.0762749105781
 20
-108.9194498425618
 30
0.0
 10
184.0121961345525
 20
-108.9828395994904
 30
0.0
 10
183.8323621502224
 20
-109.2019476723523
 30
0.0
 10
183.9322699192947
 20
-110.1810438092603
 30
0.0
  0
SPLINE
  5
CF
330
CA
100
AcDbEntity
  8
Furniture
 62
   250
370
     9
100
AcDbSpline
210
0.0
220
0.0
230
1.0
 70
     8
 71
     3
 72
    29
 73
    25
 74
     0
 42
0.000000001
 43
0.0000000001
 40
0.0
 40
0.0
 40
0.0
 40
0.0
 40
1.0
 40
1.0
 40
1.0
 40
2.0
 40
2.0
 40
2.0
 40
3.0
 40
3.0
 40
3.0
 40
4.0
 40
4.0
 40
4.0
 40
5.0
 40
5.0
 40
5.0
 40
6.0
 40
6.0
 40
6.0
 40
7.0
 40
7.0
 40
7.0
 40
8.0
 40
8.0
 40
8.0
 40
8.0
 10
183.9322699192947
 20
-110.1810438092603
 30
0.0
 10
183.9322699192947
 20
-110.1810438092603
 30
0.0
 10
184.349815492107
 20
-113.9616915947734
 30
0.0
 10
184.349815492107
 20
-113.9616915947734
 30
0.0
 10
184.349815492107
 20
-113.9616915947734
 30
0.0
 10
184.3601507785627
 20
-114.038172714546
 30
0.0
 10
184.3601507785627
 20
-114.038172714546
 30
0.0
 10
184.3601507785627
 20
-114.169430852534
 30
0.0
 10
184.5730576795512
 20
-114.706865748233
 30
0.0
 10
184.8782931395443
 20
-114.8698187646853
 30
0.0
 10
185.3771429658085
 20
-115.1371581743407
 30
0.0
 10
189.2625216540732
 20
-115.3562662472026
 30
0.0
 10
191.4026149695104
 20
-115.0124457177746
 30
0.0
 10
191.4026149695104
 20
-115.0124457177746
 30
0.0
 10
191.438443962557
 20
-115.003488469513
 30
0.0
 10
191.438443962557
 20
-115.003488469513
 30
0.0
 10
192.4630153598703
 20
-114.8401909435122
 30
0.0
 10
193.3098198301448
 20
-114.4371147717379
 30
0.0
 10
193.4324652294197
 20
-112.900257675768
 30
0.0
 10
193.4324652294197
 20
-112.900257675768
 30
0.0
 10
193.4696722606603
 20
-111.6720811352764
 30
0.0
 10
193.4696722606603
 20
-111.6720811352764
 30
0.0
 10
193.4696722606603
 20
-111.6720811352764
 30
0.0
 10
193.5557996477916
 20
-109.0937716741154
 30
0.0
 10
193.5557996477916
 20
-109.0937716741154
 30
0.0
  0
SPLINE
  5
D0
330
CA
100
AcDbEntity
  8
Furniture
 62
   250
370
     9
100
AcDbSpline
210
0.0
220
0.0
230
1.0
 70
     8
 71
     3
 72
    20
 73
    16
 74
     0
 42
0.000000001
 43
0.0000000001
 40
0.0
 40
0.0
 40
0.0
 40
0.0
 40
1.0
 40
1.0
 40
1.0
 40
2.0
 40
2.0
 40
2.0
 40
3.0
 40
3.0
 40
3.0
 40
4.0
 40
4.0
 40
4.0
 40
5.0
 40
5.0
 40
5.0
 40
5.0
 10
193.5557996477916
 20
-109.0937716741154
 30
0.0
 10
193.5557996477916
 20
-109.0937716741154
 30
0.0
 10
193.7721516442653
 20
-107.4869791397949
 30
0.0
 10
193.7721516442653
 20
-107.4869791397949
 30
0.0
 10
193.7721516442653
 20
-107.4869791397949
 30
0.0
 10
193.8975531199284
 20
-106.6629122997231
 30
0.0
 10
193.8975531199284
 20
-106.6629122997231
 30
0.0
 10
193.9016872345107
 20
-106.5698947216214
 30
0.0
 10
194.1318196129254
 20
-105.3573933655877
 30
0.0
 10
194.1518011667398
 20
-105.1870333938421
 30
0.0
 10
194.1717827205543
 20
-105.016328912548
 30
0.0
 10
194.1786729115248
 20
-105.0080606833834
 30
0.0
 10
194.1917642743687
 20
-104.7300414777237
 30
0.0
 10
194.2062336754068
 20
-104.5546861175245
 30
0.0
 10
194.1917642743687
 20
-104.1715914995647
 30
0.0
 10
194.1917642743687
 20
-104.1715914995647
 30
0.0
  0
SPLINE
  5
D1
330
CA
100
AcDbEntity
  8
Furniture
 62
   250
370
     9
100
AcDbSpline
210
0.0
220
0.0
230
1.0
 70
     8
 71
     3
 72
     8
 73
     4
 74
     0
 42
0.000000001
 43
0.0000000001
 40
0.0
 40
0.0
 40
0.0
 40
0.0
 40
1.0
 40
1.0
 40
1.0
 40
1.0
 10
194.0332898820472
 20
-103.9538614648969
 30
0.0
 10
194.071185932385
 20
-103.7926309961872
 30
0.0
 10
193.9905706980301
 20
-103.7364759397777
 30
0.0
 10
193.8472547258437
 20
-103.7364759397777
 30
0.0
  0
SPLINE
  5
D2
330
CA
100
AcDbEntity
  8
Furniture
 62
   250
370
     9
100
AcDbSpline
210
0.0
220
0.0
230
1.0
 70
     8
 71
     3
 72
     8
 73
     4
 74
     0
 42
0.000000001
 43
0.0000000001
 40
0.0
 40
0.0
 40
0.0
 40
0.0
 40
1.0
 40
1.0
 40
1.0
 40
1.0
 10
194.0332898820472
 20
-103.9538614648969
 30
0.0
 10
194.1428439184782
 20
-103.9793551714878
 30
0.0
 10
194.1917642743687
 20
-104.0966606727605
 30
0.0
 10
194.1917642743687
 20
-104.1715914995647
 30
0.0
  0
SPLINE
  5
D3
330
CA
100
AcDbEntity
  8
Furniture
 62
   250
370
     9
100
AcDbSpline
210
0.0
220
0.0
230
1.0
 70
     8
 71
     3
 72
    11
 73
     7
 74
     0
 42
0.000000001
 43
0.0000000001
 40
0.0
 40
0.0
 40
0.0
 40
0.0
 40
1.0
 40
1.0
 40
1.0
 40
2.0
 40
2.0
 40
2.0
 40
2.0
 10
185.3068630179094
 20
-107.2713161624183
 30
0.0
 10
185.3068630179094
 20
-107.2713161624183
 30
0.0
 10
185.2200466116811
 20
-108.2910644260522
 30
0.0
 10
185.2200466116811
 20
-108.2910644260522
 30
0.0
 10
185.2200466116811
 20
-108.2910644260522
 30
0.0
 10
184.3966687907064
 20
-108.357210259369
 30
0.0
 10
184.2602430094905
 20
-108.6838053113707
 30
0.0
  0
SPLINE
  5
D4
330
CA
100
AcDbEntity
  8
Furniture
 62
   250
370
     9
100
AcDbSpline
210
0.0
220
0.0
230
1.0
 70
     8
 71
     3
 72
     8
 73
     4
 74
     0
 42
0.000000001
 43
0.0000000001
 40
0.0
 40
0.0
 40
0.0
 40
0.0
 40
1.0
 40
1.0
 40
1.0
 40
1.0
 10
184.0762749105781
 20
-108.9194498425618
 30
0.0
 10
183.9736110651177
 20
-108.8739745821565
 30
0.0
 10
184.0762749105781
 20
-108.5835530327499
 30
0.0
 10
184.2602430094905
 20
-108.6838053113707
 30
0.0
  0
SPLINE
  5
D5
330
CA
100
AcDbEntity
  8
Furniture
 62
   250
370
     9
100
AcDbSpline
210
0.0
220
0.0
230
1.0
 70
     8
 71
     3
 72
    14
 73
    10
 74
     0
 42
0.000000001
 43
0.0000000001
 40
0.0
 40
0.0
 40
0.0
 40
0.0
 40
1.0
 40
1.0
 40
1.0
 40
2.0
 40
2.0
 40
2.0
 40
3.0
 40
3.0
 40
3.0
 40
3.0
 10
185.3068630179094
 20
-107.2713161624183
 30
0.0
 10
185.5115016897332
 20
-105.6176703294983
 30
0.0
 10
185.3750759085173
 20
-104.5252305511256
 30
0.0
 10
188.1387315067847
 20
-104.1715914995647
 30
0.0
 10
188.1387315067847
 20
-104.1715914995647
 30
0.0
 10
188.1938530345487
 20
-104.1636677799486
 30
0.0
 10
188.1938530345487
 20
-104.1636677799486
 30
0.0
 10
188.1938530345487
 20
-104.1636677799486
 30
0.0
 10
193.8472547258437
 20
-103.7364759397777
 30
0.0
 10
193.8472547258437
 20
-103.7364759397777
 30
0.0
  0
SPLINE
  5
D6
330
CA
100
AcDbEntity
  8
Furniture
 62
   250
370
     9
100
AcDbSpline
210
0.0
220
0.0
230
1.0
 70
     8
 71
     3
 72
     8
 73
     4
 74
     0
 42
0.000000001
 43
0.0000000001
 40
0.0
 40
0.0
 40
0.0
 40
0.0
 40
1.0
 40
1.0
 40
1.0
 40
1.0
 10
184.2602430094905
 20
-108.6838053113707
 30
0.0
 10
184.2802245633049
 20
-108.8825873208696
 30
0.0
 10
185.1111815943472
 20
-108.812651882519
 30
0.0
 10
185.2200466116811
 20
-108.2910644260522
 30
0.0
  0
POLYLINE
  5
D7
330
CA
100
AcDbEntity
  8
Furniture
 62
   250
370
     9
100
AcDb2dPolyline
 66
     1
 10
0.0
 20
0.0
 30
0.0
  0
VERTEX
  5
D8
330
D7
100
AcDbEntity
  8
Furniture
 62
   250
370
     9
100
AcDbVertex
100
AcDb2dVertex
 10
194.0332898820472
 20
-103.9698811589033
 30
0.0
  0
VERTEX
  5
D9
330
D7
100
AcDbEntity
  8
Furniture
 62
   250
370
     9
100
AcDbVertex
100
AcDb2dVertex
 10
188.2400173140511
 20
-104.3739908593231
 30
0.0
  0
SEQEND
  5
DA
330
D7
100
AcDbEntity
  8
Furniture
370
     9
  0
SPLINE
  5
DB
330
CA
100
AcDbEntity
  8
Furniture
 62
   250
370
     9
100
AcDbSpline
210
0.0
220
0.0
230
1.0
 70
     8
 71
     3
 72
     8
 73
     4
 74
     0
 42
0.000000001
 43
0.0000000001
 40
0.0
 40
0.0
 40
0.0
 40
0.0
 40
1.0
 40
1.0
 40
1.0
 40
1.0
 10
188.2400173140511
 20
-104.3739908593231
 30
0.0
 10
185.3068630179094
 20
-104.4602905012287
 30
0.0
 10
185.6630858910842
 20
-106.274305528987
 30
0.0
 10
185.3647406220616
 20
-108.2910644260522
 30
0.0
  0
SPLINE
  5
DC
330
CA
100
AcDbEntity
  8
Furniture
 62
   250
370
     9
100
AcDbSpline
210
0.0
220
0.0
230
1.0
 70
     8
 71
     3
 72
     8
 73
     4
 74
     0
 42
0.000000001
 43
0.0000000001
 40
0.0
 40
0.0
 40
0.0
 40
0.0
 40
1.0
 40
1.0
 40
1.0
 40
1.0
 10
184.0762749105781
 20
-108.9194498425618
 30
0.0
 10
184.6819226968851
 20
-109.094116183664
 30
0.0
 10
185.2786132349303
 20
-109.0114338920179
 30
0.0
 10
185.3647406220616
 20
-108.2910644260522
 30
0.0
  0
ENDBLK
  5
CD
330
CA
100
AcDbEntity
  8
0
100
AcDbBlockEnd
  0
ENDSEC
  0
SECTION
  2
ENTITIES
  0
MTEXT
  5
3C
330
1F
100
AcDbEntity
  8
Text
100
AcDbMText
 10
4239.812646579276
 20
-397.1201951610519
 30
0.0
 40
106.0557350159188
 41
0.0
 46
0.0
 71
     7
 72
     1
  1
PE70
 73
     1
 44
1.0
  0
MTEXT
  5
3D
330
1F
100
AcDbEntity
  8
Furniture
100
AcDbMText
 10
11.48319070961406
 20
684.1207039629253
 30
0.0
 40
106.0557350159188
 41
0.0
 46
0.0
 71
     7
 72
     1
  1
\fApercu|b0|i0|c0|p34;\W1.0004;70
 73
     1
 44
1.0
  0
MTEXT
  5
3E
330
1F
100
AcDbEntity
  8
Furniture
100
AcDbMText
 10
4861.818772409479
 20
226.034105472906
 30
0.0
 40
106.0557350159188
 41
0.0
 46
0.0
 71
     7
 72
     1
  1
\fApercu|b0|i0|c0|p34;\W1.0004;74
 73
     1
 44
1.0
  0
MTEXT
  5
C2
330
1F
100
AcDbEntity
  8
Text
100
AcDbMText
 10
6365.927765328699
 20
-397.1201951610519
 30
0.0
 40
106.0557350159188
 41
0.0
 46
0.0
 71
     7
 72
     1
  1
PE70S
 73
     1
 44
1.0
  0
MTEXT
  5
C3
330
1F
100
AcDbEntity
  8
Furniture
100
AcDbMText
 10
543.5450515558568
 20
186.7149764790056
 30
0.0
 40
106.0557350159188
 41
0.0
 46
0.0
 71
     7
 72
     1
  1
\fApercu|b0|i0|c0|p34;\W1.0004;72
 73
     1
 44
1.0
  0
MTEXT
  5
C4
330
1F
100
AcDbEntity
  8
Furniture
100
AcDbMText
 10
2660.088141584182
 20
78.27103787127725
 30
0.0
 40
106.0557350159188
 41
0.0
 46
0.0
 71
     7
 72
     1
  1
\fApercu|b0|i0|c0|p34;\W1.0004;45
 73
     1
 44
1.0
  0
MTEXT
  5
C5
330
1F
100
AcDbEntity
  8
Furniture
100
AcDbMText
 10
4338.81343322959
 20
750.7617068584267
 30
0.0
 40
106.0557350159188
 41
0.0
 46
0.0
 71
     7
 72
     1
  1
\fApercu|b0|i0|c0|p34;\W1.0004;72
 73
     1
 44
1.0
  0
MTEXT
  5
E3
330
1F
100
AcDbEntity
  8
Text
100
AcDbMText
 10
-256.5921938283564
 20
-866.27847925871
 30
0.0
 40
106.0557350159188
 41
0.0
 46
0.0
 71
     7
 72
     1
  1
(S) denotes swivel base
 73
     1
 44
1.0
  0
MTEXT
  5
E4
330
1F
100
AcDbEntity
  8
Text
100
AcDbMText
 10
-2274.005620442678
 20
-877.3853130746266
 30
0.0
 40
138.6882688669708
 41
0.0
 46
0.0
 71
     7
 72
     1
  1
Notes
 73
     1
 44
1.0
  0
MTEXT
  5
E5
330
1F
100
AcDbEntity
  8
Furniture
100
AcDbMText
 10
7026.854673792318
 20
226.034105472906
 30
0.0
 40
106.0557350159188
 41
0.0
 46
0.0
 71
     7
 72
     1
  1
\fApercu|b0|i0|c0|p34;\W1.0004;74
 73
     1
 44
1.0
  0
MTEXT
  5
E6
330
1F
100
AcDbEntity
  8
Furniture
100
AcDbMText
 10
6506.801784107799
 20
756.1042345167161
 30
0.0
 40
106.0557350159188
 41
0.0
 46
0.0
 71
     7
 72
     1
  1
\fApercu|b0|i0|c0|p34;\W1.0004;72
 73
     1
 44
1.0
  0
MTEXT
  5
E7
330
1F
100
AcDbEntity
  8
Text
100
AcDbMText
 10
-2274.005620442678
 20
756.0925184472908
 30
0.0
 40
138.6882688669708
 41
0.0
 46
0.0
 71
     7
 72
     1
  1
Armchairs
 73
     1
 44
1.0
  0
POLYLINE
  5
E8
330
1F
100
AcDbEntity
  8
Text
370
    20
100
AcDb2dPolyline
 66
     1
 10
0.0
 20
0.0
 30
0.0
  0
VERTEX
  5
E9
330
E8
100
AcDbEntity
  8
Text
370
    20
100
AcDbVertex
100
AcDb2dVertex
 10
-2274.005620442678
 20
1241.208089103259
 30
0.0
  0
VERTEX
  5
EA
330
E8
100
AcDbEntity
  8
Text
370
    20
100
AcDbVertex
100
AcDb2dVertex
 10
9968.853435234597
 20
1241.208089103259
 30
0.0
  0
SEQEND
  5
EB
330
E8
100
AcDbEntity
  8
Text
370
    20
  0
MTEXT
  5
EC
330
1F
100
AcDbEntity
  8
Text
100
AcDbMText
 10
-2274.005620442678
 20
2236.558483264696
 30
0.0
 40
114.2138684786818
 41
0.0
 46
0.0
 71
     7
 72
     1
  1
PEARL
 73
     1
 44
1.0
  0
MTEXT
  5
ED
330
1F
100
AcDbEntity
  8
Text
100
AcDbMText
 10
-2274.005620442678
 20
1917.436184237326
 30
0.0
 40
114.2138684786818
 41
0.0
 46
114.2138684786818
 71
     7
 72
     1
  1
—
 73
     1
 44
1.0
  0
MTEXT
  5
EE
330
1F
100
AcDbEntity
  8
Text
100
AcDbMText
 10
-2274.005620442678
 20
1581.513041652969
 30
0.0
 40
146.8464023297338
 41
0.0
 46
0.0
 71
     7
 72
     1
  1
DIMENSIONS 
 73
     1
 44
1.0
  0
SPLINE
  5
143
330
1F
100
AcDbEntity
  8
Furniture
370
     9
100
AcDbSpline
210
0.0
220
0.0
230
1.0
 70
     8
 71
     3
 72
     8
 73
     4
 74
     0
 42
0.000000001
 43
0.0000000001
 40
0.0
 40
0.0
 40
0.0
 40
0.0
 40
1.0
 40
1.0
 40
1.0
 40
1.0
 10
-137.9201266116652
 20
-25.25215157750245
 30
0.0
 10
-196.9808325884987
 20
-28.95442951614132
 30
0.0
 10
-240.4474501592285
 20
-19.25352403135275
 30
0.0
 10
-248.7892915905923
 20
25.1269469546105
 30
0.0
  0
SPLINE
  5
144
330
1F
100
AcDbEntity
  8
Furniture
370
     9
100
AcDbSpline
210
0.0
220
0.0
230
1.0
 70
     8
 71
     3
 72
     8
 73
     4
 74
     0
 42
0.000000001
 43
0.0000000001
 40
0.0
 40
0.0
 40
0.0
 40
0.0
 40
1.0
 40
1.0
 40
1.0
 40
1.0
 10
-121.6230740399978
 20
-29.32934373777607
 30
0.0
 10
-121.505913345738
 20
-6.412711940377448
 30
0.0
 10
-108.3136191719795
 20
-15.41065325960153
 30
0.0
 10
-103.6974878181072
 20
-1.515394920278595
 30
0.0
  0
SPLINE
  5
145
330
1F
100
AcDbEntity
  8
Furniture
370
     9
100
AcDbSpline
210
0.0
220
0.0
230
1.0
 70
     8
 71
     3
 72
     8
 73
     4
 74
     0
 42
0.000000001
 43
0.0000000001
 40
0.0
 40
0.0
 40
0.0
 40
0.0
 40
1.0
 40
1.0
 40
1.0
 40
1.0
 10
-103.6974878181072
 20
-1.515394920278595
 30
0.0
 10
-96.71471044016834
 20
12.23927058593017
 30
0.0
 10
-100.0069259488937
 20
107.5143471587534
 30
0.0
 10
-100.0069259488937
 20
232.6888329069152
 30
0.0
  0
SPLINE
  5
146
330
1F
100
AcDbEntity
  8
Furniture
370
     9
100
AcDbSpline
210
0.0
220
0.0
230
1.0
 70
     8
 71
     3
 72
     8
 73
     4
 74
     0
 42
0.000000001
 43
0.0000000001
 40
0.0
 40
0.0
 40
0.0
 40
0.0
 40
1.0
 40
1.0
 40
1.0
 40
1.0
 10
-120.6975045553381
 20
-34.99992133999422
 30
0.0
 10
-122.8884095380144
 20
-32.14120040003308
 30
0.0
 10
-125.8877233110879
 20
-15.41065325960153
 30
0.0
 10
-144.9029039896049
 20
-15.97302459205275
 30
0.0
  0
SPLINE
  5
147
330
1F
100
AcDbEntity
  8
Furniture
370
     9
100
AcDbSpline
210
0.0
220
0.0
230
1.0
 70
     8
 71
     3
 72
     8
 73
     4
 74
     0
 42
0.000000001
 43
0.0000000001
 40
0.0
 40
0.0
 40
0.0
 40
0.0
 40
1.0
 40
1.0
 40
1.0
 40
1.0
 10
-237.0029257479628
 20
10.22410664464678
 30
0.0
 10
-245.5205082207176
 20
19.50323363009556
 30
0.0
 10
-265.8010243972494
 20
91.41646776732978
 30
0.0
 10
-228.0167004981659
 20
266.6654342425263
 30
0.0
  0
SPLINE
  5
148
330
1F
100
AcDbEntity
  8
Furniture
370
     9
100
AcDbSpline
210
0.0
220
0.0
230
1.0
 70
     8
 71
     3
 72
     8
 73
     4
 74
     0
 42
0.000000001
 43
0.0000000001
 40
0.0
 40
0.0
 40
0.0
 40
0.0
 40
1.0
 40
1.0
 40
1.0
 40
1.0
 10
-144.9029039896049
 20
-15.97302459205275
 30
0.0
 10
-203.6707082307858
 20
-18.87860980971891
 30
0.0
 10
-222.3344068265196
 20
-9.365161435747722
 30
0.0
 10
-237.0029257479628
 20
10.22410664464678
 30
0.0
  0
SPLINE
  5
149
330
1F
100
AcDbEntity
  8
Furniture
370
     9
100
AcDbSpline
210
0.0
220
0.0
230
1.0
 70
     8
 71
     3
 72
    14
 73
    10
 74
     0
 42
0.000000001
 43
0.0000000001
 40
0.0
 40
0.0
 40
0.0
 40
0.0
 40
1.0
 40
1.0
 40
1.0
 40
2.0
 40
2.0
 40
2.0
 40
3.0
 40
3.0
 40
3.0
 40
3.0
 10
325.0286406901742
 20
-25.25215157750245
 30
0.0
 10
309.083070201289
 20
-94.2598004970714
 30
0.0
 10
143.8982073630896
 20
-118.4651999313373
 30
0.0
 10
96.07321196585964
 20
-115.1847004920373
 30
0.0
 10
96.07321196585964
 20
-115.1847004920373
 30
0.0
 10
91.02358604322217
 20
-115.1847004920373
 30
0.0
 10
91.02358604322217
 20
-115.1847004920373
 30
0.0
 10
43.21030671541939
 20
-118.4651999313373
 30
0.0
 10
-121.9862721922063
 20
-94.2598004970714
 30
0.0
 10
-137.9201266116652
 20
-25.25215157750245
 30
0.0
  0
SPLINE
  5
14A
330
1F
100
AcDbEntity
  8
Furniture
370
     9
100
AcDbSpline
210
0.0
220
0.0
230
1.0
 70
     8
 71
     3
 72
     8
 73
     4
 74
     0
 42
0.000000001
 43
0.0000000001
 40
0.0
 40
0.0
 40
0.0
 40
0.0
 40
1.0
 40
1.0
 40
1.0
 40
1.0
 10
325.0286406901742
 20
-25.25215157750245
 30
0.0
 10
384.0776305975806
 20
-28.95442951614132
 30
0.0
 10
427.5559642377365
 20
-19.25352403135275
 30
0.0
 10
435.8860895996749
 20
25.1269469546105
 30
0.0
  0
SPLINE
  5
14B
330
1F
100
AcDbEntity
  8
Furniture
370
     9
100
AcDbSpline
210
0.0
220
0.0
230
1.0
 70
     8
 71
     3
 72
    14
 73
    10
 74
     0
 42
0.000000001
 43
0.0000000001
 40
0.0
 40
0.0
 40
0.0
 40
0.0
 40
1.0
 40
1.0
 40
1.0
 40
2.0
 40
2.0
 40
2.0
 40
3.0
 40
3.0
 40
3.0
 40
3.0
 10
435.8860895996749
 20
25.1269469546105
 30
0.0
 10
476.4588380221648
 20
243.7253703062761
 30
0.0
 10
358.3608582073503
 20
575.5127403832302
 30
0.0
 10
96.07321196585964
 20
584.8152995075325
 30
0.0
 10
96.07321196585964
 20
584.8152995075325
 30
0.0
 10
91.02358604322217
 20
584.8152995075325
 30
0.0
 10
91.02358604322217
 20
584.8152995075325
 30
0.0
 10
-171.2523441288422
 20
575.5127403832302
 30
0.0
 10
-289.3503239436559
 20
243.7253703062761
 30
0.0
 10
-248.7892915905923
 20
25.1269469546105
 30
0.0
  0
SPLINE
  5
14C
330
1F
100
AcDbEntity
  8
Furniture
370
     9
100
AcDbSpline
210
0.0
220
0.0
230
1.0
 70
     8
 71
     3
 72
    14
 73
    10
 74
     0
 42
0.000000001
 43
0.0000000001
 40
0.0
 40
0.0
 40
0.0
 40
0.0
 40
1.0
 40
1.0
 40
1.0
 40
2.0
 40
2.0
 40
2.0
 40
3.0
 40
3.0
 40
3.0
 40
3.0
 10
308.7315881185068
 20
-29.32934373777607
 30
0.0
 10
308.7315881185068
 20
-62.41552379700533
 30
0.0
 10
211.6873850623461
 20
-107.0537483103426
 30
0.0
 10
96.07321196585964
 20
-107.0537483103426
 30
0.0
 10
96.07321196585964
 20
-107.0537483103426
 30
0.0
 10
91.02358604322217
 20
-107.0537483103426
 30
0.0
 10
91.02358604322217
 20
-107.0537483103426
 30
0.0
 10
-24.57887098383708
 20
-107.0537483103426
 30
0.0
 10
-121.6230740399978
 20
-62.41552379700533
 30
0.0
 10
-121.6230740399978
 20
-29.32934373777607
 30
0.0
  0
SPLINE
  5
14D
330
1F
100
AcDbEntity
  8
Furniture
370
     9
100
AcDbSpline
210
0.0
220
0.0
230
1.0
 70
     8
 71
     3
 72
     8
 73
     4
 74
     0
 42
0.000000001
 43
0.0000000001
 40
0.0
 40
0.0
 40
0.0
 40
0.0
 40
1.0
 40
1.0
 40
1.0
 40
1.0
 10
308.7315881185068
 20
-29.32934373777607
 30
0.0
 10
308.6027113548198
 20
-6.412711940377448
 30
0.0
 10
295.4104171810623
 20
-15.41065325960153
 30
0.0
 10
290.794285827189
 20
-1.515394920278595
 30
0.0
  0
SPLINE
  5
14E
330
1F
100
AcDbEntity
  8
Furniture
370
     9
100
AcDbSpline
210
0.0
220
0.0
230
1.0
 70
     8
 71
     3
 72
    14
 73
    10
 74
     0
 42
0.000000001
 43
0.0000000001
 40
0.0
 40
0.0
 40
0.0
 40
0.0
 40
1.0
 40
1.0
 40
1.0
 40
2.0
 40
2.0
 40
2.0
 40
3.0
 40
3.0
 40
3.0
 40
3.0
 10
287.1154400274027
 20
232.6888329069152
 30
0.0
 10
287.1154400274027
 20
326.9328953702452
 30
0.0
 10
201.670145703054
 20
403.2279394728302
 30
0.0
 10
96.07321196585964
 20
403.2279394728302
 30
0.0
 10
96.07321196585964
 20
403.2279394728302
 30
0.0
 10
91.02358604322217
 20
403.2279394728302
 30
0.0
 10
91.02358604322217
 20
403.2279394728302
 30
0.0
 10
-14.56163162454504
 20
403.2279394728302
 30
0.0
 10
-100.0069259488937
 20
326.9328953702452
 30
0.0
 10
-100.0069259488937
 20
232.6888329069152
 30
0.0
  0
SPLINE
  5
14F
330
1F
100
AcDbEntity
  8
Furniture
370
     9
100
AcDbSpline
210
0.0
220
0.0
230
1.0
 70
     8
 71
     3
 72
     8
 73
     4
 74
     0
 42
0.000000001
 43
0.0000000001
 40
0.0
 40
0.0
 40
0.0
 40
0.0
 40
1.0
 40
1.0
 40
1.0
 40
1.0
 10
290.794285827189
 20
-1.515394920278595
 30
0.0
 10
283.8232245186755
 20
12.23927058593017
 30
0.0
 10
287.1154400274027
 20
107.5143471587534
 30
0.0
 10
287.1154400274027
 20
232.6888329069152
 30
0.0
  0
SPLINE
  5
150
330
1F
100
AcDbEntity
  8
Furniture
370
     9
100
AcDbSpline
210
0.0
220
0.0
230
1.0
 70
     8
 71
     3
 72
    14
 73
    10
 74
     0
 42
0.000000001
 43
0.0000000001
 40
0.0
 40
0.0
 40
0.0
 40
0.0
 40
1.0
 40
1.0
 40
1.0
 40
2.0
 40
2.0
 40
2.0
 40
3.0
 40
3.0
 40
3.0
 40
3.0
 10
415.1134985072476
 20
266.6654342425263
 30
0.0
 10
380.3402044506638
 20
415.8344301752858
 30
0.0
 10
264.4214135490993
 20
567.5106649652234
 30
0.0
 10
96.07321196585964
 20
577.8442381990189
 30
0.0
 10
96.07321196585964
 20
577.8442381990189
 30
0.0
 10
91.02358604322217
 20
577.8442381990189
 30
0.0
 10
91.02358604322217
 20
577.8442381990189
 30
0.0
 10
-77.31289947059122
 20
567.5106649652234
 30
0.0
 10
-193.2316903721548
 20
415.8344301752858
 30
0.0
 10
-228.0167004981659
 20
266.6654342425263
 30
0.0
  0
SPLINE
  5
151
330
1F
100
AcDbEntity
  8
Furniture
370
     9
100
AcDbSpline
210
0.0
220
0.0
230
1.0
 70
     8
 71
     3
 72
     8
 73
     4
 74
     0
 42
0.000000001
 43
0.0000000001
 40
0.0
 40
0.0
 40
0.0
 40
0.0
 40
1.0
 40
1.0
 40
1.0
 40
1.0
 10
307.8060186338471
 20
-34.99992133999422
 30
0.0
 10
309.9969236165225
 20
-32.14120040003308
 30
0.0
 10
312.9845213201715
 20
-15.41065325960153
 30
0.0
 10
331.9997019986877
 20
-15.97302459205275
 30
0.0
  0
SPLINE
  5
152
330
1F
100
AcDbEntity
  8
Furniture
370
     9
100
AcDbSpline
210
0.0
220
0.0
230
1.0
 70
     8
 71
     3
 72
     8
 73
     4
 74
     0
 42
0.000000001
 43
0.0000000001
 40
0.0
 40
0.0
 40
0.0
 40
0.0
 40
1.0
 40
1.0
 40
1.0
 40
1.0
 10
424.1114398264717
 20
10.22410664464678
 30
0.0
 10
432.6290222992256
 20
19.50323363009556
 30
0.0
 10
452.9212545451837
 20
91.41646776732978
 30
0.0
 10
415.1134985072476
 20
266.6654342425263
 30
0.0
  0
SPLINE
  5
153
330
1F
100
AcDbEntity
  8
Furniture
370
     9
100
AcDbSpline
210
0.0
220
0.0
230
1.0
 70
     8
 71
     3
 72
     8
 73
     4
 74
     0
 42
0.000000001
 43
0.0000000001
 40
0.0
 40
0.0
 40
0.0
 40
0.0
 40
1.0
 40
1.0
 40
1.0
 40
1.0
 10
331.9997019986877
 20
-15.97302459205275
 30
0.0
 10
390.7909383787201
 20
-18.87860980971891
 30
0.0
 10
409.4429209050286
 20
-9.365161435747722
 30
0.0
 10
424.1114398264717
 20
10.22410664464678
 30
0.0
  0
INSERT
  5
156
330
1F
100
AcDbEntity
  8
Furniture
100
AcDbBlockReference
  2
block 4
 10
-6269.571925024551
 20
7719.210331889708
 30
0.0
 41
68.01593439853885
 42
68.01593439853885
 43
68.01593439853885
  0
POLYLINE
  5
157
330
1F
100
AcDbEntity
  8
Furniture
370
     9
100
AcDb2dPolyline
 66
     1
 10
0.0
 20
0.0
 30
0.0
  0
VERTEX
  5
158
330
157
100
AcDbEntity
  8
Furniture
370
     9
100
AcDbVertex
100
AcDb2dVertex
 10
2230.436443591239
 20
-114.9738112423683
 30
0.0
  0
VERTEX
  5
159
330
157
100
AcDbEntity
  8
0
100
AcDbVertex
100
AcDb2dVertex
 10
2230.436443591239
 20
-114.9738112423683
 30
0.0
  0
SEQEND
  5
15A
330
157
100
AcDbEntity
  8
Furniture
370
     9
  0
POLYLINE
  5
15B
330
1F
100
AcDbEntity
  8
Furniture
370
     9
100
AcDb2dPolyline
 66
     1
 10
0.0
 20
0.0
 30
0.0
  0
VERTEX
  5
15C
330
15B
100
AcDbEntity
  8
Furniture
370
     9
100
AcDbVertex
100
AcDb2dVertex
 10
2230.436443591239
 20
278.287775113191
 30
0.0
  0
VERTEX
  5
15D
330
15B
100
AcDbEntity
  8
0
100
AcDbVertex
100
AcDb2dVertex
 10
2230.436443591239
 20
278.287775113191
 30
0.0
  0
SEQEND
  5
15E
330
15B
100
AcDbEntity
  8
Furniture
370
     9
  0
POLYLINE
  5
15F
330
1F
100
AcDbEntity
  8
Furniture
370
     9
100
AcDb2dPolyline
 66
     1
 10
0.0
 20
0.0
 30
0.0
  0
VERTEX
  5
160
330
15F
100
AcDbEntity
  8
Furniture
370
     9
100
AcDbVertex
100
AcDb2dVertex
 10
2230.436443591239
 20
367.8922740837952
 30
0.0
  0
VERTEX
  5
161
330
15F
100
AcDbEntity
  8
0
100
AcDbVertex
100
AcDb2dVertex
 10
2230.436443591239
 20
367.8922740837952
 30
0.0
  0
SEQEND
  5
162
330
15F
100
AcDbEntity
  8
Furniture
370
     9
  0
POLYLINE
  5
163
330
1F
100
AcDbEntity
  8
Furniture
370
     9
100
AcDb2dPolyline
 66
     1
 10
0.0
 20
0.0
 30
0.0
  0
VERTEX
  5
164
330
163
100
AcDbEntity
  8
Furniture
370
     9
100
AcDbVertex
100
AcDb2dVertex
 10
2230.436443591239
 20
286.8639379330762
 30
0.0
  0
VERTEX
  5
165
330
163
100
AcDbEntity
  8
0
100
AcDbVertex
100
AcDb2dVertex
 10
2230.436443591239
 20
286.8639379330762
 30
0.0
  0
SEQEND
  5
166
330
163
100
AcDbEntity
  8
Furniture
370
     9
  0
SPLINE
  5
167
330
1F
100
AcDbEntity
  8
Furniture
370
     9
100
AcDbSpline
210
0.0
220
0.0
230
1.0
 70
    11
 71
     3
 72
   263
 73
   259
 74
     0
 42
0.000000001
 43
0.0000000001
 40
0.0
 40
0.0
 40
0.0
 40
0.0
 40
1.0
 40
1.0
 40
1.0
 40
2.0
 40
2.0
 40
2.0
 40
3.0
 40
3.0
 40
3.0
 40
4.0
 40
4.0
 40
4.0
 40
5.0
 40
5.0
 40
5.0
 40
6.0
 40
6.0
 40
6.0
 40
7.0
 40
7.0
 40
7.0
 40
8.0
 40
8.0
 40
8.0
 40
9.0
 40
9.0
 40
9.0
 40
10.0
 40
10.0
 40
10.0
 40
11.0
 40
11.0
 40
11.0
 40
12.0
 40
12.0
 40
12.0
 40
13.0
 40
13.0
 40
13.0
 40
14.0
 40
14.0
 40
14.0
 40
15.0
 40
15.0
 40
15.0
 40
16.0
 40
16.0
 40
16.0
 40
17.0
 40
17.0
 40
17.0
 40
18.0
 40
18.0
 40
18.0
 40
19.0
 40
19.0
 40
19.0
 40
20.0
 40
20.0
 40
20.0
 40
21.0
 40
21.0
 40
21.0
 40
22.0
 40
22.0
 40
22.0
 40
23.0
 40
23.0
 40
23.0
 40
24.0
 40
24.0
 40
24.0
 40
25.0
 40
25.0
 40
25.0
 40
26.0
 40
26.0
 40
26.0
 40
27.0
 40
27.0
 40
27.0
 40
28.0
 40
28.0
 40
28.0
 40
29.0
 40
29.0
 40
29.0
 40
30.0
 40
30.0
 40
30.0
 40
31.0
 40
31.0
 40
31.0
 40
32.0
 40
32.0
 40
32.0
 40
33.0
 40
33.0
 40
33.0
 40
34.0
 40
34.0
 40
34.0
 40
35.0
 40
35.0
 40
35.0
 40
36.0
 40
36.0
 40
36.0
 40
37.0
 40
37.0
 40
37.0
 40
38.0
 40
38.0
 40
38.0
 40
39.0
 40
39.0
 40
39.0
 40
40.0
 40
40.0
 40
40.0
 40
41.0
 40
41.0
 40
41.0
 40
42.0
 40
42.0
 40
42.0
 40
43.0
 40
43.0
 40
43.0
 40
44.0
 40
44.0
 40
44.0
 40
45.0
 40
45.0
 40
45.0
 40
46.0
 40
46.0
 40
46.0
 40
47.0
 40
47.0
 40
47.0
 40
48.0
 40
48.0
 40
48.0
 40
49.0
 40
49.0
 40
49.0
 40
50.0
 40
50.0
 40
50.0
 40
51.0
 40
51.0
 40
51.0
 40
52.0
 40
52.0
 40
52.0
 40
53.0
 40
53.0
 40
53.0
 40
54.0
 40
54.0
 40
54.0
 40
55.0
 40
55.0
 40
55.0
 40
56.0
 40
56.0
 40
56.0
 40
57.0
 40
57.0
 40
57.0
 40
58.0
 40
58.0
 40
58.0
 40
59.0
 40
59.0
 40
59.0
 40
60.0
 40
60.0
 40
60.0
 40
61.0
 40
61.0
 40
61.0
 40
62.0
 40
62.0
 40
62.0
 40
63.0
 40
63.0
 40
63.0
 40
64.0
 40
64.0
 40
64.0
 40
65.0
 40
65.0
 40
65.0
 40
66.0
 40
66.0
 40
66.0
 40
67.0
 40
67.0
 40
67.0
 40
68.0
 40
68.0
 40
68.0
 40
69.0
 40
69.0
 40
69.0
 40
70.0
 40
70.0
 40
70.0
 40
71.0
 40
71.0
 40
71.0
 40
72.0
 40
72.0
 40
72.0
 40
73.0
 40
73.0
 40
73.0
 40
74.0
 40
74.0
 40
74.0
 40
75.0
 40
75.0
 40
75.0
 40
76.0
 40
76.0
 40
76.0
 40
77.0
 40
77.0
 40
77.0
 40
78.0
 40
78.0
 40
78.0
 40
79.0
 40
79.0
 40
79.0
 40
80.0
 40
80.0
 40
80.0
 40
81.0
 40
81.0
 40
81.0
 40
82.0
 40
82.0
 40
82.0
 40
83.0
 40
83.0
 40
83.0
 40
84.0
 40
84.0
 40
84.0
 40
85.0
 40
85.0
 40
85.0
 40
86.0
 40
86.0
 40
86.0
 40
86.0
 10
2230.436443591239
 20
-114.9738112423683
 30
0.0
 10
2230.436443591239
 20
-114.9738112423683
 30
0.0
 10
2205.703821032799
 20
-115.4658861582629
 30
0.0
 10
2205.703821032799
 20
-115.4658861582629
 30
0.0
 10
2205.703821032799
 20
-115.4658861582629
 30
0.0
 10
2165.295097582275
 20
-115.2315647697414
 30
0.0
 10
2165.295097582275
 20
-115.2315647697414
 30
0.0
 10
2165.295097582275
 20
-115.2315647697414
 30
0.0
 10
2124.534892048967
 20
-112.8883508845265
 30
0.0
 10
2124.534892048967
 20
-112.8883508845265
 30
0.0
 10
2124.534892048967
 20
-112.8883508845265
 30
0.0
 10
2051.590643802239
 20
-107.030316171491
 30
0.0
 10
2051.590643802239
 20
-107.030316171491
 30
0.0
 10
2051.590643802239
 20
-107.030316171491
 30
0.0
 10
2016.161249857796
 20
-102.0861348736871
 30
0.0
 10
2016.161249857796
 20
-102.0861348736871
 30
0.0
 10
2016.161249857796
 20
-102.0861348736871
 30
0.0
 10
1998.212231497051
 20
-96.76703935425031
 30
0.0
 10
1998.212231497051
 20
-96.76703935425031
 30
0.0
 10
1998.212231497051
 20
-96.76703935425031
 30
0.0
 10
1983.602292922738
 20
-90.20604047564939
 30
0.0
 10
1983.602292922738
 20
-90.20604047564939
 30
0.0
 10
1983.602292922738
 20
-90.20604047564939
 30
0.0
 10
1976.584367336522
 20
-85.09783420588155
 30
0.0
 10
1976.584367336522
 20
-85.09783420588155
 30
0.0
 10
1976.584367336522
 20
-85.09783420588155
 30
0.0
 10
1968.383118738271
 20
-76.6622642191096
 30
0.0
 10
1968.383118738271
 20
-76.6622642191096
 30
0.0
 10
1968.383118738271
 20
-76.6622642191096
 30
0.0
 10
1959.584350599289
 20
-66.25839456875747
 30
0.0
 10
1959.584350599289
 20
-66.25839456875747
 30
0.0
 10
1959.584350599289
 20
-66.25839456875747
 30
0.0
 10
1952.824178540446
 20
-54.23770733760557
 30
0.0
 10
1952.460980388238
 20
-54.37830017071973
 30
0.0
 10
1952.109498305455
 20
-54.49546086498049
 30
0.0
 10
1944.974412024976
 20
-37.27283880865253
 30
0.0
 10
1944.974412024976
 20
-37.27283880865253
 30
0.0
 10
1944.974412024976
 20
-37.76491372454803
 30
0.0
 10
1939.02264875653
 20
-12.97371081897745
 30
0.0
 10
1939.02264875653
 20
-12.97371081897745
 30
0.0
 10
1939.02264875653
 20
-12.97371081897745
 30
0.0
 10
1936.187359955422
 20
11.06766364332361
 30
0.0
 10
1936.187359955422
 20
11.06766364332361
 30
0.0
 10
1936.187359955422
 20
11.06766364332361
 30
0.0
 10
1931.899278545479
 20
48.7465429175727
 30
0.0
 10
1931.899278545479
 20
48.7465429175727
 30
0.0
 10
1931.899278545479
 20
48.7465429175727
 30
0.0
 10
1926.193552734982
 20
133.031946368741
 30
0.0
 10
1926.193552734982
 20
133.031946368741
 30
0.0
 10
1926.193552734982
 20
133.031946368741
 30
0.0
 10
1918.589823677461
 20
234.8914539590178
 30
0.0
 10
1918.589823677461
 20
234.8914539590178
 30
0.0
 10
1918.589823677461
 20
234.8914539590178
 30
0.0
 10
1914.301742267518
 20
285.7391952681737
 30
0.0
 10
1914.301742267518
 20
285.7391952681737
 30
0.0
 10
1914.301742267518
 20
285.7391952681737
 30
0.0
 10
1914.301742267518
 20
314.9356402779468
 30
0.0
 10
1914.301742267518
 20
314.9356402779468
 30
0.0
 10
1914.301742267518
 20
314.9356402779468
 30
0.0
 10
1915.496781348977
 20
338.5083719632048
 30
0.0
 10
1915.496781348977
 20
338.5083719632048
 30
0.0
 10
1915.496781348977
 20
338.5083719632048
 30
0.0
 10
1917.16046320748
 20
373.7034445191275
 30
0.0
 10
1917.16046320748
 20
373.7034445191275
 30
0.0
 10
1917.16046320748
 20
373.7034445191275
 30
0.0
 10
1916.44578297249
 20
394.0425410427897
 30
0.0
 10
1916.44578297249
 20
394.0425410427897
 30
0.0
 10
1916.44578297249
 20
394.0425410427897
 30
0.0
 10
1914.301742267518
 20
412.1555843754986
 30
0.0
 10
1914.301742267518
 20
412.1555843754986
 30
0.0
 10
1914.301742267518
 20
412.1555843754986
 30
0.0
 10
1908.115657610552
 20
449.5767101223746
 30
0.0
 10
1908.115657610552
 20
449.5767101223746
 30
0.0
 10
1908.115657610552
 20
449.5767101223746
 30
0.0
 10
1902.187326480959
 20
478.538833743627
 30
0.0
 10
1902.187326480959
 20
478.538833743627
 30
0.0
 10
1902.187326480959
 20
478.538833743627
 30
0.0
 10
1894.091522507543
 20
511.9999280244901
 30
0.0
 10
1894.091522507543
 20
511.9999280244901
 30
0.0
 10
1894.091522507543
 20
511.9999280244901
 30
0.0
 10
1886.253472061499
 20
545.9765293601012
 30
0.0
 10
1886.253472061499
 20
545.9765293601012
 30
0.0
 10
1886.253472061499
 20
545.9765293601012
 30
0.0
 10
1884.121147425955
 20
559.1102431867284
 30
0.0
 10
1884.121147425955
 20
559.1102431867284
 30
0.0
 10
1884.121147425955
 20
559.1102431867284
 30
0.0
 10
1884.121147425955
 20
569.7718663644545
 30
0.0
 10
1884.121147425955
 20
569.7718663644545
 30
0.0
 10
1884.121147425955
 20
569.7718663644545
 30
0.0
 10
1884.121147425955
 20
581.1833179854501
 30
0.0
 10
1884.121147425955
 20
581.1833179854501
 30
0.0
 10
1884.121147425955
 20
581.1833179854501
 30
0.0
 10
1885.304470437988
 20
587.6154401003641
 30
0.0
 10
1885.304470437988
 20
587.6154401003641
 30
0.0
 10
1885.304470437988
 20
587.6154401003641
 30
0.0
 10
1886.96815229649
 20
595.8049726291883
 30
0.0
 10
1886.96815229649
 20
595.8049726291883
 30
0.0
 10
1886.96815229649
 20
595.8049726291883
 30
0.0
 10
1890.049478555548
 20
603.9710730191618
 30
0.0
 10
1890.049478555548
 20
603.9710730191618
 30
0.0
 10
1890.049478555548
 20
603.9710730191618
 30
0.0
 10
1893.154236953456
 20
609.9228362876065
 30
0.0
 10
1893.154236953456
 20
609.9228362876065
 30
0.0
 10
1893.154236953456
 20
609.9228362876065
 30
0.0
 10
1902.960587063079
 20
619.5300132169859
 30
0.0
 10
1902.960587063079
 20
619.5300132169859
 30
0.0
 10
1902.960587063079
 20
619.5300132169859
 30
0.0
 10
1918.519527260904
 20
628.3404974253935
 30
0.0
 10
1918.519527260904
 20
628.3404974253935
 30
0.0
 10
1918.519527260904
 20
628.3404974253935
 30
0.0
 10
1936.691150940744
 20
633.8470500556468
 30
0.0
 10
1936.691150940744
 20
633.8470500556468
 30
0.0
 10
1936.691150940744
 20
633.8470500556468
 30
0.0
 10
1966.906893990585
 20
643.5479555404354
 30
0.0
 10
1966.906893990585
 20
643.5479555404354
 30
0.0
 10
1966.906893990585
 20
643.5479555404354
 30
0.0
 10
2001.703620186021
 20
648.5858653936466
 30
0.0
 10
2001.703620186021
 20
648.5858653936466
 30
0.0
 10
2001.703620186021
 20
648.5858653936466
 30
0.0
 10
2034.567194926156
 20
653.1317003309632
 30
0.0
 10
2034.567194926156
 20
653.1317003309632
 30
0.0
 10
2034.567194926156
 20
653.1317003309632
 30
0.0
 10
2087.125482371517
 20
657.6658191988535
 30
0.0
 10
2087.125482371517
 20
657.6658191988535
 30
0.0
 10
2087.125482371517
 20
657.6658191988535
 30
0.0
 10
2230.436443591239
 20
662.9497665100116
 30
0.0
 10
2230.436443591239
 20
662.9497665100116
 30
0.0
 10
2230.436443591239
 20
662.9497665100116
 30
0.0
 10
2238.098752995891
 20
662.9497665100116
 30
0.0
 10
2238.098752995891
 20
662.9497665100116
 30
0.0
 10
2238.098752995891
 20
662.9497665100116
 30
0.0
 10
2381.409714215613
 20
657.6658191988535
 30
0.0
 10
2381.409714215613
 20
657.6658191988535
 30
0.0
 10
2381.409714215613
 20
657.6658191988535
 30
0.0
 10
2433.968001660977
 20
653.1317003309632
 30
0.0
 10
2433.968001660977
 20
653.1317003309632
 30
0.0
 10
2433.968001660977
 20
653.1317003309632
 30
0.0
 10
2466.831576401109
 20
648.5858653936466
 30
0.0
 10
2466.831576401109
 20
648.5858653936466
 30
0.0
 10
2466.831576401109
 20
648.5858653936466
 30
0.0
 10
2501.628302596546
 20
643.5479555404354
 30
0.0
 10
2501.628302596546
 20
643.5479555404354
 30
0.0
 10
2501.628302596546
 20
643.5479555404354
 30
0.0
 10
2531.844045646389
 20
633.8470500556468
 30
0.0
 10
2531.844045646389
 20
633.8470500556468
 30
0.0
 10
2531.844045646389
 20
633.8470500556468
 30
0.0
 10
2550.015669326227
 20
628.3404974253935
 30
0.0
 10
2550.015669326227
 20
628.3404974253935
 30
0.0
 10
2550.015669326227
 20
628.3404974253935
 30
0.0
 10
2565.574609524051
 20
619.5300132169859
 30
0.0
 10
2565.574609524051
 20
619.5300132169859
 30
0.0
 10
2565.574609524051
 20
619.5300132169859
 30
0.0
 10
2575.380959633674
 20
609.9228362876065
 30
0.0
 10
2575.380959633674
 20
609.9228362876065
 30
0.0
 10
2575.380959633674
 20
609.9228362876065
 30
0.0
 10
2578.485718031583
 20
603.9710730191618
 30
0.0
 10
2578.485718031583
 20
603.9710730191618
 30
0.0
 10
2578.485718031583
 20
603.9710730191618
 30
0.0
 10
2581.567044290641
 20
595.8049726291883
 30
0.0
 10
2581.567044290641
 20
595.8049726291883
 30
0.0
 10
2581.567044290641
 20
595.8049726291883
 30
0.0
 10
2583.230726149142
 20
587.6154401003641
 30
0.0
 10
2583.230726149142
 20
587.6154401003641
 30
0.0
 10
2583.230726149142
 20
587.6154401003641
 30
0.0
 10
2584.414049161176
 20
581.1833179854501
 30
0.0
 10
2584.414049161176
 20
581.1833179854501
 30
0.0
 10
2584.414049161176
 20
581.1833179854501
 30
0.0
 10
2584.414049161176
 20
569.7718663644545
 30
0.0
 10
2584.414049161176
 20
569.7718663644545
 30
0.0
 10
2584.414049161176
 20
569.7718663644545
 30
0.0
 10
2584.414049161176
 20
559.1102431867284
 30
0.0
 10
2584.414049161176
 20
559.1102431867284
 30
0.0
 10
2584.414049161176
 20
559.1102431867284
 30
0.0
 10
2582.281724525631
 20
545.9765293601012
 30
0.0
 10
2582.281724525631
 20
545.9765293601012
 30
0.0
 10
2582.281724525631
 20
545.9765293601012
 30
0.0
 10
2574.431958010162
 20
511.9999280244901
 30
0.0
 10
2574.431958010162
 20
511.9999280244901
 30
0.0
 10
2574.431958010162
 20
511.9999280244901
 30
0.0
 10
2566.347870106172
 20
478.538833743627
 30
0.0
 10
2566.347870106172
 20
478.538833743627
 30
0.0
 10
2566.347870106172
 20
478.538833743627
 30
0.0
 10
2560.419538976579
 20
449.5767101223746
 30
0.0
 10
2560.419538976579
 20
449.5767101223746
 30
0.0
 10
2560.419538976579
 20
449.5767101223746
 30
0.0
 10
2554.233454319614
 20
412.1555843754986
 30
0.0
 10
2554.233454319614
 20
412.1555843754986
 30
0.0
 10
2554.233454319614
 20
412.1555843754986
 30
0.0
 10
2552.089413614642
 20
394.0425410427897
 30
0.0
 10
2552.089413614642
 20
394.0425410427897
 30
0.0
 10
2552.089413614642
 20
394.0425410427897
 30
0.0
 10
2551.374733379651
 20
373.7034445191275
 30
0.0
 10
2551.374733379651
 20
373.7034445191275
 30
0.0
 10
2551.374733379651
 20
373.7034445191275
 30
0.0
 10
2553.038415238152
 20
338.5083719632048
 30
0.0
 10
2553.038415238152
 20
338.5083719632048
 30
0.0
 10
2553.038415238152
 20
338.5083719632048
 30
0.0
 10
2554.233454319614
 20
314.9356402779468
 30
0.0
 10
2554.233454319614
 20
314.9356402779468
 30
0.0
 10
2554.233454319614
 20
314.9356402779468
 30
0.0
 10
2554.233454319614
 20
285.7391952681737
 30
0.0
 10
2554.233454319614
 20
285.7391952681737
 30
0.0
 10
2554.233454319614
 20
285.7391952681737
 30
0.0
 10
2549.945372909672
 20
234.8914539590178
 30
0.0
 10
2549.945372909672
 20
234.8914539590178
 30
0.0
 10
2549.945372909672
 20
234.8914539590178
 30
0.0
 10
2542.341643852149
 20
133.031946368741
 30
0.0
 10
2542.341643852149
 20
133.031946368741
 30
0.0
 10
2542.341643852149
 20
133.031946368741
 30
0.0
 10
2536.635918041652
 20
48.7465429175727
 30
0.0
 10
2536.635918041652
 20
48.7465429175727
 30
0.0
 10
2536.635918041652
 20
48.7465429175727
 30
0.0
 10
2532.347836631709
 20
11.06766364332361
 30
0.0
 10
2532.347836631709
 20
11.06766364332361
 30
0.0
 10
2532.347836631709
 20
11.06766364332361
 30
0.0
 10
2529.5125478306
 20
-12.97371081897745
 30
0.0
 10
2529.5125478306
 20
-12.97371081897745
 30
0.0
 10
2529.5125478306
 20
-12.97371081897745
 30
0.0
 10
2523.560784562155
 20
-37.76491372454803
 30
0.0
 10
2523.560784562155
 20
-37.27283880865253
 30
0.0
 10
2523.560784562155
 20
-37.27283880865253
 30
0.0
 10
2516.425698281675
 20
-54.49546086498049
 30
0.0
 10
2516.074216198893
 20
-54.37830017071973
 30
0.0
 10
2515.711018046686
 20
-54.23770733760557
 30
0.0
 10
2508.950845987842
 20
-66.25839456875747
 30
0.0
 10
2508.950845987842
 20
-66.25839456875747
 30
0.0
 10
2508.950845987842
 20
-66.25839456875747
 30
0.0
 10
2500.152077848861
 20
-76.6622642191096
 30
0.0
 10
2500.152077848861
 20
-76.6622642191096
 30
0.0
 10
2500.152077848861
 20
-76.6622642191096
 30
0.0
 10
2491.939113181185
 20
-85.09783420588155
 30
0.0
 10
2491.939113181185
 20
-85.09783420588155
 30
0.0
 10
2491.939113181185
 20
-85.09783420588155
 30
0.0
 10
2484.932903664392
 20
-90.20604047564939
 30
0.0
 10
2484.932903664392
 20
-90.20604047564939
 30
0.0
 10
2484.932903664392
 20
-90.20604047564939
 30
0.0
 10
2470.32296509008
 20
-96.76703935425031
 30
0.0
 10
2470.32296509008
 20
-96.76703935425031
 30
0.0
 10
2470.32296509008
 20
-96.76703935425031
 30
0.0
 10
2452.373946729336
 20
-102.0861348736871
 30
0.0
 10
2452.373946729336
 20
-102.0861348736871
 30
0.0
 10
2452.373946729336
 20
-102.0861348736871
 30
0.0
 10
2416.944552784893
 20
-107.030316171491
 30
0.0
 10
2416.944552784893
 20
-107.030316171491
 30
0.0
 10
2416.944552784893
 20
-107.030316171491
 30
0.0
 10
2343.988588468738
 20
-112.8883508845265
 30
0.0
 10
2343.988588468738
 20
-112.8883508845265
 30
0.0
 10
2343.988588468738
 20
-112.8883508845265
 30
0.0
 10
2303.240099004856
 20
-115.2315647697414
 30
0.0
 10
2303.240099004856
 20
-115.2315647697414
 30
0.0
 10
2303.240099004856
 20
-115.2315647697414
 30
0.0
 10
2262.831375554331
 20
-115.4658861582629
 30
0.0
 10
2262.831375554331
 20
-115.4658861582629
 30
0.0
 10
2262.831375554331
 20
-115.4658861582629
 30
0.0
 10
2238.098752995891
 20
-114.9738112423683
 30
0.0
 10
2238.098752995891
 20
-114.9738112423683
 30
0.0
 10
2238.098752995891
 20
-114.9738112423683
 30
0.0
 10
2230.436443591239
 20
-114.9738112423683
 30
0.0
 10
2230.436443591239
 20
-114.9738112423683
 30
0.0
  0
POLYLINE
  5
168
330
1F
100
AcDbEntity
  8
Furniture
370
     9
100
AcDb2dPolyline
 66
     1
 10
0.0
 20
0.0
 30
0.0
  0
VERTEX
  5
169
330
168
100
AcDbEntity
  8
Furniture
370
     9
100
AcDbVertex
100
AcDb2dVertex
 10
1886.616670213708
 20
594.0475622152781
 30
0.0
  0
VERTEX
  5
16A
330
168
100
AcDbEntity
  8
Furniture
370
     9
100
AcDbVertex
100
AcDb2dVertex
 10
1886.616670213708
 20
591.8918054408805
 30
0.0
  0
VERTEX
  5
16B
330
168
100
AcDbEntity
  8
Furniture
370
     9
100
AcDbVertex
100
AcDb2dVertex
 10
1886.616670213708
 20
583.3390747598468
 30
0.0
  0
VERTEX
  5
16C
330
168
100
AcDbEntity
  8
Furniture
370
     9
100
AcDbVertex
100
AcDb2dVertex
 10
1886.616670213708
 20
573.3101193311295
 30
0.0
  0
VERTEX
  5
16D
330
168
100
AcDbEntity
  8
Furniture
370
     9
100
AcDbVertex
100
AcDb2dVertex
 10
1887.50709149009
 20
563.445188874376
 30
0.0
  0
VERTEX
  5
16E
330
168
100
AcDbEntity
  8
Furniture
370
     9
100
AcDbVertex
100
AcDb2dVertex
 10
1889.287934042852
 20
552.2914907807544
 30
0.0
  0
VERTEX
  5
16F
330
168
100
AcDbEntity
  8
Furniture
370
     9
100
AcDbVertex
100
AcDb2dVertex
 10
1893.564299383369
 20
525.6842971141431
 30
0.0
  0
VERTEX
  5
170
330
168
100
AcDbEntity
  8
Furniture
370
     9
100
AcDbVertex
100
AcDb2dVertex
 10
1898.192146806668
 20
508.9537499737116
 30
0.0
  0
VERTEX
  5
171
330
168
100
AcDbEntity
  8
Furniture
370
     9
100
AcDbVertex
100
AcDb2dVertex
 10
1905.514690197963
 20
478.1170552442872
 30
0.0
  0
VERTEX
  5
172
330
168
100
AcDbEntity
  8
Furniture
370
     9
100
AcDbVertex
100
AcDb2dVertex
 10
1910.857217856252
 20
454.5208914201776
 30
0.0
  0
VERTEX
  5
173
330
168
100
AcDbEntity
  8
Furniture
370
     9
100
AcDbVertex
100
AcDb2dVertex
 10
1914.301742267518
 20
438.1418263625282
 30
0.0
  0
VERTEX
  5
174
330
168
100
AcDbEntity
  8
Furniture
370
     9
100
AcDbVertex
100
AcDb2dVertex
 10
1918.706984371721
 20
421.6221684717647
 30
0.0
  0
VERTEX
  5
175
330
168
100
AcDbEntity
  8
Furniture
370
     9
100
AcDbVertex
100
AcDb2dVertex
 10
1921.90547132504
 20
402.45467889071
 30
0.0
  0
VERTEX
  5
176
330
168
100
AcDbEntity
  8
Furniture
370
     9
100
AcDbVertex
100
AcDb2dVertex
 10
1924.225253071401
 20
384.9977354458615
 30
0.0
  0
VERTEX
  5
177
330
168
100
AcDbEntity
  8
Furniture
370
     9
100
AcDbVertex
100
AcDb2dVertex
 10
1925.478872499991
 20
368.8295596378812
 30
0.0
  0
VERTEX
  5
178
330
168
100
AcDbEntity
  8
Furniture
370
     9
100
AcDbVertex
100
AcDb2dVertex
 10
1926.55675088719
 20
355.988747546905
 30
0.0
  0
VERTEX
  5
179
330
168
100
AcDbEntity
  8
Furniture
370
     9
100
AcDbVertex
100
AcDb2dVertex
 10
1926.55675088719
 20
336.8446901047028
 30
0.0
  0
VERTEX
  5
17A
330
168
100
AcDbEntity
  8
Furniture
370
     9
100
AcDbVertex
100
AcDb2dVertex
 10
1928.150136329135
 20
329.7681841713548
 30
0.0
  0
VERTEX
  5
17B
330
168
100
AcDbEntity
  8
Furniture
370
     9
100
AcDbVertex
100
AcDb2dVertex
 10
1931.899278545479
 20
322.1527390444071
 30
0.0
  0
VERTEX
  5
17C
330
168
100
AcDbEntity
  8
Furniture
370
     9
100
AcDbVertex
100
AcDb2dVertex
 10
1940.100527143732
 20
315.0762331110591
 30
0.0
  0
VERTEX
  5
17D
330
168
100
AcDbEntity
  8
Furniture
370
     9
100
AcDbVertex
100
AcDb2dVertex
 10
1956.139826188024
 20
306.9218487905128
 30
0.0
  0
VERTEX
  5
17E
330
168
100
AcDbEntity
  8
Furniture
370
     9
100
AcDbVertex
100
AcDb2dVertex
 10
1984.305257088303
 20
299.0955144138961
 30
0.0
  0
VERTEX
  5
17F
330
168
100
AcDbEntity
  8
Furniture
370
     9
100
AcDbVertex
100
AcDb2dVertex
 10
2033.348723705843
 20
292.2064655913655
 30
0.0
  0
VERTEX
  5
180
330
168
100
AcDbEntity
  8
Furniture
370
     9
100
AcDbVertex
100
AcDb2dVertex
 10
2088.94147313256
 20
286.0906773509559
 30
0.0
  0
VERTEX
  5
181
330
168
100
AcDbEntity
  8
Furniture
370
     9
100
AcDbVertex
100
AcDb2dVertex
 10
2155.980822388547
 20
280.1154819436588
 30
0.0
  0
VERTEX
  5
182
330
168
100
AcDbEntity
  8
Furniture
370
     9
100
AcDbVertex
100
AcDb2dVertex
 10
2230.436443591239
 20
278.287775113191
 30
0.0
  0
VERTEX
  5
183
330
168
100
AcDbEntity
  8
Furniture
370
     9
100
AcDbVertex
100
AcDb2dVertex
 10
2238.098752995891
 20
278.287775113191
 30
0.0
  0
VERTEX
  5
184
330
168
100
AcDbEntity
  8
Furniture
370
     9
100
AcDbVertex
100
AcDb2dVertex
 10
2312.554374198584
 20
280.1154819436588
 30
0.0
  0
VERTEX
  5
185
330
168
100
AcDbEntity
  8
Furniture
370
     9
100
AcDbVertex
100
AcDb2dVertex
 10
2379.593723454573
 20
286.0906773509559
 30
0.0
  0
VERTEX
  5
186
330
168
100
AcDbEntity
  8
Furniture
370
     9
100
AcDbVertex
100
AcDb2dVertex
 10
2435.186472881287
 20
292.2064655913655
 30
0.0
  0
VERTEX
  5
187
330
168
100
AcDbEntity
  8
Furniture
370
     9
100
AcDbVertex
100
AcDb2dVertex
 10
2484.229939498828
 20
299.0955144138961
 30
0.0
  0
VERTEX
  5
188
330
168
100
AcDbEntity
  8
Furniture
370
     9
100
AcDbVertex
100
AcDb2dVertex
 10
2512.395370399107
 20
306.9218487905128
 30
0.0
  0
VERTEX
  5
189
330
168
100
AcDbEntity
  8
Furniture
370
     9
100
AcDbVertex
100
AcDb2dVertex
 10
2528.434669443401
 20
315.0762331110591
 30
0.0
  0
VERTEX
  5
18A
330
168
100
AcDbEntity
  8
Furniture
370
     9
100
AcDbVertex
100
AcDb2dVertex
 10
2536.635918041652
 20
322.1527390444071
 30
0.0
  0
VERTEX
  5
18B
330
168
100
AcDbEntity
  8
Furniture
370
     9
100
AcDbVertex
100
AcDb2dVertex
 10
2540.385060257995
 20
329.7681841713548
 30
0.0
  0
VERTEX
  5
18C
330
168
100
AcDbEntity
  8
Furniture
370
     9
100
AcDbVertex
100
AcDb2dVertex
 10
2541.978445699941
 20
336.8446901047028
 30
0.0
  0
VERTEX
  5
18D
330
168
100
AcDbEntity
  8
Furniture
370
     9
100
AcDbVertex
100
AcDb2dVertex
 10
2541.978445699941
 20
355.988747546905
 30
0.0
  0
VERTEX
  5
18E
330
168
100
AcDbEntity
  8
Furniture
370
     9
100
AcDbVertex
100
AcDb2dVertex
 10
2543.05632408714
 20
368.8295596378812
 30
0.0
  0
VERTEX
  5
18F
330
168
100
AcDbEntity
  8
Furniture
370
     9
100
AcDbVertex
100
AcDb2dVertex
 10
2544.298227446303
 20
384.9977354458615
 30
0.0
  0
VERTEX
  5
190
330
168
100
AcDbEntity
  8
Furniture
370
     9
100
AcDbVertex
100
AcDb2dVertex
 10
2546.629725262091
 20
402.45467889071
 30
0.0
  0
VERTEX
  5
191
330
168
100
AcDbEntity
  8
Furniture
370
     9
100
AcDbVertex
100
AcDb2dVertex
 10
2549.828212215409
 20
421.6221684717647
 30
0.0
  0
VERTEX
  5
192
330
168
100
AcDbEntity
  8
Furniture
370
     9
100
AcDbVertex
100
AcDb2dVertex
 10
2554.233454319614
 20
438.1418263625282
 30
0.0
  0
VERTEX
  5
193
330
168
100
AcDbEntity
  8
Furniture
370
     9
100
AcDbVertex
100
AcDb2dVertex
 10
2557.677978730879
 20
454.5208914201776
 30
0.0
  0
VERTEX
  5
194
330
168
100
AcDbEntity
  8
Furniture
370
     9
100
AcDbVertex
100
AcDb2dVertex
 10
2563.020506389166
 20
478.1170552442872
 30
0.0
  0
VERTEX
  5
195
330
168
100
AcDbEntity
  8
Furniture
370
     9
100
AcDbVertex
100
AcDb2dVertex
 10
2570.331333711038
 20
508.9537499737116
 30
0.0
  0
VERTEX
  5
196
330
168
100
AcDbEntity
  8
Furniture
370
     9
100
AcDbVertex
100
AcDb2dVertex
 10
2574.970897203761
 20
525.6842971141431
 30
0.0
  0
VERTEX
  5
197
330
168
100
AcDbEntity
  8
Furniture
370
     9
100
AcDbVertex
100
AcDb2dVertex
 10
2579.235546474853
 20
552.2914907807544
 30
0.0
  0
VERTEX
  5
198
330
168
100
AcDbEntity
  8
Furniture
370
     9
100
AcDbVertex
100
AcDb2dVertex
 10
2581.028105097041
 20
563.445188874376
 30
0.0
  0
VERTEX
  5
199
330
168
100
AcDbEntity
  8
Furniture
370
     9
100
AcDbVertex
100
AcDb2dVertex
 10
2581.918526373423
 20
573.3101193311295
 30
0.0
  0
VERTEX
  5
19A
330
168
100
AcDbEntity
  8
Furniture
370
     9
100
AcDbVertex
100
AcDb2dVertex
 10
2581.918526373423
 20
583.3390747598468
 30
0.0
  0
VERTEX
  5
19B
330
168
100
AcDbEntity
  8
Furniture
370
     9
100
AcDbVertex
100
AcDb2dVertex
 10
2581.918526373423
 20
591.8918054408805
 30
0.0
  0
VERTEX
  5
19C
330
168
100
AcDbEntity
  8
Furniture
370
     9
100
AcDbVertex
100
AcDb2dVertex
 10
2581.918526373423
 20
594.0475622152781
 30
0.0
  0
SEQEND
  5
19D
330
168
100
AcDbEntity
  8
Furniture
370
     9
  0
SPLINE
  5
19E
330
1F
100
AcDbEntity
  8
Furniture
370
     9
100
AcDbSpline
210
0.0
220
0.0
230
1.0
 70
    24
 71
     3
 72
     8
 73
     4
 74
     0
 42
0.000000001
 43
0.0000000001
 40
0.0
 40
0.0
 40
0.0
 40
0.0
 40
1.0
 40
1.0
 40
1.0
 40
1.0
 10
1940.100527143732
 20
331.8067802514915
 30
0.0
 10
1940.100527143732
 20
332.2285587508295
 30
0.0
 10
1940.100527143732
 20
332.5566086947601
 30
0.0
 10
1940.100527143732
 20
332.5566086947601
 30
0.0
  0
SPLINE
  5
19F
330
1F
100
AcDbEntity
  8
Furniture
370
     9
100
AcDbSpline
210
0.0
220
0.0
230
1.0
 70
     8
 71
     3
 72
    14
 73
    10
 74
     0
 42
0.000000001
 43
0.0000000001
 40
0.0
 40
0.0
 40
0.0
 40
0.0
 40
1.0
 40
1.0
 40
1.0
 40
2.0
 40
2.0
 40
2.0
 40
3.0
 40
3.0
 40
3.0
 40
3.0
 10
1940.100527143732
 20
332.5566086947601
 30
0.0
 10
1985.14881408698
 20
377.9212295125135
 30
0.0
 10
2202.1538519967
 20
367.9860026392043
 30
0.0
 10
2230.436443591239
 20
367.8922740837952
 30
0.0
 10
2230.436443591239
 20
367.8922740837952
 30
0.0
 10
2238.098752995891
 20
367.8922740837952
 30
0.0
 10
2238.098752995891
 20
367.8922740837952
 30
0.0
 10
2266.381344590431
 20
367.9860026392043
 30
0.0
 10
2483.386382500152
 20
377.9212295125135
 30
0.0
 10
2528.434669443401
 20
332.5566086947601
 30
0.0
  0
SPLINE
  5
1A0
330
1F
100
AcDbEntity
  8
Furniture
370
     9
100
AcDbSpline
210
0.0
220
0.0
230
1.0
 70
     8
 71
     3
 72
   188
 73
   184
 74
     0
 42
0.000000001
 43
0.0000000001
 40
0.0
 40
0.0
 40
0.0
 40
0.0
 40
1.0
 40
1.0
 40
1.0
 40
2.0
 40
2.0
 40
2.0
 40
3.0
 40
3.0
 40
3.0
 40
4.0
 40
4.0
 40
4.0
 40
5.0
 40
5.0
 40
5.0
 40
6.0
 40
6.0
 40
6.0
 40
7.0
 40
7.0
 40
7.0
 40
8.0
 40
8.0
 40
8.0
 40
9.0
 40
9.0
 40
9.0
 40
10.0
 40
10.0
 40
10.0
 40
11.0
 40
11.0
 40
11.0
 40
12.0
 40
12.0
 40
12.0
 40
13.0
 40
13.0
 40
13.0
 40
14.0
 40
14.0
 40
14.0
 40
15.0
 40
15.0
 40
15.0
 40
16.0
 40
16.0
 40
16.0
 40
17.0
 40
17.0
 40
17.0
 40
18.0
 40
18.0
 40
18.0
 40
19.0
 40
19.0
 40
19.0
 40
20.0
 40
20.0
 40
20.0
 40
21.0
 40
21.0
 40
21.0
 40
22.0
 40
22.0
 40
22.0
 40
23.0
 40
23.0
 40
23.0
 40
24.0
 40
24.0
 40
24.0
 40
25.0
 40
25.0
 40
25.0
 40
26.0
 40
26.0
 40
26.0
 40
27.0
 40
27.0
 40
27.0
 40
28.0
 40
28.0
 40
28.0
 40
29.0
 40
29.0
 40
29.0
 40
30.0
 40
30.0
 40
30.0
 40
31.0
 40
31.0
 40
31.0
 40
32.0
 40
32.0
 40
32.0
 40
33.0
 40
33.0
 40
33.0
 40
34.0
 40
34.0
 40
34.0
 40
35.0
 40
35.0
 40
35.0
 40
36.0
 40
36.0
 40
36.0
 40
37.0
 40
37.0
 40
37.0
 40
38.0
 40
38.0
 40
38.0
 40
39.0
 40
39.0
 40
39.0
 40
40.0
 40
40.0
 40
40.0
 40
41.0
 40
41.0
 40
41.0
 40
42.0
 40
42.0
 40
42.0
 40
43.0
 40
43.0
 40
43.0
 40
44.0
 40
44.0
 40
44.0
 40
45.0
 40
45.0
 40
45.0
 40
46.0
 40
46.0
 40
46.0
 40
47.0
 40
47.0
 40
47.0
 40
48.0
 40
48.0
 40
48.0
 40
49.0
 40
49.0
 40
49.0
 40
50.0
 40
50.0
 40
50.0
 40
51.0
 40
51.0
 40
51.0
 40
52.0
 40
52.0
 40
52.0
 40
53.0
 40
53.0
 40
53.0
 40
54.0
 40
54.0
 40
54.0
 40
55.0
 40
55.0
 40
55.0
 40
56.0
 40
56.0
 40
56.0
 40
57.0
 40
57.0
 40
57.0
 40
58.0
 40
58.0
 40
58.0
 40
59.0
 40
59.0
 40
59.0
 40
60.0
 40
60.0
 40
60.0
 40
61.0
 40
61.0
 40
61.0
 40
61.0
 10
1891.279665845285
 20
606.3260029738021
 30
0.0
 10
1891.279665845285
 20
606.3260029738021
 30
0.0
 10
1890.412676707756
 20
602.9869231873708
 30
0.0
 10
1890.13149104153
 20
602.2370947441022
 30
0.0
 10
1889.850305375304
 20
601.4989823702599
 30
0.0
 10
1890.283799944069
 20
598.265347208664
 30
0.0
 10
1890.283799944069
 20
598.265347208664
 30
0.0
 10
1890.283799944069
 20
598.265347208664
 30
0.0
 10
1889.944033930713
 20
593.1805730777487
 30
0.0
 10
1890.307232082921
 20
592.8173749255401
 30
0.0
 10
1890.658714165704
 20
592.4541767733317
 30
0.0
 10
1890.178355319234
 20
585.7525850616184
 30
0.0
 10
1890.307232082921
 20
585.3776708399837
 30
0.0
 10
1890.412676707756
 20
585.014472687776
 30
0.0
 10
1891.010196248485
 20
578.0668435181142
 30
0.0
 10
1891.010196248485
 20
578.0668435181142
 30
0.0
 10
1891.010196248485
 20
578.0668435181142
 30
0.0
 10
1891.970913941423
 20
570.6388555019839
 30
0.0
 10
1891.970913941423
 20
570.6388555019839
 30
0.0
 10
1891.970913941423
 20
570.6388555019839
 30
0.0
 10
1894.091522507543
 20
561.9572480572651
 30
0.0
 10
1894.091522507543
 20
561.9572480572651
 30
0.0
 10
1894.091522507543
 20
561.9572480572651
 30
0.0
 10
1896.598761364722
 20
545.4727383747795
 30
0.0
 10
1896.598761364722
 20
545.4727383747795
 30
0.0
 10
1896.598761364722
 20
545.4727383747795
 30
0.0
 10
1898.508480681172
 20
535.0571526550019
 30
0.0
 10
1898.508480681172
 20
535.0571526550019
 30
0.0
 10
1898.508480681172
 20
535.0571526550019
 30
0.0
 10
1901.953005092438
 20
518.2328769591604
 30
0.0
 10
1901.953005092438
 20
518.2328769591604
 30
0.0
 10
1901.953005092438
 20
518.2328769591604
 30
0.0
 10
1905.631850892225
 20
499.3465730443313
 30
0.0
 10
1905.631850892225
 20
499.3465730443313
 30
0.0
 10
1905.631850892225
 20
499.3465730443313
 30
0.0
 10
1911.454737396983
 20
475.4457914151434
 30
0.0
 10
1911.454737396983
 20
475.4457914151434
 30
0.0
 10
1911.454737396983
 20
475.4457914151434
 30
0.0
 10
1915.145299266195
 20
459.4650727179796
 30
0.0
 10
1915.145299266195
 20
459.4650727179796
 30
0.0
 10
1915.145299266195
 20
459.4650727179796
 30
0.0
 10
1919.304503912451
 20
442.1252899673927
 30
0.0
 10
1919.304503912451
 20
442.1252899673927
 30
0.0
 10
1919.304503912451
 20
442.1252899673927
 30
0.0
 10
1922.268669477248
 20
430.2217634305025
 30
0.0
 10
1922.268669477248
 20
430.2217634305025
 30
0.0
 10
1922.268669477248
 20
430.2217634305025
 30
0.0
 10
1924.998513653523
 20
416.2093443969188
 30
0.0
 10
1924.998513653523
 20
416.2093443969188
 30
0.0
 10
1924.998513653523
 20
416.2093443969188
 30
0.0
 10
1926.908232969972
 20
404.3058178600294
 30
0.0
 10
1926.908232969972
 20
404.3058178600294
 30
0.0
 10
1926.908232969972
 20
404.3058178600294
 30
0.0
 10
1929.040557605518
 20
386.7317137209211
 30
0.0
 10
1929.040557605518
 20
386.7317137209211
 30
0.0
 10
1929.040557605518
 20
386.7317137209211
 30
0.0
 10
1930.833116227706
 20
371.7351448555473
 30
0.0
 10
1930.833116227706
 20
371.7351448555473
 30
0.0
 10
1930.833116227706
 20
371.7351448555473
 30
0.0
 10
1931.899278545479
 20
360.4408539288133
 30
0.0
 10
1931.899278545479
 20
360.4408539288133
 30
0.0
 10
1931.899278545479
 20
360.4408539288133
 30
0.0
 10
1932.379637391948
 20
351.302319776476
 30
0.0
 10
1932.379637391948
 20
351.302319776476
 30
0.0
 10
1932.379637391948
 20
351.302319776476
 30
0.0
 10
1932.379637391948
 20
343.2182318724854
 30
0.0
 10
1932.379637391948
 20
343.2182318724854
 30
0.0
 10
1932.379637391948
 20
343.2182318724854
 30
0.0
 10
1932.848280168991
 20
334.8060940245659
 30
0.0
 10
1932.848280168991
 20
334.8060940245659
 30
0.0
 10
1932.848280168991
 20
334.8060940245659
 30
0.0
 10
1940.100527143732
 20
323.6992602086493
 30
0.0
 10
1940.100527143732
 20
323.6992602086493
 30
0.0
 10
1940.100527143732
 20
323.6992602086493
 30
0.0
 10
1956.139826188024
 20
315.5214437492495
 30
0.0
 10
1956.139826188024
 20
315.5214437492495
 30
0.0
 10
1956.139826188024
 20
315.5214437492495
 30
0.0
 10
1984.305257088303
 20
307.7185415114854
 30
0.0
 10
1984.305257088303
 20
307.7185415114854
 30
0.0
 10
1984.305257088303
 20
307.7185415114854
 30
0.0
 10
2033.348723705843
 20
300.8294926889548
 30
0.0
 10
2033.348723705843
 20
300.8294926889548
 30
0.0
 10
2033.348723705843
 20
300.8294926889548
 30
0.0
 10
2088.94147313256
 20
294.6902723096928
 30
0.0
 10
2088.94147313256
 20
294.6902723096928
 30
0.0
 10
2088.94147313256
 20
294.6902723096928
 30
0.0
 10
2155.980822388547
 20
288.7385090412472
 30
0.0
 10
2155.980822388547
 20
288.7385090412472
 30
0.0
 10
2155.980822388547
 20
288.7385090412472
 30
0.0
 10
2230.436443591239
 20
286.8639379330762
 30
0.0
 10
2230.436443591239
 20
286.8639379330762
 30
0.0
 10
2230.436443591239
 20
286.8639379330762
 30
0.0
 10
2238.098752995891
 20
286.8639379330762
 30
0.0
 10
2238.098752995891
 20
286.8639379330762
 30
0.0
 10
2238.098752995891
 20
286.8639379330762
 30
0.0
 10
2312.554374198584
 20
288.7385090412472
 30
0.0
 10
2312.554374198584
 20
288.7385090412472
 30
0.0
 10
2312.554374198584
 20
288.7385090412472
 30
0.0
 10
2379.593723454573
 20
294.6902723096928
 30
0.0
 10
2379.593723454573
 20
294.6902723096928
 30
0.0
 10
2379.593723454573
 20
294.6902723096928
 30
0.0
 10
2435.186472881287
 20
300.8294926889548
 30
0.0
 10
2435.186472881287
 20
300.8294926889548
 30
0.0
 10
2435.186472881287
 20
300.8294926889548
 30
0.0
 10
2484.229939498828
 20
307.7185415114854
 30
0.0
 10
2484.229939498828
 20
307.7185415114854
 30
0.0
 10
2484.229939498828
 20
307.7185415114854
 30
0.0
 10
2512.395370399107
 20
315.5214437492495
 30
0.0
 10
2512.395370399107
 20
315.5214437492495
 30
0.0
 10
2512.395370399107
 20
315.5214437492495
 30
0.0
 10
2528.434669443401
 20
323.6992602086493
 30
0.0
 10
2528.434669443401
 20
323.6992602086493
 30
0.0
 10
2528.434669443401
 20
323.6992602086493
 30
0.0
 10
2535.686916418139
 20
334.8060940245659
 30
0.0
 10
2535.686916418139
 20
334.8060940245659
 30
0.0
 10
2535.686916418139
 20
334.8060940245659
 30
0.0
 10
2536.155559195182
 20
343.2182318724854
 30
0.0
 10
2536.155559195182
 20
343.2182318724854
 30
0.0
 10
2536.155559195182
 20
343.2182318724854
 30
0.0
 10
2536.155559195182
 20
351.302319776476
 30
0.0
 10
2536.155559195182
 20
351.302319776476
 30
0.0
 10
2536.155559195182
 20
351.302319776476
 30
0.0
 10
2536.635918041652
 20
360.4408539288133
 30
0.0
 10
2536.635918041652
 20
360.4408539288133
 30
0.0
 10
2536.635918041652
 20
360.4408539288133
 30
0.0
 10
2537.702080359424
 20
371.7351448555473
 30
0.0
 10
2537.702080359424
 20
371.7351448555473
 30
0.0
 10
2537.702080359424
 20
371.7351448555473
 30
0.0
 10
2539.494638981612
 20
386.7317137209211
 30
0.0
 10
2539.494638981612
 20
386.7317137209211
 30
0.0
 10
2539.494638981612
 20
386.7317137209211
 30
0.0
 10
2541.626963617158
 20
404.3058178600294
 30
0.0
 10
2541.626963617158
 20
404.3058178600294
 30
0.0
 10
2541.626963617158
 20
404.3058178600294
 30
0.0
 10
2543.536682933609
 20
416.2093443969188
 30
0.0
 10
2543.536682933609
 20
416.2093443969188
 30
0.0
 10
2543.536682933609
 20
416.2093443969188
 30
0.0
 10
2546.266527109883
 20
430.2217634305025
 30
0.0
 10
2546.266527109883
 20
430.2217634305025
 30
0.0
 10
2546.266527109883
 20
430.2217634305025
 30
0.0
 10
2549.230692674679
 20
442.1252899673927
 30
0.0
 10
2549.230692674679
 20
442.1252899673927
 30
0.0
 10
2549.230692674679
 20
442.1252899673927
 30
0.0
 10
2553.389897320936
 20
459.4650727179796
 30
0.0
 10
2553.389897320936
 20
459.4650727179796
 30
0.0
 10
2553.389897320936
 20
459.4650727179796
 30
0.0
 10
2557.080459190149
 20
475.4457914151434
 30
0.0
 10
2557.080459190149
 20
475.4457914151434
 30
0.0
 10
2557.080459190149
 20
475.4457914151434
 30
0.0
 10
2562.903345694906
 20
499.3465730443313
 30
0.0
 10
2562.903345694906
 20
499.3465730443313
 30
0.0
 10
2562.903345694906
 20
499.3465730443313
 30
0.0
 10
2566.582191494694
 20
518.2328769591604
 30
0.0
 10
2566.582191494694
 20
518.2328769591604
 30
0.0
 10
2566.582191494694
 20
518.2328769591604
 30
0.0
 10
2570.026715905961
 20
535.0571526550019
 30
0.0
 10
2570.026715905961
 20
535.0571526550019
 30
0.0
 10
2570.026715905961
 20
535.0571526550019
 30
0.0
 10
2571.936435222408
 20
545.4727383747795
 30
0.0
 10
2571.936435222408
 20
545.4727383747795
 30
0.0
 10
2571.936435222408
 20
545.4727383747795
 30
0.0
 10
2574.431958010162
 20
561.9572480572651
 30
0.0
 10
2574.431958010162
 20
561.9572480572651
 30
0.0
 10
2574.431958010162
 20
561.9572480572651
 30
0.0
 10
2576.564282645708
 20
570.6388555019839
 30
0.0
 10
2576.564282645708
 20
570.6388555019839
 30
0.0
 10
2576.564282645708
 20
570.6388555019839
 30
0.0
 10
2577.525000338645
 20
578.0668435181142
 30
0.0
 10
2577.525000338645
 20
578.0668435181142
 30
0.0
 10
2577.525000338645
 20
578.0668435181142
 30
0.0
 10
2578.122519879376
 20
585.014472687776
 30
0.0
 10
2578.227964504209
 20
585.3776708399837
 30
0.0
 10
2578.356841267896
 20
585.7525850616184
 30
0.0
 10
2577.876482421427
 20
592.4541767733317
 30
0.0
 10
2578.227964504209
 20
592.8173749255401
 30
0.0
 10
2578.591162656419
 20
593.1805730777487
 30
0.0
 10
2578.251396643064
 20
598.265347208664
 30
0.0
 10
2578.251396643064
 20
598.265347208664
 30
0.0
 10
2578.251396643064
 20
598.265347208664
 30
0.0
 10
2578.684891211828
 20
601.4989823702599
 30
0.0
 10
2578.403705545601
 20
602.2370947441022
 30
0.0
 10
2578.122519879376
 20
602.9869231873708
 30
0.0
 10
2577.255530741846
 20
606.3260029738021
 30
0.0
 10
2577.255530741846
 20
606.3260029738021
 30
0.0
  0
SPLINE
  5
1A1
330
1F
100
AcDbEntity
  8
Furniture
370
     9
100
AcDbSpline
210
0.0
220
0.0
230
1.0
 70
     8
 71
     3
 72
     8
 73
     4
 74
     0
 42
0.000000001
 43
0.0000000001
 40
0.0
 40
0.0
 40
0.0
 40
0.0
 40
1.0
 40
1.0
 40
1.0
 40
1.0
 10
4082.559562742527
 20
310.9521766730822
 30
0.0
 10
4078.201184916028
 20
306.6406631242871
 30
0.0
 10
4065.969608435209
 20
291.7378228143225
 30
0.0
 10
4072.76492870233
 20
225.1436841965242
 30
0.0
  0
SPLINE
  5
1A2
330
1F
100
AcDbEntity
  8
Furniture
370
     9
100
AcDbSpline
210
0.0
220
0.0
230
1.0
 70
     8
 71
     3
 72
    29
 73
    25
 74
     0
 42
0.000000001
 43
0.0000000001
 40
0.0
 40
0.0
 40
0.0
 40
0.0
 40
1.0
 40
1.0
 40
1.0
 40
2.0
 40
2.0
 40
2.0
 40
3.0
 40
3.0
 40
3.0
 40
4.0
 40
4.0
 40
4.0
 40
5.0
 40
5.0
 40
5.0
 40
6.0
 40
6.0
 40
6.0
 40
7.0
 40
7.0
 40
7.0
 40
8.0
 40
8.0
 40
8.0
 40
8.0
 10
4072.76492870233
 20
225.1436841965242
 30
0.0
 10
4072.76492870233
 20
225.1436841965242
 30
0.0
 10
4101.164680991129
 20
-32.00060756691982
 30
0.0
 10
4101.164680991129
 20
-32.00060756691982
 30
0.0
 10
4101.164680991129
 20
-32.00060756691982
 30
0.0
 10
4101.867645156693
 20
-37.2025423920968
 30
0.0
 10
4101.867645156693
 20
-37.2025423920968
 30
0.0
 10
4101.867645156693
 20
-46.13018729476425
 30
0.0
 10
4116.348706967321
 20
-82.6843239041109
 30
0.0
 10
4137.109581990322
 20
-93.76772558117592
 30
0.0
 10
4171.039319048229
 20
-111.9510653304405
 30
0.0
 10
4435.306981022725
 20
-126.8539056404061
 30
0.0
 10
4580.867427572253
 20
-103.4686310659635
 30
0.0
 10
4580.867427572253
 20
-103.4686310659635
 30
0.0
 10
4583.304370012876
 20
-102.8593954558082
 30
0.0
 10
4583.304370012876
 20
-102.8593954558082
 30
0.0
 10
4652.991550959157
 20
-91.7525616398916
 30
0.0
 10
4710.58774825773
 20
-64.3369591828814
 30
0.0
 10
4718.929589689095
 20
40.19381223654
 30
0.0
 10
4718.929589689095
 20
40.19381223654
 30
0.0
 10
4721.460260685126
 20
123.7293872444388
 30
0.0
 10
4721.460260685126
 20
123.7293872444388
 30
0.0
 10
4721.460260685126
 20
123.7293872444388
 30
0.0
 10
4727.318295398163
 20
299.0955144138961
 30
0.0
 10
4727.318295398163
 20
299.0955144138961
 30
0.0
  0
SPLINE
  5
1A3
330
1F
100
AcDbEntity
  8
Furniture
370
     9
100
AcDbSpline
210
0.0
220
0.0
230
1.0
 70
     8
 71
     3
 72
    20
 73
    16
 74
     0
 42
0.000000001
 43
0.0000000001
 40
0.0
 40
0.0
 40
0.0
 40
0.0
 40
1.0
 40
1.0
 40
1.0
 40
2.0
 40
2.0
 40
2.0
 40
3.0
 40
3.0
 40
3.0
 40
4.0
 40
4.0
 40
4.0
 40
5.0
 40
5.0
 40
5.0
 40
5.0
 10
4727.318295398163
 20
299.0955144138961
 30
0.0
 10
4727.318295398163
 20
299.0955144138961
 30
0.0
 10
4742.03367859731
 20
408.3830100203031
 30
0.0
 10
4742.03367859731
 20
408.3830100203031
 30
0.0
 10
4742.03367859731
 20
408.3830100203031
 30
0.0
 10
4750.562977139492
 20
464.4326861546351
 30
0.0
 10
4750.562977139492
 20
464.4326861546351
 30
0.0
 10
4750.844162805717
 20
470.7593636447136
 30
0.0
 10
4766.49683155895
 20
553.2287763348404
 30
0.0
 10
4767.855895612374
 20
564.8159689972271
 30
0.0
 10
4769.2149596658
 20
576.4265937984646
 30
0.0
 10
4769.683602442842
 20
576.9889651309158
 30
0.0
 10
4770.574023719222
 20
595.8987011845975
 30
0.0
 10
4771.558173551015
 20
607.8256598603393
 30
0.0
 10
4770.574023719222
 20
633.8821982639256
 30
0.0
 10
4770.574023719222
 20
633.8821982639256
 30
0.0
  0
SPLINE
  5
1A4
330
1F
100
AcDbEntity
  8
Furniture
370
     9
100
AcDbSpline
210
0.0
220
0.0
230
1.0
 70
     8
 71
     3
 72
     8
 73
     4
 74
     0
 42
0.000000001
 43
0.0000000001
 40
0.0
 40
0.0
 40
0.0
 40
0.0
 40
1.0
 40
1.0
 40
1.0
 40
1.0
 10
4759.795239847234
 20
648.6913100184811
 30
0.0
 10
4762.372775120973
 20
659.6575510012853
 30
0.0
 10
4756.889654629571
 20
663.4769896341849
 30
0.0
 10
4747.141884867079
 20
663.4769896341849
 30
0.0
  0
SPLINE
  5
1A5
330
1F
100
AcDbEntity
  8
Furniture
370
     9
100
AcDbSpline
210
0.0
220
0.0
230
1.0
 70
     8
 71
     3
 72
     8
 73
     4
 74
     0
 42
0.000000001
 43
0.0000000001
 40
0.0
 40
0.0
 40
0.0
 40
0.0
 40
1.0
 40
1.0
 40
1.0
 40
1.0
 10
4759.795239847234
 20
648.6913100184811
 30
0.0
 10
4767.246660002218
 20
646.9573317434224
 30
0.0
 10
4770.574023719222
 20
638.9786884642671
 30
0.0
 10
4770.574023719222
 20
633.8821982639256
 30
0.0
  0
SPLINE
  5
1A6
330
1F
100
AcDbEntity
  8
Furniture
370
     9
100
AcDbSpline
210
0.0
220
0.0
230
1.0
 70
     8
 71
     3
 72
    11
 73
     7
 74
     0
 42
0.000000001
 43
0.0000000001
 40
0.0
 40
0.0
 40
0.0
 40
0.0
 40
1.0
 40
1.0
 40
1.0
 40
2.0
 40
2.0
 40
2.0
 40
2.0
 10
4166.25916272239
 20
423.0515289417462
 30
0.0
 10
4166.25916272239
 20
423.0515289417462
 30
0.0
 10
4160.354263731649
 20
353.6923979393951
 30
0.0
 10
4160.354263731649
 20
353.6923979393951
 30
0.0
 10
4160.354263731649
 20
353.6923979393951
 30
0.0
 10
4104.351451875021
 20
349.1934272797826
 30
0.0
 10
4095.072324889572
 20
326.9797596479493
 30
0.0
  0
SPLINE
  5
1A7
330
1F
100
AcDbEntity
  8
Furniture
370
     9
100
AcDbSpline
210
0.0
220
0.0
230
1.0
 70
     8
 71
     3
 72
     8
 73
     4
 74
     0
 42
0.000000001
 43
0.0000000001
 40
0.0
 40
0.0
 40
0.0
 40
0.0
 40
1.0
 40
1.0
 40
1.0
 40
1.0
 10
4082.559562742527
 20
310.9521766730822
 30
0.0
 10
4075.576785364588
 20
314.0452190015649
 30
0.0
 10
4082.559562742527
 20
333.7985120539242
 30
0.0
 10
4095.072324889572
 20
326.9797596479493
 30
0.0
  0
SPLINE
  5
1A8
330
1F
100
AcDbEntity
  8
Furniture
370
     9
100
AcDbSpline
210
0.0
220
0.0
230
1.0
 70
     8
 71
     3
 72
    14
 73
    10
 74
     0
 42
0.000000001
 43
0.0000000001
 40
0.0
 40
0.0
 40
0.0
 40
0.0
 40
1.0
 40
1.0
 40
1.0
 40
2.0
 40
2.0
 40
2.0
 40
3.0
 40
3.0
 40
3.0
 40
3.0
 10
4166.25916272239
 20
423.0515289417462
 30
0.0
 10
4180.177853200564
 20
535.5257954320441
 30
0.0
 10
4170.898726215114
 20
609.8291077321974
 30
0.0
 10
4358.871344087027
 20
633.8821982639256
 30
0.0
 10
4358.871344087027
 20
633.8821982639256
 30
0.0
 10
4362.62048630337
 20
634.4211374575252
 30
0.0
 10
4362.62048630337
 20
634.4211374575252
 30
0.0
 10
4362.62048630337
 20
634.4211374575252
 30
0.0
 10
4747.141884867079
 20
663.4769896341849
 30
0.0
 10
4747.141884867079
 20
663.4769896341849
 30
0.0
  0
SPLINE
  5
1A9
330
1F
100
AcDbEntity
  8
Furniture
370
     9
100
AcDbSpline
210
0.0
220
0.0
230
1.0
 70
     8
 71
     3
 72
     8
 73
     4
 74
     0
 42
0.000000001
 43
0.0000000001
 40
0.0
 40
0.0
 40
0.0
 40
0.0
 40
1.0
 40
1.0
 40
1.0
 40
1.0
 10
4095.072324889572
 20
326.9797596479493
 30
0.0
 10
4096.431388942998
 20
313.4594155302611
 30
0.0
 10
4152.949707854372
 20
318.2161397172468
 30
0.0
 10
4160.354263731649
 20
353.6923979393951
 30
0.0
  0
POLYLINE
  5
1AA
330
1F
100
AcDbEntity
  8
Furniture
370
     9
100
AcDb2dPolyline
 66
     1
 10
0.0
 20
0.0
 30
0.0
  0
VERTEX
  5
1AB
330
1AA
100
AcDbEntity
  8
Furniture
370
     9
100
AcDbVertex
100
AcDb2dVertex
 10
4759.795239847234
 20
647.6017155618564
 30
0.0
  0
VERTEX
  5
1AC
330
1AA
100
AcDbEntity
  8
Furniture
370
     9
100
AcDbVertex
100
AcDb2dVertex
 10
4365.760392909556
 20
620.1158166882897
 30
0.0
  0
SEQEND
  5
1AD
330
1AA
100
AcDbEntity
  8
Furniture
370
     9
  0
SPLINE
  5
1AE
330
1F
100
AcDbEntity
  8
Furniture
370
     9
100
AcDbSpline
210
0.0
220
0.0
230
1.0
 70
     8
 71
     3
 72
     8
 73
     4
 74
     0
 42
0.000000001
 43
0.0000000001
 40
0.0
 40
0.0
 40
0.0
 40
0.0
 40
1.0
 40
1.0
 40
1.0
 40
1.0
 10
4365.760392909556
 20
620.1158166882897
 30
0.0
 10
4166.25916272239
 20
614.2460659058269
 30
0.0
 10
4190.487994295508
 20
490.8641387798552
 30
0.0
 10
4170.195762049551
 20
353.6923979393951
 30
0.0
  0
SPLINE
  5
1AF
330
1F
100
AcDbEntity
  8
Furniture
370
     9
100
AcDbSpline
210
0.0
220
0.0
230
1.0
 70
     8
 71
     3
 72
     8
 73
     4
 74
     0
 42
0.000000001
 43
0.0000000001
 40
0.0
 40
0.0
 40
0.0
 40
0.0
 40
1.0
 40
1.0
 40
1.0
 40
1.0
 10
4082.559562742527
 20
310.9521766730822
 30
0.0
 10
4123.753262844597
 20
299.0720822750445
 30
0.0
 10
4164.337727336515
 20
304.6957955995595
 30
0.0
 10
4170.195762049551
 20
353.6923979393951
 30
0.0
  0
POLYLINE
  5
1B1
330
1F
100
AcDbEntity
  8
Furniture
370
     9
100
AcDb2dPolyline
 66
     1
 10
0.0
 20
0.0
 30
0.0
  0
VERTEX
  5
1B2
330
1B1
100
AcDbEntity
  8
Furniture
370
     9
100
AcDbVertex
100
AcDb2dVertex
 10
6776.037059518952
 20
-99.86008168273384
 30
0.0
  0
VERTEX
  5
1B3
330
1B1
100
AcDbEntity
  8
Furniture
370
     9
100
AcDbVertex
100
AcDb2dVertex
 10
6776.037059518952
 20
-115.4658861582629
 30
0.0
  0
VERTEX
  5
1B4
330
1B1
100
AcDbEntity
  8
Furniture
370
     9
100
AcDbVertex
100
AcDb2dVertex
 10
6350.743739352509
 20
-115.4658861582629
 30
0.0
  0
VERTEX
  5
1B5
330
1B1
100
AcDbEntity
  8
Furniture
370
     9
100
AcDbVertex
100
AcDb2dVertex
 10
6350.743739352509
 20
-104.0778666761198
 30
0.0
  0
SEQEND
  5
1B6
330
1B1
100
AcDbEntity
  8
Furniture
370
     9
  0
SPLINE
  5
1B7
330
1F
100
AcDbEntity
  8
Furniture
370
     9
100
AcDbSpline
210
0.0
220
0.0
230
1.0
 70
     8
 71
     3
 72
     8
 73
     4
 74
     0
 42
0.000000001
 43
0.0000000001
 40
0.0
 40
0.0
 40
0.0
 40
0.0
 40
1.0
 40
1.0
 40
1.0
 40
1.0
 10
6250.547913620734
 20
310.9521766730822
 30
0.0
 10
6246.189535794236
 20
306.6406631242871
 30
0.0
 10
6233.957959313417
 20
291.7378228143225
 30
0.0
 10
6240.753279580538
 20
225.1436841965242
 30
0.0
  0
SPLINE
  5
1B8
330
1F
100
AcDbEntity
  8
Furniture
370
     9
100
AcDbSpline
210
0.0
220
0.0
230
1.0
 70
     8
 71
     3
 72
    29
 73
    25
 74
     0
 42
0.000000001
 43
0.0000000001
 40
0.0
 40
0.0
 40
0.0
 40
0.0
 40
1.0
 40
1.0
 40
1.0
 40
2.0
 40
2.0
 40
2.0
 40
3.0
 40
3.0
 40
3.0
 40
4.0
 40
4.0
 40
4.0
 40
5.0
 40
5.0
 40
5.0
 40
6.0
 40
6.0
 40
6.0
 40
7.0
 40
7.0
 40
7.0
 40
8.0
 40
8.0
 40
8.0
 40
8.0
 10
6240.753279580538
 20
225.1436841965242
 30
0.0
 10
6240.753279580538
 20
225.1436841965242
 30
0.0
 10
6269.15303186934
 20
-32.00060756691982
 30
0.0
 10
6269.15303186934
 20
-32.00060756691982
 30
0.0
 10
6269.15303186934
 20
-32.00060756691982
 30
0.0
 10
6269.855996034903
 20
-37.2025423920968
 30
0.0
 10
6269.855996034903
 20
-37.2025423920968
 30
0.0
 10
6269.855996034903
 20
-46.13018729476425
 30
0.0
 10
6284.33705784553
 20
-82.6843239041109
 30
0.0
 10
6305.09793286853
 20
-93.76772558117592
 30
0.0
 10
6339.027669926437
 20
-111.9510653304405
 30
0.0
 10
6603.295331900934
 20
-126.8539056404061
 30
0.0
 10
6748.855778450463
 20
-103.4686310659635
 30
0.0
 10
6748.855778450463
 20
-103.4686310659635
 30
0.0
 10
6751.292720891086
 20
-102.8593954558082
 30
0.0
 10
6751.292720891086
 20
-102.8593954558082
 30
0.0
 10
6820.979901837366
 20
-91.7525616398916
 30
0.0
 10
6878.576099135941
 20
-64.3369591828814
 30
0.0
 10
6886.917940567304
 20
40.19381223654
 30
0.0
 10
6886.917940567304
 20
40.19381223654
 30
0.0
 10
6889.448611563335
 20
123.7293872444388
 30
0.0
 10
6889.448611563335
 20
123.7293872444388
 30
0.0
 10
6889.448611563335
 20
123.7293872444388
 30
0.0
 10
6895.306646276371
 20
299.0955144138961
 30
0.0
 10
6895.306646276371
 20
299.0955144138961
 30
0.0
  0
SPLINE
  5
1B9
330
1F
100
AcDbEntity
  8
Furniture
370
     9
100
AcDbSpline
210
0.0
220
0.0
230
1.0
 70
     8
 71
     3
 72
    20
 73
    16
 74
     0
 42
0.000000001
 43
0.0000000001
 40
0.0
 40
0.0
 40
0.0
 40
0.0
 40
1.0
 40
1.0
 40
1.0
 40
2.0
 40
2.0
 40
2.0
 40
3.0
 40
3.0
 40
3.0
 40
4.0
 40
4.0
 40
4.0
 40
5.0
 40
5.0
 40
5.0
 40
5.0
 10
6895.306646276371
 20
299.0955144138961
 30
0.0
 10
6895.306646276371
 20
299.0955144138961
 30
0.0
 10
6910.02202947552
 20
408.3830100203031
 30
0.0
 10
6910.02202947552
 20
408.3830100203031
 30
0.0
 10
6910.02202947552
 20
408.3830100203031
 30
0.0
 10
6918.5513280177
 20
464.4326861546351
 30
0.0
 10
6918.5513280177
 20
464.4326861546351
 30
0.0
 10
6918.832513683925
 20
470.7593636447136
 30
0.0
 10
6934.48518243716
 20
553.2287763348404
 30
0.0
 10
6935.844246490583
 20
564.8159689972271
 30
0.0
 10
6937.203310544008
 20
576.4265937984646
 30
0.0
 10
6937.67195332105
 20
576.9889651309158
 30
0.0
 10
6938.562374597431
 20
595.8987011845975
 30
0.0
 10
6939.546524429222
 20
607.8256598603393
 30
0.0
 10
6938.562374597431
 20
633.8821982639256
 30
0.0
 10
6938.562374597431
 20
633.8821982639256
 30
0.0
  0
SPLINE
  5
1BA
330
1F
100
AcDbEntity
  8
Furniture
370
     9
100
AcDbSpline
210
0.0
220
0.0
230
1.0
 70
     8
 71
     3
 72
     8
 73
     4
 74
     0
 42
0.000000001
 43
0.0000000001
 40
0.0
 40
0.0
 40
0.0
 40
0.0
 40
1.0
 40
1.0
 40
1.0
 40
1.0
 10
6927.783590725446
 20
648.6913100184811
 30
0.0
 10
6930.361125999181
 20
659.6575510012853
 30
0.0
 10
6924.87800550778
 20
663.4769896341849
 30
0.0
 10
6915.130235745287
 20
663.4769896341849
 30
0.0
  0
SPLINE
  5
1BB
330
1F
100
AcDbEntity
  8
Furniture
370
     9
100
AcDbSpline
210
0.0
220
0.0
230
1.0
 70
     8
 71
     3
 72
     8
 73
     4
 74
     0
 42
0.000000001
 43
0.0000000001
 40
0.0
 40
0.0
 40
0.0
 40
0.0
 40
1.0
 40
1.0
 40
1.0
 40
1.0
 10
6927.783590725446
 20
648.6913100184811
 30
0.0
 10
6935.235010880427
 20
646.9573317434224
 30
0.0
 10
6938.562374597431
 20
638.9786884642671
 30
0.0
 10
6938.562374597431
 20
633.8821982639256
 30
0.0
  0
SPLINE
  5
1BC
330
1F
100
AcDbEntity
  8
Furniture
370
     9
100
AcDbSpline
210
0.0
220
0.0
230
1.0
 70
     8
 71
     3
 72
    11
 73
     7
 74
     0
 42
0.000000001
 43
0.0000000001
 40
0.0
 40
0.0
 40
0.0
 40
0.0
 40
1.0
 40
1.0
 40
1.0
 40
2.0
 40
2.0
 40
2.0
 40
2.0
 10
6334.247513600598
 20
423.0515289417462
 30
0.0
 10
6334.247513600598
 20
423.0515289417462
 30
0.0
 10
6328.342614609859
 20
353.6923979393951
 30
0.0
 10
6328.342614609859
 20
353.6923979393951
 30
0.0
 10
6328.342614609859
 20
353.6923979393951
 30
0.0
 10
6272.339802753231
 20
349.1934272797826
 30
0.0
 10
6263.060675767779
 20
326.9797596479493
 30
0.0
  0
SPLINE
  5
1BD
330
1F
100
AcDbEntity
  8
Furniture
370
     9
100
AcDbSpline
210
0.0
220
0.0
230
1.0
 70
     8
 71
     3
 72
     8
 73
     4
 74
     0
 42
0.000000001
 43
0.0000000001
 40
0.0
 40
0.0
 40
0.0
 40
0.0
 40
1.0
 40
1.0
 40
1.0
 40
1.0
 10
6250.547913620734
 20
310.9521766730822
 30
0.0
 10
6243.565136242796
 20
314.0452190015649
 30
0.0
 10
6250.547913620734
 20
333.7985120539242
 30
0.0
 10
6263.060675767779
 20
326.9797596479493
 30
0.0
  0
SPLINE
  5
1BE
330
1F
100
AcDbEntity
  8
Furniture
370
     9
100
AcDbSpline
210
0.0
220
0.0
230
1.0
 70
     8
 71
     3
 72
    14
 73
    10
 74
     0
 42
0.000000001
 43
0.0000000001
 40
0.0
 40
0.0
 40
0.0
 40
0.0
 40
1.0
 40
1.0
 40
1.0
 40
2.0
 40
2.0
 40
2.0
 40
3.0
 40
3.0
 40
3.0
 40
3.0
 10
6334.247513600598
 20
423.0515289417462
 30
0.0
 10
6348.166204078775
 20
535.5257954320441
 30
0.0
 10
6338.887077093323
 20
609.8291077321974
 30
0.0
 10
6526.859694965236
 20
633.8821982639256
 30
0.0
 10
6526.859694965236
 20
633.8821982639256
 30
0.0
 10
6530.608837181579
 20
634.4211374575252
 30
0.0
 10
6530.608837181579
 20
634.4211374575252
 30
0.0
 10
6530.608837181579
 20
634.4211374575252
 30
0.0
 10
6915.130235745287
 20
663.4769896341849
 30
0.0
 10
6915.130235745287
 20
663.4769896341849
 30
0.0
  0
SPLINE
  5
1BF
330
1F
100
AcDbEntity
  8
Furniture
370
     9
100
AcDbSpline
210
0.0
220
0.0
230
1.0
 70
     8
 71
     3
 72
     8
 73
     4
 74
     0
 42
0.000000001
 43
0.0000000001
 40
0.0
 40
0.0
 40
0.0
 40
0.0
 40
1.0
 40
1.0
 40
1.0
 40
1.0
 10
6263.060675767779
 20
326.9797596479493
 30
0.0
 10
6264.419739821206
 20
313.4594155302611
 30
0.0
 10
6320.938058732582
 20
318.2161397172468
 30
0.0
 10
6328.342614609859
 20
353.6923979393951
 30
0.0
  0
POLYLINE
  5
1C0
330
1F
100
AcDbEntity
  8
Furniture
370
     9
100
AcDb2dPolyline
 66
     1
 10
0.0
 20
0.0
 30
0.0
  0
VERTEX
  5
1C1
330
1C0
100
AcDbEntity
  8
Furniture
370
     9
100
AcDbVertex
100
AcDb2dVertex
 10
6927.783590725446
 20
647.6017155618564
 30
0.0
  0
VERTEX
  5
1C2
330
1C0
100
AcDbEntity
  8
Furniture
370
     9
100
AcDbVertex
100
AcDb2dVertex
 10
6533.748743787764
 20
620.1158166882897
 30
0.0
  0
SEQEND
  5
1C3
330
1C0
100
AcDbEntity
  8
Furniture
370
     9
  0
SPLINE
  5
1C4
330
1F
100
AcDbEntity
  8
Furniture
370
     9
100
AcDbSpline
210
0.0
220
0.0
230
1.0
 70
     8
 71
     3
 72
     8
 73
     4
 74
     0
 42
0.000000001
 43
0.0000000001
 40
0.0
 40
0.0
 40
0.0
 40
0.0
 40
1.0
 40
1.0
 40
1.0
 40
1.0
 10
6533.748743787764
 20
620.1158166882897
 30
0.0
 10
6334.247513600598
 20
614.2460659058269
 30
0.0
 10
6358.476345173718
 20
490.8641387798552
 30
0.0
 10
6338.184112927758
 20
353.6923979393951
 30
0.0
  0
SPLINE
  5
1C5
330
1F
100
AcDbEntity
  8
Furniture
370
     9
100
AcDbSpline
210
0.0
220
0.0
230
1.0
 70
     8
 71
     3
 72
     8
 73
     4
 74
     0
 42
0.000000001
 43
0.0000000001
 40
0.0
 40
0.0
 40
0.0
 40
0.0
 40
1.0
 40
1.0
 40
1.0
 40
1.0
 10
6250.547913620734
 20
310.9521766730822
 30
0.0
 10
6291.741613722809
 20
299.0720822750445
 30
0.0
 10
6332.326078214724
 20
304.6957955995595
 30
0.0
 10
6338.184112927758
 20
353.6923979393951
 30
0.0
  0
ENDSEC
  0
SECTION
  2
OBJECTS
  0
DICTIONARY
  5
C
330
0
100
AcDbDictionary
281
     1
  3
ACAD_CIP_PREVIOUS_PRODUCT_INFO
350
1EF
  3
ACAD_COLOR
350
116
  3
ACAD_DETAILVIEWSTYLE
350
1EA
  3
ACAD_GROUP
350
D
  3
ACAD_LAYOUT
350
1A
  3
ACAD_MATERIAL
350
FA
  3
ACAD_MLEADERSTYLE
350
13A
  3
ACAD_MLINESTYLE
350
17
  3
ACAD_PLOTSETTINGS
350
19
  3
ACAD_PLOTSTYLENAME
350
E
  3
ACAD_SCALELIST
350
118
  3
ACAD_SECTIONVIEWSTYLE
350
1E8
  3
ACAD_TABLESTYLE
350
F8
  3
ACAD_VISUALSTYLE
350
2A
  3
ACDB_RECOMPOSE_DATA
350
2A8
  3
AcDbVariableDictionary
350
1D8
  0
DICTIONARY
  5
1D0
330
2
100
AcDbDictionary
280
     1
281
     1
  3
ACAD_LAYERSTATES
360
1D1
  0
DICTIONARY
  5
1C9
330
10
100
AcDbDictionary
280
     1
281
     1
  3
ADSK_XREC_LAYER_RECONCILED
360
1CA
  0
DICTIONARY
  5
1CB
330
3B
100
AcDbDictionary
280
     1
281
     1
  3
ADSK_XREC_LAYER_RECONCILED
360
1CC
  0
DICTIONARY
  5
154
330
1F
100
AcDbDictionary
280
     1
281
     1
  3
ACAD_SORTENTS
360
155
  0
XRECORD
  5
1EF
102
{ACAD_REACTORS
330
C
102
}
330
C
100
AcDbXrecord
280
     1
300
AMECH_PP
300
2018
300
PDSP_F_S
  0
DICTIONARY
  5
116
102
{ACAD_REACTORS
330
C
102
}
330
C
100
AcDbDictionary
281
     1
  0
DICTIONARY
  5
1EA
102
{ACAD_REACTORS
330
C
102
}
330
C
100
AcDbDictionary
281
     1
  3
Imperial24
350
1EB
  0
DICTIONARY
  5
D
102
{ACAD_REACTORS
330
C
102
}
330
C
100
AcDbDictionary
281
     1
  0
DICTIONARY
  5
1A
102
{ACAD_REACTORS
330
C
102
}
330
C
100
AcDbDictionary
281
     1
  3
Layout1
350
1E
  3
Layout2
350
26
  3
Model
350
22
  0
DICTIONARY
  5
FA
102
{ACAD_REACTORS
330
C
102
}
330
C
100
AcDbDictionary
281
     1
  3
ByBlock
350
103
  3
ByLayer
350
FB
  3
Global
350
10B
  0
DICTIONARY
  5
13A
102
{ACAD_REACTORS
330
C
102
}
330
C
100
AcDbDictionary
281
     1
  3
Standard
350
13B
  0
DICTIONARY
  5
17
102
{ACAD_REACTORS
330
C
102
}
330
C
100
AcDbDictionary
281
     1
  3
Standard
350
18
  0
DICTIONARY
  5
19
102
{ACAD_REACTORS
330
C
102
}
330
C
100
AcDbDictionary
281
     1
  0
ACDBDICTIONARYWDFLT
  5
E
102
{ACAD_REACTORS
330
C
102
}
330
C
100
AcDbDictionary
281
     1
  3
Normal
350
F
100
AcDbDictionaryWithDefault
340
F
  0
DICTIONARY
  5
118
102
{ACAD_REACTORS
330
C
102
}
330
C
100
AcDbDictionary
281
     1
  3
A0
350
119
  3
A1
350
11A
  3
A2
350
11B
  3
A3
350
11C
  3
A4
350
11D
  3
A5
350
11E
  3
A6
350
11F
  3
A7
350
120
  3
A8
350
121
  3
A9
350
122
  3
B0
350
123
  3
B1
350
124
  3
B2
350
125
  3
B3
350
126
  3
B4
350
127
  3
B5
350
128
  3
B6
350
129
  3
B7
350
12A
  3
B8
350
12B
  3
B9
350
12C
  3
C0
350
12D
  3
C1
350
12E
  3
C2
350
12F
  3
C3
350
130
  3
C4
350
131
  3
C5
350
132
  3
C6
350
133
  3
C7
350
134
  3
C8
350
135
  3
C9
350
136
  3
D0
350
137
  3
D1
350
138
  3
D2
350
139
  0
DICTIONARY
  5
1E8
102
{ACAD_REACTORS
330
C
102
}
330
C
100
AcDbDictionary
281
     1
  3
Imperial24
350
1E9
  0
DICTIONARY
  5
F8
102
{ACAD_REACTORS
330
C
102
}
330
C
100
AcDbDictionary
281
     1
  3
Standard
350
117
  0
DICTIONARY
  5
2A
102
{ACAD_REACTORS
330
C
102
}
330
C
100
AcDbDictionary
281
     1
  3
2dWireframe
350
2F
  3
3D Hidden
350
31
  3
3dWireframe
350
30
  3
Basic
350
32
  3
Brighten
350
36
  3
ColorChange
350
3A
  3
Conceptual
350
34
  3
Dim
350
35
  3
EdgeColorOff
350
115
  3
Facepattern
350
39
  3
Flat
350
2B
  3
FlatWithEdges
350
2C
  3
Gouraud
350
2D
  3
GouraudWithEdges
350
2E
  3
Hidden
350
1E2
  3
JitterOff
350
113
  3
Linepattern
350
38
  3
OverhangOff
350
114
  3
Realistic
350
33
  3
Shaded
350
1E7
  3
Shaded with edges
350
1E6
  3
Shades of Gray
350
1E3
  3
Sketchy
350
1E4
  3
Thicken
350
37
  3
Wireframe
350
1E1
  3
X-Ray
350
1E5
  0
XRECORD
  5
2A8
102
{ACAD_REACTORS
330
C
102
}
330
C
100
AcDbXrecord
280
     1
 90
        1
330
117
  0
DICTIONARY
  5
1D8
102
{ACAD_REACTORS
330
C
102
}
330
C
100
AcDbDictionary
281
     1
  3
CANNOSCALE
350
1DC
  3
CMLEADERSTYLE
350
1DA
  3
CTABLESTYLE
350
1D9
  3
CVIEWDETAILSTYLE
350
240
  3
CVIEWSECTIONSTYLE
350
241
  3
LAYEREVAL
350
1DE
  3
LAYERNOTIFY
350
1DF
  3
LIGHTINGUNITS
350
1DD
  3
MSLTSCALE
350
1DB
  0
DICTIONARY
  5
1D1
102
{ACAD_REACTORS
330
1D0
102
}
330
1D0
100
AcDbDictionary
281
     1
  0
XRECORD
  5
1CA
102
{ACAD_REACTORS
330
1C9
102
}
330
1C9
100
AcDbXrecord
280
     1
290
     1
  0
XRECORD
  5
1CC
102
{ACAD_REACTORS
330
1CB
102
}
330
1CB
100
AcDbXrecord
280
     1
290
     1
  0
SORTENTSTABLE
  5
155
102
{ACAD_REACTORS
330
154
102
}
330
154
100
AcDbSortentsTable
330
1F
331
14A
  5
152
331
15B
  5
143
331
C2
  5
19F
331
E4
  5
1BB
331
19F
  5
149
331
146
  5
14E
331
157
  5
EE
331
1BD
  5
1AE
331
168
  5
147
331
1A8
  5
E5
331
1B9
  5
1A7
331
ED
  5
1C4
331
153
  5
19E
331
1A4
  5
C5
331
14F
  5
15F
331
3D
  5
3D
331
1A0
  5
14A
331
C3
  5
1A0
331
1B1
  5
1B9
331
E5
  5
1BC
331
14B
  5
153
331
1BE
  5
1AF
331
147
  5
14F
331
1A9
  5
E6
331
1BA
  5
1A8
331
EE
  5
1C5
331
143
  5
14B
331
1A5
  5
C7
331
150
  5
163
331
3E
  5
3E
331
C4
  5
1A1
331
1A1
  5
C2
331
E6
  5
1BD
331
14C
  5
156
331
1AE
  5
E8
331
148
  5
150
331
1BF
  5
1B0
331
1AA
  5
E7
331
144
  5
14C
331
1BB
  5
1A9
331
151
  5
167
331
1B7
  5
1A5
331
1A6
  5
E3
331
1C4
  5
1B7
331
14D
  5
157
331
C5
  5
1A2
331
E7
  5
1BE
331
1A2
  5
C3
331
19E
  5
148
331
1AF
  5
EC
331
149
  5
151
331
E3
  5
1BA
331
1C0
  5
1B1
331
145
  5
14D
331
156
  5
ED
331
167
  5
146
331
1BC
  5
1AA
331
152
  5
168
331
163
  5
145
331
EC
  5
1C0
331
1A7
  5
E4
331
1B8
  5
1A6
331
3C
  5
3C
331
15F
  5
144
331
14E
  5
15B
331
1C5
  5
1B8
331
1A3
  5
C4
331
E8
  5
1BF
  0
ACDBDETAILVIEWSTYLE
  5
1EB
102
{ACAD_REACTORS
330
1EA
102
}
330
1EA
100
AcDbModelDocViewStyle
 70
     0
  3
Imperial24
290
     0
300
Imperial24
 90
        0
100
AcDbDetailViewStyle
 70
     0
 71
     0
 90
        3
 71
     1
340
11
 62
   256
 40
0.24
340
0
 62
   256
 40
0.24
300

 40
0.36
280
     3
 71
     2
340
16
 90
       25
 62
   256
 71
     3
340
11
 62
   256
 40
0.24
 90
        1
 40
0.75
 90
        1
300
%<\AcVar ViewType \f "%tc1">% %<\AcVar ViewDetailId>%\PSCALE %<\AcVar ViewScale \f "%sn">%
 71
     4
340
16
 90
       25
 62
   256
340
16
 90
       25
 62
   256
280
     0
  0
LAYOUT
  5
1E
102
{ACAD_REACTORS
330
1A
102
}
330
1A
100
AcDbPlotSettings
  1

  2
none_device
  4

  6

 40
0.0
 41
0.0
 42
0.0
 43
0.0
 44
0.0
 45
0.0
 46
0.0
 47
0.0
 48
0.0
 49
0.0
140
0.0
141
0.0
142
1.0
143
1.0
 70
   688
 72
     0
 73
     0
 74
     5
  7

 75
    16
147
1.0
 76
     0
 77
     2
 78
   300
148
0.0
149
0.0
100
AcDbLayout
  1
Layout1
 70
     1
 71
     1
 10
0.0
 20
0.0
 11
12.0
 21
9.0
 12
0.0
 22
0.0
 32
0.0
 14
1.000000000000000E+20
 24
1.000000000000000E+20
 34
1.000000000000000E+20
 15
-1.000000000000000E+20
 25
-1.000000000000000E+20
 35
-1.000000000000000E+20
146
0.0
 13
0.0
 23
0.0
 33
0.0
 16
1.0
 26
0.0
 36
0.0
 17
0.0
 27
1.0
 37
0.0
 76
     0
330
1B
  0
LAYOUT
  5
26
102
{ACAD_REACTORS
330
1A
102
}
330
1A
100
AcDbPlotSettings
  1

  2
none_device
  4

  6

 40
0.0
 41
0.0
 42
0.0
 43
0.0
 44
0.0
 45
0.0
 46
0.0
 47
0.0
 48
0.0
 49
0.0
140
0.0
141
0.0
142
1.0
143
1.0
 70
   688
 72
     0
 73
     0
 74
     5
  7

 75
    16
147
1.0
 76
     0
 77
     2
 78
   300
148
0.0
149
0.0
100
AcDbLayout
  1
Layout2
 70
     1
 71
     2
 10
0.0
 20
0.0
 11
0.0
 21
0.0
 12
0.0
 22
0.0
 32
0.0
 14
0.0
 24
0.0
 34
0.0
 15
0.0
 25
0.0
 35
0.0
146
0.0
 13
0.0
 23
0.0
 33
0.0
 16
1.0
 26
0.0
 36
0.0
 17
0.0
 27
1.0
 37
0.0
 76
     0
330
23
  0
LAYOUT
  5
22
102
{ACAD_XDICTIONARY
360
1D6
102
}
102
{ACAD_REACTORS
330
1A
102
}
330
1A
100
AcDbPlotSettings
  1

  2
none_device
  4

  6

 40
0.0
 41
0.0
 42
0.0
 43
0.0
 44
0.0
 45
0.0
 46
0.0
 47
0.0
 48
0.0
 49
0.0
140
0.0
141
0.0
142
1.0
143
1.0
 70
  1712
 72
     0
 73
     0
 74
     0
  7

 75
     0
147
1.0
 76
     0
 77
     2
 78
   300
148
0.0
149
0.0
100
AcDbLayout
  1
Model
 70
     1
 71
     0
 10
0.0
 20
0.0
 11
12.0
 21
9.0
 12
0.0
 22
0.0
 32
0.0
 14
1.000000000000000E+20
 24
1.000000000000000E+20
 34
1.000000000000000E+20
 15
-1.000000000000000E+20
 25
-1.000000000000000E+20
 35
-1.000000000000000E+20
146
0.0
 13
0.0
 23
0.0
 33
0.0
 16
1.0
 26
0.0
 36
0.0
 17
0.0
 27
1.0
 37
0.0
 76
     0
330
1F
331
29
  0
MATERIAL
  5
103
102
{ACAD_XDICTIONARY
360
104
102
}
102
{ACAD_REACTORS
330
FA
102
}
330
FA
100
AcDbMaterial
  1
ByBlock
 72
     0
 43
0.0208333333333333
 43
0.0
 43
0.0
 43
0.0
 43
0.0
 43
0.0208333333333333
 43
0.0
 43
0.0
 43
0.0
 43
0.0
 43
1.0
 43
0.0
 43
0.0
 43
0.0
 43
0.0
 43
1.0
 77
     0
 47
0.0208333333333333
 47
0.0
 47
0.0
 47
0.0
 47
0.0
 47
0.0208333333333333
 47
0.0
 47
0.0
 47
0.0
 47
0.0
 47
1.0
 47
0.0
 47
0.0
 47
0.0
 47
0.0
 47
1.0
171
     0
 49
0.0208333333333333
 49
0.0
 49
0.0
 49
0.0
 49
0.0
 49
0.0208333333333333
 49
0.0
 49
0.0
 49
0.0
 49
0.0
 49
1.0
 49
0.0
 49
0.0
 49
0.0
 49
0.0
 49
1.0
175
     0
142
0.0208333333333333
142
0.0
142
0.0
142
0.0
142
0.0
142
0.0208333333333333
142
0.0
142
0.0
142
0.0
142
0.0
142
1.0
142
0.0
142
0.0
142
0.0
142
0.0
142
1.0
179
     0
144
0.0208333333333333
144
0.0
144
0.0
144
0.0
144
0.0
144
0.0208333333333333
144
0.0
144
0.0
144
0.0
144
0.0
144
1.0
144
0.0
144
0.0
144
0.0
144
0.0
144
1.0
147
0.0208333333333333
147
0.0
147
0.0
147
0.0
147
0.0
147
0.0208333333333333
147
0.0
147
0.0
147
0.0
147
0.0
147
1.0
147
0.0
147
0.0
147
0.0
147
0.0
147
1.0
  0
MATERIAL
  5
FB
102
{ACAD_XDICTIONARY
360
FC
102
}
102
{ACAD_REACTORS
330
FA
102
}
330
FA
100
AcDbMaterial
  1
ByLayer
 72
     0
 43
0.0208333333333333
 43
0.0
 43
0.0
 43
0.0
 43
0.0
 43
0.0208333333333333
 43
0.0
 43
0.0
 43
0.0
 43
0.0
 43
1.0
 43
0.0
 43
0.0
 43
0.0
 43
0.0
 43
1.0
 77
     0
 47
0.0208333333333333
 47
0.0
 47
0.0
 47
0.0
 47
0.0
 47
0.0208333333333333
 47
0.0
 47
0.0
 47
0.0
 47
0.0
 47
1.0
 47
0.0
 47
0.0
 47
0.0
 47
0.0
 47
1.0
171
     0
 49
0.0208333333333333
 49
0.0
 49
0.0
 49
0.0
 49
0.0
 49
0.0208333333333333
 49
0.0
 49
0.0
 49
0.0
 49
0.0
 49
1.0
 49
0.0
 49
0.0
 49
0.0
 49
0.0
 49
1.0
175
     0
142
0.0208333333333333
142
0.0
142
0.0
142
0.0
142
0.0
142
0.0208333333333333
142
0.0
142
0.0
142
0.0
142
0.0
142
1.0
142
0.0
142
0.0
142
0.0
142
0.0
142
1.0
179
     0
144
0.0208333333333333
144
0.0
144
0.0
144
0.0
144
0.0
144
0.0208333333333333
144
0.0
144
0.0
144
0.0
144
0.0
144
1.0
144
0.0
144
0.0
144
0.0
144
0.0
144
1.0
147
0.0208333333333333
147
0.0
147
0.0
147
0.0
147
0.0
147
0.0208333333333333
147
0.0
147
0.0
147
0.0
147
0.0
147
1.0
147
0.0
147
0.0
147
0.0
147
0.0
147
1.0
  0
MATERIAL
  5
10B
102
{ACAD_XDICTIONARY
360
10C
102
}
102
{ACAD_REACTORS
330
FA
102
}
330
FA
100
AcDbMaterial
  1
Global
 72
     0
 43
0.0208333333333333
 43
0.0
 43
0.0
 43
0.0
 43
0.0
 43
0.0208333333333333
 43
0.0
 43
0.0
 43
0.0
 43
0.0
 43
1.0
 43
0.0
 43
0.0
 43
0.0
 43
0.0
 43
1.0
 77
     0
 47
0.0208333333333333
 47
0.0
 47
0.0
 47
0.0
 47
0.0
 47
0.0208333333333333
 47
0.0
 47
0.0
 47
0.0
 47
0.0
 47
1.0
 47
0.0
 47
0.0
 47
0.0
 47
0.0
 47
1.0
171
     0
 49
0.0208333333333333
 49
0.0
 49
0.0
 49
0.0
 49
0.0
 49
0.0208333333333333
 49
0.0
 49
0.0
 49
0.0
 49
0.0
 49
1.0
 49
0.0
 49
0.0
 49
0.0
 49
0.0
 49
1.0
175
     0
142
0.0208333333333333
142
0.0
142
0.0
142
0.0
142
0.0
142
0.0208333333333333
142
0.0
142
0.0
142
0.0
142
0.0
142
1.0
142
0.0
142
0.0
142
0.0
142
0.0
142
1.0
179
     0
144
0.0208333333333333
144
0.0
144
0.0
144
0.0
144
0.0
144
0.0208333333333333
144
0.0
144
0.0
144
0.0
144
0.0
144
1.0
144
0.0
144
0.0
144
0.0
144
0.0
144
1.0
147
0.0208333333333333
147
0.0
147
0.0
147
0.0
147
0.0
147
0.0208333333333333
147
0.0
147
0.0
147
0.0
147
0.0
147
1.0
147
0.0
147
0.0
147
0.0
147
0.0
147
1.0
  0
MLEADERSTYLE
  5
13B
102
{ACAD_REACTORS
330
13A
102
}
330
13A
100
AcDbMLeaderStyle
179
     2
170
     2
171
     1
172
     0
 90
        2
 40
0.0
 41
0.0
173
     1
 91
-1056964608
340
14
 92
       -2
290
     1
 42
0.09
291
     1
 43
0.36
  3
Standard
 44
0.18
300

342
11
174
     1
178
     6
175
     1
176
     0
 93
-1056964608
 45
0.18
292
     0
297
     0
 46
0.18
 94
-1056964608
 47
1.0
 49
1.0
140
1.0
293
     1
141
0.0
294
     1
177
     0
142
1.0
295
     0
296
     0
143
0.125
271
     0
272
     9
273
     9
298
     0
  0
MLINESTYLE
  5
18
102
{ACAD_REACTORS
330
17
102
}
330
17
100
AcDbMlineStyle
  2
STANDARD
 70
     0
  3

 62
   256
 51
90.0
 52
90.0
 71
     2
 49
0.5
 62
   256
  6
BYLAYER
 49
-0.5
 62
   256
  6
BYLAYER
  0
ACDBPLACEHOLDER
  5
F
102
{ACAD_REACTORS
330
E
102
}
330
E
  0
SCALE
  5
119
102
{ACAD_REACTORS
330
118
102
}
330
118
100
AcDbScale
 70
     0
300
1:1
140
1.0
141
1.0
290
     1
  0
SCALE
  5
11A
102
{ACAD_REACTORS
330
118
102
}
330
118
100
AcDbScale
 70
     0
300
1:2
140
1.0
141
2.0
290
     0
  0
SCALE
  5
11B
102
{ACAD_REACTORS
330
118
102
}
330
118
100
AcDbScale
 70
     0
300
1:4
140
1.0
141
4.0
290
     0
  0
SCALE
  5
11C
102
{ACAD_REACTORS
330
118
102
}
330
118
100
AcDbScale
 70
     0
300
1:5
140
1.0
141
5.0
290
     0
  0
SCALE
  5
11D
102
{ACAD_REACTORS
330
118
102
}
330
118
100
AcDbScale
 70
     0
300
1:8
140
1.0
141
8.0
290
     0
  0
SCALE
  5
11E
102
{ACAD_REACTORS
330
118
102
}
330
118
100
AcDbScale
 70
     0
300
1:10
140
1.0
141
10.0
290
     0
  0
SCALE
  5
11F
102
{ACAD_REACTORS
330
118
102
}
330
118
100
AcDbScale
 70
     0
300
1:16
140
1.0
141
16.0
290
     0
  0
SCALE
  5
120
102
{ACAD_REACTORS
330
118
102
}
330
118
100
AcDbScale
 70
     0
300
1:20
140
1.0
141
20.0
290
     0
  0
SCALE
  5
121
102
{ACAD_REACTORS
330
118
102
}
330
118
100
AcDbScale
 70
     0
300
1:30
140
1.0
141
30.0
290
     0
  0
SCALE
  5
122
102
{ACAD_REACTORS
330
118
102
}
330
118
100
AcDbScale
 70
     0
300
1:40
140
1.0
141
40.0
290
     0
  0
SCALE
  5
123
102
{ACAD_REACTORS
330
118
102
}
330
118
100
AcDbScale
 70
     0
300
1:50
140
1.0
141
50.0
290
     0
  0
SCALE
  5
124
102
{ACAD_REACTORS
330
118
102
}
330
118
100
AcDbScale
 70
     0
300
1:100
140
1.0
141
100.0
290
     0
  0
SCALE
  5
125
102
{ACAD_REACTORS
330
118
102
}
330
118
100
AcDbScale
 70
     0
300
2:1
140
2.0
141
1.0
290
     0
  0
SCALE
  5
126
102
{ACAD_REACTORS
330
118
102
}
330
118
100
AcDbScale
 70
     0
300
4:1
140
4.0
141
1.0
290
     0
  0
SCALE
  5
127
102
{ACAD_REACTORS
330
118
102
}
330
118
100
AcDbScale
 70
     0
300
8:1
140
8.0
141
1.0
290
     0
  0
SCALE
  5
128
102
{ACAD_REACTORS
330
118
102
}
330
118
100
AcDbScale
 70
     0
300
10:1
140
10.0
141
1.0
290
     0
  0
SCALE
  5
129
102
{ACAD_REACTORS
330
118
102
}
330
118
100
AcDbScale
 70
     0
300
100:1
140
100.0
141
1.0
290
     0
  0
SCALE
  5
12A
102
{ACAD_REACTORS
330
118
102
}
330
118
100
AcDbScale
 70
     0
300
1/128" = 1'-0"
140
0.0078125
141
12.0
290
     0
  0
SCALE
  5
12B
102
{ACAD_REACTORS
330
118
102
}
330
118
100
AcDbScale
 70
     0
300
1/64" = 1'-0"
140
0.015625
141
12.0
290
     0
  0
SCALE
  5
12C
102
{ACAD_REACTORS
330
118
102
}
330
118
100
AcDbScale
 70
     0
300
1/32" = 1'-0"
140
0.03125
141
12.0
290
     0
  0
SCALE
  5
12D
102
{ACAD_REACTORS
330
118
102
}
330
118
100
AcDbScale
 70
     0
300
1/16" = 1'-0"
140
0.0625
141
12.0
290
     0
  0
SCALE
  5
12E
102
{ACAD_REACTORS
330
118
102
}
330
118
100
AcDbScale
 70
     0
300
3/32" = 1'-0"
140
0.09375
141
12.0
290
     0
  0
SCALE
  5
12F
102
{ACAD_REACTORS
330
118
102
}
330
118
100
AcDbScale
 70
     0
300
1/8" = 1'-0"
140
0.125
141
12.0
290
     0
  0
SCALE
  5
130
102
{ACAD_REACTORS
330
118
102
}
330
118
100
AcDbScale
 70
     0
300
3/16" = 1'-0"
140
0.1875
141
12.0
290
     0
  0
SCALE
  5
131
102
{ACAD_REACTORS
330
118
102
}
330
118
100
AcDbScale
 70
     0
300
1/4" = 1'-0"
140
0.25
141
12.0
290
     0
  0
SCALE
  5
132
102
{ACAD_REACTORS
330
118
102
}
330
118
100
AcDbScale
 70
     0
300
3/8" = 1'-0"
140
0.375
141
12.0
290
     0
  0
SCALE
  5
133
102
{ACAD_REACTORS
330
118
102
}
330
118
100
AcDbScale
 70
     0
300
1/2" = 1'-0"
140
0.5
141
12.0
290
     0
  0
SCALE
  5
134
102
{ACAD_REACTORS
330
118
102
}
330
118
100
AcDbScale
 70
     0
300
3/4" = 1'-0"
140
0.75
141
12.0
290
     0
  0
SCALE
  5
135
102
{ACAD_REACTORS
330
118
102
}
330
118
100
AcDbScale
 70
     0
300
1" = 1'-0"
140
1.0
141
12.0
290
     0
  0
SCALE
  5
136
102
{ACAD_REACTORS
330
118
102
}
330
118
100
AcDbScale
 70
     0
300
1-1/2" = 1'-0"
140
1.5
141
12.0
290
     0
  0
SCALE
  5
137
102
{ACAD_REACTORS
330
118
102
}
330
118
100
AcDbScale
 70
     0
300
3" = 1'-0"
140
3.0
141
12.0
290
     0
  0
SCALE
  5
138
102
{ACAD_REACTORS
330
118
102
}
330
118
100
AcDbScale
 70
     0
300
6" = 1'-0"
140
6.0
141
12.0
290
     0
  0
SCALE
  5
139
102
{ACAD_REACTORS
330
118
102
}
330
118
100
AcDbScale
 70
     0
300
1'-0" = 1'-0"
140
12.0
141
12.0
290
     0
  0
ACDBSECTIONVIEWSTYLE
  5
1E9
102
{ACAD_REACTORS
330
1E8
102
}
330
1E8
100
AcDbModelDocViewStyle
 70
     0
  3
Imperial24
290
     0
300
Imperial24
 90
        0
100
AcDbSectionViewStyle
 70
     0
 71
     0
 90
       78
 71
     1
340
11
 62
   256
 40
0.24
340
0
340
0
 62
   256
 40
0.24
300
I, O, Q, S, X, Z
 40
0.48
 90
        3
 40
0.18
 90
        1
 71
     2
340
16
 90
       25
 62
   256
340
16
 90
       50
 62
   256
 40
0.24
 40
0.0
 40
0.24
 71
     3
340
11
 62
   256
 40
0.24
 90
        1
 40
0.75
 90
        1
300
%<\AcVar ViewType \f "%tc1">% %<\AcVar ViewSectionStartId>%-%<\AcVar ViewSectionEndId>%\PSCALE %<\AcVar ViewScale \f "%sn">%
 71
     4
 62
   256
 62
   257
300
ANSI31
 40
1.0
 90
        0
290
     0
290
     0
 90
        6
 40
0.0
 40
1.570796326794896
 40
0.2617993877991494
 40
1.308996938995747
 40
-0.2617993877991494
 40
1.832595714594046
  0
TABLESTYLE
  5
117
102
{ACAD_XDICTIONARY
360
2A6
102
}
102
{ACAD_REACTORS
330
F8
102
}
330
F8
100
AcDbTableStyle
280
     0
  3
Standard
 70
     0
 71
     0
 40
0.06
 41
0.06
280
     0
281
     0
  7
Standard
140
0.18
170
     2
 62
     0
 63
     7
283
     0
 90
      512
 91
        0
  1

274
    -2
284
     1
 64
     0
275
    -2
285
     1
 65
     0
276
    -2
286
     1
 66
     0
277
    -2
287
     1
 67
     0
278
    -2
288
     1
 68
     0
279
    -2
289
     1
 69
     0
  7
Standard
140
0.25
170
     5
 62
     0
 63
     7
283
     0
 90
      512
 91
        0
  1

274
    -2
284
     1
 64
     0
275
    -2
285
     1
 65
     0
276
    -2
286
     1
 66
     0
277
    -2
287
     1
 67
     0
278
    -2
288
     1
 68
     0
279
    -2
289
     1
 69
     0
  7
Standard
140
0.18
170
     5
 62
     0
 63
     7
283
     0
 90
      512
 91
        0
  1

274
    -2
284
     1
 64
     0
275
    -2
285
     1
 65
     0
276
    -2
286
     1
 66
     0
277
    -2
287
     1
 67
     0
278
    -2
288
     1
 68
     0
279
    -2
289
     1
 69
     0
  0
VISUALSTYLE
  5
2F
102
{ACAD_REACTORS
330
2A
102
}
330
2A
100
AcDbVisualStyle
  2
2dWireframe
 70
     4
177
     3
291
     0
 70
    58
 90
        0
176
     1
 90
        2
176
     1
 90
        0
176
     1
 90
        0
176
     1
 40
0.6
176
     1
 40
30.0
176
     1
 62
     7
176
     1
 90
        1
176
     1
 90
        4
176
     1
 62
     7
176
     1
 62
   257
176
     1
 90
        1
176
     1
 90
        1
176
     1
 40
1.0
176
     1
 90
        0
176
     1
 62
   257
176
     1
 40
1.0
176
     1
 90
        1
176
     1
 90
        6
176
     1
 90
        2
176
     1
 62
     7
176
     1
 90
        5
176
     1
 90
        0
176
     1
 90
        0
176
     1
290
     0
176
     1
 90
        1
176
     1
 40
0.0
176
     1
 90
        0
176
     1
290
     1
176
     1
290
     1
176
     1
290
     0
176
     1
290
     0
176
     1
290
     0
176
     1
290
     0
176
     1
290
     0
176
     1
290
     0
176
     1
290
     0
176
     1
 90
       50
176
     1
 40
0.0
176
     1
 40
1.0
176
     1
 90
        0
176
     1
 62
    18
420
        0
176
     1
 90
       50
176
     1
 90
        3
176
     1
 62
     5
420
      255
176
     1
290
     0
176
     1
 90
       50
176
     1
 90
       50
176
     1
 90
       50
176
     1
290
     0
176
     1
 90
       50
176
     1
 62
   256
176
     0
 40
1.0
176
     0
 90
        2
176
     1
  1
strokes_ogs.tif
176
     1
290
     0
176
     1
 40
1.0
176
     1
 40
1.0
176
     1
  0
VISUALSTYLE
  5
31
102
{ACAD_REACTORS
330
2A
102
}
330
2A
100
AcDbVisualStyle
  2
3D Hidden
 70
     6
177
     3
291
     0
 70
    58
 90
        1
176
     1
 90
        2
176
     1
 90
        2
176
     1
 90
        0
176
     1
 40
0.6
176
     1
 40
30.0
176
     1
 62
     7
176
     1
 90
        2
176
     1
 90
        2
176
     1
 62
     7
176
     1
 62
   257
176
     1
 90
        2
176
     1
 90
        1
176
     1
 40
40.0
176
     1
 90
        0
176
     1
 62
   257
176
     1
 40
1.0
176
     1
 90
        1
176
     1
 90
        6
176
     1
 90
        2
176
     1
 62
     7
176
     1
 90
        3
176
     1
 90
        0
176
     1
 90
        0
176
     1
290
     0
176
     1
 90
        1
176
     1
 40
0.0
176
     1
 90
        0
176
     1
290
     0
176
     1
290
     1
176
     1
290
     1
176
     1
290
     0
176
     1
290
     0
176
     1
290
     0
176
     1
290
     0
176
     1
290
     0
176
     1
290
     0
176
     1
 90
       50
176
     1
 40
0.0
176
     1
 40
1.0
176
     1
 90
        0
176
     1
 62
    18
420
        0
176
     1
 90
       50
176
     1
 90
        3
176
     1
 62
     5
420
      255
176
     1
290
     0
176
     1
 90
       50
176
     1
 90
       50
176
     1
 90
       50
176
     1
290
     0
176
     1
 90
       50
176
     1
 62
   256
176
     0
 40
1.0
176
     0
 90
        2
176
     1
  1
strokes_ogs.tif
176
     1
290
     0
176
     1
 40
1.0
176
     1
 40
1.0
176
     1
  0
VISUALSTYLE
  5
30
102
{ACAD_REACTORS
330
2A
102
}
330
2A
100
AcDbVisualStyle
  2
3dWireframe
 70
     5
177
     3
291
     0
 70
    58
 90
        0
176
     1
 90
        2
176
     1
 90
        0
176
     1
 90
        0
176
     1
 40
0.6
176
     1
 40
30.0
176
     1
 62
     7
176
     1
 90
        1
176
     1
 90
        4
176
     1
 62
     7
176
     1
 62
   257
176
     1
 90
        1
176
     1
 90
        1
176
     1
 40
1.0
176
     1
 90
        0
176
     1
 62
   257
176
     1
 40
1.0
176
     1
 90
        1
176
     1
 90
        6
176
     1
 90
        2
176
     1
 62
     7
176
     1
 90
        5
176
     1
 90
        0
176
     1
 90
        0
176
     1
290
     0
176
     1
 90
        1
176
     1
 40
0.0
176
     1
 90
        0
176
     1
290
     0
176
     1
290
     1
176
     1
290
     1
176
     1
290
     0
176
     1
290
     0
176
     1
290
     0
176
     1
290
     0
176
     1
290
     0
176
     1
290
     0
176
     1
 90
       50
176
     1
 40
0.0
176
     1
 40
1.0
176
     1
 90
        0
176
     1
 62
    18
420
        0
176
     1
 90
       50
176
     1
 90
        3
176
     1
 62
     5
420
      255
176
     1
290
     0
176
     1
 90
       50
176
     1
 90
       50
176
     1
 90
       50
176
     1
290
     0
176
     1
 90
       50
176
     1
 62
   256
176
     0
 40
1.0
176
     0
 90
        2
176
     1
  1
strokes_ogs.tif
176
     1
290
     0
176
     1
 40
1.0
176
     1
 40
1.0
176
     1
  0
VISUALSTYLE
  5
32
102
{ACAD_REACTORS
330
2A
102
}
330
2A
100
AcDbVisualStyle
  2
Basic
 70
     7
177
     3
291
     1
 70
    58
 90
        1
176
     1
 90
        0
176
     1
 90
        1
176
     1
 90
        0
176
     1
 40
0.6
176
     1
 40
30.0
176
     1
 62
     7
176
     1
 90
        0
176
     1
 90
        4
176
     1
 62
     7
176
     1
 62
   257
176
     1
 90
        1
176
     1
 90
        1
176
     1
 40
1.0
176
     1
 90
        8
176
     1
 62
     7
176
     1
 40
1.0
176
     1
 90
        1
176
     1
 90
        6
176
     1
 90
        2
176
     1
 62
     7
176
     1
 90
        5
176
     1
 90
        0
176
     1
 90
        0
176
     1
290
     0
176
     1
 90
        1
176
     1
 40
0.0
176
     1
 90
        0
176
     1
290
     0
176
     1
290
     1
176
     1
290
     1
176
     1
290
     0
176
     1
290
     0
176
     1
290
     0
176
     1
290
     0
176
     1
290
     0
176
     1
290
     0
176
     1
 90
       50
176
     1
 40
0.0
176
     1
 40
1.0
176
     1
 90
        0
176
     1
 62
    18
420
        0
176
     1
 90
       50
176
     1
 90
        3
176
     1
 62
     5
420
      255
176
     1
290
     0
176
     1
 90
       50
176
     1
 90
       50
176
     1
 90
       50
176
     1
290
     0
176
     1
 90
       50
176
     1
 62
   256
176
     0
 40
1.0
176
     0
 90
        2
176
     1
  1
strokes_ogs.tif
176
     1
290
     0
176
     1
 40
1.0
176
     1
 40
1.0
176
     1
  0
VISUALSTYLE
  5
36
102
{ACAD_REACTORS
330
2A
102
}
330
2A
100
AcDbVisualStyle
  2
Brighten
 70
    12
177
     3
291
     1
 70
    58
 90
        2
176
     1
 90
        2
176
     1
 90
        0
176
     1
 90
        0
176
     1
 40
0.6
176
     1
 40
30.0
176
     1
 62
     7
176
     1
 90
        1
176
     1
 90
        4
176
     1
 62
     7
176
     1
 62
   257
176
     1
 90
        1
176
     1
 90
        1
176
     1
 40
1.0
176
     1
 90
        8
176
     1
 62
     7
176
     1
 40
1.0
176
     1
 90
        1
176
     1
 90
        6
176
     1
 90
        2
176
     1
 62
     7
176
     1
 90
        5
176
     1
 90
        0
176
     1
 90
        0
176
     1
290
     0
176
     1
 90
        1
176
     1
 40
50.0
176
     1
 90
        0
176
     1
290
     0
176
     1
290
     1
176
     1
290
     1
176
     1
290
     0
176
     1
290
     0
176
     1
290
     0
176
     1
290
     0
176
     1
290
     0
176
     1
290
     0
176
     1
 90
       50
176
     1
 40
0.0
176
     1
 40
1.0
176
     1
 90
        0
176
     1
 62
    18
420
        0
176
     1
 90
       50
176
     1
 90
        3
176
     1
 62
     5
420
      255
176
     1
290
     0
176
     1
 90
       50
176
     1
 90
       50
176
     1
 90
       50
176
     1
290
     0
176
     1
 90
       50
176
     1
 62
   256
176
     0
 40
1.0
176
     0
 90
        2
176
     1
  1
strokes_ogs.tif
176
     1
290
     0
176
     1
 40
1.0
176
     1
 40
1.0
176
     1
  0
VISUALSTYLE
  5
3A
102
{ACAD_REACTORS
330
2A
102
}
330
2A
100
AcDbVisualStyle
  2
ColorChange
 70
    16
177
     3
291
     1
 70
    58
 90
        2
176
     1
 90
        2
176
     1
 90
        3
176
     1
 90
        0
176
     1
 40
0.6
176
     1
 40
30.0
176
     1
 62
     8
176
     1
 90
        1
176
     1
 90
        4
176
     1
 62
     7
176
     1
 62
   257
176
     1
 90
        1
176
     1
 90
        1
176
     1
 40
1.0
176
     1
 90
        8
176
     1
 62
     8
176
     1
 40
1.0
176
     1
 90
        1
176
     1
 90
        6
176
     1
 90
        2
176
     1
 62
     7
176
     1
 90
        5
176
     1
 90
        0
176
     1
 90
        0
176
     1
290
     0
176
     1
 90
        1
176
     1
 40
0.0
176
     1
 90
        0
176
     1
290
     0
176
     1
290
     1
176
     1
290
     1
176
     1
290
     0
176
     1
290
     0
176
     1
290
     0
176
     1
290
     0
176
     1
290
     0
176
     1
290
     0
176
     1
 90
       50
176
     1
 40
0.0
176
     1
 40
1.0
176
     1
 90
        0
176
     1
 62
    18
420
        0
176
     1
 90
       50
176
     1
 90
        3
176
     1
 62
     5
420
      255
176
     1
290
     0
176
     1
 90
       50
176
     1
 90
       50
176
     1
 90
       50
176
     1
290
     0
176
     1
 90
       50
176
     1
 62
   256
176
     0
 40
1.0
176
     0
 90
        2
176
     1
  1
strokes_ogs.tif
176
     1
290
     0
176
     1
 40
1.0
176
     1
 40
1.0
176
     1
  0
VISUALSTYLE
  5
34
102
{ACAD_REACTORS
330
2A
102
}
330
2A
100
AcDbVisualStyle
  2
Conceptual
 70
     9
177
     3
291
     0
 70
    58
 90
        3
176
     1
 90
        2
176
     1
 90
        0
176
     1
 90
        0
176
     1
 40
0.6
176
     1
 40
30.0
176
     1
 62
     7
176
     1
 90
        2
176
     1
 90
        2
176
     1
 62
     7
176
     1
 62
   257
176
     1
 90
        1
176
     1
 90
        1
176
     1
 40
40.0
176
     1
 90
        8
176
     1
 62
     7
176
     1
 40
1.0
176
     1
 90
        1
176
     1
 90
        6
176
     1
 90
        2
176
     1
 62
     7
176
     1
 90
        3
176
     1
 90
        0
176
     1
 90
        0
176
     1
290
     0
176
     1
 90
        1
176
     1
 40
0.0
176
     1
 90
        0
176
     1
290
     0
176
     1
290
     1
176
     1
290
     1
176
     1
290
     0
176
     1
290
     0
176
     1
290
     0
176
     1
290
     0
176
     1
290
     0
176
     1
290
     0
176
     1
 90
       50
176
     1
 40
0.0
176
     1
 40
1.0
176
     1
 90
        0
176
     1
 62
    18
420
        0
176
     1
 90
       50
176
     1
 90
        3
176
     1
 62
     5
420
      255
176
     1
290
     0
176
     1
 90
       50
176
     1
 90
       50
176
     1
 90
       50
176
     1
290
     0
176
     1
 90
       50
176
     1
 62
   256
176
     0
 40
1.0
176
     0
 90
        2
176
     1
  1
strokes_ogs.tif
176
     1
290
     0
176
     1
 40
1.0
176
     1
 40
1.0
176
     1
  0
VISUALSTYLE
  5
35
102
{ACAD_REACTORS
330
2A
102
}
330
2A
100
AcDbVisualStyle
  2
Dim
 70
    11
177
     3
291
     1
 70
    58
 90
        2
176
     1
 90
        2
176
     1
 90
        0
176
     1
 90
        0
176
     1
 40
0.6
176
     1
 40
30.0
176
     1
 62
     7
176
     1
 90
        1
176
     1
 90
        4
176
     1
 62
     7
176
     1
 62
   257
176
     1
 90
        1
176
     1
 90
        1
176
     1
 40
1.0
176
     1
 90
        8
176
     1
 62
     7
176
     1
 40
1.0
176
     1
 90
        1
176
     1
 90
        6
176
     1
 90
        2
176
     1
 62
     7
176
     1
 90
        5
176
     1
 90
        0
176
     1
 90
        0
176
     1
290
     0
176
     1
 90
        1
176
     1
 40
-50.0
176
     1
 90
        0
176
     1
290
     0
176
     1
290
     1
176
     1
290
     1
176
     1
290
     0
176
     1
290
     0
176
     1
290
     0
176
     1
290
     0
176
     1
290
     0
176
     1
290
     0
176
     1
 90
       50
176
     1
 40
0.0
176
     1
 40
1.0
176
     1
 90
        0
176
     1
 62
    18
420
        0
176
     1
 90
       50
176
     1
 90
        3
176
     1
 62
     5
420
      255
176
     1
290
     0
176
     1
 90
       50
176
     1
 90
       50
176
     1
 90
       50
176
     1
290
     0
176
     1
 90
       50
176
     1
 62
   256
176
     0
 40
1.0
176
     0
 90
        2
176
     1
  1
strokes_ogs.tif
176
     1
290
     0
176
     1
 40
1.0
176
     1
 40
1.0
176
     1
  0
VISUALSTYLE
  5
115
102
{ACAD_REACTORS
330
2A
102
}
330
2A
100
AcDbVisualStyle
  2
EdgeColorOff
 70
    22
177
     3
291
     1
 70
    58
 90
        2
176
     0
 90
        2
176
     0
 90
        0
176
     0
 90
        0
176
     0
 40
0.6
176
     0
 40
30.0
176
     0
 62
     7
420
 16777215
176
     0
 90
        1
176
     0
 90
        4
176
     0
 62
     7
176
     0
 62
   257
176
     0
 90
        1
176
     0
 90
        1
176
     0
 40
1.0
176
     0
 90
        8
176
     2
 62
     7
176
     0
 40
1.0
176
     0
 90
        1
176
     0
 90
        6
176
     0
 90
        2
176
     0
 62
     7
176
     0
 90
        5
176
     0
 90
        0
176
     0
 90
        0
176
     0
290
     0
176
     0
 90
        1
176
     0
 40
0.0
176
     0
 90
        0
176
     0
290
     0
176
     1
290
     1
176
     1
290
     1
176
     1
290
     0
176
     1
290
     0
176
     1
290
     0
176
     1
290
     0
176
     1
290
     0
176
     1
290
     0
176
     1
 90
       50
176
     1
 40
0.0
176
     1
 40
1.0
176
     1
 90
        0
176
     1
 62
    18
420
        0
176
     1
 90
       50
176
     1
 90
        3
176
     1
 62
     5
420
      255
176
     1
290
     0
176
     1
 90
       50
176
     1
 90
       50
176
     1
 90
       50
176
     1
290
     0
176
     1
 90
       50
176
     1
 62
   256
176
     0
 40
1.0
176
     0
 90
        2
176
     1
  1
strokes_ogs.tif
176
     1
290
     0
176
     1
 40
1.0
176
     1
 40
1.0
176
     1
  0
VISUALSTYLE
  5
39
102
{ACAD_REACTORS
330
2A
102
}
330
2A
100
AcDbVisualStyle
  2
Facepattern
 70
    15
177
     3
291
     1
 70
    58
 90
        2
176
     1
 90
        2
176
     1
 90
        0
176
     1
 90
        0
176
     1
 40
0.6
176
     1
 40
30.0
176
     1
 62
     7
176
     1
 90
        1
176
     1
 90
        4
176
     1
 62
     7
176
     1
 62
   257
176
     1
 90
        1
176
     1
 90
        1
176
     1
 40
1.0
176
     1
 90
        8
176
     1
 62
     7
176
     1
 40
1.0
176
     1
 90
        1
176
     1
 90
        6
176
     1
 90
        2
176
     1
 62
     7
176
     1
 90
        5
176
     1
 90
        0
176
     1
 90
        0
176
     1
290
     0
176
     1
 90
        1
176
     1
 40
0.0
176
     1
 90
        0
176
     1
290
     0
176
     1
290
     1
176
     1
290
     1
176
     1
290
     0
176
     1
290
     0
176
     1
290
     0
176
     1
290
     0
176
     1
290
     0
176
     1
290
     0
176
     1
 90
       50
176
     1
 40
0.0
176
     1
 40
1.0
176
     1
 90
        0
176
     1
 62
    18
420
        0
176
     1
 90
       50
176
     1
 90
        3
176
     1
 62
     5
420
      255
176
     1
290
     0
176
     1
 90
       50
176
     1
 90
       50
176
     1
 90
       50
176
     1
290
     0
176
     1
 90
       50
176
     1
 62
   256
176
     0
 40
1.0
176
     0
 90
        2
176
     1
  1
strokes_ogs.tif
176
     1
290
     0
176
     1
 40
1.0
176
     1
 40
1.0
176
     1
  0
VISUALSTYLE
  5
2B
102
{ACAD_REACTORS
330
2A
102
}
330
2A
100
AcDbVisualStyle
  2
Flat
 70
     0
177
     3
291
     1
 70
    58
 90
        2
176
     1
 90
        1
176
     1
 90
        1
176
     1
 90
        2
176
     1
 40
0.6
176
     1
 40
30.0
176
     1
 62
     7
176
     1
 90
        0
176
     1
 90
        4
176
     1
 62
     7
176
     1
 62
   257
176
     1
 90
        1
176
     1
 90
        1
176
     1
 40
1.0
176
     1
 90
        8
176
     1
 62
     7
176
     1
 40
1.0
176
     1
 90
        1
176
     1
 90
        6
176
     1
 90
        2
176
     1
 62
     7
176
     1
 90
        5
176
     1
 90
        0
176
     1
 90
        0
176
     1
290
     0
176
     1
 90
       13
176
     1
 40
0.0
176
     1
 90
        0
176
     1
290
     0
176
     1
290
     1
176
     1
290
     1
176
     1
290
     0
176
     1
290
     0
176
     1
290
     0
176
     1
290
     0
176
     1
290
     0
176
     1
290
     0
176
     1
 90
       50
176
     1
 40
0.0
176
     1
 40
1.0
176
     1
 90
        0
176
     1
 62
    18
420
        0
176
     1
 90
       50
176
     1
 90
        3
176
     1
 62
     5
420
      255
176
     1
290
     0
176
     1
 90
       50
176
     1
 90
       50
176
     1
 90
       50
176
     1
290
     0
176
     1
 90
       50
176
     1
 62
   256
176
     0
 40
1.0
176
     0
 90
        2
176
     1
  1
strokes_ogs.tif
176
     1
290
     0
176
     1
 40
1.0
176
     1
 40
1.0
176
     1
  0
VISUALSTYLE
  5
2C
102
{ACAD_REACTORS
330
2A
102
}
330
2A
100
AcDbVisualStyle
  2
FlatWithEdges
 70
     1
177
     3
291
     1
 70
    58
 90
        2
176
     1
 90
        1
176
     1
 90
        1
176
     1
 90
        2
176
     1
 40
0.6
176
     1
 40
30.0
176
     1
 62
     7
176
     1
 90
        1
176
     1
 90
        4
176
     1
 62
     7
176
     1
 62
   257
176
     1
 90
        1
176
     1
 90
        1
176
     1
 40
1.0
176
     1
 90
        0
176
     1
 62
   257
176
     1
 40
1.0
176
     1
 90
        1
176
     1
 90
        6
176
     1
 90
        2
176
     1
 62
     7
176
     1
 90
        5
176
     1
 90
        0
176
     1
 90
        0
176
     1
290
     0
176
     1
 90
       13
176
     1
 40
0.0
176
     1
 90
        0
176
     1
290
     0
176
     1
290
     1
176
     1
290
     1
176
     1
290
     0
176
     1
290
     0
176
     1
290
     0
176
     1
290
     0
176
     1
290
     0
176
     1
290
     0
176
     1
 90
       50
176
     1
 40
0.0
176
     1
 40
1.0
176
     1
 90
        0
176
     1
 62
    18
420
        0
176
     1
 90
       50
176
     1
 90
        3
176
     1
 62
     5
420
      255
176
     1
290
     0
176
     1
 90
       50
176
     1
 90
       50
176
     1
 90
       50
176
     1
290
     0
176
     1
 90
       50
176
     1
 62
   256
176
     0
 40
1.0
176
     0
 90
        2
176
     1
  1
strokes_ogs.tif
176
     1
290
     0
176
     1
 40
1.0
176
     1
 40
1.0
176
     1
  0
VISUALSTYLE
  5
2D
102
{ACAD_REACTORS
330
2A
102
}
330
2A
100
AcDbVisualStyle
  2
Gouraud
 70
     2
177
     3
291
     1
 70
    58
 90
        2
176
     1
 90
        2
176
     1
 90
        1
176
     1
 90
        2
176
     1
 40
0.6
176
     1
 40
30.0
176
     1
 62
     7
176
     1
 90
        0
176
     1
 90
        4
176
     1
 62
     7
176
     1
 62
   257
176
     1
 90
        1
176
     1
 90
        1
176
     1
 40
1.0
176
     1
 90
        0
176
     1
 62
     7
176
     1
 40
1.0
176
     1
 90
        1
176
     1
 90
        6
176
     1
 90
        2
176
     1
 62
     7
176
     1
 90
        5
176
     1
 90
        0
176
     1
 90
        0
176
     1
290
     0
176
     1
 90
       13
176
     1
 40
0.0
176
     1
 90
        0
176
     1
290
     0
176
     1
290
     1
176
     1
290
     1
176
     1
290
     0
176
     1
290
     0
176
     1
290
     0
176
     1
290
     0
176
     1
290
     0
176
     1
290
     0
176
     1
 90
       50
176
     1
 40
0.0
176
     1
 40
1.0
176
     1
 90
        0
176
     1
 62
    18
420
        0
176
     1
 90
       50
176
     1
 90
        3
176
     1
 62
     5
420
      255
176
     1
290
     0
176
     1
 90
       50
176
     1
 90
       50
176
     1
 90
       50
176
     1
290
     0
176
     1
 90
       50
176
     1
 62
   256
176
     0
 40
1.0
176
     0
 90
        2
176
     1
  1
strokes_ogs.tif
176
     1
290
     0
176
     1
 40
1.0
176
     1
 40
1.0
176
     1
  0
VISUALSTYLE
  5
2E
102
{ACAD_REACTORS
330
2A
102
}
330
2A
100
AcDbVisualStyle
  2
GouraudWithEdges
 70
     3
177
     3
291
     1
 70
    58
 90
        2
176
     1
 90
        2
176
     1
 90
        1
176
     1
 90
        2
176
     1
 40
0.6
176
     1
 40
30.0
176
     1
 62
     7
176
     1
 90
        1
176
     1
 90
        4
176
     1
 62
     7
176
     1
 62
   257
176
     1
 90
        1
176
     1
 90
        1
176
     1
 40
1.0
176
     1
 90
        0
176
     1
 62
   257
176
     1
 40
1.0
176
     1
 90
        1
176
     1
 90
        6
176
     1
 90
        2
176
     1
 62
     7
176
     1
 90
        5
176
     1
 90
        0
176
     1
 90
        0
176
     1
290
     0
176
     1
 90
       13
176
     1
 40
0.0
176
     1
 90
        0
176
     1
290
     0
176
     1
290
     1
176
     1
290
     1
176
     1
290
     0
176
     1
290
     0
176
     1
290
     0
176
     1
290
     0
176
     1
290
     0
176
     1
290
     0
176
     1
 90
       50
176
     1
 40
0.0
176
     1
 40
1.0
176
     1
 90
        0
176
     1
 62
    18
420
        0
176
     1
 90
       50
176
     1
 90
        3
176
     1
 62
     5
420
      255
176
     1
290
     0
176
     1
 90
       50
176
     1
 90
       50
176
     1
 90
       50
176
     1
290
     0
176
     1
 90
       50
176
     1
 62
   256
176
     0
 40
1.0
176
     0
 90
        2
176
     1
  1
strokes_ogs.tif
176
     1
290
     0
176
     1
 40
1.0
176
     1
 40
1.0
176
     1
  0
VISUALSTYLE
  5
1E2
102
{ACAD_REACTORS
330
2A
102
}
330
2A
100
AcDbVisualStyle
  2
Hidden
 70
     6
177
     3
291
     0
 70
    58
 90
        1
176
     1
 90
        2
176
     1
 90
        2
176
     1
 90
        0
176
     1
 40
0.6
176
     1
 40
30.0
176
     1
 62
     7
420
 16777215
176
     1
 90
        2
176
     1
 90
        2
176
     1
 62
     7
176
     1
 62
   257
176
     1
 90
        2
176
     1
 90
        1
176
     1
 40
40.0
176
     1
 90
        0
176
     1
 62
   257
176
     1
 40
1.0
176
     1
 90
        1
176
     1
 90
        6
176
     1
 90
        2
176
     1
 62
     7
176
     1
 90
        3
176
     1
 90
        0
176
     1
 90
        0
176
     1
290
     0
176
     1
 90
        1
176
     1
 40
0.0
176
     1
 90
        0
176
     1
290
     0
176
     1
290
     1
176
     1
290
     1
176
     1
290
     0
176
     1
290
     0
176
     1
290
     0
176
     1
290
     0
176
     1
290
     0
176
     1
290
     0
176
     1
 90
       50
176
     1
 40
0.0
176
     1
 40
1.0
176
     1
 90
        0
176
     1
 62
    18
420
        0
176
     1
 90
       50
176
     1
 90
        3
176
     1
 62
     5
420
      255
176
     1
290
     0
176
     1
 90
       50
176
     1
 90
       50
176
     1
 90
       50
176
     1
290
     0
176
     1
 90
       50
176
     1
 62
   256
176
     0
 40
1.0
176
     0
 90
        2
176
     1
  1
strokes_ogs.tif
176
     1
290
     0
176
     1
 40
1.0
176
     1
 40
1.0
176
     1
  0
VISUALSTYLE
  5
113
102
{ACAD_REACTORS
330
2A
102
}
330
2A
100
AcDbVisualStyle
  2
JitterOff
 70
    20
177
     3
291
     1
 70
    58
 90
        2
176
     0
 90
        2
176
     0
 90
        0
176
     0
 90
        0
176
     0
 40
0.6
176
     0
 40
30.0
176
     0
 62
     7
420
 16777215
176
     0
 90
        1
176
     0
 90
        4
176
     0
 62
     7
176
     0
 62
   257
176
     0
 90
        1
176
     0
 90
        1
176
     0
 40
1.0
176
     0
 90
       10
176
     2
 62
     7
176
     0
 40
1.0
176
     0
 90
        1
176
     0
 90
        6
176
     0
 90
        2
176
     0
 62
     7
176
     0
 90
        5
176
     0
 90
        0
176
     0
 90
        0
176
     0
290
     0
176
     0
 90
        1
176
     0
 40
0.0
176
     0
 90
        0
176
     0
290
     0
176
     1
290
     1
176
     1
290
     1
176
     1
290
     0
176
     1
290
     0
176
     1
290
     0
176
     1
290
     0
176
     1
290
     0
176
     1
290
     0
176
     1
 90
       50
176
     1
 40
0.0
176
     1
 40
1.0
176
     1
 90
        0
176
     1
 62
    18
420
        0
176
     1
 90
       50
176
     1
 90
        3
176
     1
 62
     5
420
      255
176
     1
290
     0
176
     1
 90
       50
176
     1
 90
       50
176
     1
 90
       50
176
     1
290
     0
176
     1
 90
       50
176
     1
 62
   256
176
     0
 40
1.0
176
     0
 90
        2
176
     1
  1
strokes_ogs.tif
176
     1
290
     0
176
     1
 40
1.0
176
     1
 40
1.0
176
     1
  0
VISUALSTYLE
  5
38
102
{ACAD_REACTORS
330
2A
102
}
330
2A
100
AcDbVisualStyle
  2
Linepattern
 70
    14
177
     3
291
     1
 70
    58
 90
        2
176
     1
 90
        2
176
     1
 90
        0
176
     1
 90
        0
176
     1
 40
0.6
176
     1
 40
30.0
176
     1
 62
     7
176
     1
 90
        1
176
     1
 90
        4
176
     1
 62
     7
176
     1
 62
   257
176
     1
 90
        7
176
     1
 90
        7
176
     1
 40
1.0
176
     1
 90
        8
176
     1
 62
     7
176
     1
 40
1.0
176
     1
 90
        1
176
     1
 90
        6
176
     1
 90
        2
176
     1
 62
     7
176
     1
 90
        5
176
     1
 90
        0
176
     1
 90
        0
176
     1
290
     0
176
     1
 90
        1
176
     1
 40
0.0
176
     1
 90
        0
176
     1
290
     0
176
     1
290
     1
176
     1
290
     1
176
     1
290
     0
176
     1
290
     0
176
     1
290
     0
176
     1
290
     0
176
     1
290
     0
176
     1
290
     0
176
     1
 90
       50
176
     1
 40
0.0
176
     1
 40
1.0
176
     1
 90
        0
176
     1
 62
    18
420
        0
176
     1
 90
       50
176
     1
 90
        3
176
     1
 62
     5
420
      255
176
     1
290
     0
176
     1
 90
       50
176
     1
 90
       50
176
     1
 90
       50
176
     1
290
     0
176
     1
 90
       50
176
     1
 62
   256
176
     0
 40
1.0
176
     0
 90
        2
176
     1
  1
strokes_ogs.tif
176
     1
290
     0
176
     1
 40
1.0
176
     1
 40
1.0
176
     1
  0
VISUALSTYLE
  5
114
102
{ACAD_REACTORS
330
2A
102
}
330
2A
100
AcDbVisualStyle
  2
OverhangOff
 70
    21
177
     3
291
     1
 70
    58
 90
        2
176
     0
 90
        2
176
     0
 90
        0
176
     0
 90
        0
176
     0
 40
0.6
176
     0
 40
30.0
176
     0
 62
     7
420
 16777215
176
     0
 90
        1
176
     0
 90
        4
176
     0
 62
     7
176
     0
 62
   257
176
     0
 90
        1
176
     0
 90
        1
176
     0
 40
1.0
176
     0
 90
        9
176
     2
 62
     7
176
     0
 40
1.0
176
     0
 90
        1
176
     0
 90
        6
176
     0
 90
        2
176
     0
 62
     7
176
     0
 90
        5
176
     0
 90
        0
176
     0
 90
        0
176
     0
290
     0
176
     0
 90
        1
176
     0
 40
0.0
176
     0
 90
        0
176
     0
290
     0
176
     1
290
     1
176
     1
290
     1
176
     1
290
     0
176
     1
290
     0
176
     1
290
     0
176
     1
290
     0
176
     1
290
     0
176
     1
290
     0
176
     1
 90
       50
176
     1
 40
0.0
176
     1
 40
1.0
176
     1
 90
        0
176
     1
 62
    18
420
        0
176
     1
 90
       50
176
     1
 90
        3
176
     1
 62
     5
420
      255
176
     1
290
     0
176
     1
 90
       50
176
     1
 90
       50
176
     1
 90
       50
176
     1
290
     0
176
     1
 90
       50
176
     1
 62
   256
176
     0
 40
1.0
176
     0
 90
        2
176
     1
  1
strokes_ogs.tif
176
     1
290
     0
176
     1
 40
1.0
176
     1
 40
1.0
176
     1
  0
VISUALSTYLE
  5
33
102
{ACAD_REACTORS
330
2A
102
}
330
2A
100
AcDbVisualStyle
  2
Realistic
 70
     8
177
     3
291
     0
 70
    58
 90
        2
176
     1
 90
        2
176
     1
 90
        0
176
     1
 90
        0
176
     1
 40
0.6
176
     1
 40
30.0
176
     1
 62
     7
176
     1
 90
        1
176
     1
 90
        0
176
     1
 62
     7
176
     1
 62
   257
176
     1
 90
        1
176
     1
 90
        1
176
     1
 40
1.0
176
     1
 90
        8
176
     1
 62
     8
176
     1
 40
1.0
176
     1
 90
        1
176
     1
 90
        6
176
     1
 90
        2
176
     1
 62
     7
176
     1
 90
        5
176
     1
 90
        0
176
     1
 90
        0
176
     1
290
     0
176
     1
 90
       13
176
     1
 40
0.0
176
     1
 90
        0
176
     1
290
     0
176
     1
290
     1
176
     1
290
     1
176
     1
290
     0
176
     1
290
     0
176
     1
290
     0
176
     1
290
     0
176
     1
290
     0
176
     1
290
     0
176
     1
 90
       50
176
     1
 40
0.0
176
     1
 40
1.0
176
     1
 90
        0
176
     1
 62
    18
420
        0
176
     1
 90
       50
176
     1
 90
        3
176
     1
 62
     5
420
      255
176
     1
290
     0
176
     1
 90
       50
176
     1
 90
       50
176
     1
 90
       50
176
     1
290
     0
176
     1
 90
       50
176
     1
 62
   256
176
     0
 40
1.0
176
     0
 90
        2
176
     1
  1
strokes_ogs.tif
176
     1
290
     0
176
     1
 40
1.0
176
     1
 40
1.0
176
     1
  0
VISUALSTYLE
  5
1E7
102
{ACAD_REACTORS
330
2A
102
}
330
2A
100
AcDbVisualStyle
  2
Shaded
 70
    27
177
     3
291
     0
 70
    58
 90
        2
176
     1
 90
        2
176
     1
 90
        1
176
     1
 90
        2
176
     1
 40
0.6
176
     1
 40
30.0
176
     1
 62
     7
420
 16777215
176
     1
 90
        0
176
     1
 90
        4
176
     1
 62
     7
176
     1
 62
   257
176
     1
 90
        1
176
     1
 90
        1
176
     1
 40
1.0
176
     1
 90
        8
176
     1
 62
   257
176
     1
 40
1.0
176
     1
 90
        1
176
     1
 90
        6
176
     1
 90
        2
176
     1
 62
     8
420
  7895160
176
     1
 90
        3
176
     1
 90
        0
176
     1
 90
        0
176
     1
290
     0
176
     1
 90
        5
176
     1
 40
0.0
176
     1
 90
        0
176
     1
290
     0
176
     1
290
     1
176
     1
290
     1
176
     1
290
     0
176
     1
290
     0
176
     1
290
     0
176
     1
290
     0
176
     1
290
     0
176
     1
290
     0
176
     1
 90
       50
176
     1
 40
0.0
176
     1
 40
1.0
176
     1
 90
        0
176
     1
 62
    18
420
        0
176
     1
 90
       50
176
     1
 90
        3
176
     1
 62
     5
420
      255
176
     1
290
     0
176
     1
 90
       50
176
     1
 90
       50
176
     1
 90
       50
176
     1
290
     0
176
     1
 90
       50
176
     1
 62
   256
176
     0
 40
1.0
176
     0
 90
        2
176
     1
  1
strokes_ogs.tif
176
     1
290
     0
176
     1
 40
1.0
176
     1
 40
1.0
176
     1
  0
VISUALSTYLE
  5
1E6
102
{ACAD_REACTORS
330
2A
102
}
330
2A
100
AcDbVisualStyle
  2
Shaded with edges
 70
    26
177
     3
291
     0
 70
    58
 90
        2
176
     1
 90
        2
176
     1
 90
        1
176
     1
 90
        2
176
     1
 40
0.6
176
     1
 40
30.0
176
     1
 62
     7
420
 16777215
176
     1
 90
        1
176
     1
 90
        2
176
     1
 62
     7
176
     1
 62
   257
176
     1
 90
        2
176
     1
 90
        1
176
     1
 40
1.0
176
     1
 90
        8
176
     1
 62
   257
176
     1
 40
1.0
176
     1
 90
        1
176
     1
 90
        6
176
     1
 90
        2
176
     1
 62
     7
176
     1
 90
        3
176
     1
 90
        0
176
     1
 90
        0
176
     1
290
     0
176
     1
 90
        5
176
     1
 40
0.0
176
     1
 90
        0
176
     1
290
     0
176
     1
290
     1
176
     1
290
     1
176
     1
290
     0
176
     1
290
     0
176
     1
290
     0
176
     1
290
     0
176
     1
290
     0
176
     1
290
     0
176
     1
 90
       50
176
     1
 40
0.0
176
     1
 40
1.0
176
     1
 90
        0
176
     1
 62
    18
420
        0
176
     1
 90
       50
176
     1
 90
        3
176
     1
 62
     5
420
      255
176
     1
290
     0
176
     1
 90
       50
176
     1
 90
       50
176
     1
 90
       50
176
     1
290
     0
176
     1
 90
       50
176
     1
 62
   256
176
     0
 40
1.0
176
     0
 90
        2
176
     1
  1
strokes_ogs.tif
176
     1
290
     0
176
     1
 40
1.0
176
     1
 40
1.0
176
     1
  0
VISUALSTYLE
  5
1E3
102
{ACAD_REACTORS
330
2A
102
}
330
2A
100
AcDbVisualStyle
  2
Shades of Gray
 70
    23
177
     3
291
     0
 70
    58
 90
        2
176
     1
 90
        2
176
     1
 90
        3
176
     1
 90
        0
176
     1
 40
0.6
176
     1
 40
30.0
176
     1
 62
     7
420
 16777215
176
     1
 90
        2
176
     1
 90
        2
176
     1
 62
     7
176
     1
 62
     7
176
     1
 90
        1
176
     1
 90
        1
176
     1
 40
40.0
176
     1
 90
        8
176
     1
 62
     7
176
     1
 40
1.0
176
     1
 90
        1
176
     1
 90
        6
176
     1
 90
        2
176
     1
 62
     7
176
     1
 90
        3
176
     1
 90
        0
176
     1
 90
        0
176
     1
290
     0
176
     1
 90
        1
176
     1
 40
0.0
176
     1
 90
        0
176
     1
290
     0
176
     1
290
     1
176
     1
290
     1
176
     1
290
     0
176
     1
290
     0
176
     1
290
     0
176
     1
290
     0
176
     1
290
     0
176
     1
290
     0
176
     1
 90
       50
176
     1
 40
0.0
176
     1
 40
1.0
176
     1
 90
        0
176
     1
 62
    18
420
        0
176
     1
 90
       50
176
     1
 90
        3
176
     1
 62
     5
420
      255
176
     1
290
     0
176
     1
 90
       50
176
     1
 90
       50
176
     1
 90
       50
176
     1
290
     0
176
     1
 90
       50
176
     1
 62
   256
176
     0
 40
1.0
176
     0
 90
        2
176
     1
  1
strokes_ogs.tif
176
     1
290
     0
176
     1
 40
1.0
176
     1
 40
1.0
176
     1
  0
VISUALSTYLE
  5
1E4
102
{ACAD_REACTORS
330
2A
102
}
330
2A
100
AcDbVisualStyle
  2
Sketchy
 70
    24
177
     3
291
     0
 70
    58
 90
        1
176
     1
 90
        2
176
     1
 90
        2
176
     1
 90
        0
176
     1
 40
0.6
176
     1
 40
30.0
176
     1
 62
     7
420
 16777215
176
     1
 90
        2
176
     1
 90
        2
176
     1
 62
     7
176
     1
 62
     7
176
     1
 90
        1
176
     1
 90
        1
176
     1
 40
40.0
176
     1
 90
       11
176
     1
 62
     7
176
     1
 40
1.0
176
     1
 90
        1
176
     1
 90
        6
176
     1
 90
        2
176
     1
 62
     7
176
     1
 90
        6
176
     1
 90
        0
176
     1
 90
        0
176
     1
290
     0
176
     1
 90
        1
176
     1
 40
0.0
176
     1
 90
        0
176
     1
290
     0
176
     1
290
     1
176
     1
290
     1
176
     1
290
     0
176
     1
290
     0
176
     1
290
     0
176
     1
290
     0
176
     1
290
     0
176
     1
290
     0
176
     1
 90
       50
176
     1
 40
0.0
176
     1
 40
1.0
176
     1
 90
        0
176
     1
 62
    18
420
        0
176
     1
 90
       50
176
     1
 90
        3
176
     1
 62
     5
420
      255
176
     1
290
     0
176
     1
 90
       50
176
     1
 90
       50
176
     1
 90
       50
176
     1
290
     0
176
     1
 90
       50
176
     1
 62
   256
176
     0
 40
1.0
176
     0
 90
        2
176
     1
  1
strokes_ogs.tif
176
     1
290
     0
176
     1
 40
1.0
176
     1
 40
1.0
176
     1
  0
VISUALSTYLE
  5
37
102
{ACAD_REACTORS
330
2A
102
}
330
2A
100
AcDbVisualStyle
  2
Thicken
 70
    13
177
     3
291
     1
 70
    58
 90
        2
176
     1
 90
        2
176
     1
 90
        0
176
     1
 90
        0
176
     1
 40
0.6
176
     1
 40
30.0
176
     1
 62
     7
176
     1
 90
        1
176
     1
 90
        4
176
     1
 62
     7
176
     1
 62
   257
176
     1
 90
        1
176
     1
 90
        1
176
     1
 40
1.0
176
     1
 90
       12
176
     1
 62
     7
176
     1
 40
1.0
176
     1
 90
        1
176
     1
 90
        6
176
     1
 90
        2
176
     1
 62
     7
176
     1
 90
        5
176
     1
 90
        0
176
     1
 90
        0
176
     1
290
     0
176
     1
 90
        1
176
     1
 40
0.0
176
     1
 90
        0
176
     1
290
     0
176
     1
290
     1
176
     1
290
     1
176
     1
290
     0
176
     1
290
     0
176
     1
290
     0
176
     1
290
     0
176
     1
290
     0
176
     1
290
     0
176
     1
 90
       50
176
     1
 40
0.0
176
     1
 40
1.0
176
     1
 90
        0
176
     1
 62
    18
420
        0
176
     1
 90
       50
176
     1
 90
        3
176
     1
 62
     5
420
      255
176
     1
290
     0
176
     1
 90
       50
176
     1
 90
       50
176
     1
 90
       50
176
     1
290
     0
176
     1
 90
       50
176
     1
 62
   256
176
     0
 40
1.0
176
     0
 90
        2
176
     1
  1
strokes_ogs.tif
176
     1
290
     0
176
     1
 40
1.0
176
     1
 40
1.0
176
     1
  0
VISUALSTYLE
  5
1E1
102
{ACAD_REACTORS
330
2A
102
}
330
2A
100
AcDbVisualStyle
  2
Wireframe
 70
     5
177
     3
291
     0
 70
    58
 90
        0
176
     1
 90
        2
176
     1
 90
        0
176
     1
 90
        0
176
     1
 40
0.6
176
     1
 40
30.0
176
     1
 62
     7
420
 16777215
176
     1
 90
        1
176
     1
 90
        4
176
     1
 62
     7
176
     1
 62
   257
176
     1
 90
        1
176
     1
 90
        1
176
     1
 40
1.0
176
     1
 90
        0
176
     1
 62
   257
176
     1
 40
1.0
176
     1
 90
        1
176
     1
 90
        6
176
     1
 90
        2
176
     1
 62
     7
176
     1
 90
        3
176
     1
 90
        0
176
     1
 90
        0
176
     1
290
     0
176
     1
 90
        1
176
     1
 40
0.0
176
     1
 90
        0
176
     1
290
     0
176
     1
290
     1
176
     1
290
     1
176
     1
290
     0
176
     1
290
     0
176
     1
290
     0
176
     1
290
     0
176
     1
290
     0
176
     1
290
     0
176
     1
 90
       50
176
     1
 40
0.0
176
     1
 40
1.0
176
     1
 90
        0
176
     1
 62
    18
420
        0
176
     1
 90
       50
176
     1
 90
        3
176
     1
 62
     5
420
      255
176
     1
290
     0
176
     1
 90
       50
176
     1
 90
       50
176
     1
 90
       50
176
     1
290
     0
176
     1
 90
       50
176
     1
 62
   256
176
     0
 40
1.0
176
     0
 90
        2
176
     1
  1
strokes_ogs.tif
176
     1
290
     0
176
     1
 40
1.0
176
     1
 40
1.0
176
     1
  0
VISUALSTYLE
  5
1E5
102
{ACAD_REACTORS
330
2A
102
}
330
2A
100
AcDbVisualStyle
  2
X-Ray
 70
    25
177
     3
291
     0
 70
    58
 90
        2
176
     1
 90
        2
176
     1
 90
        1
176
     1
 90
        1
176
     1
 40
0.5
176
     1
 40
30.0
176
     1
 62
     7
420
 16777215
176
     1
 90
        1
176
     1
 90
        0
176
     1
 62
     7
176
     1
 62
   257
176
     1
 90
        1
176
     1
 90
        1
176
     1
 40
1.0
176
     1
 90
        8
176
     1
 62
     7
176
     1
 40
1.0
176
     1
 90
        1
176
     1
 90
        6
176
     1
 90
        2
176
     1
 62
     7
176
     1
 90
        3
176
     1
 90
        0
176
     1
 90
        0
176
     1
290
     0
176
     1
 90
       13
176
     1
 40
0.0
176
     1
 90
        0
176
     1
290
     0
176
     1
290
     1
176
     1
290
     1
176
     1
290
     0
176
     1
290
     0
176
     1
290
     0
176
     1
290
     0
176
     1
290
     0
176
     1
290
     0
176
     1
 90
       50
176
     1
 40
0.0
176
     1
 40
1.0
176
     1
 90
        0
176
     1
 62
    18
420
        0
176
     1
 90
       50
176
     1
 90
        3
176
     1
 62
     5
420
      255
176
     1
290
     0
176
     1
 90
       50
176
     1
 90
       50
176
     1
 90
       50
176
     1
290
     0
176
     1
 90
       50
176
     1
 62
   256
176
     0
 40
1.0
176
     0
 90
        2
176
     1
  1
strokes_ogs.tif
176
     1
290
     0
176
     1
 40
1.0
176
     1
 40
1.0
176
     1
  0
DICTIONARYVAR
  5
1DC
102
{ACAD_REACTORS
330
1D8
102
}
330
1D8
100
DictionaryVariables
280
     0
  1
1:1
  0
DICTIONARYVAR
  5
1DA
102
{ACAD_REACTORS
330
1D8
102
}
330
1D8
100
DictionaryVariables
280
     0
  1
STANDARD
  0
DICTIONARYVAR
  5
1D9
102
{ACAD_REACTORS
330
1D8
102
}
330
1D8
100
DictionaryVariables
280
     0
  1
STANDARD
  0
DICTIONARYVAR
  5
240
102
{ACAD_REACTORS
330
1D8
102
}
330
1D8
100
DictionaryVariables
280
     0
  1
Imperial24
  0
DICTIONARYVAR
  5
241
102
{ACAD_REACTORS
330
1D8
102
}
330
1D8
100
DictionaryVariables
280
     0
  1
Imperial24
  0
DICTIONARYVAR
  5
1DE
102
{ACAD_REACTORS
330
1D8
102
}
330
1D8
100
DictionaryVariables
280
     0
  1
1
  0
DICTIONARYVAR
  5
1DF
102
{ACAD_REACTORS
330
1D8
102
}
330
1D8
100
DictionaryVariables
280
     0
  1
15
  0
DICTIONARYVAR
  5
1DD
102
{ACAD_REACTORS
330
1D8
102
}
330
1D8
100
DictionaryVariables
280
     0
  1
0
  0
DICTIONARYVAR
  5
1DB
102
{ACAD_REACTORS
330
1D8
102
}
330
1D8
100
DictionaryVariables
280
     0
  1
0
  0
DICTIONARY
  5
1D6
330
22
100
AcDbDictionary
280
     1
281
     1
  0
DICTIONARY
  5
104
330
103
100
AcDbDictionary
280
     1
281
     1
  3
BUMPTILE
360
106
  3
DIFFUSETILE
360
105
  3
OPACITYTILE
360
109
  3
REFLECTIONTILE
360
108
  3
REFRACTIONTILE
360
10A
  3
SPECULARTILE
360
107
  0
DICTIONARY
  5
FC
330
FB
100
AcDbDictionary
280
     1
281
     1
  3
BUMPTILE
360
FE
  3
DIFFUSETILE
360
FD
  3
OPACITYTILE
360
101
  3
REFLECTIONTILE
360
100
  3
REFRACTIONTILE
360
102
  3
SPECULARTILE
360
FF
  0
DICTIONARY
  5
10C
330
10B
100
AcDbDictionary
280
     1
281
     1
  3
BUMPTILE
360
10E
  3
DIFFUSETILE
360
10D
  3
OPACITYTILE
360
111
  3
REFLECTIONTILE
360
110
  3
REFRACTIONTILE
360
112
  3
SPECULARTILE
360
10F
  0
DICTIONARY
  5
2A6
330
117
100
AcDbDictionary
280
     1
281
     1
  3
ACAD_ROUNDTRIP_2008_TABLESTYLE_CELLSTYLEMAP
360
2A7
  0
XRECORD
  5
106
102
{ACAD_REACTORS
330
104
102
}
330
104
100
AcDbXrecord
280
     1
270
     1
271
     1
  0
XRECORD
  5
105
102
{ACAD_REACTORS
330
104
102
}
330
104
100
AcDbXrecord
280
     1
270
     1
271
     1
  0
XRECORD
  5
109
102
{ACAD_REACTORS
330
104
102
}
330
104
100
AcDbXrecord
280
     1
270
     1
271
     1
  0
XRECORD
  5
108
102
{ACAD_REACTORS
330
104
102
}
330
104
100
AcDbXrecord
280
     1
270
     1
271
     1
  0
XRECORD
  5
10A
102
{ACAD_REACTORS
330
104
102
}
330
104
100
AcDbXrecord
280
     1
270
     1
271
     1
  0
XRECORD
  5
107
102
{ACAD_REACTORS
330
104
102
}
330
104
100
AcDbXrecord
280
     1
270
     1
271
     1
  0
XRECORD
  5
FE
102
{ACAD_REACTORS
330
FC
102
}
330
FC
100
AcDbXrecord
280
     1
270
     1
271
     1
  0
XRECORD
  5
FD
102
{ACAD_REACTORS
330
FC
102
}
330
FC
100
AcDbXrecord
280
     1
270
     1
271
     1
  0
XRECORD
  5
101
102
{ACAD_REACTORS
330
FC
102
}
330
FC
100
AcDbXrecord
280
     1
270
     1
271
     1
  0
XRECORD
  5
100
102
{ACAD_REACTORS
330
FC
102
}
330
FC
100
AcDbXrecord
280
     1
270
     1
271
     1
  0
XRECORD
  5
102
102
{ACAD_REACTORS
330
FC
102
}
330
FC
100
AcDbXrecord
280
     1
270
     1
271
     1
  0
XRECORD
  5
FF
102
{ACAD_REACTORS
330
FC
102
}
330
FC
100
AcDbXrecord
280
     1
270
     1
271
     1
  0
XRECORD
  5
10E
102
{ACAD_REACTORS
330
10C
102
}
330
10C
100
AcDbXrecord
280
     1
270
     1
271
     1
  0
XRECORD
  5
10D
102
{ACAD_REACTORS
330
10C
102
}
330
10C
100
AcDbXrecord
280
     1
270
     1
271
     1
  0
XRECORD
  5
111
102
{ACAD_REACTORS
330
10C
102
}
330
10C
100
AcDbXrecord
280
     1
270
     1
271
     1
  0
XRECORD
  5
110
102
{ACAD_REACTORS
330
10C
102
}
330
10C
100
AcDbXrecord
280
     1
270
     1
271
     1
  0
XRECORD
  5
112
102
{ACAD_REACTORS
330
10C
102
}
330
10C
100
AcDbXrecord
280
     1
270
     1
271
     1
  0
XRECORD
  5
10F
102
{ACAD_REACTORS
330
10C
102
}
330
10C
100
AcDbXrecord
280
     1
270
     1
271
     1
  0
CELLSTYLEMAP
  5
2A7
102
{ACAD_REACTORS
330
2A6
102
}
330
2A6
100
AcDbCellStyleMap
 90
        3
300
CELLSTYLE
  1
TABLEFORMAT_BEGIN
 90
        5
170
     1
 91
        0
 92
    32768
 62
   257
 93
        1
300
CONTENTFORMAT
  1
CONTENTFORMAT_BEGIN
 90
        0
 91
        0
 92
      512
 93
        0
300

 40
0.0
140
1.0
 94
        5
 62
     0
340
11
144
0.25
309
CONTENTFORMAT_END
171
     0
 94
        0
309
TABLEFORMAT_END
  1
CELLSTYLE_BEGIN
 90
        1
 91
        1
300
_TITLE
309
CELLSTYLE_END
300
CELLSTYLE
  1
TABLEFORMAT_BEGIN
 90
        5
170
     1
 91
        0
 92
        0
 62
   257
 93
        1
300
CONTENTFORMAT
  1
CONTENTFORMAT_BEGIN
 90
        0
 91
        0
 92
      512
 93
        0
300

 40
0.0
140
1.0
 94
        5
 62
     0
340
11
144
0.18
309
CONTENTFORMAT_END
171
     0
 94
        0
309
TABLEFORMAT_END
  1
CELLSTYLE_BEGIN
 90
        2
 91
        1
300
_HEADER
309
CELLSTYLE_END
300
CELLSTYLE
  1
TABLEFORMAT_BEGIN
 90
        5
170
     1
 91
        0
 92
        0
 62
   257
 93
        1
300
CONTENTFORMAT
  1
CONTENTFORMAT_BEGIN
 90
        0
 91
        0
 92
      512
 93
        0
300

 40
0.0
140
1.0
 94
        2
 62
     0
340
11
144
0.18
309
CONTENTFORMAT_END
171
     0
 94
        0
309
TABLEFORMAT_END
  1
CELLSTYLE_BEGIN
 90
        3
 91
        2
300
_DATA
309
CELLSTYLE_END
  0
ENDSEC
  0
SECTION
  2
ACDSDATA
 70
     2
 71
     8
  0
ACDSSCHEMA
 90
        0
  1
AcDb_Thumbnail_Schema
  2
AcDbDs::ID
280
    10
 91
        8
  2
Thumbnail_Data
280
    15
 91
        0
101
ACDSRECORD
 95
        0
 90
        1
  2
AcDbDs::TreatedAsObjectData
280
     1
291
     1
101
ACDSRECORD
 95
        0
 90
        2
  2
AcDbDs::Legacy
280
     1
291
     1
101
ACDSRECORD
  1
AcDbDs::ID
 90
        3
  2
AcDs:Indexable
280
     1
291
     1
101
ACDSRECORD
  1
AcDbDs::ID
 90
        4
  2
AcDbDs::HandleAttribute
280
     7
282
     1
  0
ACDSSCHEMA
 90
        1
  1
AcDbDs::TreatedAsObjectDataSchema
  2
AcDbDs::TreatedAsObjectData
280
     1
 91
        0
  0
ACDSSCHEMA
 90
        2
  1
AcDbDs::LegacySchema
  2
AcDbDs::Legacy
280
     1
 91
        0
  0
ACDSSCHEMA
 90
        3
  1
AcDbDs::IndexedPropertySchema
  2
AcDs:Indexable
280
     1
 91
        0
  0
ACDSSCHEMA
 90
        4
  1
AcDbDs::HandleAttributeSchema
  2
AcDbDs::HandleAttribute
280
     7
 91
        1
284
     1
  0
ACDSRECORD
 90
        0
  2
AcDbDs::ID
280
    10
320
22
  2
Thumbnail_Data
280
    15
 94
     1037
310
89504E470D0A1A0A0000000D49484452000001000000006F08030000003479EE6F00000300504C5445212830FFFFFF2128300000000000000000000000000000000000000000000000000000330000660000990000CC0000FF0033000033330033660033990033CC0033FF0066000066330066660066990066CC0066FF0099
310
000099330099660099990099CC0099FF00CC0000CC3300CC6600CC9900CCCC00CCFF00FF0000FF3300FF6600FF9900FFCC00FFFF3300003300333300663300993300CC3300FF3333003333333333663333993333CC3333FF3366003366333366663366993366CC3366FF3399003399333399663399993399CC3399FF33CC00
310
33CC3333CC6633CC9933CCCC33CCFF33FF0033FF3333FF6633FF9933FFCC33FFFF6600006600336600666600996600CC6600FF6633006633336633666633996633CC6633FF6666006666336666666666996666CC6666FF6699006699336699666699996699CC6699FF66CC0066CC3366CC6666CC9966CCCC66CCFF66FF0066
310
FF3366FF6666FF9966FFCC66FFFF9900009900339900669900999900CC9900FF9933009933339933669933999933CC9933FF9966009966339966669966999966CC9966FF9999009999339999669999999999CC9999FF99CC0099CC3399CC6699CC9999CCCC99CCFF99FF0099FF3399FF6699FF9999FFCC99FFFFCC0000CC00
310
33CC0066CC0099CC00CCCC00FFCC3300CC3333CC3366CC3399CC33CCCC33FFCC6600CC6633CC6666CC6699CC66CCCC66FFCC9900CC9933CC9966CC9999CC99CCCC99FFCCCC00CCCC33CCCC66CCCC99CCCCCCCCCCFFCCFF00CCFF33CCFF66CCFF99CCFFCCCCFFFFFF0000FF0033FF0066FF0099FF00CCFF00FFFF3300FF3333
310
FF3366FF3399FF33CCFF33FFFF6600FF6633FF6666FF6699FF66CCFF66FFFF9900FF9933FF9966FF9999FF99CCFF99FFFFCC00FFCC33FFCC66FFCC99FFCCCCFFCCFFFFFF00FFFF33FFFF66FFFF99FFFFCCFFFFFF0000000D0D0D1A1A1A2828283535354343435050505D5D5D6B6B6B787878868686939393A1A1A1AEAEAEBB
310
BBBBC9C9C9D6D6D6E4E4E4F1F1F1FFFFFF0000000000000000000000000000000000000000000000000000000000002E4550F1000000C84944415478DAEDD8410A83301005D0DCFFBE7FDF42A5501C35B82826796FD7C116FC994CA3AD0100000000000007F2260096EE00010860F921B81100ACBD05FE48EEF0B81970F3EB
310
DDC5B102487D657DAF298A83CFB9A223922A82AA796618F4D92F6BCACE4851CC78DBA0DD5DD7F25E33FC33563E1D90CB00B68FBFD5E4FB1BA30790ABC5AE0368D30450757B472A538C80FDC43FD9EED51B96C14FFBE9FBC33B293A61AE7390EE691F01C0B38FBD070F884BBCBE5A3E0000000000000000000000000080C77A
310
0112345C6CE49D208B0000000049454E44AE426082
  0
ENDSEC
  0
EOF
