  0
SECTION
  2
HEADER
  9
$ACADVER
  1
AC1032
  9
$ACADMAINTVER
 90
        4
  9
$DWGCODEPAGE
  3
ANSI_1252
  9
$LASTSAVEDBY
  1
jesse.cowley
  9
$REQUIREDVERSIONS
160
                 0
  9
$INSBASE
 10
0.0
 20
0.0
 30
0.0
  9
$EXTMIN
 10
-17163.46426021862
 20
-5182.130354133173
 30
0.0
  9
$EXTMAX
 10
2696.725625087641
 20
4403.997881701687
 30
0.0
  9
$LIMMIN
 10
0.0
 20
0.0
  9
$LIMMAX
 10
12.0
 20
9.0
  9
$ORTHOMODE
 70
     0
  9
$REGENMODE
 70
     1
  9
$FILLMODE
 70
     1
  9
$QTEXTMODE
 70
     0
  9
$MIRRTEXT
 70
     1
  9
$LTSCALE
 40
1.0
  9
$ATTMODE
 70
     1
  9
$TEXTSIZE
 40
0.2
  9
$TRACEWID
 40
0.05
  9
$TEXTSTYLE
  7
Standard
  9
$CLAYER
  8
0
  9
$CELTYPE
  6
ByLayer
  9
$CECOLOR
 62
   256
  9
$CELTSCALE
 40
1.0
  9
$DISPSILH
 70
     0
  9
$DIMSCALE
 40
1.0
  9
$DIMASZ
 40
0.18
  9
$DIMEXO
 40
0.0625
  9
$DIMDLI
 40
0.38
  9
$DIMRND
 40
0.0
  9
$DIMDLE
 40
0.0
  9
$DIMEXE
 40
0.18
  9
$DIMTP
 40
0.0
  9
$DIMTM
 40
0.0
  9
$DIMTXT
 40
0.18
  9
$DIMCEN
 40
0.09
  9
$DIMTSZ
 40
0.0
  9
$DIMTOL
 70
     0
  9
$DIMLIM
 70
     0
  9
$DIMTIH
 70
     1
  9
$DIMTOH
 70
     1
  9
$DIMSE1
 70
     0
  9
$DIMSE2
 70
     0
  9
$DIMTAD
 70
     0
  9
$DIMZIN
 70
     0
  9
$DIMBLK
  1

  9
$DIMASO
 70
     1
  9
$DIMSHO
 70
     1
  9
$DIMPOST
  1

  9
$DIMAPOST
  1

  9
$DIMALT
 70
     0
  9
$DIMALTD
 70
     2
  9
$DIMALTF
 40
25.4
  9
$DIMLFAC
 40
1.0
  9
$DIMTOFL
 70
     0
  9
$DIMTVP
 40
0.0
  9
$DIMTIX
 70
     0
  9
$DIMSOXD
 70
     0
  9
$DIMSAH
 70
     0
  9
$DIMBLK1
  1

  9
$DIMBLK2
  1

  9
$DIMSTYLE
  2
Standard
  9
$DIMCLRD
 70
     0
  9
$DIMCLRE
 70
     0
  9
$DIMCLRT
 70
     0
  9
$DIMTFAC
 40
1.0
  9
$DIMGAP
 40
0.09
  9
$DIMJUST
 70
     0
  9
$DIMSD1
 70
     0
  9
$DIMSD2
 70
     0
  9
$DIMTOLJ
 70
     1
  9
$DIMTZIN
 70
     0
  9
$DIMALTZ
 70
     0
  9
$DIMALTTZ
 70
     0
  9
$DIMUPT
 70
     0
  9
$DIMDEC
 70
     4
  9
$DIMTDEC
 70
     4
  9
$DIMALTU
 70
     2
  9
$DIMALTTD
 70
     2
  9
$DIMTXSTY
  7
Standard
  9
$DIMAUNIT
 70
     0
  9
$DIMADEC
 70
     0
  9
$DIMALTRND
 40
0.0
  9
$DIMAZIN
 70
     0
  9
$DIMDSEP
 70
    46
  9
$DIMATFIT
 70
     3
  9
$DIMFRAC
 70
     0
  9
$DIMLDRBLK
  1

  9
$DIMLUNIT
 70
     2
  9
$DIMLWD
 70
    -2
  9
$DIMLWE
 70
    -2
  9
$DIMTMOVE
 70
     0
  9
$DIMFXL
 40
1.0
  9
$DIMFXLON
 70
     0
  9
$DIMJOGANG
 40
0.7853981633974483
  9
$DIMTFILL
 70
     0
  9
$DIMTFILLCLR
 70
     0
  9
$DIMARCSYM
 70
     0
  9
$DIMLTYPE
  6

  9
$DIMLTEX1
  6

  9
$DIMLTEX2
  6

  9
$DIMTXTDIRECTION
 70
     0
  9
$LUNITS
 70
     2
  9
$LUPREC
 70
     4
  9
$SKETCHINC
 40
0.1
  9
$FILLETRAD
 40
0.5
  9
$AUNITS
 70
     0
  9
$AUPREC
 70
     0
  9
$MENU
  1
.
  9
$ELEVATION
 40
0.0
  9
$PELEVATION
 40
0.0
  9
$THICKNESS
 40
0.0
  9
$LIMCHECK
 70
     0
  9
$CHAMFERA
 40
0.5
  9
$CHAMFERB
 40
0.5
  9
$CHAMFERC
 40
1.0
  9
$CHAMFERD
 40
0.0
  9
$SKPOLY
 70
     0
  9
$TDCREATE
 40
2456463.516354167
  9
$TDUCREATE
 40
2456463.099688704
  9
$TDUPDATE
 40
2458442.447546296
  9
$TDUUPDATE
 40
2458441.989212963
  9
$TDINDWG
 40
0.0243121412
  9
$TDUSRTIMER
 40
0.0243121412
  9
$USRTIMER
 70
     1
  9
$ANGBASE
 50
0.0
  9
$ANGDIR
 70
     0
  9
$PDMODE
 70
     0
  9
$PDSIZE
 40
0.0
  9
$PLINEWID
 40
0.0
  9
$SPLFRAME
 70
     0
  9
$SPLINETYPE
 70
     6
  9
$SPLINESEGS
 70
     8
  9
$HANDSEED
  5
5C8
  9
$SURFTAB1
 70
     6
  9
$SURFTAB2
 70
     6
  9
$SURFTYPE
 70
     6
  9
$SURFU
 70
     6
  9
$SURFV
 70
     6
  9
$UCSBASE
  2

  9
$UCSNAME
  2

  9
$UCSORG
 10
0.0
 20
0.0
 30
0.0
  9
$UCSXDIR
 10
1.0
 20
0.0
 30
0.0
  9
$UCSYDIR
 10
0.0
 20
1.0
 30
0.0
  9
$UCSORTHOREF
  2

  9
$UCSORTHOVIEW
 70
     0
  9
$UCSORGTOP
 10
0.0
 20
0.0
 30
0.0
  9
$UCSORGBOTTOM
 10
0.0
 20
0.0
 30
0.0
  9
$UCSORGLEFT
 10
0.0
 20
0.0
 30
0.0
  9
$UCSORGRIGHT
 10
0.0
 20
0.0
 30
0.0
  9
$UCSORGFRONT
 10
0.0
 20
0.0
 30
0.0
  9
$UCSORGBACK
 10
0.0
 20
0.0
 30
0.0
  9
$PUCSBASE
  2

  9
$PUCSNAME
  2

  9
$PUCSORG
 10
0.0
 20
0.0
 30
0.0
  9
$PUCSXDIR
 10
1.0
 20
0.0
 30
0.0
  9
$PUCSYDIR
 10
0.0
 20
1.0
 30
0.0
  9
$PUCSORTHOREF
  2

  9
$PUCSORTHOVIEW
 70
     0
  9
$PUCSORGTOP
 10
0.0
 20
0.0
 30
0.0
  9
$PUCSORGBOTTOM
 10
0.0
 20
0.0
 30
0.0
  9
$PUCSORGLEFT
 10
0.0
 20
0.0
 30
0.0
  9
$PUCSORGRIGHT
 10
0.0
 20
0.0
 30
0.0
  9
$PUCSORGFRONT
 10
0.0
 20
0.0
 30
0.0
  9
$PUCSORGBACK
 10
0.0
 20
0.0
 30
0.0
  9
$USERI1
 70
     0
  9
$USERI2
 70
     0
  9
$USERI3
 70
     0
  9
$USERI4
 70
     0
  9
$USERI5
 70
     0
  9
$USERR1
 40
0.0
  9
$USERR2
 40
0.0
  9
$USERR3
 40
0.0
  9
$USERR4
 40
0.0
  9
$USERR5
 40
0.0
  9
$WORLDVIEW
 70
     1
  9
$SHADEDGE
 70
     3
  9
$SHADEDIF
 70
    70
  9
$TILEMODE
 70
     1
  9
$MAXACTVP
 70
    64
  9
$PINSBASE
 10
0.0
 20
0.0
 30
0.0
  9
$PLIMCHECK
 70
     0
  9
$PEXTMIN
 10
1.000000000000000E+20
 20
1.000000000000000E+20
 30
1.000000000000000E+20
  9
$PEXTMAX
 10
-1.000000000000000E+20
 20
-1.000000000000000E+20
 30
-1.000000000000000E+20
  9
$PLIMMIN
 10
-0.2500002402958907
 20
-0.2499999962453767
  9
$PLIMMAX
 10
10.74999951940822
 20
8.249999763458733
  9
$UNITMODE
 70
     0
  9
$VISRETAIN
 70
     1
  9
$PLINEGEN
 70
     0
  9
$PSLTSCALE
 70
     1
  9
$TREEDEPTH
 70
  3020
  9
$CMLSTYLE
  2
Standard
  9
$CMLJUST
 70
     0
  9
$CMLSCALE
 40
1.0
  9
$PROXYGRAPHICS
 70
     1
  9
$MEASUREMENT
 70
     0
  9
$CELWEIGHT
370
    -1
  9
$ENDCAPS
280
     0
  9
$JOINSTYLE
280
     0
  9
$LWDISPLAY
290
     1
  9
$INSUNITS
 70
     1
  9
$HYPERLINKBASE
  1

  9
$STYLESHEET
  1

  9
$XEDIT
290
     1
  9
$CEPSNTYPE
380
     0
  9
$PSTYLEMODE
290
     1
  9
$FINGERPRINTGUID
  2
{288FE3E6-31C3-406B-9A48-3F3A4C9A3BA5}
  9
$VERSIONGUID
  2
{2E331385-FFE9-914C-80FA-43D8C158CA61}
  9
$EXTNAMES
290
     1
  9
$PSVPSCALE
 40
0.0
  9
$OLESTARTUP
290
     0
  9
$SORTENTS
280
   127
  9
$INDEXCTL
280
     0
  9
$HIDETEXT
280
     1
  9
$XCLIPFRAME
280
     0
  9
$HALOGAP
280
     0
  9
$OBSCOLOR
 70
   257
  9
$OBSLTYPE
280
     0
  9
$INTERSECTIONDISPLAY
280
     0
  9
$INTERSECTIONCOLOR
 70
   257
  9
$DIMASSOC
280
     2
  9
$PROJECTNAME
  1

  9
$CAMERADISPLAY
290
     0
  9
$LENSLENGTH
 40
50.0
  9
$CAMERAHEIGHT
 40
0.0
  9
$STEPSPERSEC
 40
2.0
  9
$STEPSIZE
 40
6.0
  9
$3DDWFPREC
 40
2.0
  9
$PSOLWIDTH
 40
0.25
  9
$PSOLHEIGHT
 40
4.0
  9
$LOFTANG1
 40
1.570796326794896
  9
$LOFTANG2
 40
1.570796326794896
  9
$LOFTMAG1
 40
0.0
  9
$LOFTMAG2
 40
0.0
  9
$LOFTPARAM
 70
     7
  9
$LOFTNORMALS
280
     1
  9
$LATITUDE
 40
37.795
  9
$LONGITUDE
 40
-122.394
  9
$NORTHDIRECTION
 40
0.0
  9
$TIMEZONE
 70
 -8000
  9
$LIGHTGLYPHDISPLAY
280
     1
  9
$TILEMODELIGHTSYNCH
280
     1
  9
$CMATERIAL
347
161
  9
$SOLIDHIST
280
     1
  9
$SHOWHIST
280
     1
  9
$DWFFRAME
280
     2
  9
$DGNFRAME
280
     0
  9
$REALWORLDSCALE
290
     1
  9
$INTERFERECOLOR
 62
     1
  9
$INTERFEREOBJVS
345
33
  9
$INTERFEREVPVS
346
2FE
  9
$CSHADOW
280
     0
  9
$SHADOWPLANELOCATION
 40
0.0
  0
ENDSEC
  0
SECTION
  2
CLASSES
  0
CLASS
  1
ACDBDICTIONARYWDFLT
  2
AcDbDictionaryWithDefault
  3
ObjectDBX Classes
 90
        0
 91
        1
280
     0
281
     0
  0
CLASS
  1
VISUALSTYLE
  2
AcDbVisualStyle
  3
ObjectDBX Classes
 90
     4095
 91
       26
280
     0
281
     0
  0
CLASS
  1
MATERIAL
  2
AcDbMaterial
  3
ObjectDBX Classes
 90
     1153
 91
        3
280
     0
281
     0
  0
CLASS
  1
TABLESTYLE
  2
AcDbTableStyle
  3
ObjectDBX Classes
 90
     4095
 91
        1
280
     0
281
     0
  0
CLASS
  1
SCALE
  2
AcDbScale
  3
ObjectDBX Classes
 90
     1153
 91
       33
280
     0
281
     0
  0
CLASS
  1
MLEADERSTYLE
  2
AcDbMLeaderStyle
  3
ACDB_MLEADERSTYLE_CLASS
 90
     4095
 91
        1
280
     0
281
     0
  0
CLASS
  1
ACME_DOCUMENT
  2
AcMeDbDoc
  3
AcMeServices
 90
     1024
 91
        0
280
     0
281
     0
  0
CLASS
  1
AMGSETTINGSOBJ
  2
AmgSettingsObj
  3
"AcadM|Product Description: AutoCAD Mechanical|Company: Autodesk, Inc."
 90
     1024
 91
        2
280
     0
281
     0
  0
CLASS
  1
ACMESCOPE
  2
AcMeScope
  3
AcMeServices
 90
     1024
 91
        1
280
     0
281
     0
  0
CLASS
  1
ACMECOMMANDHISTORY
  2
AcMeCommandHistory
  3
AcMeServices
 90
     1024
 91
        1
280
     0
281
     0
  0
CLASS
  1
ACIMSYSVARMAN
  2
AcImSysVarManager
  3
AcMeServices
 90
     1024
 91
        5
280
     0
281
     0
  0
CLASS
  1
ACIMINTSYSVAR
  2
AcImIntSysVar
  3
AcMeServices
 90
     1024
 91
       27
280
     0
281
     0
  0
CLASS
  1
ACMEDRAWINGMAN
  2
AcMeDrawingMan
  3
AcMeServices
 90
     1024
 91
        1
280
     0
281
     0
  0
CLASS
  1
ACMEVIEW
  2
AcMeView
  3
AcMeServices
 90
     1024
 91
        1
280
     0
281
     0
  0
CLASS
  1
ACDBENTITYCACHE
  2
AcMeEntityCache
  3
AcMeServices
 90
     1024
 91
        0
280
     0
281
     0
  0
CLASS
  1
ACMESTATEMGR
  2
AcMeStateMgr
  3
AcMeServices
 90
     1024
 91
        1
280
     0
281
     0
  0
CLASS
  1
ACGREFMASTER
  2
AcGrefMaster
  3
AcAttribServices
 90
     1024
 91
        1
280
     0
281
     0
  0
CLASS
  1
AM_DRAWING_MGR
  2
AcDmDwgMgr
  3
AcMechDwgViewMgmt
 90
     1024
 91
        1
280
     0
281
     0
  0
CLASS
  1
AM_DWG_DOCUMENT
  2
AcDmDwgDocument
  3
AcMechDwgViewMgmt
 90
     1024
 91
        1
280
     0
281
     0
  0
CLASS
  1
AM_DWG_SHEET
  2
AcDmSheet
  3
AcMechDwgViewMgmt
 90
     1024
 91
        2
280
     0
281
     0
  0
CLASS
  1
AM_VIEWDIMPARMAP
  2
AcDmViewDimParMap
  3
AcMechDwgViewMgmt
 90
     1024
 91
        2
280
     0
281
     0
  0
CLASS
  1
AMDTINTERNALREACTOR
  2
AmdtInternalReactor
  3
AcMeServices
 90
     1024
 91
        0
280
     0
281
     0
  0
CLASS
  1
ACIMREALSYSVAR
  2
AcImRealSysVar
  3
AcMeServices
 90
     1024
 91
        1
280
     0
281
     0
  0
CLASS
  1
AM_DWGMGR_NAME
  2
AcDmDwgMgrName
  3
AcMechDwgViewMgmt
 90
     1024
 91
        1
280
     0
281
     0
  0
CLASS
  1
ACME_DATABASE
  2
AcMeDbDatabase
  3
AcMeServices
 90
     1024
 91
        0
280
     0
281
     0
  0
CLASS
  1
ACRFINSADJUSTERMGR
  2
AcRfInsAdjusterMgr
  3
AcMeServices
 90
     1024
 91
        0
280
     0
281
     0
  0
CLASS
  1
ACGREFACADMASTER
  2
AcGrefacadMaster
  3
AcGrefServices
 90
     1024
 91
        1
280
     0
281
     0
  0
CLASS
  1
AMDTMENUSTATEMGR
  2
AmdtMenuStateMgr
  3
McadcomServices
 90
     1024
 91
        0
280
     0
281
     0
  0
CLASS
  1
AMDTMCOMMENUSTATE
  2
AmdtMcomMenuState
  3
McadcomServices
 90
     1024
 91
        0
280
     0
281
     0
  0
CLASS
  1
AMIMASTER
  2
AmiMaster
  3
AmiServices
 90
     1024
 91
        1
280
     0
281
     0
  0
CLASS
  1
MAPIAMMOUDLE
  2
MApiAmModule
  3
MApiAmServices
 90
     1024
 91
        1
280
     0
281
     0
  0
CLASS
  1
ACIMSTRSYSVAR
  2
AcImStrSysVar
  3
AcMeServices
 90
     1024
 91
        5
280
     0
281
     0
  0
CLASS
  1
AMDTADMENUSTATE
  2
AmdtAdMenuState
  3
DesignerServices
 90
     1024
 91
        0
280
     0
281
     0
  0
CLASS
  1
ADAPPL
  2
AcAdAppl
  3
DesignerServices
 90
     1024
 91
        1
280
     0
281
     0
  0
CLASS
  1
DEPMGR
  2
AcAdDepMgr
  3
DesignerServices
 90
     1024
 91
        1
280
     0
281
     0
  0
CLASS
  1
PARAMMGR
  2
AcAdParamMgr
  3
DesignerServices
 90
     1024
 91
        1
280
     0
281
     0
  0
CLASS
  1
PARAMSCOPE
  2
AcAdParamScope
  3
DesignerServices
 90
     1024
 91
        1
280
     0
281
     0
  0
CLASS
  1
NAMEDAPPL
  2
AcAdNamedAppl
  3
DesignerServices
 90
     1024
 91
        1
280
     0
281
     0
  0
CLASS
  1
AMDTDMMENUSTATE
  2
AmdtDmMenuState
  3
AcMechDwgViewMgmt
 90
     1024
 91
        0
280
     0
281
     0
  0
CLASS
  1
AMDTAMMENUSTATE
  2
AmdtAmMenuState
  3
DesignerAssemblies
 90
     1024
 91
        0
280
     0
281
     0
  0
CLASS
  1
ACAMPROJECT
  2
AcAmProject
  3
DesignerAssemblies
 90
     1024
 91
        1
280
     0
281
     0
  0
CLASS
  1
ACAMGRCOMPDEF
  2
AcAmGrCompDef
  3
DesignerAssemblies
 90
     1024
 91
        1
280
     0
281
     0
  0
CLASS
  1
ACAMCOMPDEF
  2
AcAmCompDef
  3
DesignerAssemblies
 90
     1024
 91
        1
280
     0
281
     0
  0
CLASS
  1
ACAMCOMPDEFMGR
  2
AcAmCompDefMgr
  3
DesignerAssemblies
 90
     1024
 91
        1
280
     0
281
     0
  0
CLASS
  1
AMCONTEXTMGR
  2
AcAmContextMgr
  3
DesignerAssemblies
 90
     1024
 91
        1
280
     0
281
     0
  0
CLASS
  1
ACAMCONTEXTMODELER
  2
AcAmContextModeler
  3
DesignerAssemblies
 90
     1024
 91
        1
280
     0
281
     0
  0
CLASS
  1
ACMDATADICTIONARY
  2
AcmDataDictionary
  3
"AcmSymBB|Product Description: AutoCAD Mechanical|Company: Autodesk, Inc."
 90
     1024
 91
        1
280
     0
281
     0
  0
CLASS
  1
CATALOGSTATE
  2
AcAmCatalogState
  3
DesignerAssemblies
 90
     1024
 91
        1
280
     0
281
     0
  0
CLASS
  1
ACAMGRCOMPDEFSET
  2
AcAmGrCompDefSet
  3
DesignerAssemblies
 90
     1024
 91
        0
280
     0
281
     0
  0
CLASS
  1
AMDTBROWSERDBTAB
  2
AmdtBrowserDbTab
  3
McadcomServices
 90
     1024
 91
        0
280
     0
281
     0
  0
CLASS
  1
CBROWSERAPPOBJECT
  2
CBrowserAppObject
  3
McadcomServices
 90
     1024
 91
        0
280
     0
281
     0
  0
CLASS
  1
DM_PLACEHOLDER
  2
AcDmSelsetPlaceholder
  3
AcMechDwgViewMgmt
 90
     1024
 91
        0
280
     0
281
     0
  0
CLASS
  1
EXACXREFPANELOBJECT
  2
ExAcXREFPanelObject
  3
EXAC_ESW
 90
     1025
 91
        1
280
     0
281
     0
  0
CLASS
  1
NPOCOLLECTION
  2
AcDbImpNonPersistentObjectsCollection
  3
ObjectDBX Classes
 90
     1153
 91
        1
280
     0
281
     0
  0
CLASS
  1
ACMSTANDARDANSI
  2
AcmStandardANSI
  3
"Amdt_StdImp|Product Description: AutoCAD Mechanical|Company: Autodesk, Inc."
 90
     1024
 91
        1
280
     0
281
     0
  0
CLASS
  1
ACMSURFSTANDARDANSI
  2
AcmSurfTextStdANSI
  3
"Amdt_StdImp|Product Description: AutoCAD Mechanical|Company: Autodesk, Inc."
 90
     1024
 91
        1
280
     0
281
     0
  0
CLASS
  1
ACMFCFSTANDARDANSI
  2
AcmFCFStdANSI
  3
"Amdt_StdImp|Product Description: AutoCAD Mechanical|Company: Autodesk, Inc."
 90
     1024
 91
        1
280
     0
281
     0
  0
CLASS
  1
ACMWELDSTANDARDANSI
  2
AcmWeldingStdANSI
  3
"Amdt_StdImp|Product Description: AutoCAD Mechanical|Company: Autodesk, Inc."
 90
     1024
 91
        1
280
     0
281
     0
  0
CLASS
  1
ACMIDSTANDARDANSI
  2
AcmIdStdANSI
  3
"Amdt_StdImp|Product Description: AutoCAD Mechanical|Company: Autodesk, Inc."
 90
     1024
 91
        1
280
     0
281
     0
  0
CLASS
  1
ACMDATUMSTANDARDANSI
  2
AcmDatumStdANSI
  3
"Amdt_StdImp|Product Description: AutoCAD Mechanical|Company: Autodesk, Inc."
 90
     1024
 91
        1
280
     0
281
     0
  0
CLASS
  1
ACMBOMSTANDARDANSI
  2
AcmBOMStdANSI
  3
"Amdt_StdImp|Product Description: AutoCAD Mechanical|Company: Autodesk, Inc."
 90
     1024
 91
        1
280
     0
281
     0
  0
CLASS
  1
ACMDETAILSTANDARDANSI
  2
AmdtDetailSymStdANSI
  3
"Amdt_StdImp|Product Description: AutoCAD Mechanical|Company: Autodesk, Inc."
 90
     1024
 91
        1
280
     0
281
     0
  0
CLASS
  1
ACMSECTIONSTANDARDANSI
  2
AmdtSectionSymStdANSI
  3
"Amdt_StdImp|Product Description: AutoCAD Mechanical|Company: Autodesk, Inc."
 90
     1024
 91
        1
280
     0
281
     0
  0
CLASS
  1
ACMCENTERLINESTANDARDANSI
  2
AmdtCenterLineStdANSI
  3
"Amdt_StdImp|Product Description: AutoCAD Mechanical|Company: Autodesk, Inc."
 90
     1024
 91
        1
280
     0
281
     0
  0
CLASS
  1
ACMTHREADLINESTANDARDANSI
  2
AmdtThreadLineStdANSI
  3
"Amdt_StdImp|Product Description: AutoCAD Mechanical|Company: Autodesk, Inc."
 90
     1024
 91
        1
280
     0
281
     0
  0
CLASS
  1
ACMNOTESTANDARDANSI
  2
AmdtNoteStdANSI
  3
"Amdt_StdImp|Product Description: AutoCAD Mechanical|Company: Autodesk, Inc."
 90
     1024
 91
        1
280
     0
281
     0
  0
CLASS
  1
ACMTAPERSTANDARDANSI
  2
AcmTaperStdANSI
  3
"Amdt_StdImp|Product Description: AutoCAD Mechanical|Company: Autodesk, Inc."
 90
     1024
 91
        1
280
     0
281
     0
  0
CLASS
  1
ACMANOOTATIONVIEWSTANDARDANSI
  2
AmdtAnViewStdANSI
  3
"Amdt_StdImp|Product Description: AutoCAD Mechanical|Company: Autodesk, Inc."
 90
     1024
 91
        1
280
     0
281
     0
  0
CLASS
  1
ACAMGLAYSTD
  2
AcAmgLayStd
  3
"AmgLay|Product Description: AutoCAD Mechanical|Company: Autodesk, Inc."
 90
     1024
 91
        1
280
     0
281
     0
  0
CLASS
  1
ACAMGDIMSTD
  2
AcAmgDimStd
  3
"AmgDim|Product Description: AutoCAD Mechanical|Company: Autodesk, Inc."
 90
     1024
 91
        1
280
     0
281
     0
  0
CLASS
  1
AMGOBJPROPCFG
  2
AmgObjPropCfg
  3
"AmgLay|Product Description: AutoCAD Mechanical|Company: Autodesk, Inc."
 90
     1025
 91
        1
280
     0
281
     0
  0
CLASS
  1
ACAMGHOLECHARTSTDANSI
  2
AcAmgHoleChartStdANSI
  3
AmgDim|Product Description: AutoCAD Mechanical|Company: Autodesk, Inc.
 90
     1024
 91
        1
280
     0
281
     0
  0
CLASS
  1
ACAMGTITLESTD
  2
AcAmgTitleStd
  3
"AmgTitle|Product Description: AutoCAD Mechanical|Company: Autodesk, Inc."
 90
     4095
 91
        1
280
     0
281
     0
  0
CLASS
  1
AMDTNOTETEMPLATEDB
  2
AmdtNoteTemplateDB
  3
AcmSymBB|Product Description: AutoCAD Mechanical|Company: Autodesk, Inc.
 90
     1024
 91
        6
280
     0
281
     0
  0
CLASS
  1
ACAMGFILTERDAT
  2
AcAmgFilterDat
  3
"AcadM|Product Description: AutoCAD Mechanical|Company: Autodesk, Inc."
 90
     1024
 91
        6
280
     0
281
     0
  0
CLASS
  1
SORTENTSTABLE
  2
AcDbSortentsTable
  3
ObjectDBX Classes
 90
        0
 91
        1
280
     0
281
     0
  0
CLASS
  1
CAMSSTRUCTBTNSTATE
  2
StructBtnState
  3
DesignerAssemblies
 90
     1024
 91
        1
280
     0
281
     0
  0
CLASS
  1
DICTIONARYVAR
  2
AcDbDictionaryVar
  3
ObjectDBX Classes
 90
        0
 91
        9
280
     0
281
     0
  0
CLASS
  1
ACDBSECTIONVIEWSTYLE
  2
AcDbSectionViewStyle
  3
ObjectDBX Classes
 90
     1025
 91
        1
280
     0
281
     0
  0
CLASS
  1
ACDBDETAILVIEWSTYLE
  2
AcDbDetailViewStyle
  3
ObjectDBX Classes
 90
     1025
 91
        1
280
     0
281
     0
  0
CLASS
  1
CELLSTYLEMAP
  2
AcDbCellStyleMap
  3
ObjectDBX Classes
 90
     1152
 91
        1
280
     0
281
     0
  0
ENDSEC
  0
SECTION
  2
TABLES
  0
TABLE
  2
VPORT
  5
8
330
0
100
AcDbSymbolTable
 70
     1
  0
VPORT
  5
29
330
8
100
AcDbSymbolTableRecord
100
AcDbViewportTableRecord
  2
*Active
 70
     0
 10
0.0
 20
0.0
 11
1.0
 21
1.0
 12
-4430.701426582254
 22
-2140.445196169046
 13
0.0
 23
0.0
 14
0.5
 24
0.5
 15
0.5
 25
0.5
 16
0.0
 26
0.0
 36
1.0
 17
148.4999796178229
 27
-105.0008259828643
 37
0.0
 40
16523.13434535632
 41
2.292712066905615
 42
50.0
 43
0.0
 44
0.0
 50
0.0
 51
0.0
 71
     0
 72
   100
 73
     1
 74
     3
 75
     0
 76
     0
 77
     0
 78
     0
281
     0
 65
     1
110
0.0
120
0.0
130
0.0
111
1.0
121
0.0
131
0.0
112
0.0
122
1.0
132
0.0
 79
     0
146
0.0
348
2F
 60
     3
 61
     5
292
     1
282
     1
141
0.0
142
0.0
 63
   250
421
  3355443
1001
ACAD_NAV_VCDISPLAY
1070
     3
  0
ENDTAB
  0
TABLE
  2
LTYPE
  5
5
330
0
100
AcDbSymbolTable
 70
    16
  0
LTYPE
  5
14
330
5
100
AcDbSymbolTableRecord
100
AcDbLinetypeTableRecord
  2
ByBlock
 70
     0
  3

 72
    65
 73
     0
 40
0.0
  0
LTYPE
  5
15
330
5
100
AcDbSymbolTableRecord
100
AcDbLinetypeTableRecord
  2
ByLayer
 70
     0
  3

 72
    65
 73
     0
 40
0.0
  0
LTYPE
  5
16
330
5
100
AcDbSymbolTableRecord
100
AcDbLinetypeTableRecord
  2
Continuous
 70
     0
  3
Solid line
 72
    65
 73
     0
 40
0.0
  0
LTYPE
  5
1D8
330
5
100
AcDbSymbolTableRecord
100
AcDbLinetypeTableRecord
  2
HIDDEN
 70
     0
  3
Hidden __ __ __ __ __ __ __ __ __ __ __ __ __ _
 72
    65
 73
     2
 40
0.375
 49
0.25
 74
     0
 49
-0.125
 74
     0
  0
LTYPE
  5
1D9
330
5
100
AcDbSymbolTableRecord
100
AcDbLinetypeTableRecord
  2
PHANTOM2
 70
     0
  3
Phantom (.5x) ___ _ _ ___ _ _ ___ _ _ ___ _ _
 72
    65
 73
     6
 40
1.25
 49
0.625
 74
     0
 49
-0.125
 74
     0
 49
0.125
 74
     0
 49
-0.125
 74
     0
 49
0.125
 74
     0
 49
-0.125
 74
     0
  0
LTYPE
  5
1DA
330
5
100
AcDbSymbolTableRecord
100
AcDbLinetypeTableRecord
  2
CENTER
 70
     0
  3
Center ____ _ ____ _ ____ _ ____ _ ____ _ ____
 72
    65
 73
     4
 40
2.0
 49
1.25
 74
     0
 49
-0.25
 74
     0
 49
0.25
 74
     0
 49
-0.25
 74
     0
  0
LTYPE
  5
221
330
5
100
AcDbSymbolTableRecord
100
AcDbLinetypeTableRecord
  2
AM_ISO02W050
 70
     0
  3
__ __ __ __ __ __ __ __ __ __ __ __ __ __ __
 72
    65
 73
     2
 40
7.5
 49
6.0
 74
     0
 49
-1.5
 74
     0
  0
LTYPE
  5
222
330
5
100
AcDbSymbolTableRecord
100
AcDbLinetypeTableRecord
  2
AM_ISO08W050
 70
     0
  3
____ . ____ . ____ . ____ . ____ . ____ . ____
 72
    65
 73
     4
 40
18.0
 49
12.0
 74
     0
 49
-1.5
 74
     0
 49
3.0
 74
     0
 49
-1.5
 74
     0
  0
LTYPE
  5
223
330
5
100
AcDbSymbolTableRecord
100
AcDbLinetypeTableRecord
  2
AM_ISO09W050
 70
     0
  3
_____ . . _____ . . _____ . . ____ .. ____
 72
    65
 73
     6
 40
22.5
 49
12.0
 74
     0
 49
-1.5
 74
     0
 49
3.0
 74
     0
 49
-1.5
 74
     0
 49
3.0
 74
     0
 49
-1.5
 74
     0
  0
LTYPE
  5
224
330
5
100
AcDbSymbolTableRecord
100
AcDbLinetypeTableRecord
  2
Amconstr
 70
     0
  3
_______________________
 72
    65
 73
     2
 40
9999.0
 49
9999.0
 74
     0
 49
0.0
 74
     0
  0
LTYPE
  5
225
330
5
100
AcDbSymbolTableRecord
100
AcDbLinetypeTableRecord
  2
AM_ISO08W050x2
 70
     0
  3
__ . __ . __ . __ . __ . __
 72
    65
 73
     4
 40
9.0
 49
6.0
 74
     0
 49
-0.75
 74
     0
 49
1.5
 74
     0
 49
-0.75
 74
     0
  0
LTYPE
  5
226
330
5
100
AcDbSymbolTableRecord
100
AcDbLinetypeTableRecord
  2
AM_ISO02W050x2
 70
     0
  3
 _ _ _ _ _ _ _ _ _ _ _ _
 72
    65
 73
     2
 40
3.75
 49
3.0
 74
     0
 49
-0.75
 74
     0
  0
LTYPE
  5
229
330
5
100
AcDbSymbolTableRecord
100
AcDbLinetypeTableRecord
  2
Amzigzag
 70
     0
  3
/\/-/\/-/\/-/\/-/\/-/\/
 72
    65
 73
     2
 40
11.0001
 49
0.0001
 74
     4
 75
   136
340
228
 46
0.04
 50
0.0
 44
0.0
 45
0.0
 49
-11.0
 74
     0
  0
LTYPE
  5
22A
330
5
100
AcDbSymbolTableRecord
100
AcDbLinetypeTableRecord
  2
CENTER2
 70
     0
  3
Center (.5x) ___ _ ___ _ ___ _ ___ _ ___ _ ___
 72
    65
 73
     4
 40
1.125
 49
0.75
 74
     0
 49
-0.125
 74
     0
 49
0.125
 74
     0
 49
-0.125
 74
     0
  0
LTYPE
  5
22B
330
5
100
AcDbSymbolTableRecord
100
AcDbLinetypeTableRecord
  2
HIDDEN2
 70
     0
  3
Hidden (.5x) _ _ _ _ _ _ _ _ _ _ _ _ _ _ _ _ _
 72
    65
 73
     2
 40
0.1875
 49
0.125
 74
     0
 49
-0.0625
 74
     0
  0
LTYPE
  5
22C
330
5
100
AcDbSymbolTableRecord
100
AcDbLinetypeTableRecord
  2
Amzigzag2
 70
     0
  3
/\/-/\/-/\/-/\/-/\/-/\/
 72
    65
 73
     2
 40
0.4401
 49
0.0001
 74
     4
 75
   136
340
228
 46
0.0016
 50
0.0
 44
0.0
 45
0.0
 49
-0.4400000000000001
 74
     0
  0
LTYPE
  5
23A
330
5
100
AcDbSymbolTableRecord
100
AcDbLinetypeTableRecord
  2
ACANSTGB
 70
     0
  3
__ . . __ . .
 72
    65
 73
     6
 40
0.35433070866
 49
0.15748031496
 74
     0
 49
-0.03937007874
 74
     0
 49
0.03937007874
 74
     0
 49
-0.03937007874
 74
     0
 49
0.03937007874
 74
     0
 49
-0.03937007874
 74
     0
  0
LTYPE
  5
23B
330
5
100
AcDbSymbolTableRecord
100
AcDbLinetypeTableRecord
  2
ACANSTGL
 70
     0
  3
_ _ _ _ _
 72
    65
 73
     2
 40
0.11811023622
 49
0.07874015748
 74
     0
 49
-0.03937007874
 74
     0
  0
ENDTAB
  0
TABLE
  2
LAYER
  5
2
102
{ACAD_XDICTIONARY
360
275
102
}
330
0
100
AcDbSymbolTable
 70
     5
  0
LAYER
  5
10
102
{ACAD_XDICTIONARY
360
2A8
102
}
330
2
100
AcDbSymbolTableRecord
100
AcDbLayerTableRecord
  2
0
 70
     0
 62
     7
  6
Continuous
370
    -3
390
F
347
171
348
0
  0
LAYER
  5
3B
102
{ACAD_XDICTIONARY
360
2AA
102
}
330
2
100
AcDbSymbolTableRecord
100
AcDbLayerTableRecord
  2
Layer 1
 70
     0
 62
     7
  6
Continuous
370
    -3
390
F
347
171
348
0
  0
LAYER
  5
40D
330
2
100
AcDbSymbolTableRecord
100
AcDbLayerTableRecord
  2
Dimensions
 70
     0
 62
     7
  6
Continuous
370
    -3
390
F
347
171
348
0
1001
AcAecLayerStandard
1000

1000

1001
AcCmTransparency
1071
        0
  0
LAYER
  5
410
330
2
100
AcDbSymbolTableRecord
100
AcDbLayerTableRecord
  2
Text
 70
     0
 62
     7
  6
Continuous
370
    -3
390
F
347
171
348
0
1001
AcAecLayerStandard
1000

1000

1001
AcCmTransparency
1071
        0
  0
LAYER
  5
411
330
2
100
AcDbSymbolTableRecord
100
AcDbLayerTableRecord
  2
Furniture
 70
     0
 62
     7
  6
Continuous
370
    -3
390
F
347
171
348
0
1001
AcAecLayerStandard
1000

1000

1001
AcCmTransparency
1071
        0
  0
ENDTAB
  0
TABLE
  2
STYLE
  5
3
330
0
100
AcDbSymbolTable
 70
     4
  0
STYLE
  5
11
330
3
100
AcDbSymbolTableRecord
100
AcDbTextStyleTableRecord
  2
Standard
 70
     0
 40
0.0
 41
1.000099999999999
 50
0.0
 71
     0
 42
0.2
  3
apercu_regular-webfont.ttf
  4

1001
ACAD
1000
Apercu
1071
        2
  0
STYLE
  5
228
330
3
100
AcDbSymbolTableRecord
100
AcDbTextStyleTableRecord
  2

 70
     1
 40
0.0
 41
1.0
 50
0.0
 71
     0
 42
0.2
  3
genltshp.shx
  4

  0
STYLE
  5
238
330
3
100
AcDbSymbolTableRecord
100
AcDbTextStyleTableRecord
  2
ACANSTS
 70
     0
 40
1.0
 41
1.0
 50
0.0
 71
     0
 42
0.2
  3
romans.shx
  4

  0
STYLE
  5
239
330
3
100
AcDbSymbolTableRecord
100
AcDbTextStyleTableRecord
  2
ACANSGDT
 70
     0
 40
0.0
 41
1.0
 50
0.0
 71
     0
 42
0.2
  3
amgdt.shx
  4

  0
ENDTAB
  0
TABLE
  2
VIEW
  5
6
330
0
100
AcDbSymbolTable
 70
     1
  0
ENDTAB
  0
TABLE
  2
UCS
  5
7
330
0
100
AcDbSymbolTable
 70
     0
  0
ENDTAB
  0
TABLE
  2
APPID
  5
9
330
0
100
AcDbSymbolTable
 70
    16
  0
APPID
  5
12
330
9
100
AcDbSymbolTableRecord
100
AcDbRegAppTableRecord
  2
ACAD
 70
     0
  0
APPID
  5
1AB
330
9
100
AcDbSymbolTableRecord
100
AcDbRegAppTableRecord
  2
MCAD_NO_VIS
 70
     0
  0
APPID
  5
1AC
330
9
100
AcDbSymbolTableRecord
100
AcDbRegAppTableRecord
  2
ACAD_TEMP_GRAPHIC
 70
     0
  0
APPID
  5
1DC
330
9
100
AcDbSymbolTableRecord
100
AcDbRegAppTableRecord
  2
AD_DRAW
 70
     0
  0
APPID
  5
1DF
330
9
100
AcDbSymbolTableRecord
100
AcDbRegAppTableRecord
  2
ACATTRIBSERVICES
 70
     0
  0
APPID
  5
1FF
330
9
100
AcDbSymbolTableRecord
100
AcDbRegAppTableRecord
  2
DESIGNERASSEMBLIES
 70
     0
  0
APPID
  5
205
330
9
100
AcDbSymbolTableRecord
100
AcDbRegAppTableRecord
  2
ACADM_DIM_EDIT
 70
     0
  0
APPID
  5
206
330
9
100
AcDbSymbolTableRecord
100
AcDbRegAppTableRecord
  2
AMDT_DM_ADJ
 70
     0
  0
APPID
  5
21E
330
9
100
AcDbSymbolTableRecord
100
AcDbRegAppTableRecord
  2
ACAD_DSTYLE_DIMJAG
 70
     0
  0
APPID
  5
21F
330
9
100
AcDbSymbolTableRecord
100
AcDbRegAppTableRecord
  2
ACAD_DSTYLE_DIMBREAK
 70
     0
  0
APPID
  5
249
330
9
100
AcDbSymbolTableRecord
100
AcDbRegAppTableRecord
  2
ACAD_EXEMPT_FROM_CAD_STANDARDS
 70
     0
  0
APPID
  5
283
330
9
100
AcDbSymbolTableRecord
100
AcDbRegAppTableRecord
  2
ACAD_PSEXT
 70
     0
  0
APPID
  5
40E
330
9
100
AcDbSymbolTableRecord
100
AcDbRegAppTableRecord
  2
AcAecLayerStandard
 70
     0
  0
APPID
  5
40F
330
9
100
AcDbSymbolTableRecord
100
AcDbRegAppTableRecord
  2
AcCmTransparency
 70
     0
  0
APPID
  5
4BC
330
9
100
AcDbSymbolTableRecord
100
AcDbRegAppTableRecord
  2
ACAD_NAV_VCDISPLAY
 70
     0
  0
APPID
  5
50F
330
9
100
AcDbSymbolTableRecord
100
AcDbRegAppTableRecord
  2
AcadAnnoPO
 70
     0
  0
ENDTAB
  0
TABLE
  2
DIMSTYLE
  5
A
330
0
100
AcDbSymbolTable
 70
     7
100
AcDbDimStyleTable
 71
     1
340
27
  0
DIMSTYLE
105
27
330
A
100
AcDbSymbolTableRecord
100
AcDbDimStyleTableRecord
  2
Standard
 70
     0
340
11
  0
DIMSTYLE
105
21D
102
{ACAD_REACTORS
330
20D
102
}
330
A
100
AcDbSymbolTableRecord
100
AcDbDimStyleTableRecord
  2
AM_ANSI
 70
     0
  4
mm
 41
0.12
 42
0.05
 43
0.5
 44
0.1
 47
0.1
 48
0.1
 78
     7
 79
     2
 90
     1
140
0.12
141
0.0
146
0.71
147
0.06
176
   256
177
   256
178
   140
274
     4
284
     7
340
11
345
14
346
14
347
14
371
    -1
372
    -1
1001
ACAD_DSTYLE_DIMJAG
1070
   388
1040
1.5
1001
ACAD_DSTYLE_DIMBREAK
1070
   391
1040
0.125
  0
DIMSTYLE
105
22D
330
A
100
AcDbSymbolTableRecord
100
AcDbDimStyleTableRecord
  2
AM_ANSI$3
 70
     0
  4
mm
 41
0.12
 42
0.05
 43
0.5
 44
0.1
 47
0.1
 48
0.1
 78
     7
 79
     2
 90
     1
140
0.12
141
0.0
146
0.71
147
0.06
176
   256
177
   256
178
   140
274
     4
284
     7
288
     1
289
     0
340
11
345
14
346
14
347
14
371
    -1
372
    -1
1001
ACAD_DSTYLE_DIMBREAK
1070
   391
1040
0.125
1001
ACAD_DSTYLE_DIMJAG
1070
   388
1040
1.5
  0
DIMSTYLE
105
22E
330
A
100
AcDbSymbolTableRecord
100
AcDbDimStyleTableRecord
  2
AM_ANSI$4
 70
     0
  4
mm
 41
0.12
 42
0.05
 43
0.5
 44
0.1
 47
0.1
 48
0.1
 78
     7
 79
     2
 90
     1
140
0.12
141
0.0
146
0.71
147
0.06
176
   256
177
   256
178
   140
274
     4
284
     7
288
     1
289
     0
340
11
345
14
346
14
347
14
371
    -1
372
    -1
1001
ACAD_DSTYLE_DIMBREAK
1070
   391
1040
0.125
1001
ACAD_DSTYLE_DIMJAG
1070
   388
1040
1.5
  0
DIMSTYLE
105
22F
330
A
100
AcDbSymbolTableRecord
100
AcDbDimStyleTableRecord
  2
AM_ANSI$7
 70
     0
  4
mm
 41
0.12
 42
0.05
 43
0.5
 44
0.1
 47
0.1
 48
0.1
 78
     7
 79
     2
 90
     1
140
0.12
141
0.0
146
0.71
147
0.06
176
   256
177
   256
178
   140
274
     4
284
     7
340
11
345
14
346
14
347
14
371
    -1
372
    -1
1001
ACAD_DSTYLE_DIMBREAK
1070
   391
1040
0.125
1001
ACAD_DSTYLE_DIMJAG
1070
   388
1040
1.5
  0
DIMSTYLE
105
230
330
A
100
AcDbSymbolTableRecord
100
AcDbDimStyleTableRecord
  2
AM_ANSI$SF
 70
     0
  4
mm
 41
0.12
 42
0.05
 43
0.5
 44
0.1
 47
0.1
 48
0.1
 75
     1
 76
     1
 78
     7
 79
     2
 90
     1
140
0.12
141
0.0
146
0.71
147
0.06
176
   256
177
   256
178
   140
274
     4
284
     7
340
11
345
14
346
14
347
14
371
    -1
372
    -1
1001
ACAD_DSTYLE_DIMBREAK
1070
   391
1040
0.125
1001
ACAD_DSTYLE_DIMJAG
1070
   388
1040
1.5
  0
DIMSTYLE
105
235
330
A
100
AcDbSymbolTableRecord
100
AcDbDimStyleTableRecord
  2
AM_ANSI$SH
 70
     0
  4
mm
 41
0.12
 42
0.05
 43
0.5
 44
0.1
 47
0.1
 48
0.1
 75
     1
 76
     1
 78
     7
 79
     2
 90
     1
140
0.12
141
0.0
146
0.71
147
0.06
173
     1
176
   256
177
   256
178
   140
274
     4
284
     7
340
11
343
231
345
14
346
14
347
14
371
    -1
372
    -1
1001
ACAD_DSTYLE_DIMBREAK
1070
   391
1040
0.125
1001
ACAD_DSTYLE_DIMJAG
1070
   388
1040
1.5
  0
ENDTAB
  0
TABLE
  2
BLOCK_RECORD
  5
1
330
0
100
AcDbSymbolTable
 70
    28
  0
BLOCK_RECORD
  5
1F
102
{ACAD_XDICTIONARY
360
255
102
}
330
1
100
AcDbSymbolTableRecord
100
AcDbBlockTableRecord
  2
*Model_Space
340
22
 70
     0
280
     1
281
     0
  0
BLOCK_RECORD
  5
1B
330
1
100
AcDbSymbolTableRecord
100
AcDbBlockTableRecord
  2
*Paper_Space
340
1E
 70
     0
280
     1
281
     0
  0
BLOCK_RECORD
  5
23
330
1
100
AcDbSymbolTableRecord
100
AcDbBlockTableRecord
  2
*Paper_Space0
340
26
 70
     0
280
     1
281
     0
  0
BLOCK_RECORD
  5
3C
330
1
100
AcDbSymbolTableRecord
100
AcDbBlockTableRecord
  2
block 2
340
0
102
{BLKREFS
331
3D
102
}
 70
     0
280
     1
281
     0
  0
BLOCK_RECORD
  5
40
330
1
100
AcDbSymbolTableRecord
100
AcDbBlockTableRecord
  2
block 3
340
0
102
{BLKREFS
331
41
102
}
 70
     0
280
     1
281
     0
  0
BLOCK_RECORD
  5
49
330
1
100
AcDbSymbolTableRecord
100
AcDbBlockTableRecord
  2
block 4
340
0
102
{BLKREFS
331
4A
102
}
 70
     0
280
     1
281
     0
  0
BLOCK_RECORD
  5
4D
330
1
100
AcDbSymbolTableRecord
100
AcDbBlockTableRecord
  2
block 5
340
0
102
{BLKREFS
331
4E
102
}
 70
     0
280
     1
281
     0
  0
BLOCK_RECORD
  5
51
330
1
100
AcDbSymbolTableRecord
100
AcDbBlockTableRecord
  2
block 6
340
0
102
{BLKREFS
331
52
102
}
 70
     0
280
     1
281
     0
  0
BLOCK_RECORD
  5
56
330
1
100
AcDbSymbolTableRecord
100
AcDbBlockTableRecord
  2
block 7
340
0
 70
     0
280
     1
281
     0
  0
BLOCK_RECORD
  5
5A
330
1
100
AcDbSymbolTableRecord
100
AcDbBlockTableRecord
  2
block 8
340
0
102
{BLKREFS
331
5B
102
}
 70
     0
280
     1
281
     0
  0
BLOCK_RECORD
  5
73
330
1
100
AcDbSymbolTableRecord
100
AcDbBlockTableRecord
  2
block 9
340
0
 70
     0
280
     1
281
     0
  0
BLOCK_RECORD
  5
77
330
1
100
AcDbSymbolTableRecord
100
AcDbBlockTableRecord
  2
block 10
340
0
102
{BLKREFS
331
78
102
}
 70
     0
280
     1
281
     0
  0
BLOCK_RECORD
  5
90
330
1
100
AcDbSymbolTableRecord
100
AcDbBlockTableRecord
  2
block 11
340
0
 70
     0
280
     1
281
     0
  0
BLOCK_RECORD
  5
94
330
1
100
AcDbSymbolTableRecord
100
AcDbBlockTableRecord
  2
block 12
340
0
102
{BLKREFS
331
95
102
}
 70
     0
280
     1
281
     0
  0
BLOCK_RECORD
  5
AD
330
1
100
AcDbSymbolTableRecord
100
AcDbBlockTableRecord
  2
block 13
340
0
 70
     0
280
     1
281
     0
  0
BLOCK_RECORD
  5
B1
330
1
100
AcDbSymbolTableRecord
100
AcDbBlockTableRecord
  2
block 14
340
0
102
{BLKREFS
331
B2
102
}
 70
     0
280
     1
281
     0
  0
BLOCK_RECORD
  5
CA
330
1
100
AcDbSymbolTableRecord
100
AcDbBlockTableRecord
  2
block 15
340
0
 70
     0
280
     1
281
     0
  0
BLOCK_RECORD
  5
CF
330
1
100
AcDbSymbolTableRecord
100
AcDbBlockTableRecord
  2
block 16
340
0
102
{BLKREFS
331
D0
102
}
 70
     0
280
     1
281
     0
  0
BLOCK_RECORD
  5
D3
330
1
100
AcDbSymbolTableRecord
100
AcDbBlockTableRecord
  2
block 17
340
0
102
{BLKREFS
331
D4
102
}
 70
     0
280
     1
281
     0
  0
BLOCK_RECORD
  5
DA
330
1
100
AcDbSymbolTableRecord
100
AcDbBlockTableRecord
  2
block 18
340
0
 70
     0
280
     1
281
     0
  0
BLOCK_RECORD
  5
E2
330
1
100
AcDbSymbolTableRecord
100
AcDbBlockTableRecord
  2
block 19
340
0
 70
     0
280
     1
281
     0
  0
BLOCK_RECORD
  5
FB
330
1
100
AcDbSymbolTableRecord
100
AcDbBlockTableRecord
  2
block 20
340
0
 70
     0
280
     1
281
     0
  0
BLOCK_RECORD
  5
114
330
1
100
AcDbSymbolTableRecord
100
AcDbBlockTableRecord
  2
block 21
340
0
 70
     0
280
     1
281
     0
  0
BLOCK_RECORD
  5
12D
330
1
100
AcDbSymbolTableRecord
100
AcDbBlockTableRecord
  2
block 22
340
0
 70
     0
280
     1
281
     0
  0
BLOCK_RECORD
  5
146
330
1
100
AcDbSymbolTableRecord
100
AcDbBlockTableRecord
  2
block 23
340
0
 70
     0
280
     1
281
     0
  0
BLOCK_RECORD
  5
14B
330
1
100
AcDbSymbolTableRecord
100
AcDbBlockTableRecord
  2
block 24
340
0
102
{BLKREFS
331
14C
102
}
 70
     0
280
     1
281
     0
  0
BLOCK_RECORD
  5
14F
330
1
100
AcDbSymbolTableRecord
100
AcDbBlockTableRecord
  2
block 25
340
0
102
{BLKREFS
331
150
102
}
 70
     0
280
     1
281
     0
  0
BLOCK_RECORD
  5
156
330
1
100
AcDbSymbolTableRecord
100
AcDbBlockTableRecord
  2
block 26
340
0
 70
     0
280
     1
281
     0
  0
BLOCK_RECORD
  5
1F7
330
1
100
AcDbSymbolTableRecord
100
AcDbBlockTableRecord
  2
*U26
340
0
 70
     0
280
     1
281
     0
  0
BLOCK_RECORD
  5
231
330
1
100
AcDbSymbolTableRecord
100
AcDbBlockTableRecord
  2
GENAXEH
340
0
 70
     0
280
     1
281
     0
  0
ENDTAB
  0
ENDSEC
  0
SECTION
  2
BLOCKS
  0
BLOCK
  5
20
330
1F
100
AcDbEntity
  8
0
100
AcDbBlockBegin
  2
*Model_Space
 70
     0
 10
0.0
 20
0.0
 30
0.0
  3
*Model_Space
  1

  0
ENDBLK
  5
21
330
1F
100
AcDbEntity
  8
0
100
AcDbBlockEnd
  0
BLOCK
  5
1C
330
1B
100
AcDbEntity
 67
     1
  8
0
100
AcDbBlockBegin
  2
*Paper_Space
 70
     0
 10
0.0
 20
0.0
 30
0.0
  3
*Paper_Space
  1

  0
ENDBLK
  5
1D
330
1B
100
AcDbEntity
 67
     1
  8
0
100
AcDbBlockEnd
  0
BLOCK
  5
24
330
23
100
AcDbEntity
 67
     1
  8
0
100
AcDbBlockBegin
  2
*Paper_Space0
 70
     0
 10
0.0
 20
0.0
 30
0.0
  3
*Paper_Space0
  1

  0
VIEWPORT
  5
280
102
{ACAD_XDICTIONARY
360
281
102
}
330
23
100
AcDbEntity
 67
     1
  8
0
100
AcDbViewport
 10
5.249999639556165
 20
3.999999883606678
 30
0.0
 40
17.63310962809241
 41
8.992999745766949
 68
     0
 69
     0
 12
5.249999639556165
 22
3.999999883606678
 13
0.0
 23
0.0
 14
10.0
 24
10.0
 15
10.0
 25
10.0
 16
0.0
 26
0.0
 36
1.0
 17
0.0
 27
0.0
 37
0.0
 42
50.0
 43
0.0
 44
0.0
 45
8.992999745766949
 50
0.0
 51
0.0
 72
   100
 90
   819232
  1

281
     0
 71
     1
 74
     0
110
0.0
120
0.0
130
0.0
111
1.0
121
0.0
131
0.0
112
0.0
122
1.0
132
0.0
 79
     0
146
0.0
170
     0
 61
     5
348
2F
292
     1
282
     1
141
0.0
142
0.0
 63
   250
421
  3355443
  0
ENDBLK
  5
25
330
23
100
AcDbEntity
 67
     1
  8
0
100
AcDbBlockEnd
  0
BLOCK
  5
3E
330
3C
100
AcDbEntity
  8
0
100
AcDbBlockBegin
  2
block 2
 70
     0
 10
0.0
 20
0.0
 30
0.0
  3
block 2
  1

  0
ENDBLK
  5
3F
330
3C
100
AcDbEntity
  8
0
100
AcDbBlockEnd
  0
BLOCK
  5
42
330
40
100
AcDbEntity
  8
0
100
AcDbBlockBegin
  2
block 3
 70
     0
 10
0.0
 20
0.0
 30
0.0
  3
block 3
  1

  0
ENDBLK
  5
43
330
40
100
AcDbEntity
  8
0
100
AcDbBlockEnd
  0
BLOCK
  5
4B
330
49
100
AcDbEntity
  8
0
100
AcDbBlockBegin
  2
block 4
 70
     0
 10
0.0
 20
0.0
 30
0.0
  3
block 4
  1

  0
INSERT
  5
4E
330
49
100
AcDbEntity
  8
Layer 1
100
AcDbBlockReference
  2
block 5
 10
0.0
 20
0.0
 30
0.0
  0
INSERT
  5
52
330
49
100
AcDbEntity
  8
Layer 1
100
AcDbBlockReference
  2
block 6
 10
0.0
 20
0.0
 30
0.0
  0
ENDBLK
  5
4C
330
49
100
AcDbEntity
  8
0
100
AcDbBlockEnd
  0
BLOCK
  5
4F
330
4D
100
AcDbEntity
  8
0
100
AcDbBlockBegin
  2
block 5
 70
     0
 10
0.0
 20
0.0
 30
0.0
  3
block 5
  1

  0
ENDBLK
  5
50
330
4D
100
AcDbEntity
  8
0
100
AcDbBlockEnd
  0
BLOCK
  5
53
330
51
100
AcDbEntity
  8
0
100
AcDbBlockBegin
  2
block 6
 70
     0
 10
0.0
 20
0.0
 30
0.0
  3
block 6
  1

  0
ENDBLK
  5
54
330
51
100
AcDbEntity
  8
0
100
AcDbBlockEnd
  0
BLOCK
  5
58
330
56
100
AcDbEntity
  8
0
100
AcDbBlockBegin
  2
block 7
 70
     0
 10
0.0
 20
0.0
 30
0.0
  3
block 7
  1

  0
INSERT
  5
5B
330
56
100
AcDbEntity
  8
Layer 1
100
AcDbBlockReference
  2
block 8
 10
0.0
 20
0.0
 30
0.0
  0
MTEXT
  5
6F
330
56
100
AcDbEntity
  8
Layer 1
 62
   251
100
AcDbMText
 10
82.07784964310901
 20
-88.94737004069719
 30
0.0
 40
1.559277777387958
 41
0.0
 46
0.0
 71
     7
 72
     1
  1
\fApercu|b1|i0|c0|p34;\W1.0004;NKBD108
 73
     1
 44
1.0
  0
MTEXT
  5
70
330
56
100
AcDbEntity
  8
Layer 1
 62
   251
100
AcDbMText
 10
83.97024059315674
 20
-91.69896780476625
 30
0.0
 40
1.559277777387958
 41
0.0
 46
0.0
 71
     7
 72
     1
  1
\fApercu|b1|i0|c0|p34;\W1.0004;single
 73
     1
 44
1.0
  0
MTEXT
  5
71
330
56
100
AcDbEntity
  8
Layer 1
 62
   251
100
AcDbMText
 10
85.19531654771158
 20
-65.10696477321978
 30
0.0
 40
1.559277777387958
 41
0.0
 46
0.0
 71
     7
 72
     1
  1
\fApercu|b0|i0|c0|p34;\W1.0004;108
 73
     1
 44
1.0
  0
MTEXT
  5
72
330
56
100
AcDbEntity
  8
Layer 1
 62
   251
100
AcDbMText
 10
93.40911320364424
 20
-76.40481090754811
 30
0.0
 40
1.559277777387958
 41
0.0
 46
0.0
 71
     7
 72
     1
  1
\fApercu|b0|i0|c0|p34;\W1.0004;200
 73
     1
 44
1.0
  0
ENDBLK
  5
59
330
56
100
AcDbEntity
  8
0
100
AcDbBlockEnd
  0
BLOCK
  5
5C
330
5A
100
AcDbEntity
  8
0
100
AcDbBlockBegin
  2
block 8
 70
     0
 10
0.0
 20
0.0
 30
0.0
  3
block 8
  1

  0
POLYLINE
  5
5E
330
5A
100
AcDbEntity
  8
Layer 1
 62
   250
370
     9
100
AcDb2dPolyline
 66
     1
 10
0.0
 20
0.0
 30
0.0
  0
VERTEX
  5
5F
330
5E
100
AcDbEntity
  8
Layer 1
 62
   250
370
     9
100
AcDbVertex
100
AcDb2dVertex
 10
91.90929088414073
 20
-84.78018254173898
 30
0.0
  0
VERTEX
  5
60
330
5E
100
AcDbEntity
  8
Layer 1
 62
   250
370
     9
100
AcDbVertex
100
AcDb2dVertex
 10
82.10179305673149
 20
-84.78018254173898
 30
0.0
  0
VERTEX
  5
61
330
5E
100
AcDbEntity
  8
Layer 1
 62
   250
370
     9
100
AcDbVertex
100
AcDb2dVertex
 10
82.10179305673149
 20
-66.61850041737316
 30
0.0
  0
VERTEX
  5
62
330
5E
100
AcDbEntity
  8
Layer 1
 62
   250
370
     9
100
AcDbVertex
100
AcDb2dVertex
 10
91.90929088414073
 20
-66.61850041737316
 30
0.0
  0
VERTEX
  5
63
330
5E
100
AcDbEntity
  8
Layer 1
 62
   250
370
     9
100
AcDbVertex
100
AcDb2dVertex
 10
91.90929088414073
 20
-84.78018254173898
 30
0.0
  0
SEQEND
  5
64
330
5E
100
AcDbEntity
  8
Layer 1
370
     9
  0
POLYLINE
  5
65
330
5A
100
AcDbEntity
  8
Layer 1
 62
   250
370
     9
100
AcDb2dPolyline
 66
     1
 10
0.0
 20
0.0
 30
0.0
  0
VERTEX
  5
66
330
65
100
AcDbEntity
  8
Layer 1
 62
   250
370
     9
100
AcDbVertex
100
AcDb2dVertex
 10
91.29950898325152
 20
-84.22207707312852
 30
0.0
  0
VERTEX
  5
67
330
65
100
AcDbEntity
  8
Layer 1
 62
   250
370
     9
100
AcDbVertex
100
AcDb2dVertex
 10
82.64129500972163
 20
-84.22207707312852
 30
0.0
  0
VERTEX
  5
68
330
65
100
AcDbEntity
  8
Layer 1
 62
   250
370
     9
100
AcDbVertex
100
AcDb2dVertex
 10
82.64129500972163
 20
-67.84254284328241
 30
0.0
  0
VERTEX
  5
69
330
65
100
AcDbEntity
  8
Layer 1
 62
   250
370
     9
100
AcDbVertex
100
AcDb2dVertex
 10
91.29950898325152
 20
-67.84254284328241
 30
0.0
  0
VERTEX
  5
6A
330
65
100
AcDbEntity
  8
Layer 1
 62
   250
370
     9
100
AcDbVertex
100
AcDb2dVertex
 10
91.29950898325152
 20
-84.22207707312852
 30
0.0
  0
SEQEND
  5
6B
330
65
100
AcDbEntity
  8
Layer 1
370
     9
  0
SPLINE
  5
6C
330
5A
100
AcDbEntity
  8
Layer 1
 62
   250
370
     9
100
AcDbSpline
210
0.0
220
0.0
230
1.0
 70
     8
 71
     3
 72
     8
 73
     4
 74
     0
 42
0.000000001
 43
0.0000000001
 40
0.0
 40
0.0
 40
0.0
 40
0.0
 40
1.0
 40
1.0
 40
1.0
 40
1.0
 10
82.10248207582855
 20
-67.73006047568902
 30
0.0
 10
82.10248207582855
 20
-67.79224444919778
 30
0.0
 10
82.34294974069898
 20
-67.84254284328241
 30
0.0
 10
82.64129500972163
 20
-67.84254284328241
 30
0.0
  0
SPLINE
  5
6D
330
5A
100
AcDbEntity
  8
Layer 1
 62
   250
370
     9
100
AcDbSpline
210
0.0
220
0.0
230
1.0
 70
     8
 71
     3
 72
     8
 73
     4
 74
     0
 42
0.000000001
 43
0.0000000001
 40
0.0
 40
0.0
 40
0.0
 40
0.0
 40
1.0
 40
1.0
 40
1.0
 40
1.0
 10
91.90929088414073
 20
-67.73006047568902
 30
0.0
 10
91.90929088414073
 20
-67.79224444919778
 30
0.0
 10
91.63643932170895
 20
-67.84254284328241
 30
0.0
 10
91.29950898325152
 20
-67.84254284328241
 30
0.0
  0
SPLINE
  5
6E
330
5A
100
AcDbEntity
  8
Layer 1
 62
   250
370
     9
100
AcDbSpline
210
0.0
220
0.0
230
1.0
 70
     8
 71
     3
 72
     8
 73
     4
 74
     0
 42
0.000000001
 43
0.0000000001
 40
0.0
 40
0.0
 40
0.0
 40
0.0
 40
1.0
 40
1.0
 40
1.0
 40
1.0
 10
82.10248207582855
 20
-67.14611679093917
 30
0.0
 10
82.91552461034752
 20
-67.29167207519097
 30
0.0
 10
92.31856822778842
 20
-67.26945120931111
 30
0.0
 10
91.90929088414073
 20
-67.14611679093917
 30
0.0
  0
ENDBLK
  5
5D
330
5A
100
AcDbEntity
  8
0
100
AcDbBlockEnd
  0
BLOCK
  5
75
330
73
100
AcDbEntity
  8
0
100
AcDbBlockBegin
  2
block 9
 70
     0
 10
0.0
 20
0.0
 30
0.0
  3
block 9
  1

  0
INSERT
  5
78
330
73
100
AcDbEntity
  8
Layer 1
100
AcDbBlockReference
  2
block 10
 10
0.0
 20
0.0
 30
0.0
  0
MTEXT
  5
8C
330
73
100
AcDbEntity
  8
Layer 1
 62
   251
100
AcDbMText
 10
139.2769422394863
 20
-88.94737004069719
 30
0.0
 40
1.559277777387958
 41
0.0
 46
0.0
 71
     7
 72
     1
  1
\fApercu|b1|i0|c0|p34;\W1.0004;NKBD169
 73
     1
 44
1.0
  0
MTEXT
  5
8D
330
73
100
AcDbEntity
  8
Layer 1
 62
   251
100
AcDbMText
 10
140.8470445068889
 20
-91.69896780476625
 30
0.0
 40
1.559277777387958
 41
0.0
 46
0.0
 71
     7
 72
     1
  1
\fApercu|b1|i0|c0|p34;\W1.0004;queen
 73
     1
 44
1.0
  0
MTEXT
  5
8E
330
73
100
AcDbEntity
  8
Layer 1
 62
   251
100
AcDbMText
 10
142.4012993350594
 20
-63.79369437424255
 30
0.0
 40
1.559277777387958
 41
0.0
 46
0.0
 71
     7
 72
     1
  1
\fApercu|b0|i0|c0|p34;\W1.0004;169
 73
     1
 44
1.0
  0
MTEXT
  5
8F
330
73
100
AcDbEntity
  8
Layer 1
 62
   251
100
AcDbMText
 10
153.3250080996896
 20
-75.76126707090344
 30
0.0
 40
1.559277777387958
 41
0.0
 46
0.0
 71
     7
 72
     1
  1
\fApercu|b0|i0|c0|p34;\W1.0004;215
 73
     1
 44
1.0
  0
ENDBLK
  5
76
330
73
100
AcDbEntity
  8
0
100
AcDbBlockEnd
  0
BLOCK
  5
79
330
77
100
AcDbEntity
  8
0
100
AcDbBlockBegin
  2
block 10
 70
     0
 10
0.0
 20
0.0
 30
0.0
  3
block 10
  1

  0
POLYLINE
  5
7B
330
77
100
AcDbEntity
  8
Layer 1
 62
   250
370
     9
100
AcDb2dPolyline
 66
     1
 10
0.0
 20
0.0
 30
0.0
  0
VERTEX
  5
7C
330
7B
100
AcDbEntity
  8
Layer 1
 62
   250
370
     9
100
AcDbVertex
100
AcDb2dVertex
 10
151.8246690158633
 20
-84.8177340825282
 30
0.0
  0
VERTEX
  5
7D
330
7B
100
AcDbEntity
  8
Layer 1
 62
   250
370
     9
100
AcDbVertex
100
AcDb2dVertex
 10
136.4790079411406
 20
-84.8177340825282
 30
0.0
  0
VERTEX
  5
7E
330
7B
100
AcDbEntity
  8
Layer 1
 62
   250
370
     9
100
AcDbVertex
100
AcDb2dVertex
 10
136.4790079411406
 20
-65.29403345806885
 30
0.0
  0
VERTEX
  5
7F
330
7B
100
AcDbEntity
  8
Layer 1
 62
   250
370
     9
100
AcDbVertex
100
AcDb2dVertex
 10
151.8246690158633
 20
-65.29403345806885
 30
0.0
  0
VERTEX
  5
80
330
7B
100
AcDbEntity
  8
Layer 1
 62
   250
370
     9
100
AcDbVertex
100
AcDb2dVertex
 10
151.8246690158633
 20
-84.8177340825282
 30
0.0
  0
SEQEND
  5
81
330
7B
100
AcDbEntity
  8
Layer 1
370
     9
  0
POLYLINE
  5
82
330
77
100
AcDbEntity
  8
Layer 1
 62
   250
370
     9
100
AcDb2dPolyline
 66
     1
 10
0.0
 20
0.0
 30
0.0
  0
VERTEX
  5
83
330
82
100
AcDbEntity
  8
Layer 1
 62
   250
370
     9
100
AcDbVertex
100
AcDb2dVertex
 10
151.2706976618351
 20
-84.24584823197674
 30
0.0
  0
VERTEX
  5
84
330
82
100
AcDbEntity
  8
Layer 1
 62
   250
370
     9
100
AcDbVertex
100
AcDb2dVertex
 10
137.0750094600889
 20
-84.24584823197674
 30
0.0
  0
VERTEX
  5
85
330
82
100
AcDbEntity
  8
Layer 1
 62
   250
370
     9
100
AcDbVertex
100
AcDb2dVertex
 10
137.0750094600889
 20
-66.50257295429449
 30
0.0
  0
VERTEX
  5
86
330
82
100
AcDbEntity
  8
Layer 1
 62
   250
370
     9
100
AcDbVertex
100
AcDb2dVertex
 10
151.2706976618351
 20
-66.50257295429449
 30
0.0
  0
VERTEX
  5
87
330
82
100
AcDbEntity
  8
Layer 1
 62
   250
370
     9
100
AcDbVertex
100
AcDb2dVertex
 10
151.2706976618351
 20
-84.24584823197674
 30
0.0
  0
SEQEND
  5
88
330
82
100
AcDbEntity
  8
Layer 1
370
     9
  0
SPLINE
  5
89
330
77
100
AcDbEntity
  8
Layer 1
 62
   250
370
     9
100
AcDbSpline
210
0.0
220
0.0
230
1.0
 70
     8
 71
     3
 72
     8
 73
     4
 74
     0
 42
0.000000001
 43
0.0000000001
 40
0.0
 40
0.0
 40
0.0
 40
0.0
 40
1.0
 40
1.0
 40
1.0
 40
1.0
 10
136.4790079411406
 20
-66.39026284147535
 30
0.0
 10
136.4790079411406
 20
-66.45227456020986
 30
0.0
 10
136.7773532101633
 20
-66.50257295429449
 30
0.0
 10
137.0750094600889
 20
-66.50257295429449
 30
0.0
  0
SPLINE
  5
8A
330
77
100
AcDbEntity
  8
Layer 1
 62
   250
370
     9
100
AcDbSpline
210
0.0
220
0.0
230
1.0
 70
     8
 71
     3
 72
     8
 73
     4
 74
     0
 42
0.000000001
 43
0.0000000001
 40
0.0
 40
0.0
 40
0.0
 40
0.0
 40
1.0
 40
1.0
 40
1.0
 40
1.0
 10
151.8246690158633
 20
-66.39026284147535
 30
0.0
 10
151.8246690158633
 20
-66.45227456020986
 30
0.0
 10
151.5525064725285
 20
-66.50257295429449
 30
0.0
 10
151.2155761340711
 20
-66.50257295429449
 30
0.0
  0
SPLINE
  5
8B
330
77
100
AcDbEntity
  8
Layer 1
 62
   250
370
     9
100
AcDbSpline
210
0.0
220
0.0
230
1.0
 70
     8
 71
     3
 72
     8
 73
     4
 74
     0
 42
0.000000001
 43
0.0000000001
 40
0.0
 40
0.0
 40
0.0
 40
0.0
 40
1.0
 40
1.0
 40
1.0
 40
1.0
 10
136.4790079411406
 20
-65.80614690195123
 30
0.0
 10
137.2920504756596
 20
-65.95187444097731
 30
0.0
 10
152.2339463595109
 20
-65.92948132032319
 30
0.0
 10
151.8246690158633
 20
-65.80614690195123
 30
0.0
  0
ENDBLK
  5
7A
330
77
100
AcDbEntity
  8
0
100
AcDbBlockEnd
  0
BLOCK
  5
92
330
90
100
AcDbEntity
  8
0
100
AcDbBlockBegin
  2
block 11
 70
     0
 10
0.0
 20
0.0
 30
0.0
  3
block 11
  1

  0
INSERT
  5
95
330
90
100
AcDbEntity
  8
Layer 1
100
AcDbBlockReference
  2
block 12
 10
0.0
 20
0.0
 30
0.0
  0
MTEXT
  5
A9
330
90
100
AcDbEntity
  8
Layer 1
 62
   251
100
AcDbMText
 10
109.7450669756019
 20
-88.94737004069719
 30
0.0
 40
1.559277777387958
 41
0.0
 46
0.0
 71
     7
 72
     1
  1
\fApercu|b1|i0|c0|p34;\W1.0004;NKBD153
 73
     1
 44
1.0
  0
MTEXT
  5
AA
330
90
100
AcDbEntity
  8
Layer 1
 62
   251
100
AcDbMText
 10
110.9182942431037
 20
-91.69896780476625
 30
0.0
 40
1.559277777387958
 41
0.0
 46
0.0
 71
     7
 72
     1
  1
\fApercu|b1|i0|c0|p34;\W1.0004;double
 73
     1
 44
1.0
  0
MTEXT
  5
AB
330
90
100
AcDbEntity
  8
Layer 1
 62
   251
100
AcDbMText
 10
112.8499592816833
 20
-65.10696477321978
 30
0.0
 40
1.559277777387958
 41
0.0
 46
0.0
 71
     7
 72
     1
  1
\fApercu|b0|i0|c0|p34;\W1.0004;153
 73
     1
 44
1.0
  0
MTEXT
  5
AC
330
90
100
AcDbEntity
  8
Layer 1
 62
   251
100
AcDbMText
 10
123.0408962366009
 20
-76.40446639799958
 30
0.0
 40
1.559277777387958
 41
0.0
 46
0.0
 71
     7
 72
     1
  1
\fApercu|b0|i0|c0|p34;\W1.0004;200
 73
     1
 44
1.0
  0
ENDBLK
  5
93
330
90
100
AcDbEntity
  8
0
100
AcDbBlockEnd
  0
BLOCK
  5
96
330
94
100
AcDbEntity
  8
0
100
AcDbBlockBegin
  2
block 12
 70
     0
 10
0.0
 20
0.0
 30
0.0
  3
block 12
  1

  0
POLYLINE
  5
98
330
94
100
AcDbEntity
  8
Layer 1
 62
   250
370
     9
100
AcDb2dPolyline
 66
     1
 10
0.0
 20
0.0
 30
0.0
  0
VERTEX
  5
99
330
98
100
AcDbEntity
  8
Layer 1
 62
   250
370
     9
100
AcDbVertex
100
AcDb2dVertex
 10
121.5551988085869
 20
-84.78018254173898
 30
0.0
  0
VERTEX
  5
9A
330
98
100
AcDbEntity
  8
Layer 1
 62
   250
370
     9
100
AcDbVertex
100
AcDb2dVertex
 10
107.6611287165743
 20
-84.78018254173898
 30
0.0
  0
VERTEX
  5
9B
330
98
100
AcDbEntity
  8
Layer 1
 62
   250
370
     9
100
AcDbVertex
100
AcDb2dVertex
 10
107.6611287165743
 20
-66.61850041737316
 30
0.0
  0
VERTEX
  5
9C
330
98
100
AcDbEntity
  8
Layer 1
 62
   250
370
     9
100
AcDbVertex
100
AcDb2dVertex
 10
121.5551988085869
 20
-66.61850041737316
 30
0.0
  0
VERTEX
  5
9D
330
98
100
AcDbEntity
  8
Layer 1
 62
   250
370
     9
100
AcDbVertex
100
AcDb2dVertex
 10
121.5551988085869
 20
-84.78018254173898
 30
0.0
  0
SEQEND
  5
9E
330
98
100
AcDbEntity
  8
Layer 1
370
     9
  0
POLYLINE
  5
9F
330
94
100
AcDbEntity
  8
Layer 1
 62
   250
370
     9
100
AcDb2dPolyline
 66
     1
 10
0.0
 20
0.0
 30
0.0
  0
VERTEX
  5
A0
330
9F
100
AcDbEntity
  8
Layer 1
 62
   250
370
     9
100
AcDbVertex
100
AcDb2dVertex
 10
120.9247463347862
 20
-84.22207707312852
 30
0.0
  0
VERTEX
  5
A1
330
9F
100
AcDbEntity
  8
Layer 1
 62
   250
370
     9
100
AcDbVertex
100
AcDb2dVertex
 10
108.2571302355225
 20
-84.22207707312852
 30
0.0
  0
VERTEX
  5
A2
330
9F
100
AcDbEntity
  8
Layer 1
 62
   250
370
     9
100
AcDbVertex
100
AcDb2dVertex
 10
108.2571302355225
 20
-67.84254284328241
 30
0.0
  0
VERTEX
  5
A3
330
9F
100
AcDbEntity
  8
Layer 1
 62
   250
370
     9
100
AcDbVertex
100
AcDb2dVertex
 10
120.9247463347862
 20
-67.84254284328241
 30
0.0
  0
VERTEX
  5
A4
330
9F
100
AcDbEntity
  8
Layer 1
 62
   250
370
     9
100
AcDbVertex
100
AcDb2dVertex
 10
120.9247463347862
 20
-84.22207707312852
 30
0.0
  0
SEQEND
  5
A5
330
9F
100
AcDbEntity
  8
Layer 1
370
     9
  0
SPLINE
  5
A6
330
94
100
AcDbEntity
  8
Layer 1
 62
   250
370
     9
100
AcDbSpline
210
0.0
220
0.0
230
1.0
 70
     8
 71
     3
 72
     8
 73
     4
 74
     0
 42
0.000000001
 43
0.0000000001
 40
0.0
 40
0.0
 40
0.0
 40
0.0
 40
1.0
 40
1.0
 40
1.0
 40
1.0
 10
107.6611287165743
 20
-67.73006047568902
 30
0.0
 10
107.6611287165743
 20
-67.79224444919778
 30
0.0
 10
107.932602240812
 20
-67.84254284328241
 30
0.0
 10
108.2309475098346
 20
-67.84254284328241
 30
0.0
  0
SPLINE
  5
A7
330
94
100
AcDbEntity
  8
Layer 1
 62
   250
370
     9
100
AcDbSpline
210
0.0
220
0.0
230
1.0
 70
     8
 71
     3
 72
     8
 73
     4
 74
     0
 42
0.000000001
 43
0.0000000001
 40
0.0
 40
0.0
 40
0.0
 40
0.0
 40
1.0
 40
1.0
 40
1.0
 40
1.0
 10
121.5338392165783
 20
-67.73006047568902
 30
0.0
 10
121.5338392165783
 20
-67.79224444919778
 30
0.0
 10
121.2616766732436
 20
-67.84254284328241
 30
0.0
 10
120.9247463347862
 20
-67.84254284328241
 30
0.0
  0
SPLINE
  5
A8
330
94
100
AcDbEntity
  8
Layer 1
 62
   250
370
     9
100
AcDbSpline
210
0.0
220
0.0
230
1.0
 70
     8
 71
     3
 72
     8
 73
     4
 74
     0
 42
0.000000001
 43
0.0000000001
 40
0.0
 40
0.0
 40
0.0
 40
0.0
 40
1.0
 40
1.0
 40
1.0
 40
1.0
 10
107.6611287165743
 20
-67.14611679093917
 30
0.0
 10
108.4748602701903
 20
-67.29167207519097
 30
0.0
 10
121.9506957702936
 20
-67.26945120931111
 30
0.0
 10
121.5421074457429
 20
-67.14611679093917
 30
0.0
  0
ENDBLK
  5
97
330
94
100
AcDbEntity
  8
0
100
AcDbBlockEnd
  0
BLOCK
  5
AF
330
AD
100
AcDbEntity
  8
0
100
AcDbBlockBegin
  2
block 13
 70
     0
 10
0.0
 20
0.0
 30
0.0
  3
block 13
  1

  0
INSERT
  5
B2
330
AD
100
AcDbEntity
  8
Layer 1
100
AcDbBlockReference
  2
block 14
 10
0.0
 20
0.0
 30
0.0
  0
MTEXT
  5
C6
330
AD
100
AcDbEntity
  8
Layer 1
 62
   251
100
AcDbMText
 10
170.8994736985946
 20
-88.94737004069719
 30
0.0
 40
1.559277777387958
 41
0.0
 46
0.0
 71
     7
 72
     1
  1
\fApercu|b1|i0|c0|p34;\W1.0004;NKBD199
 73
     1
 44
1.0
  0
MTEXT
  5
C7
330
AD
100
AcDbEntity
  8
Layer 1
 62
   251
100
AcDbMText
 10
173.6004285590304
 20
-91.69896780476625
 30
0.0
 40
1.559277777387958
 41
0.0
 46
0.0
 71
     7
 72
     1
  1
\fApercu|b1|i0|c0|p34;\W1.0004;king
 73
     1
 44
1.0
  0
MTEXT
  5
C8
330
AD
100
AcDbEntity
  8
Layer 1
 62
   251
100
AcDbMText
 10
174.0241753037162
 20
-63.79369437424255
 30
0.0
 40
1.559277777387958
 41
0.0
 46
0.0
 71
     7
 72
     1
  1
\fApercu|b0|i0|c0|p34;\W1.0004;199
 73
     1
 44
1.0
  0
MTEXT
  5
C9
330
AD
100
AcDbEntity
  8
Layer 1
 62
   251
100
AcDbMText
 10
186.3521049881342
 20
-75.76126707090344
 30
0.0
 40
1.559277777387958
 41
0.0
 46
0.0
 71
     7
 72
     1
  1
\fApercu|b0|i0|c0|p34;\W1.0004;215
 73
     1
 44
1.0
  0
ENDBLK
  5
B0
330
AD
100
AcDbEntity
  8
0
100
AcDbBlockEnd
  0
BLOCK
  5
B3
330
B1
100
AcDbEntity
  8
0
100
AcDbBlockBegin
  2
block 14
 70
     0
 10
0.0
 20
0.0
 30
0.0
  3
block 14
  1

  0
POLYLINE
  5
B5
330
B1
100
AcDbEntity
  8
Layer 1
 62
   250
370
     9
100
AcDb2dPolyline
 66
     1
 10
0.0
 20
0.0
 30
0.0
  0
VERTEX
  5
B6
330
B5
100
AcDbEntity
  8
Layer 1
 62
   250
370
     9
100
AcDbVertex
100
AcDb2dVertex
 10
184.8107692680334
 20
-84.8177340825282
 30
0.0
  0
VERTEX
  5
B7
330
B5
100
AcDbEntity
  8
Layer 1
 62
   250
370
     9
100
AcDbVertex
100
AcDb2dVertex
 10
166.7405544288009
 20
-84.8177340825282
 30
0.0
  0
VERTEX
  5
B8
330
B5
100
AcDbEntity
  8
Layer 1
 62
   250
370
     9
100
AcDbVertex
100
AcDb2dVertex
 10
166.7405544288009
 20
-65.29403345806885
 30
0.0
  0
VERTEX
  5
B9
330
B5
100
AcDbEntity
  8
Layer 1
 62
   250
370
     9
100
AcDbVertex
100
AcDb2dVertex
 10
184.8107692680334
 20
-65.29403345806885
 30
0.0
  0
VERTEX
  5
BA
330
B5
100
AcDbEntity
  8
Layer 1
 62
   250
370
     9
100
AcDbVertex
100
AcDb2dVertex
 10
184.8107692680334
 20
-84.8177340825282
 30
0.0
  0
SEQEND
  5
BB
330
B5
100
AcDbEntity
  8
Layer 1
370
     9
  0
POLYLINE
  5
BC
330
B1
100
AcDbEntity
  8
Layer 1
 62
   250
370
     9
100
AcDb2dPolyline
 66
     1
 10
0.0
 20
0.0
 30
0.0
  0
VERTEX
  5
BD
330
BC
100
AcDbEntity
  8
Layer 1
 62
   250
370
     9
100
AcDbVertex
100
AcDb2dVertex
 10
184.2643771240728
 20
-84.24584823197674
 30
0.0
  0
VERTEX
  5
BE
330
BC
100
AcDbEntity
  8
Layer 1
 62
   250
370
     9
100
AcDbVertex
100
AcDb2dVertex
 10
167.3358669286521
 20
-84.24584823197674
 30
0.0
  0
VERTEX
  5
BF
330
BC
100
AcDbEntity
  8
Layer 1
 62
   250
370
     9
100
AcDbVertex
100
AcDb2dVertex
 10
167.3358669286521
 20
-66.50257295429449
 30
0.0
  0
VERTEX
  5
C0
330
BC
100
AcDbEntity
  8
Layer 1
 62
   250
370
     9
100
AcDbVertex
100
AcDb2dVertex
 10
184.2643771240728
 20
-66.50257295429449
 30
0.0
  0
VERTEX
  5
C1
330
BC
100
AcDbEntity
  8
Layer 1
 62
   250
370
     9
100
AcDbVertex
100
AcDb2dVertex
 10
184.2643771240728
 20
-84.24584823197674
 30
0.0
  0
SEQEND
  5
C2
330
BC
100
AcDbEntity
  8
Layer 1
370
     9
  0
SPLINE
  5
C3
330
B1
100
AcDbEntity
  8
Layer 1
 62
   250
370
     9
100
AcDbSpline
210
0.0
220
0.0
230
1.0
 70
     8
 71
     3
 72
     8
 73
     4
 74
     0
 42
0.000000001
 43
0.0000000001
 40
0.0
 40
0.0
 40
0.0
 40
0.0
 40
1.0
 40
1.0
 40
1.0
 40
1.0
 10
166.7405544288009
 20
-66.39026284147535
 30
0.0
 10
166.7405544288009
 20
-66.45227456020986
 30
0.0
 10
167.0382106787265
 20
-66.50257295429449
 30
0.0
 10
167.3365559477492
 20
-66.50257295429449
 30
0.0
  0
SPLINE
  5
C4
330
B1
100
AcDbEntity
  8
Layer 1
 62
   250
370
     9
100
AcDbSpline
210
0.0
220
0.0
230
1.0
 70
     8
 71
     3
 72
     8
 73
     4
 74
     0
 42
0.000000001
 43
0.0000000001
 40
0.0
 40
0.0
 40
0.0
 40
0.0
 40
1.0
 40
1.0
 40
1.0
 40
1.0
 10
184.8107692680334
 20
-66.39026284147535
 30
0.0
 10
184.8107692680334
 20
-66.45227456020986
 30
0.0
 10
184.5386067246987
 20
-66.50257295429449
 30
0.0
 10
184.2009873671442
 20
-66.50257295429449
 30
0.0
  0
SPLINE
  5
C5
330
B1
100
AcDbEntity
  8
Layer 1
 62
   250
370
     9
100
AcDbSpline
210
0.0
220
0.0
230
1.0
 70
     8
 71
     3
 72
     8
 73
     4
 74
     0
 42
0.000000001
 43
0.0000000001
 40
0.0
 40
0.0
 40
0.0
 40
0.0
 40
1.0
 40
1.0
 40
1.0
 40
1.0
 10
166.7405544288009
 20
-65.80614690195123
 30
0.0
 10
167.5529079442229
 20
-65.95187444097731
 30
0.0
 10
185.2207356307781
 20
-65.92948132032319
 30
0.0
 10
184.8107692680334
 20
-65.80614690195123
 30
0.0
  0
ENDBLK
  5
B4
330
B1
100
AcDbEntity
  8
0
100
AcDbBlockEnd
  0
BLOCK
  5
CC
330
CA
100
AcDbEntity
  8
0
100
AcDbBlockBegin
  2
block 15
 70
     0
 10
0.0
 20
0.0
 30
0.0
  3
block 15
  1

  0
MTEXT
  5
CE
330
CA
100
AcDbEntity
  8
Layer 1
 62
   251
100
AcDbMText
 10
42.66113415817152
 20
-81.4386121758209
 30
0.0
 40
1.559277777387958
 41
0.0
 46
0.0
 71
     7
 72
     1
  1
\fApercu|b0|i0|c0|p34;\W1.0004;91
 73
     1
 44
1.0
  0
INSERT
  5
D0
330
CA
100
AcDbEntity
  8
Layer 1
100
AcDbBlockReference
  2
block 16
 10
0.0
 20
0.0
 30
0.0
  0
ENDBLK
  5
CD
330
CA
100
AcDbEntity
  8
0
100
AcDbBlockEnd
  0
BLOCK
  5
D1
330
CF
100
AcDbEntity
  8
0
100
AcDbBlockBegin
  2
block 16
 70
     0
 10
0.0
 20
0.0
 30
0.0
  3
block 16
  1

  0
INSERT
  5
D4
330
CF
100
AcDbEntity
  8
Layer 1
100
AcDbBlockReference
  2
block 17
 10
0.0
 20
0.0
 30
0.0
  0
SPLINE
  5
D8
330
CF
100
AcDbEntity
  8
Layer 1
 62
   250
370
     9
100
AcDbSpline
210
0.0
220
0.0
230
1.0
 70
     9
 71
     3
 72
    17
 73
    13
 74
     0
 42
0.000000001
 43
0.0000000001
 40
0.0
 40
0.0
 40
0.0
 40
0.0
 40
1.0
 40
1.0
 40
1.0
 40
2.0
 40
2.0
 40
2.0
 40
3.0
 40
3.0
 40
3.0
 40
4.0
 40
4.0
 40
4.0
 40
4.0
 10
38.21110431987431
 20
-84.67941349879543
 30
0.0
 10
38.21110431987431
 20
-84.81928437549656
 30
0.0
 10
38.59678275944803
 20
-84.7989583121336
 30
0.0
 10
38.60453422428984
 20
-84.70697426267742
 30
0.0
 10
38.6115966700346
 20
-84.61516246799552
 30
0.0
 10
38.63881292436808
 20
-83.24745956035133
 30
0.0
 10
38.63881292436808
 20
-83.24745956035133
 30
0.0
 10
38.63881292436808
 20
-83.24745956035133
 30
0.0
 10
38.18199326302395
 20
-83.24745956035133
 30
0.0
 10
38.18199326302395
 20
-83.24745956035133
 30
0.0
 10
38.18199326302395
 20
-83.24745956035133
 30
0.0
 10
38.20714246006627
 20
-84.57812769152907
 30
0.0
 10
38.21110431987431
 20
-84.67941349879543
 30
0.0
  0
SPLINE
  5
D9
330
CF
100
AcDbEntity
  8
Layer 1
 62
   250
370
     9
100
AcDbSpline
210
0.0
220
0.0
230
1.0
 70
     9
 71
     3
 72
    17
 73
    13
 74
     0
 42
0.000000001
 43
0.0000000001
 40
0.0
 40
0.0
 40
0.0
 40
0.0
 40
1.0
 40
1.0
 40
1.0
 40
2.0
 40
2.0
 40
2.0
 40
3.0
 40
3.0
 40
3.0
 40
4.0
 40
4.0
 40
4.0
 40
4.0
 10
22.63806694312521
 20
-84.67941349879543
 30
0.0
 10
22.63806694312521
 20
-84.81928437549656
 30
0.0
 10
23.02391763747319
 20
-84.7989583121336
 30
0.0
 10
23.03132459276648
 20
-84.70697426267742
 30
0.0
 10
23.03873154805976
 20
-84.61516246799552
 30
0.0
 10
23.06646456671602
 20
-83.24745956035133
 30
0.0
 10
23.06646456671602
 20
-83.24745956035133
 30
0.0
 10
23.06646456671602
 20
-83.24745956035133
 30
0.0
 10
22.60912814104911
 20
-83.24745956035133
 30
0.0
 10
22.60912814104911
 20
-83.24745956035133
 30
0.0
 10
22.60912814104911
 20
-83.24745956035133
 30
0.0
 10
22.63427733809143
 20
-84.57812769152907
 30
0.0
 10
22.63806694312521
 20
-84.67941349879543
 30
0.0
  0
ENDBLK
  5
D2
330
CF
100
AcDbEntity
  8
0
100
AcDbBlockEnd
  0
BLOCK
  5
D5
330
D3
100
AcDbEntity
  8
0
100
AcDbBlockBegin
  2
block 17
 70
     0
 10
0.0
 20
0.0
 30
0.0
  3
block 17
  1

  0
SPLINE
  5
D7
330
D3
100
AcDbEntity
  8
Layer 1
 62
   250
370
     9
100
AcDbSpline
210
0.0
220
0.0
230
1.0
 70
     8
 71
     3
 72
    62
 73
    58
 74
     0
 42
0.000000001
 43
0.0000000001
 40
0.0
 40
0.0
 40
0.0
 40
0.0
 40
1.0
 40
1.0
 40
1.0
 40
2.0
 40
2.0
 40
2.0
 40
3.0
 40
3.0
 40
3.0
 40
4.0
 40
4.0
 40
4.0
 40
5.0
 40
5.0
 40
5.0
 40
6.0
 40
6.0
 40
6.0
 40
7.0
 40
7.0
 40
7.0
 40
8.0
 40
8.0
 40
8.0
 40
9.0
 40
9.0
 40
9.0
 40
10.0
 40
10.0
 40
10.0
 40
11.0
 40
11.0
 40
11.0
 40
12.0
 40
12.0
 40
12.0
 40
13.0
 40
13.0
 40
13.0
 40
14.0
 40
14.0
 40
14.0
 40
15.0
 40
15.0
 40
15.0
 40
16.0
 40
16.0
 40
16.0
 40
17.0
 40
17.0
 40
17.0
 40
18.0
 40
18.0
 40
18.0
 40
19.0
 40
19.0
 40
19.0
 40
19.0
 10
40.04131129641328
 20
-83.24177515280068
 30
0.0
 10
40.04131129641328
 20
-83.24177515280068
 30
0.0
 10
20.72483316539171
 20
-83.24177515280068
 30
0.0
 10
20.72483316539171
 20
-83.24177515280068
 30
0.0
 10
20.72483316539171
 20
-83.24177515280068
 30
0.0
 10
20.66540526827115
 20
-83.24177515280068
 30
0.0
 10
20.66540526827115
 20
-83.24177515280068
 30
0.0
 10
20.62268608425405
 20
-83.24177515280068
 30
0.0
 10
20.58599581733614
 20
-83.24177515280068
 30
0.0
 10
20.58599581733614
 20
-83.16805010941633
 30
0.0
 10
20.58599581733614
 20
-83.16805010941633
 30
0.0
 10
20.58599581733614
 20
-83.10913897661855
 30
0.0
 10
20.58599581733614
 20
-83.10913897661855
 30
0.0
 10
20.58599581733614
 20
-82.62630884436079
 30
0.0
 10
20.75187716495092
 20
-82.36275903973917
 30
0.0
 10
21.14565157891497
 20
-82.36275903973917
 30
0.0
 10
21.14565157891497
 20
-82.36275903973917
 30
0.0
 10
21.36252033971146
 20
-82.36275903973917
 30
0.0
 10
21.36252033971146
 20
-82.36275903973917
 30
0.0
 10
21.36252033971146
 20
-82.36275903973917
 30
0.0
 10
39.12526040688535
 20
-82.36275903973917
 30
0.0
 10
39.12526040688535
 20
-82.36275903973917
 30
0.0
 10
39.12526040688535
 20
-82.36275903973917
 30
0.0
 10
39.49354111425856
 20
-82.36275903973917
 30
0.0
 10
39.49354111425856
 20
-82.36275903973917
 30
0.0
 10
39.81617430645221
 20
-82.36275903973917
 30
0.0
 10
39.98584525910077
 20
-82.36275903973917
 30
0.0
 10
39.98412271135814
 20
-82.04908309580718
 30
0.0
 10
39.98412271135814
 20
-82.04908309580718
 30
0.0
 10
39.98670653297207
 20
-81.10684948059136
 30
0.0
 10
39.98670653297207
 20
-81.10684948059136
 30
0.0
 10
39.98670653297207
 20
-81.10684948059136
 30
0.0
 10
39.98670653297207
 20
-78.13786619140303
 30
0.0
 10
39.98670653297207
 20
-78.13786619140303
 30
0.0
 10
39.98670653297207
 20
-78.13786619140303
 30
0.0
 10
40.01064994659456
 20
-77.24558646072333
 30
0.0
 10
40.01064994659456
 20
-77.24558646072333
 30
0.0
 10
40.07007784371512
 20
-76.76534015007949
 30
0.0
 10
40.80698376801006
 20
-76.37759465321463
 30
0.0
 10
40.80663925846153
 20
-77.03664141954293
 30
0.0
 10
40.80663925846153
 20
-77.03664141954293
 30
0.0
 10
40.80663925846153
 20
-77.25953909743859
 30
0.0
 10
40.80663925846153
 20
-77.25953909743859
 30
0.0
 10
40.80663925846153
 20
-77.25953909743859
 30
0.0
 10
40.80663925846153
 20
-83.06883135944113
 30
0.0
 10
40.80663925846153
 20
-83.06883135944113
 30
0.0
 10
40.80663925846153
 20
-83.06883135944113
 30
0.0
 10
40.80663925846153
 20
-83.13635523095202
 30
0.0
 10
40.80663925846153
 20
-83.13635523095202
 30
0.0
 10
40.80663925846153
 20
-83.19423283510422
 30
0.0
 10
40.76426458399295
 20
-83.24177515280068
 30
0.0
 10
40.71224364216568
 20
-83.24177515280068
 30
0.0
 10
40.71224364216568
 20
-83.24177515280068
 30
0.0
 10
40.63386771987626
 20
-83.24177515280068
 30
0.0
 10
40.63386771987626
 20
-83.24177515280068
 30
0.0
 10
40.63386771987626
 20
-83.24177515280068
 30
0.0
 10
39.90212943880919
 20
-83.24177515280068
 30
0.0
 10
39.90212943880919
 20
-83.24177515280068
 30
0.0
  0
ENDBLK
  5
D6
330
D3
100
AcDbEntity
  8
0
100
AcDbBlockEnd
  0
BLOCK
  5
DC
330
DA
100
AcDbEntity
  8
0
100
AcDbBlockBegin
  2
block 18
 70
     0
 10
0.0
 20
0.0
 30
0.0
  3
block 18
  1

  0
SPLINE
  5
DE
330
DA
100
AcDbEntity
  8
Layer 1
 62
   250
370
     9
100
AcDbSpline
210
0.0
220
0.0
230
1.0
 70
     9
 71
     3
 72
    35
 73
    31
 74
     0
 42
0.000000001
 43
0.0000000001
 40
0.0
 40
0.0
 40
0.0
 40
0.0
 40
1.0
 40
1.0
 40
1.0
 40
2.0
 40
2.0
 40
2.0
 40
3.0
 40
3.0
 40
3.0
 40
4.0
 40
4.0
 40
4.0
 40
5.0
 40
5.0
 40
5.0
 40
6.0
 40
6.0
 40
6.0
 40
7.0
 40
7.0
 40
7.0
 40
8.0
 40
8.0
 40
8.0
 40
9.0
 40
9.0
 40
9.0
 40
10.0
 40
10.0
 40
10.0
 40
10.0
 10
57.36394041534651
 20
-77.20407306012607
 30
0.0
 10
57.36394041534651
 20
-76.93535561227658
 30
0.0
 10
57.47935111410239
 20
-76.71797008715731
 30
0.0
 10
57.62128904809468
 20
-76.71797008715731
 30
0.0
 10
57.62128904809468
 20
-76.71797008715731
 30
0.0
 10
57.70397133974068
 20
-76.71797008715731
 30
0.0
 10
57.70397133974068
 20
-76.71797008715731
 30
0.0
 10
57.70397133974068
 20
-76.71797008715731
 30
0.0
 10
65.99562715363998
 20
-76.71797008715731
 30
0.0
 10
65.99562715363998
 20
-76.71797008715731
 30
0.0
 10
65.99562715363998
 20
-76.71797008715731
 30
0.0
 10
66.06935219702433
 20
-76.71797008715731
 30
0.0
 10
66.06935219702433
 20
-76.71797008715731
 30
0.0
 10
66.21129013101662
 20
-76.71797008715731
 30
0.0
 10
66.32704533932102
 20
-76.93535561227658
 30
0.0
 10
66.32704533932102
 20
-77.20407306012607
 30
0.0
 10
66.32704533932102
 20
-77.20407306012607
 30
0.0
 10
66.32704533932102
 20
-77.32947453578915
 30
0.0
 10
66.32704533932102
 20
-77.32947453578915
 30
0.0
 10
66.32704533932102
 20
-77.32947453578915
 30
0.0
 10
66.32704533932102
 20
-83.10448809771347
 30
0.0
 10
66.32704533932102
 20
-83.10448809771347
 30
0.0
 10
66.32704533932102
 20
-83.10448809771347
 30
0.0
 10
57.36394041534651
 20
-83.10448809771347
 30
0.0
 10
57.36394041534651
 20
-83.10448809771347
 30
0.0
 10
57.36394041534651
 20
-83.10448809771347
 30
0.0
 10
57.36394041534651
 20
-77.31586640862243
 30
0.0
 10
57.36394041534651
 20
-77.31586640862243
 30
0.0
 10
57.36394041534651
 20
-77.31586640862243
 30
0.0
 10
57.36394041534651
 20
-77.20407306012607
 30
0.0
 10
57.36394041534651
 20
-77.20407306012607
 30
0.0
  0
SPLINE
  5
DF
330
DA
100
AcDbEntity
  8
Layer 1
 62
   250
370
     9
100
AcDbSpline
210
0.0
220
0.0
230
1.0
 70
    11
 71
     3
 72
    41
 73
    37
 74
     0
 42
0.000000001
 43
0.0000000001
 40
0.0
 40
0.0
 40
0.0
 40
0.0
 40
1.0
 40
1.0
 40
1.0
 40
2.0
 40
2.0
 40
2.0
 40
3.0
 40
3.0
 40
3.0
 40
4.0
 40
4.0
 40
4.0
 40
5.0
 40
5.0
 40
5.0
 40
6.0
 40
6.0
 40
6.0
 40
7.0
 40
7.0
 40
7.0
 40
8.0
 40
8.0
 40
8.0
 40
9.0
 40
9.0
 40
9.0
 40
10.0
 40
10.0
 40
10.0
 40
11.0
 40
11.0
 40
11.0
 40
12.0
 40
12.0
 40
12.0
 40
12.0
 10
57.43456487279414
 20
-83.2476318151256
 30
0.0
 10
57.43456487279414
 20
-83.2476318151256
 30
0.0
 10
66.28570419349802
 20
-83.2476318151256
 30
0.0
 10
66.28570419349802
 20
-83.2476318151256
 30
0.0
 10
66.28570419349802
 20
-83.2476318151256
 30
0.0
 10
66.31360946692854
 20
-83.2476318151256
 30
0.0
 10
66.31360946692854
 20
-83.2476318151256
 30
0.0
 10
66.33290200164594
 20
-83.2476318151256
 30
0.0
 10
66.34978296952367
 20
-83.2476318151256
 30
0.0
 10
66.34978296952367
 20
-83.17511255516109
 30
0.0
 10
66.34978296952367
 20
-83.17511255516109
 30
0.0
 10
66.34978296952367
 20
-83.11620142236332
 30
0.0
 10
66.34978296952367
 20
-83.11620142236332
 30
0.0
 10
66.34978296952367
 20
-82.63647187604227
 30
0.0
 10
66.14996743137918
 20
-82.37550589303459
 30
0.0
 10
65.89261879863101
 20
-82.37550589303459
 30
0.0
 10
65.89261879863101
 20
-82.37550589303459
 30
0.0
 10
65.74551322141084
 20
-82.37550589303459
 30
0.0
 10
65.74551322141084
 20
-82.37550589303459
 30
0.0
 10
65.74551322141084
 20
-82.37550589303459
 30
0.0
 10
57.84453123553887
 20
-82.37550589303459
 30
0.0
 10
57.84453123553887
 20
-82.37550589303459
 30
0.0
 10
57.84453123553887
 20
-82.37550589303459
 30
0.0
 10
57.8076687138467
 20
-82.37550589303459
 30
0.0
 10
57.8076687138467
 20
-82.37550589303459
 30
0.0
 10
57.33948023740125
 20
-82.44234074544845
 30
0.0
 10
57.34120278514387
 20
-82.85127357954761
 30
0.0
 10
57.34120278514387
 20
-83.11981877262281
 30
0.0
 10
57.34120278514387
 20
-83.11981877262281
 30
0.0
 10
57.34120278514387
 20
-83.14341767669679
 30
0.0
 10
57.34120278514387
 20
-83.14341767669679
 30
0.0
 10
57.34120278514387
 20
-83.14341767669679
 30
0.0
 10
57.34120278514387
 20
-83.25124916538511
 30
0.0
 10
57.38633353600064
 20
-83.2476318151256
 30
0.0
 10
57.38633353600064
 20
-83.2476318151256
 30
0.0
 10
57.43456487279414
 20
-83.2476318151256
 30
0.0
 10
57.43456487279414
 20
-83.2476318151256
 30
0.0
  0
SPLINE
  5
E0
330
DA
100
AcDbEntity
  8
Layer 1
 62
   250
370
     9
100
AcDbSpline
210
0.0
220
0.0
230
1.0
 70
     9
 71
     3
 72
    17
 73
    13
 74
     0
 42
0.000000001
 43
0.0000000001
 40
0.0
 40
0.0
 40
0.0
 40
0.0
 40
1.0
 40
1.0
 40
1.0
 40
2.0
 40
2.0
 40
2.0
 40
3.0
 40
3.0
 40
3.0
 40
4.0
 40
4.0
 40
4.0
 40
4.0
 10
58.47877331437336
 20
-84.67941349879543
 30
0.0
 10
58.47877331437336
 20
-84.81945663027083
 30
0.0
 10
58.09292262002538
 20
-84.79878605735933
 30
0.0
 10
58.08534340995784
 20
-84.70680200790317
 30
0.0
 10
58.07845321898733
 20
-84.61516246799552
 30
0.0
 10
58.0505479455568
 20
-83.2476318151256
 30
0.0
 10
58.0505479455568
 20
-83.2476318151256
 30
0.0
 10
58.0505479455568
 20
-83.2476318151256
 30
0.0
 10
58.50771211644946
 20
-83.2476318151256
 30
0.0
 10
58.50771211644946
 20
-83.2476318151256
 30
0.0
 10
58.50771211644946
 20
-83.2476318151256
 30
0.0
 10
58.48221840985861
 20
-84.57761092720629
 30
0.0
 10
58.47877331437336
 20
-84.67941349879543
 30
0.0
  0
SPLINE
  5
E1
330
DA
100
AcDbEntity
  8
Layer 1
 62
   250
370
     9
100
AcDbSpline
210
0.0
220
0.0
230
1.0
 70
     9
 71
     3
 72
    17
 73
    13
 74
     0
 42
0.000000001
 43
0.0000000001
 40
0.0
 40
0.0
 40
0.0
 40
0.0
 40
1.0
 40
1.0
 40
1.0
 40
2.0
 40
2.0
 40
2.0
 40
3.0
 40
3.0
 40
3.0
 40
4.0
 40
4.0
 40
4.0
 40
4.0
 10
65.64939505737237
 20
-84.67941349879543
 30
0.0
 10
65.64939505737237
 20
-84.81945663027083
 30
0.0
 10
65.26354436302439
 20
-84.79878605735933
 30
0.0
 10
65.25596515295685
 20
-84.70680200790317
 30
0.0
 10
65.24873045243783
 20
-84.61516246799552
 30
0.0
 10
65.22151419810434
 20
-83.2476318151256
 30
0.0
 10
65.22151419810434
 20
-83.2476318151256
 30
0.0
 10
65.22151419810434
 20
-83.2476318151256
 30
0.0
 10
65.67833385944847
 20
-83.2476318151256
 30
0.0
 10
65.67833385944847
 20
-83.2476318151256
 30
0.0
 10
65.67833385944847
 20
-83.2476318151256
 30
0.0
 10
65.65352917195467
 20
-84.57761092720629
 30
0.0
 10
65.64939505737237
 20
-84.67941349879543
 30
0.0
  0
ENDBLK
  5
DD
330
DA
100
AcDbEntity
  8
0
100
AcDbBlockEnd
  0
BLOCK
  5
E4
330
E2
100
AcDbEntity
  8
0
100
AcDbBlockBegin
  2
block 19
 70
     0
 10
0.0
 20
0.0
 30
0.0
  3
block 19
  1

  0
POLYLINE
  5
E6
330
E2
100
AcDbEntity
  8
Layer 1
 62
   250
370
     9
100
AcDb2dPolyline
 66
     1
 10
0.0
 20
0.0
 30
0.0
  0
VERTEX
  5
E7
330
E6
100
AcDbEntity
  8
Layer 1
 62
   250
370
     9
100
AcDbVertex
100
AcDb2dVertex
 10
91.90929088414073
 20
-119.381860321717
 30
0.0
  0
VERTEX
  5
E8
330
E6
100
AcDbEntity
  8
Layer 1
 62
   250
370
     9
100
AcDbVertex
100
AcDb2dVertex
 10
82.10179305673149
 20
-119.381860321717
 30
0.0
  0
VERTEX
  5
E9
330
E6
100
AcDbEntity
  8
Layer 1
 62
   250
370
     9
100
AcDbVertex
100
AcDb2dVertex
 10
82.10179305673149
 20
-101.2201781973512
 30
0.0
  0
VERTEX
  5
EA
330
E6
100
AcDbEntity
  8
Layer 1
 62
   250
370
     9
100
AcDbVertex
100
AcDb2dVertex
 10
91.90929088414073
 20
-101.2201781973512
 30
0.0
  0
VERTEX
  5
EB
330
E6
100
AcDbEntity
  8
Layer 1
 62
   250
370
     9
100
AcDbVertex
100
AcDb2dVertex
 10
91.90929088414073
 20
-119.381860321717
 30
0.0
  0
SEQEND
  5
EC
330
E6
100
AcDbEntity
  8
Layer 1
370
     9
  0
POLYLINE
  5
ED
330
E2
100
AcDbEntity
  8
Layer 1
 62
   250
370
     9
100
AcDb2dPolyline
 66
     1
 10
0.0
 20
0.0
 30
0.0
  0
VERTEX
  5
EE
330
ED
100
AcDbEntity
  8
Layer 1
 62
   250
370
     9
100
AcDbVertex
100
AcDb2dVertex
 10
91.29950898325152
 20
-118.8237548531065
 30
0.0
  0
VERTEX
  5
EF
330
ED
100
AcDbEntity
  8
Layer 1
 62
   250
370
     9
100
AcDbVertex
100
AcDb2dVertex
 10
82.64129500972163
 20
-118.8237548531065
 30
0.0
  0
VERTEX
  5
F0
330
ED
100
AcDbEntity
  8
Layer 1
 62
   250
370
     9
100
AcDbVertex
100
AcDb2dVertex
 10
82.64129500972163
 20
-102.4442206232605
 30
0.0
  0
VERTEX
  5
F1
330
ED
100
AcDbEntity
  8
Layer 1
 62
   250
370
     9
100
AcDbVertex
100
AcDb2dVertex
 10
91.29950898325152
 20
-102.4442206232605
 30
0.0
  0
VERTEX
  5
F2
330
ED
100
AcDbEntity
  8
Layer 1
 62
   250
370
     9
100
AcDbVertex
100
AcDb2dVertex
 10
91.29950898325152
 20
-118.8237548531065
 30
0.0
  0
SEQEND
  5
F3
330
ED
100
AcDbEntity
  8
Layer 1
370
     9
  0
SPLINE
  5
F4
330
E2
100
AcDbEntity
  8
Layer 1
 62
   250
370
     9
100
AcDbSpline
210
0.0
220
0.0
230
1.0
 70
     8
 71
     3
 72
     8
 73
     4
 74
     0
 42
0.000000001
 43
0.0000000001
 40
0.0
 40
0.0
 40
0.0
 40
0.0
 40
1.0
 40
1.0
 40
1.0
 40
1.0
 10
82.10248207582855
 20
-102.3317382556671
 30
0.0
 10
82.10248207582855
 20
-102.3939222291758
 30
0.0
 10
82.34294974069898
 20
-102.4442206232605
 30
0.0
 10
82.64129500972163
 20
-102.4442206232605
 30
0.0
  0
SPLINE
  5
F5
330
E2
100
AcDbEntity
  8
Layer 1
 62
   250
370
     9
100
AcDbSpline
210
0.0
220
0.0
230
1.0
 70
     8
 71
     3
 72
     8
 73
     4
 74
     0
 42
0.000000001
 43
0.0000000001
 40
0.0
 40
0.0
 40
0.0
 40
0.0
 40
1.0
 40
1.0
 40
1.0
 40
1.0
 10
91.90929088414073
 20
-102.3317382556671
 30
0.0
 10
91.90929088414073
 20
-102.3939222291758
 30
0.0
 10
91.63643932170895
 20
-102.4442206232605
 30
0.0
 10
91.29950898325152
 20
-102.4442206232605
 30
0.0
  0
SPLINE
  5
F6
330
E2
100
AcDbEntity
  8
Layer 1
 62
   250
370
     9
100
AcDbSpline
210
0.0
220
0.0
230
1.0
 70
     8
 71
     3
 72
     8
 73
     4
 74
     0
 42
0.000000001
 43
0.0000000001
 40
0.0
 40
0.0
 40
0.0
 40
0.0
 40
1.0
 40
1.0
 40
1.0
 40
1.0
 10
82.10248207582855
 20
-101.7477945709172
 30
0.0
 10
82.91552461034752
 20
-101.893349855169
 30
0.0
 10
92.31856822778842
 20
-101.8711289892891
 30
0.0
 10
91.90929088414073
 20
-101.7477945709172
 30
0.0
  0
ENDBLK
  5
E5
330
E2
100
AcDbEntity
  8
0
100
AcDbBlockEnd
  0
BLOCK
  5
FD
330
FB
100
AcDbEntity
  8
0
100
AcDbBlockBegin
  2
block 20
 70
     0
 10
0.0
 20
0.0
 30
0.0
  3
block 20
  1

  0
POLYLINE
  5
FF
330
FB
100
AcDbEntity
  8
Layer 1
 62
   250
370
     9
100
AcDb2dPolyline
 66
     1
 10
0.0
 20
0.0
 30
0.0
  0
VERTEX
  5
100
330
FF
100
AcDbEntity
  8
Layer 1
 62
   250
370
     9
100
AcDbVertex
100
AcDb2dVertex
 10
151.8246690158633
 20
-119.4194118625062
 30
0.0
  0
VERTEX
  5
101
330
FF
100
AcDbEntity
  8
Layer 1
 62
   250
370
     9
100
AcDbVertex
100
AcDb2dVertex
 10
136.4790079411406
 20
-119.4194118625062
 30
0.0
  0
VERTEX
  5
102
330
FF
100
AcDbEntity
  8
Layer 1
 62
   250
370
     9
100
AcDbVertex
100
AcDb2dVertex
 10
136.4790079411406
 20
-99.89571123804692
 30
0.0
  0
VERTEX
  5
103
330
FF
100
AcDbEntity
  8
Layer 1
 62
   250
370
     9
100
AcDbVertex
100
AcDb2dVertex
 10
151.8246690158633
 20
-99.89571123804692
 30
0.0
  0
VERTEX
  5
104
330
FF
100
AcDbEntity
  8
Layer 1
 62
   250
370
     9
100
AcDbVertex
100
AcDb2dVertex
 10
151.8246690158633
 20
-119.4194118625062
 30
0.0
  0
SEQEND
  5
105
330
FF
100
AcDbEntity
  8
Layer 1
370
     9
  0
POLYLINE
  5
106
330
FB
100
AcDbEntity
  8
Layer 1
 62
   250
370
     9
100
AcDb2dPolyline
 66
     1
 10
0.0
 20
0.0
 30
0.0
  0
VERTEX
  5
107
330
106
100
AcDbEntity
  8
Layer 1
 62
   250
370
     9
100
AcDbVertex
100
AcDb2dVertex
 10
151.2706976618351
 20
-118.8475260119548
 30
0.0
  0
VERTEX
  5
108
330
106
100
AcDbEntity
  8
Layer 1
 62
   250
370
     9
100
AcDbVertex
100
AcDb2dVertex
 10
137.0750094600889
 20
-118.8475260119548
 30
0.0
  0
VERTEX
  5
109
330
106
100
AcDbEntity
  8
Layer 1
 62
   250
370
     9
100
AcDbVertex
100
AcDb2dVertex
 10
137.0750094600889
 20
-101.1042507342725
 30
0.0
  0
VERTEX
  5
10A
330
106
100
AcDbEntity
  8
Layer 1
 62
   250
370
     9
100
AcDbVertex
100
AcDb2dVertex
 10
151.2706976618351
 20
-101.1042507342725
 30
0.0
  0
VERTEX
  5
10B
330
106
100
AcDbEntity
  8
Layer 1
 62
   250
370
     9
100
AcDbVertex
100
AcDb2dVertex
 10
151.2706976618351
 20
-118.8475260119548
 30
0.0
  0
SEQEND
  5
10C
330
106
100
AcDbEntity
  8
Layer 1
370
     9
  0
SPLINE
  5
10D
330
FB
100
AcDbEntity
  8
Layer 1
 62
   250
370
     9
100
AcDbSpline
210
0.0
220
0.0
230
1.0
 70
     8
 71
     3
 72
     8
 73
     4
 74
     0
 42
0.000000001
 43
0.0000000001
 40
0.0
 40
0.0
 40
0.0
 40
0.0
 40
1.0
 40
1.0
 40
1.0
 40
1.0
 10
136.4790079411406
 20
-100.9919406214534
 30
0.0
 10
136.4790079411406
 20
-101.0539523401879
 30
0.0
 10
136.7773532101633
 20
-101.1042507342725
 30
0.0
 10
137.0750094600889
 20
-101.1042507342725
 30
0.0
  0
SPLINE
  5
10E
330
FB
100
AcDbEntity
  8
Layer 1
 62
   250
370
     9
100
AcDbSpline
210
0.0
220
0.0
230
1.0
 70
     8
 71
     3
 72
     8
 73
     4
 74
     0
 42
0.000000001
 43
0.0000000001
 40
0.0
 40
0.0
 40
0.0
 40
0.0
 40
1.0
 40
1.0
 40
1.0
 40
1.0
 10
151.8246690158633
 20
-100.9919406214534
 30
0.0
 10
151.8246690158633
 20
-101.0539523401879
 30
0.0
 10
151.5525064725285
 20
-101.1042507342725
 30
0.0
 10
151.2155761340711
 20
-101.1042507342725
 30
0.0
  0
SPLINE
  5
10F
330
FB
100
AcDbEntity
  8
Layer 1
 62
   250
370
     9
100
AcDbSpline
210
0.0
220
0.0
230
1.0
 70
     8
 71
     3
 72
     8
 73
     4
 74
     0
 42
0.000000001
 43
0.0000000001
 40
0.0
 40
0.0
 40
0.0
 40
0.0
 40
1.0
 40
1.0
 40
1.0
 40
1.0
 10
136.4790079411406
 20
-100.4078246819293
 30
0.0
 10
137.2920504756596
 20
-100.5535522209553
 30
0.0
 10
152.2339463595109
 20
-100.5311591003012
 30
0.0
 10
151.8246690158633
 20
-100.4078246819293
 30
0.0
  0
ENDBLK
  5
FE
330
FB
100
AcDbEntity
  8
0
100
AcDbBlockEnd
  0
BLOCK
  5
116
330
114
100
AcDbEntity
  8
0
100
AcDbBlockBegin
  2
block 21
 70
     0
 10
0.0
 20
0.0
 30
0.0
  3
block 21
  1

  0
POLYLINE
  5
118
330
114
100
AcDbEntity
  8
Layer 1
 62
   250
370
     9
100
AcDb2dPolyline
 66
     1
 10
0.0
 20
0.0
 30
0.0
  0
VERTEX
  5
119
330
118
100
AcDbEntity
  8
Layer 1
 62
   250
370
     9
100
AcDbVertex
100
AcDb2dVertex
 10
121.5551988085869
 20
-119.381860321717
 30
0.0
  0
VERTEX
  5
11A
330
118
100
AcDbEntity
  8
Layer 1
 62
   250
370
     9
100
AcDbVertex
100
AcDb2dVertex
 10
107.6611287165743
 20
-119.381860321717
 30
0.0
  0
VERTEX
  5
11B
330
118
100
AcDbEntity
  8
Layer 1
 62
   250
370
     9
100
AcDbVertex
100
AcDb2dVertex
 10
107.6611287165743
 20
-101.2201781973512
 30
0.0
  0
VERTEX
  5
11C
330
118
100
AcDbEntity
  8
Layer 1
 62
   250
370
     9
100
AcDbVertex
100
AcDb2dVertex
 10
121.5551988085869
 20
-101.2201781973512
 30
0.0
  0
VERTEX
  5
11D
330
118
100
AcDbEntity
  8
Layer 1
 62
   250
370
     9
100
AcDbVertex
100
AcDb2dVertex
 10
121.5551988085869
 20
-119.381860321717
 30
0.0
  0
SEQEND
  5
11E
330
118
100
AcDbEntity
  8
Layer 1
370
     9
  0
POLYLINE
  5
11F
330
114
100
AcDbEntity
  8
Layer 1
 62
   250
370
     9
100
AcDb2dPolyline
 66
     1
 10
0.0
 20
0.0
 30
0.0
  0
VERTEX
  5
120
330
11F
100
AcDbEntity
  8
Layer 1
 62
   250
370
     9
100
AcDbVertex
100
AcDb2dVertex
 10
120.9247463347862
 20
-118.8237548531065
 30
0.0
  0
VERTEX
  5
121
330
11F
100
AcDbEntity
  8
Layer 1
 62
   250
370
     9
100
AcDbVertex
100
AcDb2dVertex
 10
108.2571302355225
 20
-118.8237548531065
 30
0.0
  0
VERTEX
  5
122
330
11F
100
AcDbEntity
  8
Layer 1
 62
   250
370
     9
100
AcDbVertex
100
AcDb2dVertex
 10
108.2571302355225
 20
-102.4442206232605
 30
0.0
  0
VERTEX
  5
123
330
11F
100
AcDbEntity
  8
Layer 1
 62
   250
370
     9
100
AcDbVertex
100
AcDb2dVertex
 10
120.9247463347862
 20
-102.4442206232605
 30
0.0
  0
VERTEX
  5
124
330
11F
100
AcDbEntity
  8
Layer 1
 62
   250
370
     9
100
AcDbVertex
100
AcDb2dVertex
 10
120.9247463347862
 20
-118.8237548531065
 30
0.0
  0
SEQEND
  5
125
330
11F
100
AcDbEntity
  8
Layer 1
370
     9
  0
SPLINE
  5
126
330
114
100
AcDbEntity
  8
Layer 1
 62
   250
370
     9
100
AcDbSpline
210
0.0
220
0.0
230
1.0
 70
     8
 71
     3
 72
     8
 73
     4
 74
     0
 42
0.000000001
 43
0.0000000001
 40
0.0
 40
0.0
 40
0.0
 40
0.0
 40
1.0
 40
1.0
 40
1.0
 40
1.0
 10
107.6611287165743
 20
-102.3317382556671
 30
0.0
 10
107.6611287165743
 20
-102.3939222291758
 30
0.0
 10
107.932602240812
 20
-102.4442206232605
 30
0.0
 10
108.2309475098346
 20
-102.4442206232605
 30
0.0
  0
SPLINE
  5
127
330
114
100
AcDbEntity
  8
Layer 1
 62
   250
370
     9
100
AcDbSpline
210
0.0
220
0.0
230
1.0
 70
     8
 71
     3
 72
     8
 73
     4
 74
     0
 42
0.000000001
 43
0.0000000001
 40
0.0
 40
0.0
 40
0.0
 40
0.0
 40
1.0
 40
1.0
 40
1.0
 40
1.0
 10
121.5338392165783
 20
-102.3317382556671
 30
0.0
 10
121.5338392165783
 20
-102.3939222291758
 30
0.0
 10
121.2616766732436
 20
-102.4442206232605
 30
0.0
 10
120.9247463347862
 20
-102.4442206232605
 30
0.0
  0
SPLINE
  5
128
330
114
100
AcDbEntity
  8
Layer 1
 62
   250
370
     9
100
AcDbSpline
210
0.0
220
0.0
230
1.0
 70
     8
 71
     3
 72
     8
 73
     4
 74
     0
 42
0.000000001
 43
0.0000000001
 40
0.0
 40
0.0
 40
0.0
 40
0.0
 40
1.0
 40
1.0
 40
1.0
 40
1.0
 10
107.6611287165743
 20
-101.7477945709172
 30
0.0
 10
108.4748602701903
 20
-101.893349855169
 30
0.0
 10
121.9506957702936
 20
-101.8711289892891
 30
0.0
 10
121.5421074457429
 20
-101.7477945709172
 30
0.0
  0
ENDBLK
  5
117
330
114
100
AcDbEntity
  8
0
100
AcDbBlockEnd
  0
BLOCK
  5
12F
330
12D
100
AcDbEntity
  8
0
100
AcDbBlockBegin
  2
block 22
 70
     0
 10
0.0
 20
0.0
 30
0.0
  3
block 22
  1

  0
POLYLINE
  5
131
330
12D
100
AcDbEntity
  8
Layer 1
 62
   250
370
     9
100
AcDb2dPolyline
 66
     1
 10
0.0
 20
0.0
 30
0.0
  0
VERTEX
  5
132
330
131
100
AcDbEntity
  8
Layer 1
 62
   250
370
     9
100
AcDbVertex
100
AcDb2dVertex
 10
184.8107692680334
 20
-119.4194118625062
 30
0.0
  0
VERTEX
  5
133
330
131
100
AcDbEntity
  8
Layer 1
 62
   250
370
     9
100
AcDbVertex
100
AcDb2dVertex
 10
166.7405544288009
 20
-119.4194118625062
 30
0.0
  0
VERTEX
  5
134
330
131
100
AcDbEntity
  8
Layer 1
 62
   250
370
     9
100
AcDbVertex
100
AcDb2dVertex
 10
166.7405544288009
 20
-99.89571123804692
 30
0.0
  0
VERTEX
  5
135
330
131
100
AcDbEntity
  8
Layer 1
 62
   250
370
     9
100
AcDbVertex
100
AcDb2dVertex
 10
184.8107692680334
 20
-99.89571123804692
 30
0.0
  0
VERTEX
  5
136
330
131
100
AcDbEntity
  8
Layer 1
 62
   250
370
     9
100
AcDbVertex
100
AcDb2dVertex
 10
184.8107692680334
 20
-119.4194118625062
 30
0.0
  0
SEQEND
  5
137
330
131
100
AcDbEntity
  8
Layer 1
370
     9
  0
POLYLINE
  5
138
330
12D
100
AcDbEntity
  8
Layer 1
 62
   250
370
     9
100
AcDb2dPolyline
 66
     1
 10
0.0
 20
0.0
 30
0.0
  0
VERTEX
  5
139
330
138
100
AcDbEntity
  8
Layer 1
 62
   250
370
     9
100
AcDbVertex
100
AcDb2dVertex
 10
184.2643771240728
 20
-118.8475260119548
 30
0.0
  0
VERTEX
  5
13A
330
138
100
AcDbEntity
  8
Layer 1
 62
   250
370
     9
100
AcDbVertex
100
AcDb2dVertex
 10
167.3358669286521
 20
-118.8475260119548
 30
0.0
  0
VERTEX
  5
13B
330
138
100
AcDbEntity
  8
Layer 1
 62
   250
370
     9
100
AcDbVertex
100
AcDb2dVertex
 10
167.3358669286521
 20
-101.1042507342725
 30
0.0
  0
VERTEX
  5
13C
330
138
100
AcDbEntity
  8
Layer 1
 62
   250
370
     9
100
AcDbVertex
100
AcDb2dVertex
 10
184.2643771240728
 20
-101.1042507342725
 30
0.0
  0
VERTEX
  5
13D
330
138
100
AcDbEntity
  8
Layer 1
 62
   250
370
     9
100
AcDbVertex
100
AcDb2dVertex
 10
184.2643771240728
 20
-118.8475260119548
 30
0.0
  0
SEQEND
  5
13E
330
138
100
AcDbEntity
  8
Layer 1
370
     9
  0
SPLINE
  5
13F
330
12D
100
AcDbEntity
  8
Layer 1
 62
   250
370
     9
100
AcDbSpline
210
0.0
220
0.0
230
1.0
 70
     8
 71
     3
 72
     8
 73
     4
 74
     0
 42
0.000000001
 43
0.0000000001
 40
0.0
 40
0.0
 40
0.0
 40
0.0
 40
1.0
 40
1.0
 40
1.0
 40
1.0
 10
166.7405544288009
 20
-100.9919406214534
 30
0.0
 10
166.7405544288009
 20
-101.0539523401879
 30
0.0
 10
167.0382106787265
 20
-101.1042507342725
 30
0.0
 10
167.3365559477492
 20
-101.1042507342725
 30
0.0
  0
SPLINE
  5
140
330
12D
100
AcDbEntity
  8
Layer 1
 62
   250
370
     9
100
AcDbSpline
210
0.0
220
0.0
230
1.0
 70
     8
 71
     3
 72
     8
 73
     4
 74
     0
 42
0.000000001
 43
0.0000000001
 40
0.0
 40
0.0
 40
0.0
 40
0.0
 40
1.0
 40
1.0
 40
1.0
 40
1.0
 10
184.8107692680334
 20
-100.9919406214534
 30
0.0
 10
184.8107692680334
 20
-101.0539523401879
 30
0.0
 10
184.5386067246987
 20
-101.1042507342725
 30
0.0
 10
184.2009873671442
 20
-101.1042507342725
 30
0.0
  0
SPLINE
  5
141
330
12D
100
AcDbEntity
  8
Layer 1
 62
   250
370
     9
100
AcDbSpline
210
0.0
220
0.0
230
1.0
 70
     8
 71
     3
 72
     8
 73
     4
 74
     0
 42
0.000000001
 43
0.0000000001
 40
0.0
 40
0.0
 40
0.0
 40
0.0
 40
1.0
 40
1.0
 40
1.0
 40
1.0
 10
166.7405544288009
 20
-100.4078246819293
 30
0.0
 10
167.5529079442229
 20
-100.5535522209553
 30
0.0
 10
185.2207356307781
 20
-100.5311591003012
 30
0.0
 10
184.8107692680334
 20
-100.4078246819293
 30
0.0
  0
ENDBLK
  5
130
330
12D
100
AcDbEntity
  8
0
100
AcDbBlockEnd
  0
BLOCK
  5
148
330
146
100
AcDbEntity
  8
0
100
AcDbBlockBegin
  2
block 23
 70
     0
 10
0.0
 20
0.0
 30
0.0
  3
block 23
  1

  0
MTEXT
  5
14A
330
146
100
AcDbEntity
  8
Layer 1
 62
   251
100
AcDbMText
 10
42.66113415817152
 20
-116.0404622105732
 30
0.0
 40
1.559277777387958
 41
0.0
 46
0.0
 71
     7
 72
     1
  1
\fApercu|b0|i0|c0|p34;\W1.0004;106
 73
     1
 44
1.0
  0
INSERT
  5
14C
330
146
100
AcDbEntity
  8
Layer 1
100
AcDbBlockReference
  2
block 24
 10
0.0
 20
0.0
 30
0.0
  0
ENDBLK
  5
149
330
146
100
AcDbEntity
  8
0
100
AcDbBlockEnd
  0
BLOCK
  5
14D
330
14B
100
AcDbEntity
  8
0
100
AcDbBlockBegin
  2
block 24
 70
     0
 10
0.0
 20
0.0
 30
0.0
  3
block 24
  1

  0
INSERT
  5
150
330
14B
100
AcDbEntity
  8
Layer 1
100
AcDbBlockReference
  2
block 25
 10
0.0
 20
0.0
 30
0.0
  0
SPLINE
  5
154
330
14B
100
AcDbEntity
  8
Layer 1
 62
   250
370
     9
100
AcDbSpline
210
0.0
220
0.0
230
1.0
 70
     9
 71
     3
 72
    17
 73
    13
 74
     0
 42
0.000000001
 43
0.0000000001
 40
0.0
 40
0.0
 40
0.0
 40
0.0
 40
1.0
 40
1.0
 40
1.0
 40
2.0
 40
2.0
 40
2.0
 40
3.0
 40
3.0
 40
3.0
 40
4.0
 40
4.0
 40
4.0
 40
4.0
 10
38.21110431987431
 20
-119.2809190239992
 30
0.0
 10
38.21110431987431
 20
-119.4207899007003
 30
0.0
 10
38.59678275944803
 20
-119.4008083468859
 30
0.0
 10
38.60453422428984
 20
-119.3084797878812
 30
0.0
 10
38.6115966700346
 20
-119.2168402479736
 30
0.0
 10
38.63881292436808
 20
-117.8491373403294
 30
0.0
 10
38.63881292436808
 20
-117.8491373403294
 30
0.0
 10
38.63881292436808
 20
-117.8491373403294
 30
0.0
 10
38.18199326302395
 20
-117.8491373403294
 30
0.0
 10
38.18199326302395
 20
-117.8491373403294
 30
0.0
 10
38.18199326302395
 20
-117.8491373403294
 30
0.0
 10
38.20714246006627
 20
-119.1796332167329
 30
0.0
 10
38.21110431987431
 20
-119.2809190239992
 30
0.0
  0
SPLINE
  5
155
330
14B
100
AcDbEntity
  8
Layer 1
 62
   250
370
     9
100
AcDbSpline
210
0.0
220
0.0
230
1.0
 70
     9
 71
     3
 72
    17
 73
    13
 74
     0
 42
0.000000001
 43
0.0000000001
 40
0.0
 40
0.0
 40
0.0
 40
0.0
 40
1.0
 40
1.0
 40
1.0
 40
2.0
 40
2.0
 40
2.0
 40
3.0
 40
3.0
 40
3.0
 40
4.0
 40
4.0
 40
4.0
 40
4.0
 10
22.63806694312521
 20
-119.2809190239992
 30
0.0
 10
22.63806694312521
 20
-119.4207899007003
 30
0.0
 10
23.02391763747319
 20
-119.4008083468859
 30
0.0
 10
23.03132459276648
 20
-119.3084797878812
 30
0.0
 10
23.03873154805976
 20
-119.2168402479736
 30
0.0
 10
23.06646456671602
 20
-117.8491373403294
 30
0.0
 10
23.06646456671602
 20
-117.8491373403294
 30
0.0
 10
23.06646456671602
 20
-117.8491373403294
 30
0.0
 10
22.60912814104911
 20
-117.8491373403294
 30
0.0
 10
22.60912814104911
 20
-117.8491373403294
 30
0.0
 10
22.60912814104911
 20
-117.8491373403294
 30
0.0
 10
22.63427733809143
 20
-119.1796332167329
 30
0.0
 10
22.63806694312521
 20
-119.2809190239992
 30
0.0
  0
ENDBLK
  5
14E
330
14B
100
AcDbEntity
  8
0
100
AcDbBlockEnd
  0
BLOCK
  5
151
330
14F
100
AcDbEntity
  8
0
100
AcDbBlockBegin
  2
block 25
 70
     0
 10
0.0
 20
0.0
 30
0.0
  3
block 25
  1

  0
SPLINE
  5
153
330
14F
100
AcDbEntity
  8
Layer 1
 62
   250
370
     9
100
AcDbSpline
210
0.0
220
0.0
230
1.0
 70
     8
 71
     3
 72
    62
 73
    58
 74
     0
 42
0.000000001
 43
0.0000000001
 40
0.0
 40
0.0
 40
0.0
 40
0.0
 40
1.0
 40
1.0
 40
1.0
 40
2.0
 40
2.0
 40
2.0
 40
3.0
 40
3.0
 40
3.0
 40
4.0
 40
4.0
 40
4.0
 40
5.0
 40
5.0
 40
5.0
 40
6.0
 40
6.0
 40
6.0
 40
7.0
 40
7.0
 40
7.0
 40
8.0
 40
8.0
 40
8.0
 40
9.0
 40
9.0
 40
9.0
 40
10.0
 40
10.0
 40
10.0
 40
11.0
 40
11.0
 40
11.0
 40
12.0
 40
12.0
 40
12.0
 40
13.0
 40
13.0
 40
13.0
 40
14.0
 40
14.0
 40
14.0
 40
15.0
 40
15.0
 40
15.0
 40
16.0
 40
16.0
 40
16.0
 40
17.0
 40
17.0
 40
17.0
 40
18.0
 40
18.0
 40
18.0
 40
19.0
 40
19.0
 40
19.0
 40
19.0
 10
40.04131129641328
 20
-117.843625187553
 30
0.0
 10
40.04131129641328
 20
-117.843625187553
 30
0.0
 10
20.72483316539171
 20
-117.843625187553
 30
0.0
 10
20.72483316539171
 20
-117.843625187553
 30
0.0
 10
20.72483316539171
 20
-117.843625187553
 30
0.0
 10
20.66540526827115
 20
-117.843625187553
 30
0.0
 10
20.66540526827115
 20
-117.843625187553
 30
0.0
 10
20.62268608425405
 20
-117.843625187553
 30
0.0
 10
20.58599581733614
 20
-117.843625187553
 30
0.0
 10
20.58599581733614
 20
-117.7699001441686
 30
0.0
 10
20.58599581733614
 20
-117.7699001441686
 30
0.0
 10
20.58599581733614
 20
-117.7106445018223
 30
0.0
 10
20.58599581733614
 20
-117.7106445018223
 30
0.0
 10
20.58599581733614
 20
-117.2279866243388
 30
0.0
 10
20.75187716495092
 20
-116.9644368197172
 30
0.0
 10
21.14565157891497
 20
-116.9644368197172
 30
0.0
 10
21.14565157891497
 20
-116.9644368197172
 30
0.0
 10
21.36252033971146
 20
-116.9644368197172
 30
0.0
 10
21.36252033971146
 20
-116.9644368197172
 30
0.0
 10
21.36252033971146
 20
-116.9644368197172
 30
0.0
 10
39.12526040688535
 20
-116.9644368197172
 30
0.0
 10
39.12526040688535
 20
-116.9644368197172
 30
0.0
 10
39.12526040688535
 20
-116.9644368197172
 30
0.0
 10
39.49354111425856
 20
-116.9644368197172
 30
0.0
 10
39.49354111425856
 20
-116.9644368197172
 30
0.0
 10
39.81617430645221
 20
-116.9644368197172
 30
0.0
 10
39.98584525910077
 20
-116.9644368197172
 30
0.0
 10
39.98412271135814
 20
-116.6509331305595
 30
0.0
 10
39.98412271135814
 20
-116.6509331305595
 30
0.0
 10
39.98670653297207
 20
-115.7083550057951
 30
0.0
 10
39.98670653297207
 20
-115.7083550057951
 30
0.0
 10
39.98670653297207
 20
-115.7083550057951
 30
0.0
 10
39.98670653297207
 20
-111.2628037916287
 30
0.0
 10
39.98670653297207
 20
-111.2628037916287
 30
0.0
 10
39.98670653297207
 20
-111.2628037916287
 30
0.0
 10
40.01064994659456
 20
-110.370524060949
 30
0.0
 10
40.01064994659456
 20
-110.370524060949
 30
0.0
 10
40.07007784371512
 20
-109.8902777503052
 30
0.0
 10
40.80698376801006
 20
-109.5023599986661
 30
0.0
 10
40.80663925846153
 20
-110.1614067649943
 30
0.0
 10
40.80663925846153
 20
-110.1614067649943
 30
0.0
 10
40.80663925846153
 20
-110.38430444289
 30
0.0
 10
40.80663925846153
 20
-110.38430444289
 30
0.0
 10
40.80663925846153
 20
-110.38430444289
 30
0.0
 10
40.80663925846153
 20
-117.6706813941934
 30
0.0
 10
40.80663925846153
 20
-117.6706813941934
 30
0.0
 10
40.80663925846153
 20
-117.6706813941934
 30
0.0
 10
40.80663925846153
 20
-117.7382052657043
 30
0.0
 10
40.80663925846153
 20
-117.7382052657043
 30
0.0
 10
40.80663925846153
 20
-117.7960828698565
 30
0.0
 10
40.76426458399295
 20
-117.843625187553
 30
0.0
 10
40.71224364216568
 20
-117.843625187553
 30
0.0
 10
40.71224364216568
 20
-117.843625187553
 30
0.0
 10
40.63386771987626
 20
-117.843625187553
 30
0.0
 10
40.63386771987626
 20
-117.843625187553
 30
0.0
 10
40.63386771987626
 20
-117.843625187553
 30
0.0
 10
39.90212943880919
 20
-117.843625187553
 30
0.0
 10
39.90212943880919
 20
-117.843625187553
 30
0.0
  0
ENDBLK
  5
152
330
14F
100
AcDbEntity
  8
0
100
AcDbBlockEnd
  0
BLOCK
  5
158
330
156
100
AcDbEntity
  8
0
100
AcDbBlockBegin
  2
block 26
 70
     0
 10
0.0
 20
0.0
 30
0.0
  3
block 26
  1

  0
SPLINE
  5
15A
330
156
100
AcDbEntity
  8
Layer 1
 62
   250
370
     9
100
AcDbSpline
210
0.0
220
0.0
230
1.0
 70
     9
 71
     3
 72
    35
 73
    31
 74
     0
 42
0.000000001
 43
0.0000000001
 40
0.0
 40
0.0
 40
0.0
 40
0.0
 40
1.0
 40
1.0
 40
1.0
 40
2.0
 40
2.0
 40
2.0
 40
3.0
 40
3.0
 40
3.0
 40
4.0
 40
4.0
 40
4.0
 40
5.0
 40
5.0
 40
5.0
 40
6.0
 40
6.0
 40
6.0
 40
7.0
 40
7.0
 40
7.0
 40
8.0
 40
8.0
 40
8.0
 40
9.0
 40
9.0
 40
9.0
 40
10.0
 40
10.0
 40
10.0
 40
10.0
 10
57.36394041534651
 20
-110.3519205453287
 30
0.0
 10
57.36394041534651
 20
-110.0832030974792
 30
0.0
 10
57.47935111410239
 20
-109.8654730628114
 30
0.0
 10
57.62128904809468
 20
-109.8654730628114
 30
0.0
 10
57.62128904809468
 20
-109.8654730628114
 30
0.0
 10
57.70397133974068
 20
-109.8654730628114
 30
0.0
 10
57.70397133974068
 20
-109.8654730628114
 30
0.0
 10
57.70397133974068
 20
-109.8654730628114
 30
0.0
 10
65.99562715363998
 20
-109.8654730628114
 30
0.0
 10
65.99562715363998
 20
-109.8654730628114
 30
0.0
 10
65.99562715363998
 20
-109.8654730628114
 30
0.0
 10
66.06935219702433
 20
-109.8654730628114
 30
0.0
 10
66.06935219702433
 20
-109.8654730628114
 30
0.0
 10
66.21129013101662
 20
-109.8654730628114
 30
0.0
 10
66.32704533932102
 20
-110.0832030974792
 30
0.0
 10
66.32704533932102
 20
-110.3519205453287
 30
0.0
 10
66.32704533932102
 20
-110.3519205453287
 30
0.0
 10
66.32704533932102
 20
-110.4773220209918
 30
0.0
 10
66.32704533932102
 20
-110.4773220209918
 30
0.0
 10
66.32704533932102
 20
-110.4773220209918
 30
0.0
 10
66.32704533932102
 20
-117.7061658776915
 30
0.0
 10
66.32704533932102
 20
-117.7061658776915
 30
0.0
 10
66.32704533932102
 20
-117.7061658776915
 30
0.0
 10
57.36394041534651
 20
-117.7061658776915
 30
0.0
 10
57.36394041534651
 20
-117.7061658776915
 30
0.0
 10
57.36394041534651
 20
-117.7061658776915
 30
0.0
 10
57.36394041534651
 20
-110.4635416390508
 30
0.0
 10
57.36394041534651
 20
-110.4635416390508
 30
0.0
 10
57.36394041534651
 20
-110.4635416390508
 30
0.0
 10
57.36394041534651
 20
-110.3519205453287
 30
0.0
 10
57.36394041534651
 20
-110.3519205453287
 30
0.0
  0
SPLINE
  5
15B
330
156
100
AcDbEntity
  8
Layer 1
 62
   250
370
     9
100
AcDbSpline
210
0.0
220
0.0
230
1.0
 70
    11
 71
     3
 72
    41
 73
    37
 74
     0
 42
0.000000001
 43
0.0000000001
 40
0.0
 40
0.0
 40
0.0
 40
0.0
 40
1.0
 40
1.0
 40
1.0
 40
2.0
 40
2.0
 40
2.0
 40
3.0
 40
3.0
 40
3.0
 40
4.0
 40
4.0
 40
4.0
 40
5.0
 40
5.0
 40
5.0
 40
6.0
 40
6.0
 40
6.0
 40
7.0
 40
7.0
 40
7.0
 40
8.0
 40
8.0
 40
8.0
 40
9.0
 40
9.0
 40
9.0
 40
10.0
 40
10.0
 40
10.0
 40
11.0
 40
11.0
 40
11.0
 40
12.0
 40
12.0
 40
12.0
 40
12.0
 10
57.43456487279414
 20
-117.8491373403294
 30
0.0
 10
57.43456487279414
 20
-117.8491373403294
 30
0.0
 10
66.28570419349802
 20
-117.8491373403294
 30
0.0
 10
66.28570419349802
 20
-117.8491373403294
 30
0.0
 10
66.28570419349802
 20
-117.8491373403294
 30
0.0
 10
66.31360946692854
 20
-117.8491373403294
 30
0.0
 10
66.31360946692854
 20
-117.8491373403294
 30
0.0
 10
66.33290200164594
 20
-117.8491373403294
 30
0.0
 10
66.34978296952367
 20
-117.8491373403294
 30
0.0
 10
66.34978296952367
 20
-117.7767903351391
 30
0.0
 10
66.34978296952367
 20
-117.7767903351391
 30
0.0
 10
66.34978296952367
 20
-117.7178792023413
 30
0.0
 10
66.34978296952367
 20
-117.7178792023413
 30
0.0
 10
66.34978296952367
 20
-117.237977401246
 30
0.0
 10
66.14996743137918
 20
-116.9771836730126
 30
0.0
 10
65.89261879863101
 20
-116.9771836730126
 30
0.0
 10
65.89261879863101
 20
-116.9771836730126
 30
0.0
 10
65.74551322141084
 20
-116.9771836730126
 30
0.0
 10
65.74551322141084
 20
-116.9771836730126
 30
0.0
 10
65.74551322141084
 20
-116.9771836730126
 30
0.0
 10
57.84453123553887
 20
-116.9771836730126
 30
0.0
 10
57.84453123553887
 20
-116.9771836730126
 30
0.0
 10
57.84453123553887
 20
-116.9771836730126
 30
0.0
 10
57.8076687138467
 20
-116.9771836730126
 30
0.0
 10
57.8076687138467
 20
-116.9771836730126
 30
0.0
 10
57.33948023740125
 20
-117.0440185254265
 30
0.0
 10
57.34120278514387
 20
-117.4529513595256
 30
0.0
 10
57.34120278514387
 20
-117.7216688073751
 30
0.0
 10
57.34120278514387
 20
-117.7216688073751
 30
0.0
 10
57.34120278514387
 20
-117.7450954566748
 30
0.0
 10
57.34120278514387
 20
-117.7450954566748
 30
0.0
 10
57.34120278514387
 20
-117.7450954566748
 30
0.0
 10
57.34120278514387
 20
-117.8529269453632
 30
0.0
 10
57.38633353600064
 20
-117.8491373403294
 30
0.0
 10
57.38633353600064
 20
-117.8491373403294
 30
0.0
 10
57.43456487279414
 20
-117.8491373403294
 30
0.0
 10
57.43456487279414
 20
-117.8491373403294
 30
0.0
  0
SPLINE
  5
15C
330
156
100
AcDbEntity
  8
Layer 1
 62
   250
370
     9
100
AcDbSpline
210
0.0
220
0.0
230
1.0
 70
     9
 71
     3
 72
    17
 73
    13
 74
     0
 42
0.000000001
 43
0.0000000001
 40
0.0
 40
0.0
 40
0.0
 40
0.0
 40
1.0
 40
1.0
 40
1.0
 40
2.0
 40
2.0
 40
2.0
 40
3.0
 40
3.0
 40
3.0
 40
4.0
 40
4.0
 40
4.0
 40
4.0
 10
58.47877331437336
 20
-119.2809190239992
 30
0.0
 10
58.47877331437336
 20
-119.4211344102489
 30
0.0
 10
58.09292262002538
 20
-119.4004638373374
 30
0.0
 10
58.08534340995784
 20
-119.3084797878812
 30
0.0
 10
58.07845321898733
 20
-119.2168402479736
 30
0.0
 10
58.0505479455568
 20
-117.8491373403294
 30
0.0
 10
58.0505479455568
 20
-117.8491373403294
 30
0.0
 10
58.0505479455568
 20
-117.8491373403294
 30
0.0
 10
58.50771211644946
 20
-117.8491373403294
 30
0.0
 10
58.50771211644946
 20
-117.8491373403294
 30
0.0
 10
58.50771211644946
 20
-117.8491373403294
 30
0.0
 10
58.48221840985861
 20
-119.1792887071843
 30
0.0
 10
58.47877331437336
 20
-119.2809190239992
 30
0.0
  0
SPLINE
  5
15D
330
156
100
AcDbEntity
  8
Layer 1
 62
   250
370
     9
100
AcDbSpline
210
0.0
220
0.0
230
1.0
 70
     9
 71
     3
 72
    17
 73
    13
 74
     0
 42
0.000000001
 43
0.0000000001
 40
0.0
 40
0.0
 40
0.0
 40
0.0
 40
1.0
 40
1.0
 40
1.0
 40
2.0
 40
2.0
 40
2.0
 40
3.0
 40
3.0
 40
3.0
 40
4.0
 40
4.0
 40
4.0
 40
4.0
 10
65.64939505737237
 20
-119.2809190239992
 30
0.0
 10
65.64939505737237
 20
-119.4211344102489
 30
0.0
 10
65.26354436302439
 20
-119.4004638373374
 30
0.0
 10
65.25596515295685
 20
-119.3084797878812
 30
0.0
 10
65.24873045243783
 20
-119.2168402479736
 30
0.0
 10
65.22151419810434
 20
-117.8491373403294
 30
0.0
 10
65.22151419810434
 20
-117.8491373403294
 30
0.0
 10
65.22151419810434
 20
-117.8491373403294
 30
0.0
 10
65.67833385944847
 20
-117.8491373403294
 30
0.0
 10
65.67833385944847
 20
-117.8491373403294
 30
0.0
 10
65.67833385944847
 20
-117.8491373403294
 30
0.0
 10
65.65352917195467
 20
-119.1792887071843
 30
0.0
 10
65.64939505737237
 20
-119.2809190239992
 30
0.0
  0
ENDBLK
  5
159
330
156
100
AcDbEntity
  8
0
100
AcDbBlockEnd
  0
BLOCK
  5
1F8
330
1F7
100
AcDbEntity
  8
0
100
AcDbBlockBegin
  2
*U26
 70
     1
 10
0.0
 20
0.0
 30
0.0
  3
*U26
  1

  0
ENDBLK
  5
1F9
330
1F7
100
AcDbEntity
  8
0
100
AcDbBlockEnd
  0
BLOCK
  5
233
330
231
100
AcDbEntity
  8
0
100
AcDbBlockBegin
  2
GENAXEH
 70
     0
 10
0.0
 20
0.0
 30
0.0
  3
GENAXEH
  1

  0
LINE
  5
232
330
231
100
AcDbEntity
  8
0
100
AcDbLine
 10
-1.0
 20
0.0
 30
0.0
 11
1.0
 21
0.0
 31
0.0
  0
ENDBLK
  5
234
330
231
100
AcDbEntity
  8
0
100
AcDbBlockEnd
  0
ENDSEC
  0
SECTION
  2
ENTITIES
  0
INSERT
  5
3D
330
1F
100
AcDbEntity
  8
Layer 1
100
AcDbBlockReference
  2
block 2
 10
0.0
 20
0.0
 30
0.0
  0
INSERT
  5
41
330
1F
100
AcDbEntity
  8
Layer 1
100
AcDbBlockReference
  2
block 3
 10
0.0
 20
0.0
 30
0.0
  0
POLYLINE
  5
44
330
1F
100
AcDbEntity
  8
Text
370
     9
100
AcDb2dPolyline
 66
     1
 10
0.0
 20
0.0
 30
0.0
  0
VERTEX
  5
45
330
44
100
AcDbEntity
  8
Text
370
     9
100
AcDbVertex
100
AcDb2dVertex
 10
-17163.46426021862
 20
2399.273739175523
 30
0.0
  0
VERTEX
  5
46
330
44
100
AcDbEntity
  8
Text
370
     9
100
AcDbVertex
100
AcDb2dVertex
 10
2696.725625087641
 20
2399.273739175523
 30
0.0
  0
SEQEND
  5
47
330
44
100
AcDbEntity
  8
Text
370
     9
  0
INSERT
  5
4A
330
1F
100
AcDbEntity
  8
Layer 1
100
AcDbBlockReference
  2
block 4
 10
0.0
 20
0.0
 30
0.0
  0
MTEXT
  5
F7
330
1F
100
AcDbEntity
  8
Text
100
AcDbMText
 10
-9145.776256956457
 20
-4820.569521724873
 30
0.0
 40
172.0420880664425
 41
0.0
 46
0.0
 71
     7
 72
     1
  1
NKBD108H
 73
     1
 44
1.0
  0
MTEXT
  5
F8
330
1F
100
AcDbEntity
  8
Text
100
AcDbMText
 10
-8902.772408894314
 20
-5124.127593013628
 30
0.0
 40
172.0420880664425
 41
0.0
 46
0.0
 71
     7
 72
     1
  1
single
 73
     1
 44
1.0
  0
MTEXT
  5
F9
330
1F
100
AcDbEntity
  8
Dimensions
100
AcDbMText
 10
-8834.660950380866
 20
-2190.094011036153
 30
0.0
 40
172.0420880664425
 41
0.0
 46
0.0
 71
     7
 72
     1
  1
\fApercu|b0|i0|c0|p34;\W1.0004;108
 73
     1
 44
1.0
  0
MTEXT
  5
FA
330
1F
100
AcDbEntity
  8
Dimensions
100
AcDbMText
 10
-7928.396044837853
 20
-3436.65488868192
 30
0.0
 40
172.0420880664425
 41
0.0
 46
0.0
 71
     7
 72
     1
  1
\fApercu|b0|i0|c0|p34;\W1.0004;200
 73
     1
 44
1.0
  0
MTEXT
  5
110
330
1F
100
AcDbEntity
  8
Text
100
AcDbMText
 10
-2834.763662907868
 20
-4820.569521724873
 30
0.0
 40
172.0420880664425
 41
0.0
 46
0.0
 71
     7
 72
     1
  1
NKBD169H
 73
     1
 44
1.0
  0
MTEXT
  5
111
330
1F
100
AcDbEntity
  8
Text
100
AcDbMText
 10
-2570.395219905951
 20
-5124.127593013628
 30
0.0
 40
172.0420880664425
 41
0.0
 46
0.0
 71
     7
 72
     1
  1
queen
 73
     1
 44
1.0
  0
MTEXT
  5
112
330
1F
100
AcDbEntity
  8
Dimensions
100
AcDbMText
 10
-2522.869125119977
 20
-2045.195016827197
 30
0.0
 40
172.0420880664425
 41
0.0
 46
0.0
 71
     7
 72
     1
  1
\fApercu|b0|i0|c0|p34;\W1.0004;169
 73
     1
 44
1.0
  0
MTEXT
  5
113
330
1F
100
AcDbEntity
  8
Dimensions
100
AcDbMText
 10
-1317.607501726054
 20
-3365.649820166094
 30
0.0
 40
172.0420880664425
 41
0.0
 46
0.0
 71
     7
 72
     1
  1
\fApercu|b0|i0|c0|p34;\W1.0004;215
 73
     1
 44
1.0
  0
MTEXT
  5
129
330
1F
100
AcDbEntity
  8
Text
100
AcDbMText
 10
-6093.128479955625
 20
-4820.569521724873
 30
0.0
 40
172.0420880664425
 41
0.0
 46
0.0
 71
     7
 72
     1
  1
NKBD153H
 73
     1
 44
1.0
  0
MTEXT
  5
12A
330
1F
100
AcDbEntity
  8
Text
100
AcDbMText
 10
-5872.568035596372
 20
-5124.127593013628
 30
0.0
 40
172.0420880664425
 41
0.0
 46
0.0
 71
     7
 72
     1
  1
double
 73
     1
 44
1.0
  0
MTEXT
  5
12B
330
1F
100
AcDbEntity
  8
Dimensions
100
AcDbMText
 10
-5783.400585050712
 20
-2190.094011036153
 30
0.0
 40
172.0420880664425
 41
0.0
 46
0.0
 71
     7
 72
     1
  1
\fApercu|b0|i0|c0|p34;\W1.0004;153
 73
     1
 44
1.0
  0
MTEXT
  5
12C
330
1F
100
AcDbEntity
  8
Dimensions
100
AcDbMText
 10
-4658.988951342642
 20
-3436.578866124624
 30
0.0
 40
172.0420880664425
 41
0.0
 46
0.0
 71
     7
 72
     1
  1
\fApercu|b0|i0|c0|p34;\W1.0004;200
 73
     1
 44
1.0
  0
MTEXT
  5
142
330
1F
100
AcDbEntity
  8
Text
100
AcDbMText
 10
654.3106098983577
 20
-4820.569521724873
 30
0.0
 40
172.0420880664425
 41
0.0
 46
0.0
 71
     7
 72
     1
  1
NKBD199H
 73
     1
 44
1.0
  0
MTEXT
  5
143
330
1F
100
AcDbEntity
  8
Text
100
AcDbMText
 10
1043.432069425403
 20
-5124.127593013628
 30
0.0
 40
172.0420880664425
 41
0.0
 46
0.0
 71
     7
 72
     1
  1
king
 73
     1
 44
1.0
  0
MTEXT
  5
144
330
1F
100
AcDbEntity
  8
Dimensions
100
AcDbMText
 10
966.2241533255738
 20
-2045.195016827197
 30
0.0
 40
172.0420880664425
 41
0.0
 46
0.0
 71
     7
 72
     1
  1
\fApercu|b0|i0|c0|p34;\W1.0004;199
 73
     1
 44
1.0
  0
MTEXT
  5
145
330
1F
100
AcDbEntity
  8
Dimensions
100
AcDbMText
 10
2326.419748491716
 20
-3365.649820166094
 30
0.0
 40
172.0420880664425
 41
0.0
 46
0.0
 71
     7
 72
     1
  1
\fApercu|b0|i0|c0|p34;\W1.0004;215
 73
     1
 44
1.0
  0
MTEXT
  5
251
330
1F
100
AcDbEntity
  8
Text
100
AcDbMText
 10
-9054.663222035454
 20
-1002.773711164433
 30
0.0
 40
172.0420880664425
 41
0.0
 46
0.0
 71
     7
 72
     1
  1
NKBD108
 73
     1
 44
1.0
  0
MTEXT
  5
252
330
1F
100
AcDbEntity
  8
Text
100
AcDbMText
 10
-8907.494189642291
 20
-1306.369793731838
 30
0.0
 40
172.0420880664425
 41
0.0
 46
0.0
 71
     7
 72
     1
  1
single
 73
     1
 44
1.0
  0
MTEXT
  5
253
330
1F
100
AcDbEntity
  8
Dimensions
100
AcDbMText
 10
-8834.660950380866
 20
1627.64478260631
 30
0.0
 40
172.0420880664425
 41
0.0
 46
0.0
 71
     7
 72
     1
  1
\fApercu|b0|i0|c0|p34;\W1.0004;108
 73
     1
 44
1.0
  0
MTEXT
  5
254
330
1F
100
AcDbEntity
  8
Dimensions
100
AcDbMText
 10
-7928.396044837853
 20
381.1029105998672
 30
0.0
 40
172.0420880664425
 41
0.0
 46
0.0
 71
     7
 72
     1
  1
{\fApercu|b0|i0|c0|p34;\W1.0004;200}
 73
     1
 44
1.0
  0
SPLINE
  5
3FB
330
1F
100
AcDbEntity
  8
Furniture
370
     9
100
AcDbSpline
210
0.0
220
0.0
230
1.0
 70
     8
 71
     3
 72
     8
 73
     4
 74
     0
 42
0.000000001
 43
0.0000000001
 40
0.0
 40
0.0
 40
0.0
 40
0.0
 40
1.0
 40
1.0
 40
1.0
 40
1.0
 10
162.5897001341254
 20
-2331.705029641997
 30
0.0
 10
162.5897001341254
 20
-2338.547059798768
 30
0.0
 10
195.4314448866244
 20
-2344.096706481481
 30
0.0
 10
228.3492121964264
 20
-2344.096706481481
 30
0.0
  0
SPLINE
  5
3FC
330
1F
100
AcDbEntity
  8
Furniture
370
     9
100
AcDbSpline
210
0.0
220
0.0
230
1.0
 70
     8
 71
     3
 72
     8
 73
     4
 74
     0
 42
0.000000001
 43
0.0000000001
 40
0.0
 40
0.0
 40
0.0
 40
0.0
 40
1.0
 40
1.0
 40
1.0
 40
1.0
 10
2156.357287817293
 20
-2331.705029641997
 30
0.0
 10
2156.357287817293
 20
-2338.547059798768
 30
0.0
 10
2126.3283776848
 20
-2344.096706481481
 30
0.0
 10
2089.077324609043
 20
-2344.096706481481
 30
0.0
  0
SPLINE
  5
3FD
330
1F
100
AcDbEntity
  8
Furniture
370
     9
100
AcDbSpline
210
0.0
220
0.0
230
1.0
 70
     8
 71
     3
 72
     8
 73
     4
 74
     0
 42
0.000000001
 43
0.0000000001
 40
0.0
 40
0.0
 40
0.0
 40
0.0
 40
1.0
 40
1.0
 40
1.0
 40
1.0
 10
162.5897001341254
 20
-2267.256906693075
 30
0.0
 10
252.220295187828
 20
-2283.335677561488
 30
0.0
 10
2201.590709409284
 20
-2280.86494444932
 30
0.0
 10
2156.357287817293
 20
-2267.256906693075
 30
0.0
  0
MTEXT
  5
3FF
330
1F
100
AcDbEntity
  8
Text
100
AcDbMText
 10
745.4236448193587
 20
-1002.773711164433
 30
0.0
 40
172.0420880664425
 41
0.0
 46
0.0
 71
     7
 72
     1
  1
NKBD199
 73
     1
 44
1.0
  0
MTEXT
  5
400
330
1F
100
AcDbEntity
  8
Text
100
AcDbMText
 10
1043.432069425398
 20
-1306.369793731837
 30
0.0
 40
172.0420880664425
 41
0.0
 46
0.0
 71
     7
 72
     1
  1
king
 73
     1
 44
1.0
  0
MTEXT
  5
401
330
1F
100
AcDbEntity
  8
Dimensions
100
AcDbMText
 10
966.2241533255691
 20
1772.543776815268
 30
0.0
 40
172.0420880664425
 41
0.0
 46
0.0
 71
     7
 72
     1
  1
\fApercu|b0|i0|c0|p34;\W1.0004;199
 73
     1
 44
1.0
  0
MTEXT
  5
402
330
1F
100
AcDbEntity
  8
Dimensions
100
AcDbMText
 10
2326.419748491713
 20
452.1079791156953
 30
0.0
 40
172.0420880664425
 41
0.0
 46
0.0
 71
     7
 72
     1
  1
\fApercu|b0|i0|c0|p34;\W1.0004;215
 73
     1
 44
1.0
  0
MTEXT
  5
404
330
1F
100
AcDbEntity
  8
Text
100
AcDbMText
 10
-6002.015445034624
 20
-1002.773711164433
 30
0.0
 40
172.0420880664425
 41
0.0
 46
0.0
 71
     7
 72
     1
  1
NKBD153
 73
     1
 44
1.0
  0
MTEXT
  5
405
330
1F
100
AcDbEntity
  8
Text
100
AcDbMText
 10
-5872.568035596374
 20
-1306.369793731837
 30
0.0
 40
172.0420880664425
 41
0.0
 46
0.0
 71
     7
 72
     1
  1
double
 73
     1
 44
1.0
  0
MTEXT
  5
406
330
1F
100
AcDbEntity
  8
Dimensions
100
AcDbMText
 10
-5783.400585050714
 20
1627.644782606311
 30
0.0
 40
172.0420880664425
 41
0.0
 46
0.0
 71
     7
 72
     1
  1
\fApercu|b0|i0|c0|p34;\W1.0004;153
 73
     1
 44
1.0
  0
MTEXT
  5
407
330
1F
100
AcDbEntity
  8
Dimensions
100
AcDbMText
 10
-4658.988951342642
 20
381.1409218785175
 30
0.0
 40
172.0420880664425
 41
0.0
 46
0.0
 71
     7
 72
     1
  1
\fApercu|b0|i0|c0|p34;\W1.0004;200
 73
     1
 44
1.0
  0
MTEXT
  5
409
330
1F
100
AcDbEntity
  8
Text
100
AcDbMText
 10
-2743.631622347542
 20
-1002.773711164433
 30
0.0
 40
172.0420880664425
 41
0.0
 46
0.0
 71
     7
 72
     1
  1
NKBD169
 73
     1
 44
1.0
  0
MTEXT
  5
40A
330
1F
100
AcDbEntity
  8
Text
100
AcDbMText
 10
-2570.395219905953
 20
-1306.369793731837
 30
0.0
 40
172.0420880664425
 41
0.0
 46
0.0
 71
     7
 72
     1
  1
queen
 73
     1
 44
1.0
  0
MTEXT
  5
40B
330
1F
100
AcDbEntity
  8
Dimensions
100
AcDbMText
 10
-2522.86912511998
 20
1772.543776815268
 30
0.0
 40
172.0420880664425
 41
0.0
 46
0.0
 71
     7
 72
     1
  1
\fApercu|b0|i0|c0|p34;\W1.0004;169
 73
     1
 44
1.0
  0
MTEXT
  5
40C
330
1F
100
AcDbEntity
  8
Dimensions
100
AcDbMText
 10
-1317.607501726059
 20
452.1079791156953
 30
0.0
 40
172.0420880664425
 41
0.0
 46
0.0
 71
     7
 72
     1
  1
\fApercu|b0|i0|c0|p34;\W1.0004;215
 73
     1
 44
1.0
  0
MTEXT
  5
412
330
1F
100
AcDbEntity
  8
Dimensions
100
AcDbMText
 10
-13527.64744618898
 20
-174.2988873760441
 30
0.0
 40
172.0420880664425
 41
0.0
 46
0.0
 71
     7
 72
     1
  1
\fApercu|b0|i0|c0|p34;\W1.0004;91
 73
     1
 44
1.0
  0
MTEXT
  5
414
330
1F
100
AcDbEntity
  8
Dimensions
100
AcDbMText
 10
-13527.64744618898
 20
-3992.075692297158
 30
0.0
 40
172.0420880664425
 41
0.0
 46
0.0
 71
     7
 72
     1
  1
\fApercu|b0|i0|c0|p34;\W1.0004;106
 73
     1
 44
1.0
  0
SPLINE
  5
416
330
1F
100
AcDbEntity
  8
Furniture
370
     9
100
AcDbSpline
210
0.0
220
0.0
230
1.0
 70
     9
 71
     3
 72
    35
 73
    31
 74
     0
 42
0.000000001
 43
0.0000000001
 40
0.0
 40
0.0
 40
0.0
 40
0.0
 40
1.0
 40
1.0
 40
1.0
 40
2.0
 40
2.0
 40
2.0
 40
3.0
 40
3.0
 40
3.0
 40
4.0
 40
4.0
 40
4.0
 40
5.0
 40
5.0
 40
5.0
 40
6.0
 40
6.0
 40
6.0
 40
7.0
 40
7.0
 40
7.0
 40
8.0
 40
8.0
 40
8.0
 40
9.0
 40
9.0
 40
9.0
 40
10.0
 40
10.0
 40
10.0
 40
10.0
 10
-11905.42110165782
 20
-3364.433459249335
 30
0.0
 10
-11905.42110165782
 20
-3334.784661903323
 30
0.0
 10
-11892.6873233105
 20
-3310.761533797328
 30
0.0
 10
-11877.02667650722
 20
-3310.761533797328
 30
0.0
 10
-11877.02667650722
 20
-3310.761533797328
 30
0.0
 10
-11867.90396963153
 20
-3310.761533797328
 30
0.0
 10
-11867.90396963153
 20
-3310.761533797328
 30
0.0
 10
-11867.90396963153
 20
-3310.761533797328
 30
0.0
 10
-10953.0485151139
 20
-3310.761533797328
 30
0.0
 10
-10953.0485151139
 20
-3310.761533797328
 30
0.0
 10
-10953.0485151139
 20
-3310.761533797328
 30
0.0
 10
-10944.91410148307
 20
-3310.761533797328
 30
0.0
 10
-10944.91410148307
 20
-3310.761533797328
 30
0.0
 10
-10929.25345467979
 20
-3310.761533797328
 30
0.0
 10
-10916.48166505382
 20
-3334.784661903323
 30
0.0
 10
-10916.48166505382
 20
-3364.433459249335
 30
0.0
 10
-10916.48166505382
 20
-3364.433459249335
 30
0.0
 10
-10916.48166505382
 20
-3378.269564677472
 30
0.0
 10
-10916.48166505382
 20
-3378.269564677472
 30
0.0
 10
-10916.48166505382
 20
-3378.269564677472
 30
0.0
 10
-10916.48166505382
 20
-4175.860224563766
 30
0.0
 10
-10916.48166505382
 20
-4175.860224563766
 30
0.0
 10
-10916.48166505382
 20
-4175.860224563766
 30
0.0
 10
-11905.42110165782
 20
-4175.860224563766
 30
0.0
 10
-11905.42110165782
 20
-4175.860224563766
 30
0.0
 10
-11905.42110165782
 20
-4175.860224563766
 30
0.0
 10
-11905.42110165782
 20
-3376.749113531521
 30
0.0
 10
-11905.42110165782
 20
-3376.749113531521
 30
0.0
 10
-11905.42110165782
 20
-3376.749113531521
 30
0.0
 10
-11905.42110165782
 20
-3364.433459249335
 30
0.0
 10
-11905.42110165782
 20
-3364.433459249335
 30
0.0
  0
SPLINE
  5
417
330
1F
100
AcDbEntity
  8
Furniture
370
     9
100
AcDbSpline
210
0.0
220
0.0
230
1.0
 70
    11
 71
     3
 72
    41
 73
    37
 74
     0
 42
0.000000001
 43
0.0000000001
 40
0.0
 40
0.0
 40
0.0
 40
0.0
 40
1.0
 40
1.0
 40
1.0
 40
2.0
 40
2.0
 40
2.0
 40
3.0
 40
3.0
 40
3.0
 40
4.0
 40
4.0
 40
4.0
 40
5.0
 40
5.0
 40
5.0
 40
6.0
 40
6.0
 40
6.0
 40
7.0
 40
7.0
 40
7.0
 40
8.0
 40
8.0
 40
8.0
 40
9.0
 40
9.0
 40
9.0
 40
10.0
 40
10.0
 40
10.0
 40
11.0
 40
11.0
 40
11.0
 40
12.0
 40
12.0
 40
12.0
 40
12.0
 10
-11897.62878953483
 20
-4191.634905202989
 30
0.0
 10
-11897.62878953483
 20
-4191.634905202989
 30
0.0
 10
-10921.04301849167
 20
-4191.634905202989
 30
0.0
 10
-10921.04301849167
 20
-4191.634905202989
 30
0.0
 10
-10921.04301849167
 20
-4191.634905202989
 30
0.0
 10
-10917.96410492112
 20
-4191.634905202989
 30
0.0
 10
-10917.96410492112
 20
-4191.634905202989
 30
0.0
 10
-10915.83547331679
 20
-4191.634905202989
 30
0.0
 10
-10913.972920663
 20
-4191.634905202989
 30
0.0
 10
-10913.972920663
 20
-4183.652536686755
 30
0.0
 10
-10913.972920663
 20
-4183.652536686755
 30
0.0
 10
-10913.972920663
 20
-4177.152608037823
 30
0.0
 10
-10913.972920663
 20
-4177.152608037823
 30
0.0
 10
-10913.972920663
 20
-4124.202896880142
 30
0.0
 10
-10936.01946227927
 20
-4095.428358943054
 30
0.0
 10
-10964.41388742987
 20
-4095.428358943054
 30
0.0
 10
-10964.41388742987
 20
-4095.428358943054
 30
0.0
 10
-10980.64470341288
 20
-4095.428358943054
 30
0.0
 10
-10980.64470341288
 20
-4095.428358943054
 30
0.0
 10
-10980.64470341288
 20
-4095.428358943054
 30
0.0
 10
-11852.39536794284
 20
-4095.428358943054
 30
0.0
 10
-11852.39536794284
 20
-4095.428358943054
 30
0.0
 10
-11852.39536794284
 20
-4095.428358943054
 30
0.0
 10
-11856.46257475826
 20
-4095.428358943054
 30
0.0
 10
-11856.46257475826
 20
-4095.428358943054
 30
0.0
 10
-11908.11990244188
 20
-4102.802547000907
 30
0.0
 10
-11907.92984604864
 20
-4147.921934756949
 30
0.0
 10
-11907.92984604864
 20
-4177.570732102958
 30
0.0
 10
-11907.92984604864
 20
-4177.570732102958
 30
0.0
 10
-11907.92984604864
 20
-4180.155499051072
 30
0.0
 10
-11907.92984604864
 20
-4180.155499051072
 30
0.0
 10
-11907.92984604864
 20
-4180.155499051072
 30
0.0
 10
-11907.92984604864
 20
-4192.053029268125
 30
0.0
 10
-11902.95036854565
 20
-4191.634905202989
 30
0.0
 10
-11902.95036854565
 20
-4191.634905202989
 30
0.0
 10
-11897.62878953483
 20
-4191.634905202989
 30
0.0
 10
-11897.62878953483
 20
-4191.634905202989
 30
0.0
  0
SPLINE
  5
418
330
1F
100
AcDbEntity
  8
Furniture
370
     9
100
AcDbSpline
210
0.0
220
0.0
230
1.0
 70
     9
 71
     3
 72
    17
 73
    13
 74
     0
 42
0.000000001
 43
0.0000000001
 40
0.0
 40
0.0
 40
0.0
 40
0.0
 40
1.0
 40
1.0
 40
1.0
 40
2.0
 40
2.0
 40
2.0
 40
3.0
 40
3.0
 40
3.0
 40
4.0
 40
4.0
 40
4.0
 40
4.0
 10
-11782.41660395053
 20
-4349.60977926711
 30
0.0
 10
-11782.41660395053
 20
-4365.080369677142
 30
0.0
 10
-11824.98923603711
 20
-4362.799692958218
 30
0.0
 10
-11825.82548416738
 20
-4352.650681559008
 30
0.0
 10
-11826.58570974036
 20
-4342.539681438445
 30
0.0
 10
-11829.6646233109
 20
-4191.634905202989
 30
0.0
 10
-11829.6646233109
 20
-4191.634905202989
 30
0.0
 10
-11829.6646233109
 20
-4191.634905202989
 30
0.0
 10
-11779.22365654404
 20
-4191.634905202989
 30
0.0
 10
-11779.22365654404
 20
-4191.634905202989
 30
0.0
 10
-11779.22365654404
 20
-4191.634905202989
 30
0.0
 10
-11782.03649116404
 20
-4338.396452065736
 30
0.0
 10
-11782.41660395053
 20
-4349.60977926711
 30
0.0
  0
SPLINE
  5
419
330
1F
100
AcDbEntity
  8
Furniture
370
     9
100
AcDbSpline
210
0.0
220
0.0
230
1.0
 70
     9
 71
     3
 72
    17
 73
    13
 74
     0
 42
0.000000001
 43
0.0000000001
 40
0.0
 40
0.0
 40
0.0
 40
0.0
 40
1.0
 40
1.0
 40
1.0
 40
2.0
 40
2.0
 40
2.0
 40
3.0
 40
3.0
 40
3.0
 40
4.0
 40
4.0
 40
4.0
 40
4.0
 10
-10991.24985015587
 20
-4349.60977926711
 30
0.0
 10
-10991.24985015587
 20
-4365.080369677142
 30
0.0
 10
-11033.82248224245
 20
-4362.799692958218
 30
0.0
 10
-11034.65873037272
 20
-4352.650681559008
 30
0.0
 10
-11035.45696722434
 20
-4342.539681438445
 30
0.0
 10
-11038.45985823759
 20
-4191.634905202989
 30
0.0
 10
-11038.45985823759
 20
-4191.634905202989
 30
0.0
 10
-11038.45985823759
 20
-4191.634905202989
 30
0.0
 10
-10988.05690274938
 20
-4191.634905202989
 30
0.0
 10
-10988.05690274938
 20
-4191.634905202989
 30
0.0
 10
-10988.05690274938
 20
-4191.634905202989
 30
0.0
 10
-10990.79371481209
 20
-4338.396452065736
 30
0.0
 10
-10991.24985015587
 20
-4349.60977926711
 30
0.0
  0
LINE
  5
41D
330
1F
100
AcDbEntity
  8
Furniture
370
     9
100
AcDbLine
 10
2096.071399880409
 20
-4301.791590727007
 30
0.0
 11
228.2731896391306
 21
-4301.791590727007
 31
0.0
  0
LINE
  5
41E
330
1F
100
AcDbEntity
  8
Furniture
370
     9
100
AcDbLine
 10
228.2731896391306
 20
-4301.791590727007
 30
0.0
 11
228.2731896391306
 21
-2344.096706481481
 31
0.0
  0
LINE
  5
41F
330
1F
100
AcDbEntity
  8
Furniture
370
     9
100
AcDbLine
 10
228.2731896391306
 20
-2344.096706481481
 30
0.0
 11
2096.071399880409
 21
-2344.096706481481
 31
0.0
  0
LINE
  5
420
330
1F
100
AcDbEntity
  8
Furniture
370
     9
100
AcDbLine
 10
2096.071399880409
 20
-2344.096706481481
 30
0.0
 11
2096.071399880409
 21
-4301.791590727007
 31
0.0
  0
LINE
  5
421
330
1F
100
AcDbEntity
  8
Furniture
370
     9
100
AcDbLine
 10
2156.357287817293
 20
-4364.890313283899
 30
0.0
 11
162.5897001341254
 21
-4364.890313283899
 31
0.0
  0
LINE
  5
422
330
1F
100
AcDbEntity
  8
Furniture
370
     9
100
AcDbLine
 10
162.5897001341254
 20
-4364.890313283899
 30
0.0
 11
162.5897001341254
 21
-2210.753140981738
 31
0.0
  0
LINE
  5
423
330
1F
100
AcDbEntity
  8
Furniture
370
     9
100
AcDbLine
 10
162.5897001341254
 20
-2210.753140981738
 30
0.0
 11
2156.357287817293
 21
-2210.753140981738
 31
0.0
  0
LINE
  5
424
330
1F
100
AcDbEntity
  8
Furniture
370
     9
100
AcDbLine
 10
2156.357287817293
 20
-2210.753140981738
 30
0.0
 11
2156.357287817293
 21
-4364.890313283899
 31
0.0
  0
POLYLINE
  5
425
330
1F
100
AcDbEntity
  8
Furniture
370
     9
100
AcDb2dPolyline
 66
     1
 10
0.0
 20
0.0
 30
0.0
  0
VERTEX
  5
426
330
425
100
AcDbEntity
  8
Furniture
370
     9
100
AcDbVertex
100
AcDb2dVertex
 10
-4822.91259051529
 20
-4360.747083911187
 30
0.0
  0
VERTEX
  5
427
330
425
100
AcDbEntity
  8
Furniture
370
     9
100
AcDbVertex
100
AcDb2dVertex
 10
-6355.907458418558
 20
-4360.747083911187
 30
0.0
  0
VERTEX
  5
428
330
425
100
AcDbEntity
  8
Furniture
370
     9
100
AcDbVertex
100
AcDb2dVertex
 10
-6355.907458418558
 20
-2356.88750174678
 30
0.0
  0
VERTEX
  5
429
330
425
100
AcDbEntity
  8
Furniture
370
     9
100
AcDbVertex
100
AcDb2dVertex
 10
-4822.91259051529
 20
-2356.88750174678
 30
0.0
  0
VERTEX
  5
42A
330
425
100
AcDbEntity
  8
Furniture
370
     9
100
AcDbVertex
100
AcDb2dVertex
 10
-4822.91259051529
 20
-4360.747083911187
 30
0.0
  0
SEQEND
  5
42B
330
425
100
AcDbEntity
  8
Furniture
370
     9
  0
POLYLINE
  5
42C
330
1F
100
AcDbEntity
  8
Furniture
370
     9
100
AcDb2dPolyline
 66
     1
 10
0.0
 20
0.0
 30
0.0
  0
VERTEX
  5
42D
330
42C
100
AcDbEntity
  8
Furniture
370
     9
100
AcDbVertex
100
AcDb2dVertex
 10
-4892.473230442465
 20
-4299.168812500245
 30
0.0
  0
VERTEX
  5
42E
330
42C
100
AcDbEntity
  8
Furniture
370
     9
100
AcDbVertex
100
AcDb2dVertex
 10
-6290.147946356256
 20
-4299.168812500245
 30
0.0
  0
VERTEX
  5
42F
330
42C
100
AcDbEntity
  8
Furniture
370
     9
100
AcDbVertex
100
AcDb2dVertex
 10
-6290.147946356256
 20
-2491.941574785716
 30
0.0
  0
VERTEX
  5
430
330
42C
100
AcDbEntity
  8
Furniture
370
     9
100
AcDbVertex
100
AcDb2dVertex
 10
-4892.473230442465
 20
-2491.941574785716
 30
0.0
  0
VERTEX
  5
431
330
42C
100
AcDbEntity
  8
Furniture
370
     9
100
AcDbVertex
100
AcDb2dVertex
 10
-4892.473230442465
 20
-4299.168812500245
 30
0.0
  0
SEQEND
  5
432
330
42C
100
AcDbEntity
  8
Furniture
370
     9
  0
SPLINE
  5
433
330
1F
100
AcDbEntity
  8
Furniture
370
     9
100
AcDbSpline
210
0.0
220
0.0
230
1.0
 70
     8
 71
     3
 72
     8
 73
     4
 74
     0
 42
0.000000001
 43
0.0000000001
 40
0.0
 40
0.0
 40
0.0
 40
0.0
 40
1.0
 40
1.0
 40
1.0
 40
1.0
 10
-6355.907458418558
 20
-2479.530892306906
 30
0.0
 10
-6355.907458418558
 20
-2486.391928103001
 30
0.0
 10
-6325.95457084336
 20
-2491.941574785716
 30
0.0
 10
-6293.036803533557
 20
-2491.941574785716
 30
0.0
  0
SPLINE
  5
434
330
1F
100
AcDbEntity
  8
Furniture
370
     9
100
AcDbSpline
210
0.0
220
0.0
230
1.0
 70
     8
 71
     3
 72
     8
 73
     4
 74
     0
 42
0.000000001
 43
0.0000000001
 40
0.0
 40
0.0
 40
0.0
 40
0.0
 40
1.0
 40
1.0
 40
1.0
 40
1.0
 10
-4825.26928979151
 20
-2479.530892306906
 30
0.0
 10
-4825.26928979151
 20
-2486.391928103001
 30
0.0
 10
-4855.298199924007
 20
-2491.941574785716
 30
0.0
 10
-4892.473230442465
 20
-2491.941574785716
 30
0.0
  0
SPLINE
  5
435
330
1F
100
AcDbEntity
  8
Furniture
370
     9
100
AcDbSpline
210
0.0
220
0.0
230
1.0
 70
     8
 71
     3
 72
     8
 73
     4
 74
     0
 42
0.000000001
 43
0.0000000001
 40
0.0
 40
0.0
 40
0.0
 40
0.0
 40
1.0
 40
1.0
 40
1.0
 40
1.0
 10
-6355.907458418558
 20
-2415.101774997309
 30
0.0
 10
-6266.124818250259
 20
-2431.161540226398
 30
0.0
 10
-4779.275642626547
 20
-2428.709812753554
 30
0.0
 10
-4824.357019103939
 20
-2415.101774997309
 30
0.0
  0
POLYLINE
  5
436
330
1F
100
AcDbEntity
  8
Furniture
370
     9
100
AcDb2dPolyline
 66
     1
 10
0.0
 20
0.0
 30
0.0
  0
VERTEX
  5
437
330
436
100
AcDbEntity
  8
Furniture
370
     9
100
AcDbVertex
100
AcDb2dVertex
 10
-1483.146620241274
 20
-4364.890313283899
 30
0.0
  0
VERTEX
  5
438
330
436
100
AcDbEntity
  8
Furniture
370
     9
100
AcDbVertex
100
AcDb2dVertex
 10
-3176.302010730966
 20
-4364.890313283899
 30
0.0
  0
VERTEX
  5
439
330
436
100
AcDbEntity
  8
Furniture
370
     9
100
AcDbVertex
100
AcDb2dVertex
 10
-3176.302010730966
 20
-2210.753140981738
 30
0.0
  0
VERTEX
  5
43A
330
436
100
AcDbEntity
  8
Furniture
370
     9
100
AcDbVertex
100
AcDb2dVertex
 10
-1483.146620241274
 20
-2210.753140981738
 30
0.0
  0
VERTEX
  5
43B
330
436
100
AcDbEntity
  8
Furniture
370
     9
100
AcDbVertex
100
AcDb2dVertex
 10
-1483.146620241274
 20
-4364.890313283899
 30
0.0
  0
SEQEND
  5
43C
330
436
100
AcDbEntity
  8
Furniture
370
     9
  0
POLYLINE
  5
43D
330
1F
100
AcDbEntity
  8
Furniture
370
     9
100
AcDb2dPolyline
 66
     1
 10
0.0
 20
0.0
 30
0.0
  0
VERTEX
  5
43E
330
43D
100
AcDbEntity
  8
Furniture
370
     9
100
AcDbVertex
100
AcDb2dVertex
 10
-1544.268756308436
 20
-4301.791590727007
 30
0.0
  0
VERTEX
  5
43F
330
43D
100
AcDbEntity
  8
Furniture
370
     9
100
AcDbVertex
100
AcDb2dVertex
 10
-3110.542498668665
 20
-4301.791590727007
 30
0.0
  0
VERTEX
  5
440
330
43D
100
AcDbEntity
  8
Furniture
370
     9
100
AcDbVertex
100
AcDb2dVertex
 10
-3110.542498668665
 20
-2344.096706481481
 30
0.0
  0
VERTEX
  5
441
330
43D
100
AcDbEntity
  8
Furniture
370
     9
100
AcDbVertex
100
AcDb2dVertex
 10
-1544.268756308436
 20
-2344.096706481481
 30
0.0
  0
VERTEX
  5
442
330
43D
100
AcDbEntity
  8
Furniture
370
     9
100
AcDbVertex
100
AcDb2dVertex
 10
-1544.268756308436
 20
-4301.791590727007
 30
0.0
  0
SEQEND
  5
443
330
43D
100
AcDbEntity
  8
Furniture
370
     9
  0
SPLINE
  5
444
330
1F
100
AcDbEntity
  8
Furniture
370
     9
100
AcDbSpline
210
0.0
220
0.0
230
1.0
 70
     8
 71
     3
 72
     8
 73
     4
 74
     0
 42
0.000000001
 43
0.0000000001
 40
0.0
 40
0.0
 40
0.0
 40
0.0
 40
1.0
 40
1.0
 40
1.0
 40
1.0
 10
-3176.302010730966
 20
-2331.705029641997
 30
0.0
 10
-3176.302010730966
 20
-2338.547059798768
 30
0.0
 10
-3143.384243421167
 20
-2344.096706481481
 30
0.0
 10
-3110.542498668665
 20
-2344.096706481481
 30
0.0
  0
SPLINE
  5
445
330
1F
100
AcDbEntity
  8
Furniture
370
     9
100
AcDbSpline
210
0.0
220
0.0
230
1.0
 70
     8
 71
     3
 72
     8
 73
     4
 74
     0
 42
0.000000001
 43
0.0000000001
 40
0.0
 40
0.0
 40
0.0
 40
0.0
 40
1.0
 40
1.0
 40
1.0
 40
1.0
 10
-1483.146620241274
 20
-2331.705029641997
 30
0.0
 10
-1483.146620241274
 20
-2338.547059798768
 30
0.0
 10
-1513.175530373773
 20
-2344.096706481481
 30
0.0
 10
-1550.350560892231
 20
-2344.096706481481
 30
0.0
  0
SPLINE
  5
446
330
1F
100
AcDbEntity
  8
Furniture
370
     9
100
AcDbSpline
210
0.0
220
0.0
230
1.0
 70
     8
 71
     3
 72
     8
 73
     4
 74
     0
 42
0.000000001
 43
0.0000000001
 40
0.0
 40
0.0
 40
0.0
 40
0.0
 40
1.0
 40
1.0
 40
1.0
 40
1.0
 10
-3176.302010730966
 20
-2267.256906693075
 30
0.0
 10
-3086.595393119966
 20
-2283.335677561488
 30
0.0
 10
-1437.989221206586
 20
-2280.86494444932
 30
0.0
 10
-1483.146620241274
 20
-2267.256906693075
 30
0.0
  0
SPLINE
  5
447
330
1F
100
AcDbEntity
  8
Furniture
370
     9
100
AcDbSpline
210
0.0
220
0.0
230
1.0
 70
     9
 71
     3
 72
    35
 73
    31
 74
     0
 42
0.000000001
 43
0.0000000001
 40
0.0
 40
0.0
 40
0.0
 40
0.0
 40
1.0
 40
1.0
 40
1.0
 40
2.0
 40
2.0
 40
2.0
 40
3.0
 40
3.0
 40
3.0
 40
4.0
 40
4.0
 40
4.0
 40
5.0
 40
5.0
 40
5.0
 40
6.0
 40
6.0
 40
6.0
 40
7.0
 40
7.0
 40
7.0
 40
8.0
 40
8.0
 40
8.0
 40
9.0
 40
9.0
 40
9.0
 40
10.0
 40
10.0
 40
10.0
 40
10.0
 10
-11905.42110165782
 20
292.9167441348163
 30
0.0
 10
-11905.42110165782
 20
322.5655414808262
 30
0.0
 10
-11892.6873233105
 20
346.5506583081751
 30
0.0
 10
-11877.02667650722
 20
346.5506583081751
 30
0.0
 10
-11877.02667650722
 20
346.5506583081751
 30
0.0
 10
-11867.90396963153
 20
346.5506583081751
 30
0.0
 10
-11867.90396963153
 20
346.5506583081751
 30
0.0
 10
-11867.90396963153
 20
346.5506583081751
 30
0.0
 10
-10953.0485151139
 20
346.5506583081751
 30
0.0
 10
-10953.0485151139
 20
346.5506583081751
 30
0.0
 10
-10953.0485151139
 20
346.5506583081751
 30
0.0
 10
-10944.91410148307
 20
346.5506583081751
 30
0.0
 10
-10944.91410148307
 20
346.5506583081751
 30
0.0
 10
-10929.25345467979
 20
346.5506583081751
 30
0.0
 10
-10916.48166505382
 20
322.5655414808262
 30
0.0
 10
-10916.48166505382
 20
292.9167441348163
 30
0.0
 10
-10916.48166505382
 20
292.9167441348163
 30
0.0
 10
-10916.48166505382
 20
279.0806387066786
 30
0.0
 10
-10916.48166505382
 20
279.0806387066786
 30
0.0
 10
-10916.48166505382
 20
279.0806387066786
 30
0.0
 10
-10916.48166505382
 20
-358.1024252819771
 30
0.0
 10
-10916.48166505382
 20
-358.1024252819771
 30
0.0
 10
-10916.48166505382
 20
-358.1024252819771
 30
0.0
 10
-11905.42110165782
 20
-358.1024252819771
 30
0.0
 10
-11905.42110165782
 20
-358.1024252819771
 30
0.0
 10
-11905.42110165782
 20
-358.1024252819771
 30
0.0
 10
-11905.42110165782
 20
280.5820842133035
 30
0.0
 10
-11905.42110165782
 20
280.5820842133035
 30
0.0
 10
-11905.42110165782
 20
280.5820842133035
 30
0.0
 10
-11905.42110165782
 20
292.9167441348163
 30
0.0
 10
-11905.42110165782
 20
292.9167441348163
 30
0.0
  0
SPLINE
  5
448
330
1F
100
AcDbEntity
  8
Furniture
370
     9
100
AcDbSpline
210
0.0
220
0.0
230
1.0
 70
    11
 71
     3
 72
    41
 73
    37
 74
     0
 42
0.000000001
 43
0.0000000001
 40
0.0
 40
0.0
 40
0.0
 40
0.0
 40
1.0
 40
1.0
 40
1.0
 40
2.0
 40
2.0
 40
2.0
 40
3.0
 40
3.0
 40
3.0
 40
4.0
 40
4.0
 40
4.0
 40
5.0
 40
5.0
 40
5.0
 40
6.0
 40
6.0
 40
6.0
 40
7.0
 40
7.0
 40
7.0
 40
8.0
 40
8.0
 40
8.0
 40
9.0
 40
9.0
 40
9.0
 40
10.0
 40
10.0
 40
10.0
 40
11.0
 40
11.0
 40
11.0
 40
12.0
 40
12.0
 40
12.0
 40
12.0
 10
-11897.62878953483
 20
-373.8961115605253
 30
0.0
 10
-11897.62878953483
 20
-373.8961115605253
 30
0.0
 10
-10921.04301849167
 20
-373.8961115605253
 30
0.0
 10
-10921.04301849167
 20
-373.8961115605253
 30
0.0
 10
-10921.04301849167
 20
-373.8961115605253
 30
0.0
 10
-10917.96410492112
 20
-373.8961115605253
 30
0.0
 10
-10917.96410492112
 20
-373.8961115605253
 30
0.0
 10
-10915.83547331679
 20
-373.8961115605253
 30
0.0
 10
-10913.972920663
 20
-373.8961115605253
 30
0.0
 10
-10913.972920663
 20
-365.8947374049676
 30
0.0
 10
-10913.972920663
 20
-365.8947374049676
 30
0.0
 10
-10913.972920663
 20
-359.3948087560348
 30
0.0
 10
-10913.972920663
 20
-359.3948087560348
 30
0.0
 10
-10913.972920663
 20
-306.4641032376785
 30
0.0
 10
-10936.01946227927
 20
-277.6705596612647
 30
0.0
 10
-10964.41388742987
 20
-277.6705596612647
 30
0.0
 10
-10964.41388742987
 20
-277.6705596612647
 30
0.0
 10
-10980.64470341288
 20
-277.6705596612647
 30
0.0
 10
-10980.64470341288
 20
-277.6705596612647
 30
0.0
 10
-10980.64470341288
 20
-277.6705596612647
 30
0.0
 10
-11852.39536794284
 20
-277.6705596612647
 30
0.0
 10
-11852.39536794284
 20
-277.6705596612647
 30
0.0
 10
-11852.39536794284
 20
-277.6705596612647
 30
0.0
 10
-11856.46257475826
 20
-277.6705596612647
 30
0.0
 10
-11856.46257475826
 20
-277.6705596612647
 30
0.0
 10
-11908.11990244188
 20
-285.0447477191192
 30
0.0
 10
-11907.92984604864
 20
-330.1641354751609
 30
0.0
 10
-11907.92984604864
 20
-359.793927181845
 30
0.0
 10
-11907.92984604864
 20
-359.793927181845
 30
0.0
 10
-11907.92984604864
 20
-362.3976997692825
 30
0.0
 10
-11907.92984604864
 20
-362.3976997692825
 30
0.0
 10
-11907.92984604864
 20
-362.3976997692825
 30
0.0
 10
-11907.92984604864
 20
-374.2952299863355
 30
0.0
 10
-11902.95036854565
 20
-373.8961115605253
 30
0.0
 10
-11902.95036854565
 20
-373.8961115605253
 30
0.0
 10
-11897.62878953483
 20
-373.8961115605253
 30
0.0
 10
-11897.62878953483
 20
-373.8961115605253
 30
0.0
  0
SPLINE
  5
449
330
1F
100
AcDbEntity
  8
Furniture
370
     9
100
AcDbSpline
210
0.0
220
0.0
230
1.0
 70
     9
 71
     3
 72
    17
 73
    13
 74
     0
 42
0.000000001
 43
0.0000000001
 40
0.0
 40
0.0
 40
0.0
 40
0.0
 40
1.0
 40
1.0
 40
1.0
 40
2.0
 40
2.0
 40
2.0
 40
3.0
 40
3.0
 40
3.0
 40
4.0
 40
4.0
 40
4.0
 40
4.0
 10
-11782.41660395053
 20
-531.8709856246441
 30
0.0
 10
-11782.41660395053
 20
-547.322570395354
 30
0.0
 10
-11824.98923603711
 20
-545.041893676429
 30
0.0
 10
-11825.82548416738
 20
-534.8928822772195
 30
0.0
 10
-11826.58570974036
 20
-524.7818821566561
 30
0.0
 10
-11829.6646233109
 20
-373.8961115605253
 30
0.0
 10
-11829.6646233109
 20
-373.8961115605253
 30
0.0
 10
-11829.6646233109
 20
-373.8961115605253
 30
0.0
 10
-11779.22365654404
 20
-373.8961115605253
 30
0.0
 10
-11779.22365654404
 20
-373.8961115605253
 30
0.0
 10
-11779.22365654404
 20
-373.8961115605253
 30
0.0
 10
-11782.03649116404
 20
-520.6386527839458
 30
0.0
 10
-11782.41660395053
 20
-531.8709856246441
 30
0.0
  0
SPLINE
  5
44A
330
1F
100
AcDbEntity
  8
Furniture
370
     9
100
AcDbSpline
210
0.0
220
0.0
230
1.0
 70
     9
 71
     3
 72
    17
 73
    13
 74
     0
 42
0.000000001
 43
0.0000000001
 40
0.0
 40
0.0
 40
0.0
 40
0.0
 40
1.0
 40
1.0
 40
1.0
 40
2.0
 40
2.0
 40
2.0
 40
3.0
 40
3.0
 40
3.0
 40
4.0
 40
4.0
 40
4.0
 40
4.0
 10
-10991.24985015587
 20
-531.8709856246441
 30
0.0
 10
-10991.24985015587
 20
-547.322570395354
 30
0.0
 10
-11033.82248224245
 20
-545.041893676429
 30
0.0
 10
-11034.65873037272
 20
-534.8928822772195
 30
0.0
 10
-11035.45696722434
 20
-524.7818821566561
 30
0.0
 10
-11038.45985823759
 20
-373.8961115605253
 30
0.0
 10
-11038.45985823759
 20
-373.8961115605253
 30
0.0
 10
-11038.45985823759
 20
-373.8961115605253
 30
0.0
 10
-10988.05690274938
 20
-373.8961115605253
 30
0.0
 10
-10988.05690274938
 20
-373.8961115605253
 30
0.0
 10
-10988.05690274938
 20
-373.8961115605253
 30
0.0
 10
-10990.79371481209
 20
-520.6386527839458
 30
0.0
 10
-10991.24985015587
 20
-531.8709856246441
 30
0.0
  0
POLYLINE
  5
44E
330
1F
100
AcDbEntity
  8
Furniture
370
     9
100
AcDb2dPolyline
 66
     1
 10
0.0
 20
0.0
 30
0.0
  0
VERTEX
  5
44F
330
44E
100
AcDbEntity
  8
Furniture
370
     9
100
AcDbVertex
100
AcDb2dVertex
 10
-8093.8781464351
 20
-4360.747083911187
 30
0.0
  0
VERTEX
  5
450
330
44E
100
AcDbEntity
  8
Furniture
370
     9
100
AcDbVertex
100
AcDb2dVertex
 10
-9175.983227007138
 20
-4360.747083911187
 30
0.0
  0
VERTEX
  5
451
330
44E
100
AcDbEntity
  8
Furniture
370
     9
100
AcDbVertex
100
AcDb2dVertex
 10
-9175.983227007138
 20
-2356.88750174678
 30
0.0
  0
VERTEX
  5
452
330
44E
100
AcDbEntity
  8
Furniture
370
     9
100
AcDbVertex
100
AcDb2dVertex
 10
-8093.8781464351
 20
-2356.88750174678
 30
0.0
  0
VERTEX
  5
453
330
44E
100
AcDbEntity
  8
Furniture
370
     9
100
AcDbVertex
100
AcDb2dVertex
 10
-8093.8781464351
 20
-4360.747083911187
 30
0.0
  0
SEQEND
  5
454
330
44E
100
AcDbEntity
  8
Furniture
370
     9
  0
POLYLINE
  5
455
330
1F
100
AcDbEntity
  8
Furniture
370
     9
100
AcDb2dPolyline
 66
     1
 10
0.0
 20
0.0
 30
0.0
  0
VERTEX
  5
456
330
455
100
AcDbEntity
  8
Furniture
370
     9
100
AcDbVertex
100
AcDb2dVertex
 10
-8161.158109643352
 20
-4299.168812500245
 30
0.0
  0
VERTEX
  5
457
330
455
100
AcDbEntity
  8
Furniture
370
     9
100
AcDbVertex
100
AcDb2dVertex
 10
-9116.457564643228
 20
-4299.168812500245
 30
0.0
  0
VERTEX
  5
458
330
455
100
AcDbEntity
  8
Furniture
370
     9
100
AcDbVertex
100
AcDb2dVertex
 10
-9116.457564643228
 20
-2491.941574785716
 30
0.0
  0
VERTEX
  5
459
330
455
100
AcDbEntity
  8
Furniture
370
     9
100
AcDbVertex
100
AcDb2dVertex
 10
-8161.158109643352
 20
-2491.941574785716
 30
0.0
  0
VERTEX
  5
45A
330
455
100
AcDbEntity
  8
Furniture
370
     9
100
AcDbVertex
100
AcDb2dVertex
 10
-8161.158109643352
 20
-4299.168812500245
 30
0.0
  0
SEQEND
  5
45B
330
455
100
AcDbEntity
  8
Furniture
370
     9
  0
SPLINE
  5
45C
330
1F
100
AcDbEntity
  8
Furniture
370
     9
100
AcDbSpline
210
0.0
220
0.0
230
1.0
 70
     8
 71
     3
 72
     8
 73
     4
 74
     0
 42
0.000000001
 43
0.0000000001
 40
0.0
 40
0.0
 40
0.0
 40
0.0
 40
1.0
 40
1.0
 40
1.0
 40
1.0
 10
-9175.90720444984
 20
-2479.530892306906
 30
0.0
 10
-9175.90720444984
 20
-2486.391928103001
 30
0.0
 10
-9149.375331953029
 20
-2491.941574785716
 30
0.0
 10
-9116.457564643228
 20
-2491.941574785716
 30
0.0
  0
SPLINE
  5
45D
330
1F
100
AcDbEntity
  8
Furniture
370
     9
100
AcDbSpline
210
0.0
220
0.0
230
1.0
 70
     8
 71
     3
 72
     8
 73
     4
 74
     0
 42
0.000000001
 43
0.0000000001
 40
0.0
 40
0.0
 40
0.0
 40
0.0
 40
1.0
 40
1.0
 40
1.0
 40
1.0
 10
-8093.8781464351
 20
-2479.530892306906
 30
0.0
 10
-8093.8781464351
 20
-2486.391928103001
 30
0.0
 10
-8123.983079124895
 20
-2491.941574785716
 30
0.0
 10
-8161.158109643352
 20
-2491.941574785716
 30
0.0
  0
SPLINE
  5
45E
330
1F
100
AcDbEntity
  8
Furniture
370
     9
100
AcDbSpline
210
0.0
220
0.0
230
1.0
 70
     8
 71
     3
 72
     8
 73
     4
 74
     0
 42
0.000000001
 43
0.0000000001
 40
0.0
 40
0.0
 40
0.0
 40
0.0
 40
1.0
 40
1.0
 40
1.0
 40
1.0
 10
-9175.90720444984
 20
-2415.101774997309
 30
0.0
 10
-9086.20058683884
 20
-2431.161540226398
 30
0.0
 10
-8048.720747400409
 20
-2428.709812753554
 30
0.0
 10
-8093.8781464351
 20
-2415.101774997309
 30
0.0
  0
POLYLINE
  5
45F
330
1F
100
AcDbEntity
  8
Furniture
370
     9
100
AcDb2dPolyline
 66
     1
 10
0.0
 20
0.0
 30
0.0
  0
VERTEX
  5
460
330
45F
100
AcDbEntity
  8
Furniture
370
     9
100
AcDbVertex
100
AcDb2dVertex
 10
2156.357287817293
 20
-547.132514002109
 30
0.0
  0
VERTEX
  5
461
330
45F
100
AcDbEntity
  8
Furniture
370
     9
100
AcDbVertex
100
AcDb2dVertex
 10
162.5897001341254
 20
-547.132514002109
 30
0.0
  0
VERTEX
  5
462
330
45F
100
AcDbEntity
  8
Furniture
370
     9
100
AcDbVertex
100
AcDb2dVertex
 10
162.5897001341254
 20
1607.004658300051
 30
0.0
  0
VERTEX
  5
463
330
45F
100
AcDbEntity
  8
Furniture
370
     9
100
AcDbVertex
100
AcDb2dVertex
 10
2156.357287817293
 20
1607.004658300051
 30
0.0
  0
VERTEX
  5
464
330
45F
100
AcDbEntity
  8
Furniture
370
     9
100
AcDbVertex
100
AcDb2dVertex
 10
2156.357287817293
 20
-547.132514002109
 30
0.0
  0
SEQEND
  5
465
330
45F
100
AcDbEntity
  8
Furniture
370
     9
  0
POLYLINE
  5
466
330
1F
100
AcDbEntity
  8
Furniture
370
     9
100
AcDb2dPolyline
 66
     1
 10
0.0
 20
0.0
 30
0.0
  0
VERTEX
  5
467
330
466
100
AcDbEntity
  8
Furniture
370
     9
100
AcDbVertex
100
AcDb2dVertex
 10
2096.071399880409
 20
-484.0337914452192
 30
0.0
  0
VERTEX
  5
468
330
466
100
AcDbEntity
  8
Furniture
370
     9
100
AcDbVertex
100
AcDb2dVertex
 10
228.2731896391306
 20
-484.0337914452192
 30
0.0
  0
VERTEX
  5
469
330
466
100
AcDbEntity
  8
Furniture
370
     9
100
AcDbVertex
100
AcDb2dVertex
 10
228.2731896391306
 20
1473.661092800307
 30
0.0
  0
VERTEX
  5
46A
330
466
100
AcDbEntity
  8
Furniture
370
     9
100
AcDbVertex
100
AcDb2dVertex
 10
2096.071399880409
 20
1473.661092800307
 30
0.0
  0
VERTEX
  5
46B
330
466
100
AcDbEntity
  8
Furniture
370
     9
100
AcDbVertex
100
AcDb2dVertex
 10
2096.071399880409
 20
-484.0337914452192
 30
0.0
  0
SEQEND
  5
46C
330
466
100
AcDbEntity
  8
Furniture
370
     9
  0
SPLINE
  5
46D
330
1F
100
AcDbEntity
  8
Furniture
370
     9
100
AcDbSpline
210
0.0
220
0.0
230
1.0
 70
     8
 71
     3
 72
     8
 73
     4
 74
     0
 42
0.000000001
 43
0.0000000001
 40
0.0
 40
0.0
 40
0.0
 40
0.0
 40
1.0
 40
1.0
 40
1.0
 40
1.0
 10
162.5897001341254
 20
1486.052769639794
 30
0.0
 10
162.5897001341254
 20
1479.210739483021
 30
0.0
 10
195.4314448866244
 20
1473.661092800307
 30
0.0
 10
228.3492121964264
 20
1473.661092800307
 30
0.0
  0
SPLINE
  5
46E
330
1F
100
AcDbEntity
  8
Furniture
370
     9
100
AcDbSpline
210
0.0
220
0.0
230
1.0
 70
     8
 71
     3
 72
     8
 73
     4
 74
     0
 42
0.000000001
 43
0.0000000001
 40
0.0
 40
0.0
 40
0.0
 40
0.0
 40
1.0
 40
1.0
 40
1.0
 40
1.0
 10
2156.357287817293
 20
1486.052769639794
 30
0.0
 10
2156.357287817293
 20
1479.210739483021
 30
0.0
 10
2126.3283776848
 20
1473.661092800307
 30
0.0
 10
2089.077324609043
 20
1473.661092800307
 30
0.0
  0
SPLINE
  5
46F
330
1F
100
AcDbEntity
  8
Furniture
370
     9
100
AcDbSpline
210
0.0
220
0.0
230
1.0
 70
     8
 71
     3
 72
     8
 73
     4
 74
     0
 42
0.000000001
 43
0.0000000001
 40
0.0
 40
0.0
 40
0.0
 40
0.0
 40
1.0
 40
1.0
 40
1.0
 40
1.0
 10
162.5897001341254
 20
1550.500892588715
 30
0.0
 10
252.220295187828
 20
1534.422121720302
 30
0.0
 10
2201.590709409284
 20
1536.892854832468
 30
0.0
 10
2156.357287817293
 20
1550.500892588715
 30
0.0
  0
POLYLINE
  5
470
330
1F
100
AcDbEntity
  8
Furniture
370
     9
100
AcDb2dPolyline
 66
     1
 10
0.0
 20
0.0
 30
0.0
  0
VERTEX
  5
471
330
470
100
AcDbEntity
  8
Furniture
370
     9
100
AcDbVertex
100
AcDb2dVertex
 10
-4822.91259051529
 20
-542.9892846293969
 30
0.0
  0
VERTEX
  5
472
330
470
100
AcDbEntity
  8
Furniture
370
     9
100
AcDbVertex
100
AcDb2dVertex
 10
-6355.907458418558
 20
-542.9892846293969
 30
0.0
  0
VERTEX
  5
473
330
470
100
AcDbEntity
  8
Furniture
370
     9
100
AcDbVertex
100
AcDb2dVertex
 10
-6355.907458418558
 20
1460.87029753501
 30
0.0
  0
VERTEX
  5
474
330
470
100
AcDbEntity
  8
Furniture
370
     9
100
AcDbVertex
100
AcDb2dVertex
 10
-4822.91259051529
 20
1460.87029753501
 30
0.0
  0
VERTEX
  5
475
330
470
100
AcDbEntity
  8
Furniture
370
     9
100
AcDbVertex
100
AcDb2dVertex
 10
-4822.91259051529
 20
-542.9892846293969
 30
0.0
  0
SEQEND
  5
476
330
470
100
AcDbEntity
  8
Furniture
370
     9
  0
POLYLINE
  5
477
330
1F
100
AcDbEntity
  8
Furniture
370
     9
100
AcDb2dPolyline
 66
     1
 10
0.0
 20
0.0
 30
0.0
  0
VERTEX
  5
478
330
477
100
AcDbEntity
  8
Furniture
370
     9
100
AcDbVertex
100
AcDb2dVertex
 10
-4892.473230442465
 20
-481.4110132184559
 30
0.0
  0
VERTEX
  5
479
330
477
100
AcDbEntity
  8
Furniture
370
     9
100
AcDbVertex
100
AcDb2dVertex
 10
-6290.147946356256
 20
-481.4110132184559
 30
0.0
  0
VERTEX
  5
47A
330
477
100
AcDbEntity
  8
Furniture
370
     9
100
AcDbVertex
100
AcDb2dVertex
 10
-6290.147946356256
 20
1325.816224496074
 30
0.0
  0
VERTEX
  5
47B
330
477
100
AcDbEntity
  8
Furniture
370
     9
100
AcDbVertex
100
AcDb2dVertex
 10
-4892.473230442465
 20
1325.816224496074
 30
0.0
  0
VERTEX
  5
47C
330
477
100
AcDbEntity
  8
Furniture
370
     9
100
AcDbVertex
100
AcDb2dVertex
 10
-4892.473230442465
 20
-481.4110132184559
 30
0.0
  0
SEQEND
  5
47D
330
477
100
AcDbEntity
  8
Furniture
370
     9
  0
SPLINE
  5
47E
330
1F
100
AcDbEntity
  8
Furniture
370
     9
100
AcDbSpline
210
0.0
220
0.0
230
1.0
 70
     8
 71
     3
 72
     8
 73
     4
 74
     0
 42
0.000000001
 43
0.0000000001
 40
0.0
 40
0.0
 40
0.0
 40
0.0
 40
1.0
 40
1.0
 40
1.0
 40
1.0
 10
-6355.907458418558
 20
1338.226906974883
 30
0.0
 10
-6355.907458418558
 20
1331.365871178787
 30
0.0
 10
-6325.95457084336
 20
1325.816224496074
 30
0.0
 10
-6293.036803533557
 20
1325.816224496074
 30
0.0
  0
SPLINE
  5
47F
330
1F
100
AcDbEntity
  8
Furniture
370
     9
100
AcDbSpline
210
0.0
220
0.0
230
1.0
 70
     8
 71
     3
 72
     8
 73
     4
 74
     0
 42
0.000000001
 43
0.0000000001
 40
0.0
 40
0.0
 40
0.0
 40
0.0
 40
1.0
 40
1.0
 40
1.0
 40
1.0
 10
-4825.26928979151
 20
1338.226906974883
 30
0.0
 10
-4825.26928979151
 20
1331.365871178787
 30
0.0
 10
-4855.298199924007
 20
1325.816224496074
 30
0.0
 10
-4892.473230442465
 20
1325.816224496074
 30
0.0
  0
SPLINE
  5
480
330
1F
100
AcDbEntity
  8
Furniture
370
     9
100
AcDbSpline
210
0.0
220
0.0
230
1.0
 70
     8
 71
     3
 72
     8
 73
     4
 74
     0
 42
0.000000001
 43
0.0000000001
 40
0.0
 40
0.0
 40
0.0
 40
0.0
 40
1.0
 40
1.0
 40
1.0
 40
1.0
 10
-6355.907458418558
 20
1402.656024284479
 30
0.0
 10
-6266.124818250259
 20
1386.596259055392
 30
0.0
 10
-4779.275642626547
 20
1389.047986528234
 30
0.0
 10
-4824.357019103939
 20
1402.656024284479
 30
0.0
  0
POLYLINE
  5
481
330
1F
100
AcDbEntity
  8
Furniture
370
     9
100
AcDb2dPolyline
 66
     1
 10
0.0
 20
0.0
 30
0.0
  0
VERTEX
  5
482
330
481
100
AcDbEntity
  8
Furniture
370
     9
100
AcDbVertex
100
AcDb2dVertex
 10
-1483.146620241274
 20
-547.132514002109
 30
0.0
  0
VERTEX
  5
483
330
481
100
AcDbEntity
  8
Furniture
370
     9
100
AcDbVertex
100
AcDb2dVertex
 10
-3176.302010730966
 20
-547.132514002109
 30
0.0
  0
VERTEX
  5
484
330
481
100
AcDbEntity
  8
Furniture
370
     9
100
AcDbVertex
100
AcDb2dVertex
 10
-3176.302010730966
 20
1607.004658300051
 30
0.0
  0
VERTEX
  5
485
330
481
100
AcDbEntity
  8
Furniture
370
     9
100
AcDbVertex
100
AcDb2dVertex
 10
-1483.146620241274
 20
1607.004658300051
 30
0.0
  0
VERTEX
  5
486
330
481
100
AcDbEntity
  8
Furniture
370
     9
100
AcDbVertex
100
AcDb2dVertex
 10
-1483.146620241274
 20
-547.132514002109
 30
0.0
  0
SEQEND
  5
487
330
481
100
AcDbEntity
  8
Furniture
370
     9
  0
POLYLINE
  5
488
330
1F
100
AcDbEntity
  8
Furniture
370
     9
100
AcDb2dPolyline
 66
     1
 10
0.0
 20
0.0
 30
0.0
  0
VERTEX
  5
489
330
488
100
AcDbEntity
  8
Furniture
370
     9
100
AcDbVertex
100
AcDb2dVertex
 10
-1544.268756308436
 20
-484.0337914452192
 30
0.0
  0
VERTEX
  5
48A
330
488
100
AcDbEntity
  8
Furniture
370
     9
100
AcDbVertex
100
AcDb2dVertex
 10
-3110.542498668665
 20
-484.0337914452192
 30
0.0
  0
VERTEX
  5
48B
330
488
100
AcDbEntity
  8
Furniture
370
     9
100
AcDbVertex
100
AcDb2dVertex
 10
-3110.542498668665
 20
1473.661092800307
 30
0.0
  0
VERTEX
  5
48C
330
488
100
AcDbEntity
  8
Furniture
370
     9
100
AcDbVertex
100
AcDb2dVertex
 10
-1544.268756308436
 20
1473.661092800307
 30
0.0
  0
VERTEX
  5
48D
330
488
100
AcDbEntity
  8
Furniture
370
     9
100
AcDbVertex
100
AcDb2dVertex
 10
-1544.268756308436
 20
-484.0337914452192
 30
0.0
  0
SEQEND
  5
48E
330
488
100
AcDbEntity
  8
Furniture
370
     9
  0
SPLINE
  5
48F
330
1F
100
AcDbEntity
  8
Furniture
370
     9
100
AcDbSpline
210
0.0
220
0.0
230
1.0
 70
     8
 71
     3
 72
     8
 73
     4
 74
     0
 42
0.000000001
 43
0.0000000001
 40
0.0
 40
0.0
 40
0.0
 40
0.0
 40
1.0
 40
1.0
 40
1.0
 40
1.0
 10
-3176.302010730966
 20
1486.052769639794
 30
0.0
 10
-3176.302010730966
 20
1479.210739483021
 30
0.0
 10
-3143.384243421167
 20
1473.661092800307
 30
0.0
 10
-3110.542498668665
 20
1473.661092800307
 30
0.0
  0
SPLINE
  5
490
330
1F
100
AcDbEntity
  8
Furniture
370
     9
100
AcDbSpline
210
0.0
220
0.0
230
1.0
 70
     8
 71
     3
 72
     8
 73
     4
 74
     0
 42
0.000000001
 43
0.0000000001
 40
0.0
 40
0.0
 40
0.0
 40
0.0
 40
1.0
 40
1.0
 40
1.0
 40
1.0
 10
-1483.146620241274
 20
1486.052769639794
 30
0.0
 10
-1483.146620241274
 20
1479.210739483021
 30
0.0
 10
-1513.175530373773
 20
1473.661092800307
 30
0.0
 10
-1550.350560892231
 20
1473.661092800307
 30
0.0
  0
SPLINE
  5
491
330
1F
100
AcDbEntity
  8
Furniture
370
     9
100
AcDbSpline
210
0.0
220
0.0
230
1.0
 70
     8
 71
     3
 72
     8
 73
     4
 74
     0
 42
0.000000001
 43
0.0000000001
 40
0.0
 40
0.0
 40
0.0
 40
0.0
 40
1.0
 40
1.0
 40
1.0
 40
1.0
 10
-3176.302010730966
 20
1550.500892588715
 30
0.0
 10
-3086.595393119966
 20
1534.422121720302
 30
0.0
 10
-1437.989221206586
 20
1536.892854832468
 30
0.0
 10
-1483.146620241274
 20
1550.500892588715
 30
0.0
  0
POLYLINE
  5
492
330
1F
100
AcDbEntity
  8
Furniture
370
     9
100
AcDb2dPolyline
 66
     1
 10
0.0
 20
0.0
 30
0.0
  0
VERTEX
  5
493
330
492
100
AcDbEntity
  8
Furniture
370
     9
100
AcDbVertex
100
AcDb2dVertex
 10
-8093.8781464351
 20
-542.9892846293969
 30
0.0
  0
VERTEX
  5
494
330
492
100
AcDbEntity
  8
Furniture
370
     9
100
AcDbVertex
100
AcDb2dVertex
 10
-9175.983227007138
 20
-542.9892846293969
 30
0.0
  0
VERTEX
  5
495
330
492
100
AcDbEntity
  8
Furniture
370
     9
100
AcDbVertex
100
AcDb2dVertex
 10
-9175.983227007138
 20
1460.87029753501
 30
0.0
  0
VERTEX
  5
496
330
492
100
AcDbEntity
  8
Furniture
370
     9
100
AcDbVertex
100
AcDb2dVertex
 10
-8093.8781464351
 20
1460.87029753501
 30
0.0
  0
VERTEX
  5
497
330
492
100
AcDbEntity
  8
Furniture
370
     9
100
AcDbVertex
100
AcDb2dVertex
 10
-8093.8781464351
 20
-542.9892846293969
 30
0.0
  0
SEQEND
  5
498
330
492
100
AcDbEntity
  8
Furniture
370
     9
  0
POLYLINE
  5
499
330
1F
100
AcDbEntity
  8
Furniture
370
     9
100
AcDb2dPolyline
 66
     1
 10
0.0
 20
0.0
 30
0.0
  0
VERTEX
  5
49A
330
499
100
AcDbEntity
  8
Furniture
370
     9
100
AcDbVertex
100
AcDb2dVertex
 10
-8161.158109643352
 20
-481.4110132184559
 30
0.0
  0
VERTEX
  5
49B
330
499
100
AcDbEntity
  8
Furniture
370
     9
100
AcDbVertex
100
AcDb2dVertex
 10
-9116.457564643228
 20
-481.4110132184559
 30
0.0
  0
VERTEX
  5
49C
330
499
100
AcDbEntity
  8
Furniture
370
     9
100
AcDbVertex
100
AcDb2dVertex
 10
-9116.457564643228
 20
1325.816224496074
 30
0.0
  0
VERTEX
  5
49D
330
499
100
AcDbEntity
  8
Furniture
370
     9
100
AcDbVertex
100
AcDb2dVertex
 10
-8161.158109643352
 20
1325.816224496074
 30
0.0
  0
VERTEX
  5
49E
330
499
100
AcDbEntity
  8
Furniture
370
     9
100
AcDbVertex
100
AcDb2dVertex
 10
-8161.158109643352
 20
-481.4110132184559
 30
0.0
  0
SEQEND
  5
49F
330
499
100
AcDbEntity
  8
Furniture
370
     9
  0
SPLINE
  5
4A0
330
1F
100
AcDbEntity
  8
Furniture
370
     9
100
AcDbSpline
210
0.0
220
0.0
230
1.0
 70
     8
 71
     3
 72
     8
 73
     4
 74
     0
 42
0.000000001
 43
0.0000000001
 40
0.0
 40
0.0
 40
0.0
 40
0.0
 40
1.0
 40
1.0
 40
1.0
 40
1.0
 10
-9175.90720444984
 20
1338.226906974883
 30
0.0
 10
-9175.90720444984
 20
1331.365871178787
 30
0.0
 10
-9149.375331953029
 20
1325.816224496074
 30
0.0
 10
-9116.457564643228
 20
1325.816224496074
 30
0.0
  0
SPLINE
  5
4A1
330
1F
100
AcDbEntity
  8
Furniture
370
     9
100
AcDbSpline
210
0.0
220
0.0
230
1.0
 70
     8
 71
     3
 72
     8
 73
     4
 74
     0
 42
0.000000001
 43
0.0000000001
 40
0.0
 40
0.0
 40
0.0
 40
0.0
 40
1.0
 40
1.0
 40
1.0
 40
1.0
 10
-8093.8781464351
 20
1338.226906974883
 30
0.0
 10
-8093.8781464351
 20
1331.365871178787
 30
0.0
 10
-8123.983079124895
 20
1325.816224496074
 30
0.0
 10
-8161.158109643352
 20
1325.816224496074
 30
0.0
  0
SPLINE
  5
4A2
330
1F
100
AcDbEntity
  8
Furniture
370
     9
100
AcDbSpline
210
0.0
220
0.0
230
1.0
 70
     8
 71
     3
 72
     8
 73
     4
 74
     0
 42
0.000000001
 43
0.0000000001
 40
0.0
 40
0.0
 40
0.0
 40
0.0
 40
1.0
 40
1.0
 40
1.0
 40
1.0
 10
-9175.90720444984
 20
1402.656024284479
 30
0.0
 10
-9086.20058683884
 20
1386.596259055392
 30
0.0
 10
-8048.720747400409
 20
1389.047986528234
 30
0.0
 10
-8093.8781464351
 20
1402.656024284479
 30
0.0
  0
SPLINE
  5
4A3
330
1F
100
AcDbEntity
  8
Furniture
370
     9
100
AcDbSpline
210
0.0
220
0.0
230
1.0
 70
     8
 71
     3
 72
     8
 73
     4
 74
     0
 42
0.000000001
 43
0.0000000001
 40
0.0
 40
0.0
 40
0.0
 40
0.0
 40
1.0
 40
1.0
 40
1.0
 40
1.0
 10
-15736.88196689248
 20
-4349.60977926711
 30
0.0
 10
-15736.88196689248
 20
-4365.042358398493
 30
0.0
 10
-15694.3093348059
 20
-4362.837704236866
 30
0.0
 10
-15693.49209231495
 20
-4352.650681559008
 30
0.0
  0
SPLINE
  5
4A4
330
1F
100
AcDbEntity
  8
Furniture
370
     9
100
AcDbSpline
210
0.0
220
0.0
230
1.0
 70
     8
 71
     3
 72
     8
 73
     4
 74
     0
 42
0.000000001
 43
0.0000000001
 40
1.0
 40
1.0
 40
1.0
 40
1.0
 40
2.0
 40
2.0
 40
2.0
 40
2.0
 10
-15693.49209231495
 20
-4352.650681559008
 30
0.0
 10
-15692.674849824
 20
-4342.539681438445
 30
0.0
 10
-15689.61494189278
 20
-4191.634905202989
 30
0.0
 10
-15689.61494189278
 20
-4191.634905202989
 30
0.0
  0
SPLINE
  5
4A5
330
1F
100
AcDbEntity
  8
Furniture
370
     9
100
AcDbSpline
210
0.0
220
0.0
230
1.0
 70
    24
 71
     3
 72
     8
 73
     4
 74
     0
 42
0.000000001
 43
0.0000000001
 40
2.0
 40
2.0
 40
2.0
 40
2.0
 40
3.0
 40
3.0
 40
3.0
 40
3.0
 10
-15689.61494189278
 20
-4191.634905202989
 30
0.0
 10
-15689.61494189278
 20
-4191.634905202989
 30
0.0
 10
-15740.07491429897
 20
-4191.634905202989
 30
0.0
 10
-15740.07491429897
 20
-4191.634905202989
 30
0.0
  0
SPLINE
  5
4A6
330
1F
100
AcDbEntity
  8
Furniture
370
     9
100
AcDbSpline
210
0.0
220
0.0
230
1.0
 70
     8
 71
     3
 72
     8
 73
     4
 74
     0
 42
0.000000001
 43
0.0000000001
 40
3.0
 40
3.0
 40
3.0
 40
3.0
 40
4.0
 40
4.0
 40
4.0
 40
4.0
 10
-15740.07491429897
 20
-4191.634905202989
 30
0.0
 10
-15740.07491429897
 20
-4191.634905202989
 30
0.0
 10
-15737.30009095761
 20
-4338.434463344383
 30
0.0
 10
-15736.88196689248
 20
-4349.60977926711
 30
0.0
  0
SPLINE
  5
4A7
330
1F
100
AcDbEntity
  8
Furniture
370
     9
100
AcDbSpline
210
0.0
220
0.0
230
1.0
 70
     8
 71
     3
 72
     8
 73
     4
 74
     0
 42
0.000000001
 43
0.0000000001
 40
0.0
 40
0.0
 40
0.0
 40
0.0
 40
1.0
 40
1.0
 40
1.0
 40
1.0
 10
-14018.63913249463
 20
-4349.60977926711
 30
0.0
 10
-14018.63913249463
 20
-4365.042358398493
 30
0.0
 10
-13976.08550604737
 20
-4362.837704236866
 30
0.0
 10
-13975.23025227777
 20
-4352.650681559008
 30
0.0
  0
SPLINE
  5
4A8
330
1F
100
AcDbEntity
  8
Furniture
370
     9
100
AcDbSpline
210
0.0
220
0.0
230
1.0
 70
     8
 71
     3
 72
     8
 73
     4
 74
     0
 42
0.000000001
 43
0.0000000001
 40
1.0
 40
1.0
 40
1.0
 40
1.0
 40
2.0
 40
2.0
 40
2.0
 40
2.0
 10
-13975.23025227777
 20
-4352.650681559008
 30
0.0
 10
-13974.45102106547
 20
-4342.539681438445
 30
0.0
 10
-13971.44813005223
 20
-4191.634905202989
 30
0.0
 10
-13971.44813005223
 20
-4191.634905202989
 30
0.0
  0
SPLINE
  5
4A9
330
1F
100
AcDbEntity
  8
Furniture
370
     9
100
AcDbSpline
210
0.0
220
0.0
230
1.0
 70
    24
 71
     3
 72
     8
 73
     4
 74
     0
 42
0.000000001
 43
0.0000000001
 40
2.0
 40
2.0
 40
2.0
 40
2.0
 40
3.0
 40
3.0
 40
3.0
 40
3.0
 10
-13971.44813005223
 20
-4191.634905202989
 30
0.0
 10
-13971.44813005223
 20
-4191.634905202989
 30
0.0
 10
-14021.85108554044
 20
-4191.634905202989
 30
0.0
 10
-14021.85108554044
 20
-4191.634905202989
 30
0.0
  0
SPLINE
  5
4AA
330
1F
100
AcDbEntity
  8
Furniture
370
     9
100
AcDbSpline
210
0.0
220
0.0
230
1.0
 70
     8
 71
     3
 72
     8
 73
     4
 74
     0
 42
0.000000001
 43
0.0000000001
 40
3.0
 40
3.0
 40
3.0
 40
3.0
 40
4.0
 40
4.0
 40
4.0
 40
4.0
 10
-14021.85108554044
 20
-4191.634905202989
 30
0.0
 10
-14021.85108554044
 20
-4191.634905202989
 30
0.0
 10
-14019.07626219909
 20
-4338.434463344383
 30
0.0
 10
-14018.63913249463
 20
-4349.60977926711
 30
0.0
  0
SPLINE
  5
4AB
330
1F
100
AcDbEntity
  8
Furniture
370
     9
100
AcDbSpline
210
0.0
220
0.0
230
1.0
 70
     8
 71
     3
 72
    62
 73
    58
 74
     0
 42
0.000000001
 43
0.0000000001
 40
0.0
 40
0.0
 40
0.0
 40
0.0
 40
1.0
 40
1.0
 40
1.0
 40
2.0
 40
2.0
 40
2.0
 40
3.0
 40
3.0
 40
3.0
 40
4.0
 40
4.0
 40
4.0
 40
5.0
 40
5.0
 40
5.0
 40
6.0
 40
6.0
 40
6.0
 40
7.0
 40
7.0
 40
7.0
 40
8.0
 40
8.0
 40
8.0
 40
9.0
 40
9.0
 40
9.0
 40
10.0
 40
10.0
 40
10.0
 40
11.0
 40
11.0
 40
11.0
 40
12.0
 40
12.0
 40
12.0
 40
13.0
 40
13.0
 40
13.0
 40
14.0
 40
14.0
 40
14.0
 40
15.0
 40
15.0
 40
15.0
 40
16.0
 40
16.0
 40
16.0
 40
17.0
 40
17.0
 40
17.0
 40
18.0
 40
18.0
 40
18.0
 40
19.0
 40
19.0
 40
19.0
 40
19.0
 10
-13816.70421467325
 20
-4191.026724744608
 30
0.0
 10
-13816.70421467325
 20
-4191.026724744608
 30
0.0
 10
-15947.9776028682
 20
-4191.026724744608
 30
0.0
 10
-15947.9776028682
 20
-4191.026724744608
 30
0.0
 10
-15947.9776028682
 20
-4191.026724744608
 30
0.0
 10
-15954.5345484351
 20
-4191.026724744608
 30
0.0
 10
-15954.5345484351
 20
-4191.026724744608
 30
0.0
 10
-15959.24794698754
 20
-4191.026724744608
 30
0.0
 10
-15963.29614816364
 20
-4191.026724744608
 30
0.0
 10
-15963.29614816364
 20
-4182.892311113781
 30
0.0
 10
-15963.29614816364
 20
-4182.892311113781
 30
0.0
 10
-15963.29614816364
 20
-4176.354371186199
 30
0.0
 10
-15963.29614816364
 20
-4176.354371186199
 30
0.0
 10
-15963.29614816364
 20
-4123.100569799329
 30
0.0
 10
-15944.99371749427
 20
-4094.021941633051
 30
0.0
 10
-15901.54682599877
 20
-4094.021941633051
 30
0.0
 10
-15901.54682599877
 20
-4094.021941633051
 30
0.0
 10
-15877.6187260894
 20
-4094.021941633051
 30
0.0
 10
-15877.6187260894
 20
-4094.021941633051
 30
0.0
 10
-15877.6187260894
 20
-4094.021941633051
 30
0.0
 10
-13917.77620460022
 20
-4094.021941633051
 30
0.0
 10
-13917.77620460022
 20
-4094.021941633051
 30
0.0
 10
-13917.77620460022
 20
-4094.021941633051
 30
0.0
 10
-13877.14214772473
 20
-4094.021941633051
 30
0.0
 10
-13877.14214772473
 20
-4094.021941633051
 30
0.0
 10
-13841.54458527019
 20
-4094.021941633051
 30
0.0
 10
-13822.82403053569
 20
-4094.021941633051
 30
0.0
 10
-13823.01408692894
 20
-4059.431678062707
 30
0.0
 10
-13823.01408692894
 20
-4059.431678062707
 30
0.0
 10
-13822.72900233907
 20
-3955.432819679784
 30
0.0
 10
-13822.72900233907
 20
-3955.432819679784
 30
0.0
 10
-13822.72900233907
 20
-3955.432819679784
 30
0.0
 10
-13822.72900233907
 20
-3464.935279996575
 30
0.0
 10
-13822.72900233907
 20
-3464.935279996575
 30
0.0
 10
-13822.72900233907
 20
-3464.935279996575
 30
0.0
 10
-13820.08721847298
 20
-3366.486068296364
 30
0.0
 10
-13820.08721847298
 20
-3366.486068296364
 30
0.0
 10
-13813.53027290608
 20
-3313.498345860037
 30
0.0
 10
-13732.22414787645
 20
-3270.697646101566
 30
0.0
 10
-13732.26215915509
 20
-3343.413222156587
 30
0.0
 10
-13732.26215915509
 20
-3343.413222156587
 30
0.0
 10
-13732.26215915509
 20
-3368.006519442314
 30
0.0
 10
-13732.26215915509
 20
-3368.006519442314
 30
0.0
 10
-13732.26215915509
 20
-3368.006519442314
 30
0.0
 10
-13732.26215915509
 20
-4171.945062862947
 30
0.0
 10
-13732.26215915509
 20
-4171.945062862947
 30
0.0
 10
-13732.26215915509
 20
-4171.945062862947
 30
0.0
 10
-13732.26215915509
 20
-4179.395273478098
 30
0.0
 10
-13732.26215915509
 20
-4179.395273478098
 30
0.0
 10
-13732.26215915509
 20
-4185.781168291083
 30
0.0
 10
-13736.93754642889
 20
-4191.026724744608
 30
0.0
 10
-13742.67724950485
 20
-4191.026724744608
 30
0.0
 10
-13742.67724950485
 20
-4191.026724744608
 30
0.0
 10
-13751.32481539743
 20
-4191.026724744608
 30
0.0
 10
-13751.32481539743
 20
-4191.026724744608
 30
0.0
 10
-13751.32481539743
 20
-4191.026724744608
 30
0.0
 10
-13832.06077124733
 20
-4191.026724744608
 30
0.0
 10
-13832.06077124733
 20
-4191.026724744608
 30
0.0
  0
SPLINE
  5
4AC
330
1F
100
AcDbEntity
  8
Furniture
370
     9
100
AcDbSpline
210
0.0
220
0.0
230
1.0
 70
     8
 71
     3
 72
     8
 73
     4
 74
     0
 42
0.000000001
 43
0.0000000001
 40
0.0
 40
0.0
 40
0.0
 40
0.0
 40
1.0
 40
1.0
 40
1.0
 40
1.0
 10
-15736.88196689248
 20
-531.8709856246441
 30
0.0
 10
-15736.88196689248
 20
-547.3035647560282
 30
0.0
 10
-15694.3093348059
 20
-545.0608993157529
 30
0.0
 10
-15693.49209231495
 20
-534.9118879165416
 30
0.0
  0
SPLINE
  5
4AD
330
1F
100
AcDbEntity
  8
Furniture
370
     9
100
AcDbSpline
210
0.0
220
0.0
230
1.0
 70
     8
 71
     3
 72
     8
 73
     4
 74
     0
 42
0.000000001
 43
0.0000000001
 40
1.0
 40
1.0
 40
1.0
 40
1.0
 40
2.0
 40
2.0
 40
2.0
 40
2.0
 10
-15693.49209231495
 20
-534.9118879165416
 30
0.0
 10
-15692.674849824
 20
-524.7818821566561
 30
0.0
 10
-15689.61494189278
 20
-373.8771059211995
 30
0.0
 10
-15689.61494189278
 20
-373.8771059211995
 30
0.0
  0
SPLINE
  5
4AE
330
1F
100
AcDbEntity
  8
Furniture
370
     9
100
AcDbSpline
210
0.0
220
0.0
230
1.0
 70
    24
 71
     3
 72
     8
 73
     4
 74
     0
 42
0.000000001
 43
0.0000000001
 40
2.0
 40
2.0
 40
2.0
 40
2.0
 40
3.0
 40
3.0
 40
3.0
 40
3.0
 10
-15689.61494189278
 20
-373.8771059211995
 30
0.0
 10
-15689.61494189278
 20
-373.8771059211995
 30
0.0
 10
-15740.07491429897
 20
-373.8771059211995
 30
0.0
 10
-15740.07491429897
 20
-373.8771059211995
 30
0.0
  0
SPLINE
  5
4AF
330
1F
100
AcDbEntity
  8
Furniture
370
     9
100
AcDbSpline
210
0.0
220
0.0
230
1.0
 70
     8
 71
     3
 72
     8
 73
     4
 74
     0
 42
0.000000001
 43
0.0000000001
 40
3.0
 40
3.0
 40
3.0
 40
3.0
 40
4.0
 40
4.0
 40
4.0
 40
4.0
 10
-15740.07491429897
 20
-373.8771059211995
 30
0.0
 10
-15740.07491429897
 20
-373.8771059211995
 30
0.0
 10
-15737.30009095761
 20
-520.6956697019177
 30
0.0
 10
-15736.88196689248
 20
-531.8709856246441
 30
0.0
  0
SPLINE
  5
4B0
330
1F
100
AcDbEntity
  8
Furniture
370
     9
100
AcDbSpline
210
0.0
220
0.0
230
1.0
 70
     8
 71
     3
 72
     8
 73
     4
 74
     0
 42
0.000000001
 43
0.0000000001
 40
0.0
 40
0.0
 40
0.0
 40
0.0
 40
1.0
 40
1.0
 40
1.0
 40
1.0
 10
-14018.63913249463
 20
-531.8709856246441
 30
0.0
 10
-14018.63913249463
 20
-547.3035647560282
 30
0.0
 10
-13976.08550604737
 20
-545.0608993157529
 30
0.0
 10
-13975.23025227777
 20
-534.9118879165416
 30
0.0
  0
SPLINE
  5
4B1
330
1F
100
AcDbEntity
  8
Furniture
370
     9
100
AcDbSpline
210
0.0
220
0.0
230
1.0
 70
     8
 71
     3
 72
     8
 73
     4
 74
     0
 42
0.000000001
 43
0.0000000001
 40
1.0
 40
1.0
 40
1.0
 40
1.0
 40
2.0
 40
2.0
 40
2.0
 40
2.0
 10
-13975.23025227777
 20
-534.9118879165416
 30
0.0
 10
-13974.45102106547
 20
-524.7818821566561
 30
0.0
 10
-13971.44813005223
 20
-373.8771059211995
 30
0.0
 10
-13971.44813005223
 20
-373.8771059211995
 30
0.0
  0
SPLINE
  5
4B2
330
1F
100
AcDbEntity
  8
Furniture
370
     9
100
AcDbSpline
210
0.0
220
0.0
230
1.0
 70
    24
 71
     3
 72
     8
 73
     4
 74
     0
 42
0.000000001
 43
0.0000000001
 40
2.0
 40
2.0
 40
2.0
 40
2.0
 40
3.0
 40
3.0
 40
3.0
 40
3.0
 10
-13971.44813005223
 20
-373.8771059211995
 30
0.0
 10
-13971.44813005223
 20
-373.8771059211995
 30
0.0
 10
-14021.85108554044
 20
-373.8771059211995
 30
0.0
 10
-14021.85108554044
 20
-373.8771059211995
 30
0.0
  0
SPLINE
  5
4B3
330
1F
100
AcDbEntity
  8
Furniture
370
     9
100
AcDbSpline
210
0.0
220
0.0
230
1.0
 70
     8
 71
     3
 72
     8
 73
     4
 74
     0
 42
0.000000001
 43
0.0000000001
 40
3.0
 40
3.0
 40
3.0
 40
3.0
 40
4.0
 40
4.0
 40
4.0
 40
4.0
 10
-14021.85108554044
 20
-373.8771059211995
 30
0.0
 10
-14021.85108554044
 20
-373.8771059211995
 30
0.0
 10
-14019.07626219909
 20
-520.6956697019177
 30
0.0
 10
-14018.63913249463
 20
-531.8709856246441
 30
0.0
  0
SPLINE
  5
4B4
330
1F
100
AcDbEntity
  8
Furniture
370
     9
100
AcDbSpline
210
0.0
220
0.0
230
1.0
 70
     8
 71
     3
 72
    62
 73
    58
 74
     0
 42
0.000000001
 43
0.0000000001
 40
0.0
 40
0.0
 40
0.0
 40
0.0
 40
1.0
 40
1.0
 40
1.0
 40
2.0
 40
2.0
 40
2.0
 40
3.0
 40
3.0
 40
3.0
 40
4.0
 40
4.0
 40
4.0
 40
5.0
 40
5.0
 40
5.0
 40
6.0
 40
6.0
 40
6.0
 40
7.0
 40
7.0
 40
7.0
 40
8.0
 40
8.0
 40
8.0
 40
9.0
 40
9.0
 40
9.0
 40
10.0
 40
10.0
 40
10.0
 40
11.0
 40
11.0
 40
11.0
 40
12.0
 40
12.0
 40
12.0
 40
13.0
 40
13.0
 40
13.0
 40
14.0
 40
14.0
 40
14.0
 40
15.0
 40
15.0
 40
15.0
 40
16.0
 40
16.0
 40
16.0
 40
17.0
 40
17.0
 40
17.0
 40
18.0
 40
18.0
 40
18.0
 40
19.0
 40
19.0
 40
19.0
 40
19.0
 10
-13816.70421467325
 20
-373.2499198234964
 30
0.0
 10
-13816.70421467325
 20
-373.2499198234964
 30
0.0
 10
-15947.9776028682
 20
-373.2499198234964
 30
0.0
 10
-15947.9776028682
 20
-373.2499198234964
 30
0.0
 10
-15947.9776028682
 20
-373.2499198234964
 30
0.0
 10
-15954.5345484351
 20
-373.2499198234964
 30
0.0
 10
-15954.5345484351
 20
-373.2499198234964
 30
0.0
 10
-15959.24794698754
 20
-373.2499198234964
 30
0.0
 10
-15963.29614816364
 20
-373.2499198234964
 30
0.0
 10
-15963.29614816364
 20
-365.1155061926675
 30
0.0
 10
-15963.29614816364
 20
-365.1155061926675
 30
0.0
 10
-15963.29614816364
 20
-358.6155775437346
 30
0.0
 10
-15963.29614816364
 20
-358.6155775437346
 30
0.0
 10
-15963.29614816364
 20
-305.34277051754
 30
0.0
 10
-15944.99371749427
 20
-276.2641423512614
 30
0.0
 10
-15901.54682599877
 20
-276.2641423512614
 30
0.0
 10
-15901.54682599877
 20
-276.2641423512614
 30
0.0
 10
-15877.6187260894
 20
-276.2641423512614
 30
0.0
 10
-15877.6187260894
 20
-276.2641423512614
 30
0.0
 10
-15877.6187260894
 20
-276.2641423512614
 30
0.0
 10
-13917.77620460022
 20
-276.2641423512614
 30
0.0
 10
-13917.77620460022
 20
-276.2641423512614
 30
0.0
 10
-13917.77620460022
 20
-276.2641423512614
 30
0.0
 10
-13877.14214772473
 20
-276.2641423512614
 30
0.0
 10
-13877.14214772473
 20
-276.2641423512614
 30
0.0
 10
-13841.54458527019
 20
-276.2641423512614
 30
0.0
 10
-13822.82403053569
 20
-276.2641423512614
 30
0.0
 10
-13823.01408692894
 20
-241.6548731415933
 30
0.0
 10
-13823.01408692894
 20
-241.6548731415933
 30
0.0
 10
-13822.72900233907
 20
-137.6940260373176
 30
0.0
 10
-13822.72900233907
 20
-137.6940260373176
 30
0.0
 10
-13822.72900233907
 20
-137.6940260373176
 30
0.0
 10
-13822.72900233907
 20
189.8871733574342
 30
0.0
 10
-13822.72900233907
 20
189.8871733574342
 30
0.0
 10
-13822.72900233907
 20
189.8871733574342
 30
0.0
 10
-13820.08721847298
 20
288.3363850576443
 30
0.0
 10
-13820.08721847298
 20
288.3363850576443
 30
0.0
 10
-13813.53027290608
 20
341.3241074939742
 30
0.0
 10
-13732.22414787645
 20
384.1058016131192
 30
0.0
 10
-13732.26215915509
 20
311.3902255580979
 30
0.0
 10
-13732.26215915509
 20
311.3902255580979
 30
0.0
 10
-13732.26215915509
 20
286.7969282723716
 30
0.0
 10
-13732.26215915509
 20
286.7969282723716
 30
0.0
 10
-13732.26215915509
 20
286.7969282723716
 30
0.0
 10
-13732.26215915509
 20
-354.1682579418339
 30
0.0
 10
-13732.26215915509
 20
-354.1682579418339
 30
0.0
 10
-13732.26215915509
 20
-354.1682579418339
 30
0.0
 10
-13732.26215915509
 20
-361.6184685569842
 30
0.0
 10
-13732.26215915509
 20
-361.6184685569842
 30
0.0
 10
-13732.26215915509
 20
-368.0043633699697
 30
0.0
 10
-13736.93754642889
 20
-373.2499198234964
 30
0.0
 10
-13742.67724950485
 20
-373.2499198234964
 30
0.0
 10
-13742.67724950485
 20
-373.2499198234964
 30
0.0
 10
-13751.32481539743
 20
-373.2499198234964
 30
0.0
 10
-13751.32481539743
 20
-373.2499198234964
 30
0.0
 10
-13751.32481539743
 20
-373.2499198234964
 30
0.0
 10
-13832.06077124733
 20
-373.2499198234964
 30
0.0
 10
-13832.06077124733
 20
-373.2499198234964
 30
0.0
  0
TEXT
  5
51C
330
1F
100
AcDbEntity
  8
Text
100
AcDbText
 10
-17163.46426021862
 20
1658.826873393838
 30
0.0
 40
233.9816249415046
  1
Beds
 41
1.000399999999999
100
AcDbText
  0
TEXT
  5
51E
330
1F
100
AcDbEntity
  8
Text
100
AcDbText
 10
-17163.46426021862
 20
4142.764279266995
 30
0.0
 40
192.6907499518273
  1
Nook
 41
1.000399999999999
100
AcDbText
  0
TEXT
  5
51F
330
1F
100
AcDbEntity
  8
Text
100
AcDbText
 10
-17163.46426021862
 20
3540.141310911792
 30
0.0
 40
192.6907499518273
  1
—
 41
1.000399999999999
100
AcDbText
  0
TEXT
  5
520
330
1F
100
AcDbEntity
  8
Text
100
AcDbText
 10
-17163.46426021862
 20
2865.170795033329
 30
0.0
 40
233.9816249415046
  1
DIMENSIONS
 41
1.000399999999999
100
AcDbText
  0
VIEWPORT
  5
28F
102
{ACAD_XDICTIONARY
360
290
102
}
330
1B
100
AcDbEntity
 67
     1
  8
0
100
AcDbViewport
 10
5.249999639556165
 20
3.999999883606678
 30
0.0
 40
17.63310962809241
 41
8.992999745766949
 68
     1
 69
     1
 12
5.249999639556165
 22
3.999999883606678
 13
0.0
 23
0.0
 14
10.0
 24
10.0
 15
10.0
 25
10.0
 16
0.0
 26
0.0
 36
1.0
 17
0.0
 27
0.0
 37
0.0
 42
50.0
 43
0.0
 44
0.0
 45
8.992999745766949
 50
0.0
 51
0.0
 72
   100
 90
   819232
  1

281
     0
 71
     1
 74
     0
110
0.0
120
0.0
130
0.0
111
1.0
121
0.0
131
0.0
112
0.0
122
1.0
132
0.0
 79
     0
146
0.0
170
     0
 61
     5
348
2F
292
     1
282
     1
141
0.0
142
0.0
 63
   250
421
  3355443
  0
ENDSEC
  0
SECTION
  2
OBJECTS
  0
DICTIONARY
  5
C
330
0
100
AcDbDictionary
281
     1
  3
ACAD_CIP_PREVIOUS_PRODUCT_INFO
350
311
  3
ACAD_COLOR
350
17C
  3
ACAD_DETAILVIEWSTYLE
350
307
  3
ACAD_GROUP
350
D
  3
ACAD_LAYOUT
350
1A
  3
ACAD_MATERIAL
350
160
  3
ACAD_MLEADERSTYLE
350
1A0
  3
ACAD_MLINESTYLE
350
17
  3
ACAD_PLOTSETTINGS
350
19
  3
ACAD_PLOTSTYLENAME
350
E
  3
ACAD_SCALELIST
350
17E
  3
ACAD_SECTIONVIEWSTYLE
350
305
  3
ACAD_TABLESTYLE
350
15E
  3
ACAD_VISUALSTYLE
350
2A
  3
AcAmCatalogState
350
202
  3
ACDB_RECOMPOSE_DATA
350
5C7
  3
AcDbVariableDictionary
350
2B3
  3
ACDMSYSVARMGR
350
1BD
  3
ACGREF_MASTER
350
1B5
  3
ACGREFACAD_MASTER
350
1E0
  3
AcmDictionary
350
200
  3
ACME_BOM_MANAGER_NAME
350
1B1
  3
ACME_COMMAND_HISTORY
350
1AE
  3
ACME_SCOPE_NAME
350
1AD
  3
ACMESTATEMGR
350
1B4
  3
AcmeSysVarManager
350
1AF
  3
AcmSystemVariableManager
350
1E5
  3
AD_APPL
350
1ED
  3
ADSYSVARMGR
350
1EC
  3
AmdtNamedDwgMgr
350
1DB
  3
AMG
350
1A6
  3
AMGSNAPSETTINGS
350
242
  3
AMI_MASTER
350
1E3
  3
AUTOCAD_ASSEMBLIES_PROJECT
350
1F6
  3
Designer_Assemblies_SysVars
350
1F0
  3
GREFAM_MODULE
350
1E4
  3
StructToggleButtonState
350
269
  0
DICTIONARY
  5
275
330
2
100
AcDbDictionary
280
     1
281
     1
  3
ACAD_LAYERSTATES
360
276
  0
DICTIONARY
  5
2A8
330
10
100
AcDbDictionary
280
     1
281
     1
  3
ADSK_XREC_LAYER_RECONCILED
360
2A9
  0
DICTIONARY
  5
2AA
330
3B
100
AcDbDictionary
280
     1
281
     1
  3
ADSK_XREC_LAYER_RECONCILED
360
2AB
  0
DICTIONARY
  5
255
330
1F
100
AcDbDictionary
280
     1
281
     1
  3
ACAD_SORTENTS
360
256
  0
DICTIONARY
  5
281
330
280
100
AcDbDictionary
280
     1
281
     1
  3
ASDK_XREC_ANNOTATION_SCALE_INFO
360
282
  0
DICTIONARY
  5
290
330
28F
100
AcDbDictionary
280
     1
281
     1
  3
ASDK_XREC_ANNOTATION_SCALE_INFO
360
291
  0
XRECORD
  5
311
102
{ACAD_REACTORS
330
C
102
}
330
C
100
AcDbXrecord
280
     1
300
AMECH_PP
300
2018
300
PDSP_F_S
  0
DICTIONARY
  5
17C
102
{ACAD_REACTORS
330
C
102
}
330
C
100
AcDbDictionary
281
     1
  0
DICTIONARY
  5
307
102
{ACAD_REACTORS
330
C
102
}
330
C
100
AcDbDictionary
281
     1
  3
Imperial24
350
308
  0
DICTIONARY
  5
D
102
{ACAD_REACTORS
330
C
102
}
330
C
100
AcDbDictionary
281
     1
  0
DICTIONARY
  5
1A
102
{ACAD_REACTORS
330
C
102
}
330
C
100
AcDbDictionary
281
     1
  3
Layout1
350
1E
  3
Layout2
350
26
  3
Model
350
22
  0
DICTIONARY
  5
160
102
{ACAD_REACTORS
330
C
102
}
330
C
100
AcDbDictionary
281
     1
  3
ByBlock
350
169
  3
ByLayer
350
161
  3
Global
350
171
  0
DICTIONARY
  5
1A0
102
{ACAD_REACTORS
330
C
102
}
330
C
100
AcDbDictionary
281
     1
  3
Standard
350
1A1
  0
DICTIONARY
  5
17
102
{ACAD_REACTORS
330
C
102
}
330
C
100
AcDbDictionary
281
     1
  3
Standard
350
18
  0
DICTIONARY
  5
19
102
{ACAD_REACTORS
330
C
102
}
330
C
100
AcDbDictionary
281
     1
  0
ACDBDICTIONARYWDFLT
  5
E
102
{ACAD_REACTORS
330
C
102
}
330
C
100
AcDbDictionary
281
     1
  3
Normal
350
F
100
AcDbDictionaryWithDefault
340
F
  0
DICTIONARY
  5
17E
102
{ACAD_REACTORS
330
C
102
}
330
C
100
AcDbDictionary
281
     1
  3
A0
350
17F
  3
A1
350
180
  3
A2
350
181
  3
A3
350
182
  3
A4
350
183
  3
A5
350
184
  3
A6
350
185
  3
A7
350
186
  3
A8
350
187
  3
A9
350
188
  3
B0
350
189
  3
B1
350
18A
  3
B2
350
18B
  3
B3
350
18C
  3
B4
350
18D
  3
B5
350
18E
  3
B6
350
18F
  3
B7
350
190
  3
B8
350
191
  3
B9
350
192
  3
C0
350
193
  3
C1
350
194
  3
C2
350
195
  3
C3
350
196
  3
C4
350
197
  3
C5
350
198
  3
C6
350
199
  3
C7
350
19A
  3
C8
350
19B
  3
C9
350
19C
  3
D0
350
19D
  3
D1
350
19E
  3
D2
350
19F
  0
DICTIONARY
  5
305
102
{ACAD_REACTORS
330
C
102
}
330
C
100
AcDbDictionary
281
     1
  3
Imperial24
350
306
  0
DICTIONARY
  5
15E
102
{ACAD_REACTORS
330
C
102
}
330
C
100
AcDbDictionary
281
     1
  3
Standard
350
17D
  0
DICTIONARY
  5
2A
102
{ACAD_REACTORS
330
C
102
}
330
C
100
AcDbDictionary
281
     1
  3
2dWireframe
350
2F
  3
3D Hidden
350
31
  3
3dWireframe
350
30
  3
Basic
350
32
  3
Brighten
350
36
  3
ColorChange
350
3A
  3
Conceptual
350
34
  3
Dim
350
35
  3
EdgeColorOff
350
17B
  3
Facepattern
350
39
  3
Flat
350
2B
  3
FlatWithEdges
350
2C
  3
Gouraud
350
2D
  3
GouraudWithEdges
350
2E
  3
Hidden
350
2FF
  3
JitterOff
350
179
  3
Linepattern
350
38
  3
OverhangOff
350
17A
  3
Realistic
350
33
  3
Shaded
350
304
  3
Shaded with edges
350
303
  3
Shades of Gray
350
300
  3
Sketchy
350
301
  3
Thicken
350
37
  3
Wireframe
350
2FE
  3
X-Ray
350
302
  0
ACAD_PROXY_OBJECT
  5
202
102
{ACAD_REACTORS
330
C
102
}
330
C
100
AcDbProxyObject
 90
      499
 91
      547
 71
    29
 97
      226
 70
     0
162
              1162
311
5212800E801700110019401CC01A4019C01B80080018401B8019000800110019401D8019401B001BC01C001B4019401B801D00170010C018401900080011001C8018401DC01A401B8019C01CC01700128018401C80190018401B80080010C010401100080011001C8018401DC01A401B8019C01CC017001080194019001CC0
311
170013801BC01BC01AC008001080194019000C
161
                94
310
3FFFFFFFE00A0284403002A8
 94
        0
  0
XRECORD
  5
5C7
102
{ACAD_REACTORS
330
C
102
}
330
C
100
AcDbXrecord
280
     1
 90
        1
330
17D
  0
DICTIONARY
  5
2B3
102
{ACAD_REACTORS
330
C
102
}
330
C
100
AcDbDictionary
281
     1
  3
CANNOSCALE
350
2B7
  3
CMLEADERSTYLE
350
2B5
  3
CTABLESTYLE
350
2B4
  3
CVIEWDETAILSTYLE
350
4FD
  3
CVIEWSECTIONSTYLE
350
4FE
  3
LAYEREVAL
350
2B9
  3
LAYERNOTIFY
350
2BA
  3
LIGHTINGUNITS
350
2B8
  3
MSLTSCALE
350
2B6
  0
ACAD_PROXY_OBJECT
  5
1BD
102
{ACAD_REACTORS
330
C
102
}
330
C
100
AcDbProxyObject
 90
      499
 91
      510
 71
    29
 97
      226
 70
     0
162
                 0
161
               240
310
4C51A482000000000000000000000000000000000000000000000000000033
330
1BE
330
1BF
330
1C0
330
1C1
330
1C2
330
1C3
330
1C4
330
1C5
330
1C6
330
1C7
330
1C8
330
1C9
330
1CA
330
1CB
330
1CC
330
1CD
330
1CE
330
1CF
330
1D0
330
1D1
330
1D2
330
1D3
330
1D4
330
1D5
330
1D6
330
1D7
 94
        0
  0
ACAD_PROXY_OBJECT
  5
1B5
102
{ACAD_REACTORS
330
C
102
}
330
C
100
AcDbProxyObject
 90
      499
 91
      516
 71
    29
 97
      226
 70
     0
162
                 0
161
                34
310
0C000042CC
 94
        0
  0
ACAD_PROXY_OBJECT
  5
1E0
102
{ACAD_REACTORS
330
C
102
}
330
C
100
AcDbProxyObject
 90
      499
 91
      526
 71
    29
 97
      226
 70
     0
162
                 0
161
               114
310
04000041C00000000000000000000C
 94
        0
  0
DICTIONARY
  5
200
102
{ACAD_REACTORS
330
C
102
}
330
C
100
AcDbDictionary
281
     1
  3
AcmBOMDATA
350
201
  3
AcmStdDictionary
350
20C
  0
ACAD_PROXY_OBJECT
  5
1B1
102
{ACAD_REACTORS
330
C
102
}
330
C
100
AcDbProxyObject
 90
      499
 91
      512
 71
    29
 97
      226
 70
     0
162
                 0
161
                50
310
0000004040000C
330
0
330
0
330
1B2
 94
        0
  0
ACAD_PROXY_OBJECT
  5
1AE
102
{ACAD_REACTORS
330
C
102
}
330
C
100
AcDbProxyObject
 90
      499
 91
      509
 71
    29
 97
      226
 70
     0
162
             10344
311
41D4C0150014801140150010C0120010455004E0044004F004115401380110013C01084C0045004E0047005400480045004E0046134014C011C008000B40080010C01BC01B401B4018401B801900080010C01040138010C0114013001300114011000B801055300430041004C0045004115401380110013C01075300540052
311
00450054004300480046134014C011C008000B40080010C01BC01B401B4018401B801900080010C01040138010C0114013001300114011000B8010B4D00450041005300550052004500470045004F004D0046134014C011C008000B40080010C01BC01B401B4018401B801900080010C01040138010C011401300130011401
311
1000B8010E4C00410059004F00550054005F0043004F004E00540052004F004C004393001040164013C01540150017C010C013C013801500148013C0130010E4C00410059004F00550054005F0043004F004E00540052004F004C0042D3401140104014C015401480114011C0114013C013401184D005300470020002D0020
311
0043006F006D006D0061006E0064002000430041004E00430045004C004C00450044002E0042D3401140104014C015401480114011C0114013C013401184D005300470020002D00200043006F006D006D0061006E0064002000430041004E00430045004C004C00450044002E0042D3401140104014C015401480114011C01
311
14013C013401184D005300470020002D00200043006F006D006D0061006E0064002000430041004E00430045004C004C00450044002E0042D3401140104014C015401480114011C0114013C013401184D005300470020002D00200043006F006D006D0061006E0064002000430041004E00430045004C004C00450044002E0
311
042D3401140104014C015401480114011C0114013C013401184D005300470020002D00200043006F006D006D0061006E0064002000430041004E00430045004C004C00450044002E0042D3401140104014C015401480114011C0114013C013401184D005300470020002D00200043006F006D006D0061006E0064002000430
311
041004E00430045004C004C00450044002E0042D3401140104014C015401480114011C0114013C013401184D005300470020002D00200043006F006D006D0061006E0064002000430041004E00430045004C004C00450044002E004115401380110013C010455004E0044004F004193401500114011001240150010455004E
311
0044004F004115401380110013C01064D00540045004400490054004115401380110013C010455004E0044004F0041D48011401180114011001240150010B4D00450041005300550052004500470045004F004D0046134014C011C008000B40080010C01BC01B401B4018401B801900080010C01040138010C011401300130
311
0114011000B8012E4D005300470020002D0020005000500041003A002000200020006400650073006B0074006F0070002E006100720078002000460069006C006500560065007200730069006F006E003A002000310034002E0032002E0030002E00340042D3401140104014C015401480114011C0114013C013401184D005
311
300470020002D00200043006F006D006D0061006E0064002000430041004E00430045004C004C00450044002E004150C0130013C014C0114012E4D005300470020002D0020005000500041003A002000200020006400650073006B0074006F0070002E006100720078002000460069006C006500560065007200730069006F
311
006E003A002000310034002E0032002E0030002E00340056
161
               526
310
478060180601404040601805010101404040601806014040405010101404040501010140404050101014040406018060180601806018060140804040501010140404
 94
        0
  0
ACAD_PROXY_OBJECT
  5
1AD
102
{ACAD_REACTORS
330
C
102
}
330
C
100
AcDbProxyObject
 90
      499
 91
      508
 71
    29
 97
      226
 70
     0
162
                 0
161
               554
310
0E00004C8000000000000000000013150200000000000000000000000000000000000000000000000000000000000000000000000000000000000000000000000000AAAAAA8C
360
1B0
360
1B2
360
1B6
360
1B7
360
1B8
360
1B9
360
1BA
360
1BB
360
1BE
360
1BF
360
1C0
360
1C1
360
1C2
360
1C3
360
1C4
360
1C5
360
1C6
360
1C7
360
1C8
360
1C9
360
1CA
360
1CB
360
1CC
360
1CD
360
1CE
360
1CF
360
1D0
360
1D1
360
1D2
360
1D3
360
1D4
360
1D5
360
1D6
360
1D7
360
1E6
360
1E8
360
1E9
360
1EA
360
1EB
360
1F1
360
1F2
360
1F3
360
1F4
360
1F5
360
1FA
360
1FB
360
1FC
360
1FD
360
1FE
 94
        0
  0
ACAD_PROXY_OBJECT
  5
1B4
102
{ACAD_REACTORS
330
C
102
}
330
C
100
AcDbProxyObject
 90
      499
 91
      515
 71
    29
 97
      226
 70
     0
162
                 0
161
                50
310
0E000043A4128C
 94
        0
  0
ACAD_PROXY_OBJECT
  5
1AF
102
{ACAD_REACTORS
330
C
102
}
330
C
100
AcDbProxyObject
 90
      499
 91
      510
 71
    29
 97
      226
 70
     0
162
                 0
161
                32
310
9014220077
330
1B0
 94
        0
  0
ACAD_PROXY_OBJECT
  5
1E5
102
{ACAD_REACTORS
330
C
102
}
330
C
100
AcDbProxyObject
 90
      499
 91
      510
 71
    29
 97
      226
 70
     0
162
                 0
161
                32
310
9014220000
330
1E6
 94
        0
  0
ACAD_PROXY_OBJECT
  5
1ED
102
{ACAD_REACTORS
330
C
102
}
330
C
100
AcDbProxyObject
 90
      499
 91
      537
 71
    29
 97
      226
 70
     0
162
                 0
161
                34
310
000B00008C
330
1E8
 94
        0
  0
ACAD_PROXY_OBJECT
  5
1EC
102
{ACAD_REACTORS
330
C
102
}
330
C
100
AcDbProxyObject
 90
      499
 91
      510
 71
    29
 97
      226
 70
     0
162
                 0
161
                 8
310
AA00
 94
        0
  0
ACAD_PROXY_OBJECT
  5
1DB
102
{ACAD_REACTORS
330
C
102
}
330
C
100
AcDbProxyObject
 90
      499
 91
      523
 71
    29
 97
      226
 70
     0
162
                 0
161
                42
310
000100005E8C
330
1B6
 94
        0
  0
DICTIONARY
  5
1A6
102
{ACAD_REACTORS
330
C
102
}
330
C
100
AcDbDictionary
281
     1
  3
AcMgSettings
350
1A7
  3
AMGLAYCFG
350
220
  0
DICTIONARY
  5
242
102
{ACAD_REACTORS
330
C
102
}
330
C
100
AcDbDictionary
281
     1
  3
DIMENSION
350
247
  3
FEA
350
246
  3
HATCH (1)
350
243
  3
HATCH (2)
350
244
  3
SIMPLE WELD
350
248
  3
SYMBOLS
350
245
  0
ACAD_PROXY_OBJECT
  5
1E3
102
{ACAD_REACTORS
330
C
102
}
330
C
100
AcDbProxyObject
 90
      499
 91
      529
 71
    29
 97
      226
 70
     0
162
                 0
161
                34
310
050000428C
 94
        0
  0
ACAD_PROXY_OBJECT
  5
1F6
102
{ACAD_REACTORS
330
C
102
}
330
C
100
AcDbProxyObject
 90
      499
 91
      540
 71
    29
 97
      226
 70
     0
162
                 0
161
                98
310
0E000053C0000000000000000C
330
1FC
330
0
330
1FD
330
0
330
0
330
0
330
0
330
0
 94
        0
  0
ACAD_PROXY_OBJECT
  5
1F0
102
{ACAD_REACTORS
330
C
102
}
330
C
100
AcDbProxyObject
 90
      499
 91
      510
 71
    29
 97
      226
 70
     0
162
                 0
161
                64
310
905422000000000000
330
1F1
330
1F2
330
1F3
330
1F4
330
1F5
 94
        0
  0
ACAD_PROXY_OBJECT
  5
1E4
102
{ACAD_REACTORS
330
C
102
}
330
C
100
AcDbProxyObject
 90
      499
 91
      530
 71
    29
 97
      226
 70
     0
162
                 0
161
                 8
310
0500
 94
        0
  0
ACAD_PROXY_OBJECT
  5
269
102
{ACAD_REACTORS
330
C
102
}
330
C
100
AcDbProxyObject
 90
      499
 91
      576
 71
    29
 97
      226
 70
     0
162
                 0
161
                 1
310
4C
 94
        0
  0
DICTIONARY
  5
276
102
{ACAD_REACTORS
330
275
102
}
330
275
100
AcDbDictionary
281
     1
  0
XRECORD
  5
2A9
102
{ACAD_REACTORS
330
2A8
102
}
330
2A8
100
AcDbXrecord
280
     1
290
     1
  0
XRECORD
  5
2AB
102
{ACAD_REACTORS
330
2AA
102
}
330
2AA
100
AcDbXrecord
280
     1
290
     1
  0
SORTENTSTABLE
  5
256
102
{ACAD_REACTORS
330
255
102
}
330
255
100
AcDbSortentsTable
330
1F
331
4A8
  5
4A9
331
499
  5
FC
331
41
  5
41
331
113
  5
44C
331
401
  5
407
331
4AF
  5
425
331
4A0
  5
111
331
491
  5
F8
331
129
  5
45E
331
4A7
  5
4A8
331
41E
  5
47F
331
417
  5
4B1
331
435
  5
45D
331
444
  5
446
331
254
  5
4B4
331
4A9
  5
4AA
331
402
  5
409
331
420
  5
481
331
4B0
  5
41E
331
4A1
  5
112
331
492
  5
FA
331
12A
  5
466
331
409
  5
115
331
418
  5
4B2
331
41F
  5
480
331
43D
  5
445
331
436
  5
444
331
445
  5
447
331
3FF
  5
405
331
4AA
  5
4AB
331
142
  5
4A0
331
412
  5
419
331
421
  5
46E
331
4B1
  5
41F
331
F7
  5
40A
331
4A2
  5
113
331
4A
  5
4A
331
12B
  5
45F
331
40A
  5
129
331
419
  5
4B3
331
45C
  5
415
331
446
  5
448
331
455
  5
412
331
4AB
  5
4A7
331
143
  5
4A1
331
44
  5
44
331
47E
  5
251
331
404
  5
3F4
331
422
  5
46F
331
4A3
  5
4AC
331
4B2
  5
420
331
F8
  5
418
331
12C
  5
46D
331
40B
  5
12A
331
44E
  5
40B
331
45D
  5
416
331
447
  5
434
331
110
  5
449
331
4AC
  5
422
331
144
  5
4A3
331
405
  5
3ED
331
414
  5
4A6
331
423
  5
470
331
47F
  5
252
331
4A4
  5
4AD
331
4B3
  5
421
331
F9
  5
42C
331
3D
  5
3D
331
40C
  5
12B
331
448
  5
435
331
45E
  5
417
331
46D
  5
3FF
331
466
  5
3FE
331
251
  5
4A4
331
3FB
  5
488
331
488
  5
CB
331
111
  5
44B
331
4AD
  5
423
331
145
  5
4A2
331
480
  5
254
331
48F
  5
E3
331
406
  5
3FB
331
424
  5
477
331
4A5
  5
4AE
331
4B4
  5
41D
331
FA
  5
433
331
449
  5
436
331
433
  5
455
331
45F
  5
3FD
331
46E
  5
400
331
252
  5
4A5
331
3FC
  5
492
331
470
  5
144
331
112
  5
44A
331
400
  5
406
331
4AE
  5
424
331
407
  5
404
331
416
  5
4B0
331
425
  5
44D
331
434
  5
45C
331
481
  5
74
331
490
  5
F7
331
4A6
  5
4AF
331
41D
  5
47E
331
42C
  5
44E
331
44A
  5
43D
331
46F
  5
403
331
477
  5
142
331
253
  5
408
331
3FD
  5
499
  0
XRECORD
  5
282
102
{ACAD_REACTORS
330
281
102
}
330
281
100
AcDbXrecord
280
     1
 90
        1
340
17F
  0
XRECORD
  5
291
102
{ACAD_REACTORS
330
290
102
}
330
290
100
AcDbXrecord
280
     1
 90
        1
340
17F
  0
ACDBDETAILVIEWSTYLE
  5
308
102
{ACAD_REACTORS
330
307
102
}
330
307
100
AcDbModelDocViewStyle
 70
     0
  3
Imperial24
290
     0
300
Imperial24
 90
        0
100
AcDbDetailViewStyle
 70
     0
 71
     0
 90
        3
 71
     1
340
11
 62
   256
 40
0.24
340
0
 62
   256
 40
0.24
300

 40
0.36
280
     3
 71
     2
340
16
 90
       25
 62
   256
 71
     3
340
11
 62
   256
 40
0.24
 90
        1
 40
0.75
 90
        1
300
%<\AcVar ViewType \f "%tc1">% %<\AcVar ViewDetailId>%\PSCALE %<\AcVar ViewScale \f "%sn">%
 71
     4
340
16
 90
       25
 62
   256
340
16
 90
       25
 62
   256
280
     0
  0
LAYOUT
  5
1E
102
{ACAD_XDICTIONARY
360
299
102
}
102
{ACAD_REACTORS
330
1A
102
}
330
1A
100
AcDbPlotSettings
  1

  2
none_device
  4
Letter_(8.50_x_11.00_Inches)
  6

 40
6.349999904632568
 41
6.349999904632568
 42
6.350006103515625
 43
6.350006103515625
 44
215.8999938964844
 45
279.3999938964844
 46
0.0
 47
0.0
 48
0.0
 49
0.0
140
0.0
141
0.0
142
1.0
143
1.0
 70
   688
 72
     0
 73
     1
 74
     5
  7

 75
    16
147
1.0
 76
     0
 77
     2
 78
   300
148
0.0
149
0.0
100
AcDbLayout
  1
Layout1
 70
     1
 71
     1
 10
-0.2500002402958907
 20
-0.2499999962453767
 11
10.74999951940822
 21
8.249999763458733
 12
0.0
 22
0.0
 32
0.0
 14
1.000000000000000E+20
 24
1.000000000000000E+20
 34
1.000000000000000E+20
 15
-1.000000000000000E+20
 25
-1.000000000000000E+20
 35
-1.000000000000000E+20
146
0.0
 13
0.0
 23
0.0
 33
0.0
 16
1.0
 26
0.0
 36
0.0
 17
0.0
 27
1.0
 37
0.0
 76
     0
330
1B
331
28F
1001
ACAD_PSEXT
1000
None
1000
None
1000
Not applicable
1000
The layout will not be plotted unless a new plotter configuration name is selected.
1070
     0
  0
LAYOUT
  5
26
102
{ACAD_XDICTIONARY
360
28B
102
}
102
{ACAD_REACTORS
330
1A
102
}
330
1A
100
AcDbPlotSettings
  1

  2
none_device
  4
Letter_(8.50_x_11.00_Inches)
  6

 40
6.349999904632568
 41
6.349999904632568
 42
6.350006103515625
 43
6.350006103515625
 44
215.8999938964844
 45
279.3999938964844
 46
0.0
 47
0.0
 48
0.0
 49
0.0
140
0.0
141
0.0
142
1.0
143
1.0
 70
   688
 72
     0
 73
     1
 74
     5
  7

 75
    16
147
1.0
 76
     0
 77
     2
 78
   300
148
0.0
149
0.0
100
AcDbLayout
  1
Layout2
 70
     1
 71
     2
 10
-0.2500002402958907
 20
-0.2499999962453767
 11
10.74999951940822
 21
8.249999763458733
 12
0.0
 22
0.0
 32
0.0
 14
1.000000000000000E+20
 24
1.000000000000000E+20
 34
1.000000000000000E+20
 15
-1.000000000000000E+20
 25
-1.000000000000000E+20
 35
-1.000000000000000E+20
146
0.0
 13
0.0
 23
0.0
 33
0.0
 16
1.0
 26
0.0
 36
0.0
 17
0.0
 27
1.0
 37
0.0
 76
     0
330
23
331
280
1001
ACAD_PSEXT
1000
None
1000
None
1000
Not applicable
1000
The layout will not be plotted unless a new plotter configuration name is selected.
1070
     0
  0
LAYOUT
  5
22
102
{ACAD_XDICTIONARY
360
27B
102
}
102
{ACAD_REACTORS
330
1A
102
}
330
1A
100
AcDbPlotSettings
  1

  2
none_device
  4

  6

 40
0.0
 41
0.0
 42
0.0
 43
0.0
 44
0.0
 45
0.0
 46
0.0
 47
0.0
 48
0.0
 49
0.0
140
0.0
141
0.0
142
1.0
143
1.0
 70
  1712
 72
     0
 73
     0
 74
     0
  7

 75
     0
147
1.0
 76
     0
 77
     2
 78
   300
148
0.0
149
0.0
100
AcDbLayout
  1
Model
 70
     1
 71
     0
 10
0.0
 20
0.0
 11
12.0
 21
9.0
 12
0.0
 22
0.0
 32
0.0
 14
1.000000000000000E+20
 24
1.000000000000000E+20
 34
1.000000000000000E+20
 15
-1.000000000000000E+20
 25
-1.000000000000000E+20
 35
-1.000000000000000E+20
146
0.0
 13
0.0
 23
0.0
 33
0.0
 16
1.0
 26
0.0
 36
0.0
 17
0.0
 27
1.0
 37
0.0
 76
     0
330
1F
331
29
  0
MATERIAL
  5
169
102
{ACAD_XDICTIONARY
360
16A
102
}
102
{ACAD_REACTORS
330
160
102
}
330
160
100
AcDbMaterial
  1
ByBlock
 72
     0
 43
0.0208333333333333
 43
0.0
 43
0.0
 43
0.0
 43
0.0
 43
0.0208333333333333
 43
0.0
 43
0.0
 43
0.0
 43
0.0
 43
1.0
 43
0.0
 43
0.0
 43
0.0
 43
0.0
 43
1.0
 77
     0
 47
0.0208333333333333
 47
0.0
 47
0.0
 47
0.0
 47
0.0
 47
0.0208333333333333
 47
0.0
 47
0.0
 47
0.0
 47
0.0
 47
1.0
 47
0.0
 47
0.0
 47
0.0
 47
0.0
 47
1.0
171
     0
 49
0.0208333333333333
 49
0.0
 49
0.0
 49
0.0
 49
0.0
 49
0.0208333333333333
 49
0.0
 49
0.0
 49
0.0
 49
0.0
 49
1.0
 49
0.0
 49
0.0
 49
0.0
 49
0.0
 49
1.0
175
     0
142
0.0208333333333333
142
0.0
142
0.0
142
0.0
142
0.0
142
0.0208333333333333
142
0.0
142
0.0
142
0.0
142
0.0
142
1.0
142
0.0
142
0.0
142
0.0
142
0.0
142
1.0
179
     0
144
0.0208333333333333
144
0.0
144
0.0
144
0.0
144
0.0
144
0.0208333333333333
144
0.0
144
0.0
144
0.0
144
0.0
144
1.0
144
0.0
144
0.0
144
0.0
144
0.0
144
1.0
147
0.0208333333333333
147
0.0
147
0.0
147
0.0
147
0.0
147
0.0208333333333333
147
0.0
147
0.0
147
0.0
147
0.0
147
1.0
147
0.0
147
0.0
147
0.0
147
0.0
147
1.0
  0
MATERIAL
  5
161
102
{ACAD_XDICTIONARY
360
162
102
}
102
{ACAD_REACTORS
330
160
102
}
330
160
100
AcDbMaterial
  1
ByLayer
 72
     0
 43
0.0208333333333333
 43
0.0
 43
0.0
 43
0.0
 43
0.0
 43
0.0208333333333333
 43
0.0
 43
0.0
 43
0.0
 43
0.0
 43
1.0
 43
0.0
 43
0.0
 43
0.0
 43
0.0
 43
1.0
 77
     0
 47
0.0208333333333333
 47
0.0
 47
0.0
 47
0.0
 47
0.0
 47
0.0208333333333333
 47
0.0
 47
0.0
 47
0.0
 47
0.0
 47
1.0
 47
0.0
 47
0.0
 47
0.0
 47
0.0
 47
1.0
171
     0
 49
0.0208333333333333
 49
0.0
 49
0.0
 49
0.0
 49
0.0
 49
0.0208333333333333
 49
0.0
 49
0.0
 49
0.0
 49
0.0
 49
1.0
 49
0.0
 49
0.0
 49
0.0
 49
0.0
 49
1.0
175
     0
142
0.0208333333333333
142
0.0
142
0.0
142
0.0
142
0.0
142
0.0208333333333333
142
0.0
142
0.0
142
0.0
142
0.0
142
1.0
142
0.0
142
0.0
142
0.0
142
0.0
142
1.0
179
     0
144
0.0208333333333333
144
0.0
144
0.0
144
0.0
144
0.0
144
0.0208333333333333
144
0.0
144
0.0
144
0.0
144
0.0
144
1.0
144
0.0
144
0.0
144
0.0
144
0.0
144
1.0
147
0.0208333333333333
147
0.0
147
0.0
147
0.0
147
0.0
147
0.0208333333333333
147
0.0
147
0.0
147
0.0
147
0.0
147
1.0
147
0.0
147
0.0
147
0.0
147
0.0
147
1.0
  0
MATERIAL
  5
171
102
{ACAD_XDICTIONARY
360
172
102
}
102
{ACAD_REACTORS
330
160
102
}
330
160
100
AcDbMaterial
  1
Global
 72
     0
 43
0.0208333333333333
 43
0.0
 43
0.0
 43
0.0
 43
0.0
 43
0.0208333333333333
 43
0.0
 43
0.0
 43
0.0
 43
0.0
 43
1.0
 43
0.0
 43
0.0
 43
0.0
 43
0.0
 43
1.0
 77
     0
 47
0.0208333333333333
 47
0.0
 47
0.0
 47
0.0
 47
0.0
 47
0.0208333333333333
 47
0.0
 47
0.0
 47
0.0
 47
0.0
 47
1.0
 47
0.0
 47
0.0
 47
0.0
 47
0.0
 47
1.0
171
     0
 49
0.0208333333333333
 49
0.0
 49
0.0
 49
0.0
 49
0.0
 49
0.0208333333333333
 49
0.0
 49
0.0
 49
0.0
 49
0.0
 49
1.0
 49
0.0
 49
0.0
 49
0.0
 49
0.0
 49
1.0
175
     0
142
0.0208333333333333
142
0.0
142
0.0
142
0.0
142
0.0
142
0.0208333333333333
142
0.0
142
0.0
142
0.0
142
0.0
142
1.0
142
0.0
142
0.0
142
0.0
142
0.0
142
1.0
179
     0
144
0.0208333333333333
144
0.0
144
0.0
144
0.0
144
0.0
144
0.0208333333333333
144
0.0
144
0.0
144
0.0
144
0.0
144
1.0
144
0.0
144
0.0
144
0.0
144
0.0
144
1.0
147
0.0208333333333333
147
0.0
147
0.0
147
0.0
147
0.0
147
0.0208333333333333
147
0.0
147
0.0
147
0.0
147
0.0
147
1.0
147
0.0
147
0.0
147
0.0
147
0.0
147
1.0
  0
MLEADERSTYLE
  5
1A1
102
{ACAD_REACTORS
330
1A0
102
}
330
1A0
100
AcDbMLeaderStyle
179
     2
170
     2
171
     1
172
     0
 90
        2
 40
0.0
 41
0.0
173
     1
 91
-1056964608
340
14
 92
       -2
290
     1
 42
0.09
291
     1
 43
0.36
  3
Standard
 44
0.18
300

342
11
174
     1
178
     6
175
     1
176
     0
 93
-1056964608
 45
0.18
292
     0
297
     0
 46
0.18
 94
-1056964608
 47
1.0
 49
1.0
140
1.0
293
     1
141
0.0
294
     1
177
     0
142
1.0
295
     0
296
     0
143
0.125
271
     0
272
     9
273
     9
298
     0
  0
MLINESTYLE
  5
18
102
{ACAD_REACTORS
330
17
102
}
330
17
100
AcDbMlineStyle
  2
STANDARD
 70
     0
  3

 62
   256
 51
90.0
 52
90.0
 71
     2
 49
0.5
 62
   256
  6
BYLAYER
 49
-0.5
 62
   256
  6
BYLAYER
  0
ACDBPLACEHOLDER
  5
F
102
{ACAD_REACTORS
330
E
102
}
330
E
  0
SCALE
  5
17F
102
{ACAD_REACTORS
330
17E
102
}
330
17E
100
AcDbScale
 70
     0
300
1:1
140
1.0
141
1.0
290
     1
  0
SCALE
  5
180
102
{ACAD_REACTORS
330
17E
102
}
330
17E
100
AcDbScale
 70
     0
300
1:2
140
1.0
141
2.0
290
     0
  0
SCALE
  5
181
102
{ACAD_REACTORS
330
17E
102
}
330
17E
100
AcDbScale
 70
     0
300
1:4
140
1.0
141
4.0
290
     0
  0
SCALE
  5
182
102
{ACAD_REACTORS
330
17E
102
}
330
17E
100
AcDbScale
 70
     0
300
1:5
140
1.0
141
5.0
290
     0
  0
SCALE
  5
183
102
{ACAD_REACTORS
330
17E
102
}
330
17E
100
AcDbScale
 70
     0
300
1:8
140
1.0
141
8.0
290
     0
  0
SCALE
  5
184
102
{ACAD_REACTORS
330
17E
102
}
330
17E
100
AcDbScale
 70
     0
300
1:10
140
1.0
141
10.0
290
     0
  0
SCALE
  5
185
102
{ACAD_REACTORS
330
17E
102
}
330
17E
100
AcDbScale
 70
     0
300
1:16
140
1.0
141
16.0
290
     0
  0
SCALE
  5
186
102
{ACAD_REACTORS
330
17E
102
}
330
17E
100
AcDbScale
 70
     0
300
1:20
140
1.0
141
20.0
290
     0
  0
SCALE
  5
187
102
{ACAD_REACTORS
330
17E
102
}
330
17E
100
AcDbScale
 70
     0
300
1:30
140
1.0
141
30.0
290
     0
  0
SCALE
  5
188
102
{ACAD_REACTORS
330
17E
102
}
330
17E
100
AcDbScale
 70
     0
300
1:40
140
1.0
141
40.0
290
     0
  0
SCALE
  5
189
102
{ACAD_REACTORS
330
17E
102
}
330
17E
100
AcDbScale
 70
     0
300
1:50
140
1.0
141
50.0
290
     0
  0
SCALE
  5
18A
102
{ACAD_REACTORS
330
17E
102
}
330
17E
100
AcDbScale
 70
     0
300
1:100
140
1.0
141
100.0
290
     0
  0
SCALE
  5
18B
102
{ACAD_REACTORS
330
17E
102
}
330
17E
100
AcDbScale
 70
     0
300
2:1
140
2.0
141
1.0
290
     0
  0
SCALE
  5
18C
102
{ACAD_REACTORS
330
17E
102
}
330
17E
100
AcDbScale
 70
     0
300
4:1
140
4.0
141
1.0
290
     0
  0
SCALE
  5
18D
102
{ACAD_REACTORS
330
17E
102
}
330
17E
100
AcDbScale
 70
     0
300
8:1
140
8.0
141
1.0
290
     0
  0
SCALE
  5
18E
102
{ACAD_REACTORS
330
17E
102
}
330
17E
100
AcDbScale
 70
     0
300
10:1
140
10.0
141
1.0
290
     0
  0
SCALE
  5
18F
102
{ACAD_REACTORS
330
17E
102
}
330
17E
100
AcDbScale
 70
     0
300
100:1
140
100.0
141
1.0
290
     0
  0
SCALE
  5
190
102
{ACAD_REACTORS
330
17E
102
}
330
17E
100
AcDbScale
 70
     0
300
1/128" = 1'-0"
140
0.0078125
141
12.0
290
     0
  0
SCALE
  5
191
102
{ACAD_REACTORS
330
17E
102
}
330
17E
100
AcDbScale
 70
     0
300
1/64" = 1'-0"
140
0.015625
141
12.0
290
     0
  0
SCALE
  5
192
102
{ACAD_REACTORS
330
17E
102
}
330
17E
100
AcDbScale
 70
     0
300
1/32" = 1'-0"
140
0.03125
141
12.0
290
     0
  0
SCALE
  5
193
102
{ACAD_REACTORS
330
17E
102
}
330
17E
100
AcDbScale
 70
     0
300
1/16" = 1'-0"
140
0.0625
141
12.0
290
     0
  0
SCALE
  5
194
102
{ACAD_REACTORS
330
17E
102
}
330
17E
100
AcDbScale
 70
     0
300
3/32" = 1'-0"
140
0.09375
141
12.0
290
     0
  0
SCALE
  5
195
102
{ACAD_REACTORS
330
17E
102
}
330
17E
100
AcDbScale
 70
     0
300
1/8" = 1'-0"
140
0.125
141
12.0
290
     0
  0
SCALE
  5
196
102
{ACAD_REACTORS
330
17E
102
}
330
17E
100
AcDbScale
 70
     0
300
3/16" = 1'-0"
140
0.1875
141
12.0
290
     0
  0
SCALE
  5
197
102
{ACAD_REACTORS
330
17E
102
}
330
17E
100
AcDbScale
 70
     0
300
1/4" = 1'-0"
140
0.25
141
12.0
290
     0
  0
SCALE
  5
198
102
{ACAD_REACTORS
330
17E
102
}
330
17E
100
AcDbScale
 70
     0
300
3/8" = 1'-0"
140
0.375
141
12.0
290
     0
  0
SCALE
  5
199
102
{ACAD_REACTORS
330
17E
102
}
330
17E
100
AcDbScale
 70
     0
300
1/2" = 1'-0"
140
0.5
141
12.0
290
     0
  0
SCALE
  5
19A
102
{ACAD_REACTORS
330
17E
102
}
330
17E
100
AcDbScale
 70
     0
300
3/4" = 1'-0"
140
0.75
141
12.0
290
     0
  0
SCALE
  5
19B
102
{ACAD_REACTORS
330
17E
102
}
330
17E
100
AcDbScale
 70
     0
300
1" = 1'-0"
140
1.0
141
12.0
290
     0
  0
SCALE
  5
19C
102
{ACAD_REACTORS
330
17E
102
}
330
17E
100
AcDbScale
 70
     0
300
1-1/2" = 1'-0"
140
1.5
141
12.0
290
     0
  0
SCALE
  5
19D
102
{ACAD_REACTORS
330
17E
102
}
330
17E
100
AcDbScale
 70
     0
300
3" = 1'-0"
140
3.0
141
12.0
290
     0
  0
SCALE
  5
19E
102
{ACAD_REACTORS
330
17E
102
}
330
17E
100
AcDbScale
 70
     0
300
6" = 1'-0"
140
6.0
141
12.0
290
     0
  0
SCALE
  5
19F
102
{ACAD_REACTORS
330
17E
102
}
330
17E
100
AcDbScale
 70
     0
300
1'-0" = 1'-0"
140
12.0
141
12.0
290
     0
  0
ACDBSECTIONVIEWSTYLE
  5
306
102
{ACAD_REACTORS
330
305
102
}
330
305
100
AcDbModelDocViewStyle
 70
     0
  3
Imperial24
290
     0
300
Imperial24
 90
        0
100
AcDbSectionViewStyle
 70
     0
 71
     0
 90
       78
 71
     1
340
11
 62
   256
 40
0.24
340
0
340
0
 62
   256
 40
0.24
300
I, O, Q, S, X, Z
 40
0.48
 90
        3
 40
0.18
 90
        1
 71
     2
340
16
 90
       25
 62
   256
340
16
 90
       50
 62
   256
 40
0.24
 40
0.0
 40
0.24
 71
     3
340
11
 62
   256
 40
0.24
 90
        1
 40
0.75
 90
        1
300
%<\AcVar ViewType \f "%tc1">% %<\AcVar ViewSectionStartId>%-%<\AcVar ViewSectionEndId>%\PSCALE %<\AcVar ViewScale \f "%sn">%
 71
     4
 62
   256
 62
   257
300
ANSI31
 40
1.0
 90
        0
290
     0
290
     0
 90
        6
 40
0.0
 40
1.570796326794896
 40
0.2617993877991494
 40
1.308996938995747
 40
-0.2617993877991494
 40
1.832595714594046
  0
TABLESTYLE
  5
17D
102
{ACAD_XDICTIONARY
360
5C5
102
}
102
{ACAD_REACTORS
330
15E
102
}
330
15E
100
AcDbTableStyle
280
     0
  3
Standard
 70
     0
 71
     0
 40
0.06
 41
0.06
280
     0
281
     0
  7
Standard
140
0.18
170
     2
 62
     0
 63
     7
283
     0
 90
      512
 91
        0
  1

274
    -2
284
     1
 64
     0
275
    -2
285
     1
 65
     0
276
    -2
286
     1
 66
     0
277
    -2
287
     1
 67
     0
278
    -2
288
     1
 68
     0
279
    -2
289
     1
 69
     0
  7
Standard
140
0.25
170
     5
 62
     0
 63
     7
283
     0
 90
      512
 91
        0
  1

274
    -2
284
     1
 64
     0
275
    -2
285
     1
 65
     0
276
    -2
286
     1
 66
     0
277
    -2
287
     1
 67
     0
278
    -2
288
     1
 68
     0
279
    -2
289
     1
 69
     0
  7
Standard
140
0.18
170
     5
 62
     0
 63
     7
283
     0
 90
      512
 91
        0
  1

274
    -2
284
     1
 64
     0
275
    -2
285
     1
 65
     0
276
    -2
286
     1
 66
     0
277
    -2
287
     1
 67
     0
278
    -2
288
     1
 68
     0
279
    -2
289
     1
 69
     0
  0
VISUALSTYLE
  5
2F
102
{ACAD_REACTORS
330
2A
102
}
330
2A
100
AcDbVisualStyle
  2
2dWireframe
 70
     4
177
     3
291
     0
 70
    58
 90
        0
176
     1
 90
        2
176
     1
 90
        0
176
     1
 90
        0
176
     1
 40
0.6
176
     1
 40
30.0
176
     1
 62
     7
420
 16777215
176
     1
 90
        1
176
     1
 90
        4
176
     1
 62
     7
176
     1
 62
   257
176
     1
 90
        1
176
     1
 90
        1
176
     1
 40
1.0
176
     1
 90
        0
176
     1
 62
   257
176
     1
 40
1.0
176
     1
 90
        1
176
     1
 90
        6
176
     1
 90
        2
176
     1
 62
     7
176
     1
 90
        5
176
     1
 90
        0
176
     1
 90
        0
176
     1
290
     0
176
     1
 90
        1
176
     1
 40
0.0
176
     1
 90
        0
176
     1
290
     1
176
     1
290
     1
176
     1
290
     0
176
     1
290
     0
176
     1
290
     0
176
     1
290
     0
176
     1
290
     0
176
     1
290
     0
176
     1
290
     0
176
     1
 90
       50
176
     1
 40
0.0
176
     1
 40
1.0
176
     1
 90
        0
176
     1
 62
    18
420
        0
176
     1
 90
       50
176
     1
 90
        3
176
     1
 62
     5
420
      255
176
     1
290
     0
176
     1
 90
       50
176
     1
 90
       50
176
     1
 90
       50
176
     1
290
     0
176
     1
 90
       50
176
     1
 62
   256
176
     0
 40
1.0
176
     0
 90
        2
176
     1
  1
strokes_ogs.tif
176
     1
290
     0
176
     1
 40
1.0
176
     1
 40
1.0
176
     1
  0
VISUALSTYLE
  5
31
102
{ACAD_REACTORS
330
2A
102
}
330
2A
100
AcDbVisualStyle
  2
3D Hidden
 70
     6
177
     3
291
     0
 70
    58
 90
        1
176
     1
 90
        2
176
     1
 90
        2
176
     1
 90
        0
176
     1
 40
0.6
176
     1
 40
30.0
176
     1
 62
     7
420
 16777215
176
     1
 90
        2
176
     1
 90
        2
176
     1
 62
     7
176
     1
 62
   257
176
     1
 90
        2
176
     1
 90
        1
176
     1
 40
40.0
176
     1
 90
        0
176
     1
 62
   257
176
     1
 40
1.0
176
     1
 90
        1
176
     1
 90
        6
176
     1
 90
        2
176
     1
 62
     7
176
     1
 90
        3
176
     1
 90
        0
176
     1
 90
        0
176
     1
290
     0
176
     1
 90
        1
176
     1
 40
0.0
176
     1
 90
        0
176
     1
290
     0
176
     1
290
     1
176
     1
290
     1
176
     1
290
     0
176
     1
290
     0
176
     1
290
     0
176
     1
290
     0
176
     1
290
     0
176
     1
290
     0
176
     1
 90
       50
176
     1
 40
0.0
176
     1
 40
1.0
176
     1
 90
        0
176
     1
 62
    18
420
        0
176
     1
 90
       50
176
     1
 90
        3
176
     1
 62
     5
420
      255
176
     1
290
     0
176
     1
 90
       50
176
     1
 90
       50
176
     1
 90
       50
176
     1
290
     0
176
     1
 90
       50
176
     1
 62
   256
176
     0
 40
1.0
176
     0
 90
        2
176
     1
  1
strokes_ogs.tif
176
     1
290
     0
176
     1
 40
1.0
176
     1
 40
1.0
176
     1
  0
VISUALSTYLE
  5
30
102
{ACAD_REACTORS
330
2A
102
}
330
2A
100
AcDbVisualStyle
  2
3dWireframe
 70
     5
177
     3
291
     0
 70
    58
 90
        0
176
     1
 90
        2
176
     1
 90
        0
176
     1
 90
        0
176
     1
 40
0.6
176
     1
 40
30.0
176
     1
 62
     7
420
 16777215
176
     1
 90
        1
176
     1
 90
        4
176
     1
 62
     7
176
     1
 62
   257
176
     1
 90
        1
176
     1
 90
        1
176
     1
 40
1.0
176
     1
 90
        0
176
     1
 62
   257
176
     1
 40
1.0
176
     1
 90
        1
176
     1
 90
        6
176
     1
 90
        2
176
     1
 62
     7
176
     1
 90
        5
176
     1
 90
        0
176
     1
 90
        0
176
     1
290
     0
176
     1
 90
        1
176
     1
 40
0.0
176
     1
 90
        0
176
     1
290
     0
176
     1
290
     1
176
     1
290
     1
176
     1
290
     0
176
     1
290
     0
176
     1
290
     0
176
     1
290
     0
176
     1
290
     0
176
     1
290
     0
176
     1
 90
       50
176
     1
 40
0.0
176
     1
 40
1.0
176
     1
 90
        0
176
     1
 62
    18
420
        0
176
     1
 90
       50
176
     1
 90
        3
176
     1
 62
     5
420
      255
176
     1
290
     0
176
     1
 90
       50
176
     1
 90
       50
176
     1
 90
       50
176
     1
290
     0
176
     1
 90
       50
176
     1
 62
   256
176
     0
 40
1.0
176
     0
 90
        2
176
     1
  1
strokes_ogs.tif
176
     1
290
     0
176
     1
 40
1.0
176
     1
 40
1.0
176
     1
  0
VISUALSTYLE
  5
32
102
{ACAD_REACTORS
330
2A
102
}
330
2A
100
AcDbVisualStyle
  2
Basic
 70
     7
177
     3
291
     1
 70
    58
 90
        1
176
     1
 90
        0
176
     1
 90
        1
176
     1
 90
        0
176
     1
 40
0.6
176
     1
 40
30.0
176
     1
 62
     7
420
 16777215
176
     1
 90
        0
176
     1
 90
        4
176
     1
 62
     7
176
     1
 62
   257
176
     1
 90
        1
176
     1
 90
        1
176
     1
 40
1.0
176
     1
 90
        8
176
     1
 62
     7
176
     1
 40
1.0
176
     1
 90
        1
176
     1
 90
        6
176
     1
 90
        2
176
     1
 62
     7
176
     1
 90
        5
176
     1
 90
        0
176
     1
 90
        0
176
     1
290
     0
176
     1
 90
        1
176
     1
 40
0.0
176
     1
 90
        0
176
     1
290
     0
176
     1
290
     1
176
     1
290
     1
176
     1
290
     0
176
     1
290
     0
176
     1
290
     0
176
     1
290
     0
176
     1
290
     0
176
     1
290
     0
176
     1
 90
       50
176
     1
 40
0.0
176
     1
 40
1.0
176
     1
 90
        0
176
     1
 62
    18
420
        0
176
     1
 90
       50
176
     1
 90
        3
176
     1
 62
     5
420
      255
176
     1
290
     0
176
     1
 90
       50
176
     1
 90
       50
176
     1
 90
       50
176
     1
290
     0
176
     1
 90
       50
176
     1
 62
   256
176
     0
 40
1.0
176
     0
 90
        2
176
     1
  1
strokes_ogs.tif
176
     1
290
     0
176
     1
 40
1.0
176
     1
 40
1.0
176
     1
  0
VISUALSTYLE
  5
36
102
{ACAD_REACTORS
330
2A
102
}
330
2A
100
AcDbVisualStyle
  2
Brighten
 70
    12
177
     3
291
     1
 70
    58
 90
        2
176
     1
 90
        2
176
     1
 90
        0
176
     1
 90
        0
176
     1
 40
0.6
176
     1
 40
30.0
176
     1
 62
     7
420
 16777215
176
     1
 90
        1
176
     1
 90
        4
176
     1
 62
     7
176
     1
 62
   257
176
     1
 90
        1
176
     1
 90
        1
176
     1
 40
1.0
176
     1
 90
        8
176
     1
 62
     7
176
     1
 40
1.0
176
     1
 90
        1
176
     1
 90
        6
176
     1
 90
        2
176
     1
 62
     7
176
     1
 90
        5
176
     1
 90
        0
176
     1
 90
        0
176
     1
290
     0
176
     1
 90
        1
176
     1
 40
50.0
176
     1
 90
        0
176
     1
290
     0
176
     1
290
     1
176
     1
290
     1
176
     1
290
     0
176
     1
290
     0
176
     1
290
     0
176
     1
290
     0
176
     1
290
     0
176
     1
290
     0
176
     1
 90
       50
176
     1
 40
0.0
176
     1
 40
1.0
176
     1
 90
        0
176
     1
 62
    18
420
        0
176
     1
 90
       50
176
     1
 90
        3
176
     1
 62
     5
420
      255
176
     1
290
     0
176
     1
 90
       50
176
     1
 90
       50
176
     1
 90
       50
176
     1
290
     0
176
     1
 90
       50
176
     1
 62
   256
176
     0
 40
1.0
176
     0
 90
        2
176
     1
  1
strokes_ogs.tif
176
     1
290
     0
176
     1
 40
1.0
176
     1
 40
1.0
176
     1
  0
VISUALSTYLE
  5
3A
102
{ACAD_REACTORS
330
2A
102
}
330
2A
100
AcDbVisualStyle
  2
ColorChange
 70
    16
177
     3
291
     1
 70
    58
 90
        2
176
     1
 90
        2
176
     1
 90
        3
176
     1
 90
        0
176
     1
 40
0.6
176
     1
 40
30.0
176
     1
 62
     8
420
  8421504
176
     1
 90
        1
176
     1
 90
        4
176
     1
 62
     7
176
     1
 62
   257
176
     1
 90
        1
176
     1
 90
        1
176
     1
 40
1.0
176
     1
 90
        8
176
     1
 62
     8
420
  8421504
176
     1
 40
1.0
176
     1
 90
        1
176
     1
 90
        6
176
     1
 90
        2
176
     1
 62
     7
176
     1
 90
        5
176
     1
 90
        0
176
     1
 90
        0
176
     1
290
     0
176
     1
 90
        1
176
     1
 40
0.0
176
     1
 90
        0
176
     1
290
     0
176
     1
290
     1
176
     1
290
     1
176
     1
290
     0
176
     1
290
     0
176
     1
290
     0
176
     1
290
     0
176
     1
290
     0
176
     1
290
     0
176
     1
 90
       50
176
     1
 40
0.0
176
     1
 40
1.0
176
     1
 90
        0
176
     1
 62
    18
420
        0
176
     1
 90
       50
176
     1
 90
        3
176
     1
 62
     5
420
      255
176
     1
290
     0
176
     1
 90
       50
176
     1
 90
       50
176
     1
 90
       50
176
     1
290
     0
176
     1
 90
       50
176
     1
 62
   256
176
     0
 40
1.0
176
     0
 90
        2
176
     1
  1
strokes_ogs.tif
176
     1
290
     0
176
     1
 40
1.0
176
     1
 40
1.0
176
     1
  0
VISUALSTYLE
  5
34
102
{ACAD_REACTORS
330
2A
102
}
330
2A
100
AcDbVisualStyle
  2
Conceptual
 70
     9
177
     3
291
     0
 70
    58
 90
        3
176
     1
 90
        2
176
     1
 90
        0
176
     1
 90
        0
176
     1
 40
0.6
176
     1
 40
30.0
176
     1
 62
     7
420
 16777215
176
     1
 90
        2
176
     1
 90
        2
176
     1
 62
     7
176
     1
 62
   257
176
     1
 90
        1
176
     1
 90
        1
176
     1
 40
40.0
176
     1
 90
        8
176
     1
 62
     7
176
     1
 40
1.0
176
     1
 90
        1
176
     1
 90
        6
176
     1
 90
        2
176
     1
 62
     7
176
     1
 90
        3
176
     1
 90
        0
176
     1
 90
        0
176
     1
290
     0
176
     1
 90
        1
176
     1
 40
0.0
176
     1
 90
        0
176
     1
290
     0
176
     1
290
     1
176
     1
290
     1
176
     1
290
     0
176
     1
290
     0
176
     1
290
     0
176
     1
290
     0
176
     1
290
     0
176
     1
290
     0
176
     1
 90
       50
176
     1
 40
0.0
176
     1
 40
1.0
176
     1
 90
        0
176
     1
 62
    18
420
        0
176
     1
 90
       50
176
     1
 90
        3
176
     1
 62
     5
420
      255
176
     1
290
     0
176
     1
 90
       50
176
     1
 90
       50
176
     1
 90
       50
176
     1
290
     0
176
     1
 90
       50
176
     1
 62
   256
176
     0
 40
1.0
176
     0
 90
        2
176
     1
  1
strokes_ogs.tif
176
     1
290
     0
176
     1
 40
1.0
176
     1
 40
1.0
176
     1
  0
VISUALSTYLE
  5
35
102
{ACAD_REACTORS
330
2A
102
}
330
2A
100
AcDbVisualStyle
  2
Dim
 70
    11
177
     3
291
     1
 70
    58
 90
        2
176
     1
 90
        2
176
     1
 90
        0
176
     1
 90
        0
176
     1
 40
0.6
176
     1
 40
30.0
176
     1
 62
     7
420
 16777215
176
     1
 90
        1
176
     1
 90
        4
176
     1
 62
     7
176
     1
 62
   257
176
     1
 90
        1
176
     1
 90
        1
176
     1
 40
1.0
176
     1
 90
        8
176
     1
 62
     7
176
     1
 40
1.0
176
     1
 90
        1
176
     1
 90
        6
176
     1
 90
        2
176
     1
 62
     7
176
     1
 90
        5
176
     1
 90
        0
176
     1
 90
        0
176
     1
290
     0
176
     1
 90
        1
176
     1
 40
-50.0
176
     1
 90
        0
176
     1
290
     0
176
     1
290
     1
176
     1
290
     1
176
     1
290
     0
176
     1
290
     0
176
     1
290
     0
176
     1
290
     0
176
     1
290
     0
176
     1
290
     0
176
     1
 90
       50
176
     1
 40
0.0
176
     1
 40
1.0
176
     1
 90
        0
176
     1
 62
    18
420
        0
176
     1
 90
       50
176
     1
 90
        3
176
     1
 62
     5
420
      255
176
     1
290
     0
176
     1
 90
       50
176
     1
 90
       50
176
     1
 90
       50
176
     1
290
     0
176
     1
 90
       50
176
     1
 62
   256
176
     0
 40
1.0
176
     0
 90
        2
176
     1
  1
strokes_ogs.tif
176
     1
290
     0
176
     1
 40
1.0
176
     1
 40
1.0
176
     1
  0
VISUALSTYLE
  5
17B
102
{ACAD_REACTORS
330
2A
102
}
330
2A
100
AcDbVisualStyle
  2
EdgeColorOff
 70
    22
177
     3
291
     1
 70
    58
 90
        2
176
     0
 90
        2
176
     0
 90
        0
176
     0
 90
        0
176
     0
 40
0.6
176
     0
 40
30.0
176
     0
 62
     7
420
 16777215
176
     0
 90
        1
176
     0
 90
        4
176
     0
 62
     7
176
     0
 62
   257
176
     0
 90
        1
176
     0
 90
        1
176
     0
 40
1.0
176
     0
 90
        8
176
     2
 62
     7
176
     0
 40
1.0
176
     0
 90
        1
176
     0
 90
        6
176
     0
 90
        2
176
     0
 62
     7
176
     0
 90
        5
176
     0
 90
        0
176
     0
 90
        0
176
     0
290
     0
176
     0
 90
        1
176
     0
 40
0.0
176
     0
 90
        0
176
     0
290
     0
176
     1
290
     1
176
     1
290
     1
176
     1
290
     0
176
     1
290
     0
176
     1
290
     0
176
     1
290
     0
176
     1
290
     0
176
     1
290
     0
176
     1
 90
       50
176
     1
 40
0.0
176
     1
 40
1.0
176
     1
 90
        0
176
     1
 62
    18
420
        0
176
     1
 90
       50
176
     1
 90
        3
176
     1
 62
     5
420
      255
176
     1
290
     0
176
     1
 90
       50
176
     1
 90
       50
176
     1
 90
       50
176
     1
290
     0
176
     1
 90
       50
176
     1
 62
   256
176
     0
 40
1.0
176
     0
 90
        2
176
     1
  1
strokes_ogs.tif
176
     1
290
     0
176
     1
 40
1.0
176
     1
 40
1.0
176
     1
  0
VISUALSTYLE
  5
39
102
{ACAD_REACTORS
330
2A
102
}
330
2A
100
AcDbVisualStyle
  2
Facepattern
 70
    15
177
     3
291
     1
 70
    58
 90
        2
176
     1
 90
        2
176
     1
 90
        0
176
     1
 90
        0
176
     1
 40
0.6
176
     1
 40
30.0
176
     1
 62
     7
420
 16777215
176
     1
 90
        1
176
     1
 90
        4
176
     1
 62
     7
176
     1
 62
   257
176
     1
 90
        1
176
     1
 90
        1
176
     1
 40
1.0
176
     1
 90
        8
176
     1
 62
     7
176
     1
 40
1.0
176
     1
 90
        1
176
     1
 90
        6
176
     1
 90
        2
176
     1
 62
     7
176
     1
 90
        5
176
     1
 90
        0
176
     1
 90
        0
176
     1
290
     0
176
     1
 90
        1
176
     1
 40
0.0
176
     1
 90
        0
176
     1
290
     0
176
     1
290
     1
176
     1
290
     1
176
     1
290
     0
176
     1
290
     0
176
     1
290
     0
176
     1
290
     0
176
     1
290
     0
176
     1
290
     0
176
     1
 90
       50
176
     1
 40
0.0
176
     1
 40
1.0
176
     1
 90
        0
176
     1
 62
    18
420
        0
176
     1
 90
       50
176
     1
 90
        3
176
     1
 62
     5
420
      255
176
     1
290
     0
176
     1
 90
       50
176
     1
 90
       50
176
     1
 90
       50
176
     1
290
     0
176
     1
 90
       50
176
     1
 62
   256
176
     0
 40
1.0
176
     0
 90
        2
176
     1
  1
strokes_ogs.tif
176
     1
290
     0
176
     1
 40
1.0
176
     1
 40
1.0
176
     1
  0
VISUALSTYLE
  5
2B
102
{ACAD_REACTORS
330
2A
102
}
330
2A
100
AcDbVisualStyle
  2
Flat
 70
     0
177
     3
291
     1
 70
    58
 90
        2
176
     1
 90
        1
176
     1
 90
        1
176
     1
 90
        2
176
     1
 40
0.6
176
     1
 40
30.0
176
     1
 62
     7
420
 16777215
176
     1
 90
        0
176
     1
 90
        4
176
     1
 62
     7
176
     1
 62
   257
176
     1
 90
        1
176
     1
 90
        1
176
     1
 40
1.0
176
     1
 90
        8
176
     1
 62
     7
176
     1
 40
1.0
176
     1
 90
        1
176
     1
 90
        6
176
     1
 90
        2
176
     1
 62
     7
176
     1
 90
        5
176
     1
 90
        0
176
     1
 90
        0
176
     1
290
     0
176
     1
 90
       13
176
     1
 40
0.0
176
     1
 90
        0
176
     1
290
     0
176
     1
290
     1
176
     1
290
     1
176
     1
290
     0
176
     1
290
     0
176
     1
290
     0
176
     1
290
     0
176
     1
290
     0
176
     1
290
     0
176
     1
 90
       50
176
     1
 40
0.0
176
     1
 40
1.0
176
     1
 90
        0
176
     1
 62
    18
420
        0
176
     1
 90
       50
176
     1
 90
        3
176
     1
 62
     5
420
      255
176
     1
290
     0
176
     1
 90
       50
176
     1
 90
       50
176
     1
 90
       50
176
     1
290
     0
176
     1
 90
       50
176
     1
 62
   256
176
     0
 40
1.0
176
     0
 90
        2
176
     1
  1
strokes_ogs.tif
176
     1
290
     0
176
     1
 40
1.0
176
     1
 40
1.0
176
     1
  0
VISUALSTYLE
  5
2C
102
{ACAD_REACTORS
330
2A
102
}
330
2A
100
AcDbVisualStyle
  2
FlatWithEdges
 70
     1
177
     3
291
     1
 70
    58
 90
        2
176
     1
 90
        1
176
     1
 90
        1
176
     1
 90
        2
176
     1
 40
0.6
176
     1
 40
30.0
176
     1
 62
     7
420
 16777215
176
     1
 90
        1
176
     1
 90
        4
176
     1
 62
     7
176
     1
 62
   257
176
     1
 90
        1
176
     1
 90
        1
176
     1
 40
1.0
176
     1
 90
        0
176
     1
 62
   257
176
     1
 40
1.0
176
     1
 90
        1
176
     1
 90
        6
176
     1
 90
        2
176
     1
 62
     7
176
     1
 90
        5
176
     1
 90
        0
176
     1
 90
        0
176
     1
290
     0
176
     1
 90
       13
176
     1
 40
0.0
176
     1
 90
        0
176
     1
290
     0
176
     1
290
     1
176
     1
290
     1
176
     1
290
     0
176
     1
290
     0
176
     1
290
     0
176
     1
290
     0
176
     1
290
     0
176
     1
290
     0
176
     1
 90
       50
176
     1
 40
0.0
176
     1
 40
1.0
176
     1
 90
        0
176
     1
 62
    18
420
        0
176
     1
 90
       50
176
     1
 90
        3
176
     1
 62
     5
420
      255
176
     1
290
     0
176
     1
 90
       50
176
     1
 90
       50
176
     1
 90
       50
176
     1
290
     0
176
     1
 90
       50
176
     1
 62
   256
176
     0
 40
1.0
176
     0
 90
        2
176
     1
  1
strokes_ogs.tif
176
     1
290
     0
176
     1
 40
1.0
176
     1
 40
1.0
176
     1
  0
VISUALSTYLE
  5
2D
102
{ACAD_REACTORS
330
2A
102
}
330
2A
100
AcDbVisualStyle
  2
Gouraud
 70
     2
177
     3
291
     1
 70
    58
 90
        2
176
     1
 90
        2
176
     1
 90
        1
176
     1
 90
        2
176
     1
 40
0.6
176
     1
 40
30.0
176
     1
 62
     7
420
 16777215
176
     1
 90
        0
176
     1
 90
        4
176
     1
 62
     7
176
     1
 62
   257
176
     1
 90
        1
176
     1
 90
        1
176
     1
 40
1.0
176
     1
 90
        0
176
     1
 62
     7
176
     1
 40
1.0
176
     1
 90
        1
176
     1
 90
        6
176
     1
 90
        2
176
     1
 62
     7
176
     1
 90
        5
176
     1
 90
        0
176
     1
 90
        0
176
     1
290
     0
176
     1
 90
       13
176
     1
 40
0.0
176
     1
 90
        0
176
     1
290
     0
176
     1
290
     1
176
     1
290
     1
176
     1
290
     0
176
     1
290
     0
176
     1
290
     0
176
     1
290
     0
176
     1
290
     0
176
     1
290
     0
176
     1
 90
       50
176
     1
 40
0.0
176
     1
 40
1.0
176
     1
 90
        0
176
     1
 62
    18
420
        0
176
     1
 90
       50
176
     1
 90
        3
176
     1
 62
     5
420
      255
176
     1
290
     0
176
     1
 90
       50
176
     1
 90
       50
176
     1
 90
       50
176
     1
290
     0
176
     1
 90
       50
176
     1
 62
   256
176
     0
 40
1.0
176
     0
 90
        2
176
     1
  1
strokes_ogs.tif
176
     1
290
     0
176
     1
 40
1.0
176
     1
 40
1.0
176
     1
  0
VISUALSTYLE
  5
2E
102
{ACAD_REACTORS
330
2A
102
}
330
2A
100
AcDbVisualStyle
  2
GouraudWithEdges
 70
     3
177
     3
291
     1
 70
    58
 90
        2
176
     1
 90
        2
176
     1
 90
        1
176
     1
 90
        2
176
     1
 40
0.6
176
     1
 40
30.0
176
     1
 62
     7
420
 16777215
176
     1
 90
        1
176
     1
 90
        4
176
     1
 62
     7
176
     1
 62
   257
176
     1
 90
        1
176
     1
 90
        1
176
     1
 40
1.0
176
     1
 90
        0
176
     1
 62
   257
176
     1
 40
1.0
176
     1
 90
        1
176
     1
 90
        6
176
     1
 90
        2
176
     1
 62
     7
176
     1
 90
        5
176
     1
 90
        0
176
     1
 90
        0
176
     1
290
     0
176
     1
 90
       13
176
     1
 40
0.0
176
     1
 90
        0
176
     1
290
     0
176
     1
290
     1
176
     1
290
     1
176
     1
290
     0
176
     1
290
     0
176
     1
290
     0
176
     1
290
     0
176
     1
290
     0
176
     1
290
     0
176
     1
 90
       50
176
     1
 40
0.0
176
     1
 40
1.0
176
     1
 90
        0
176
     1
 62
    18
420
        0
176
     1
 90
       50
176
     1
 90
        3
176
     1
 62
     5
420
      255
176
     1
290
     0
176
     1
 90
       50
176
     1
 90
       50
176
     1
 90
       50
176
     1
290
     0
176
     1
 90
       50
176
     1
 62
   256
176
     0
 40
1.0
176
     0
 90
        2
176
     1
  1
strokes_ogs.tif
176
     1
290
     0
176
     1
 40
1.0
176
     1
 40
1.0
176
     1
  0
VISUALSTYLE
  5
2FF
102
{ACAD_REACTORS
330
2A
102
}
330
2A
100
AcDbVisualStyle
  2
Hidden
 70
     6
177
     3
291
     0
 70
    58
 90
        1
176
     1
 90
        2
176
     1
 90
        2
176
     1
 90
        0
176
     1
 40
0.6
176
     1
 40
30.0
176
     1
 62
     7
420
 16777215
176
     1
 90
        2
176
     1
 90
        2
176
     1
 62
     7
176
     1
 62
   257
176
     1
 90
        2
176
     1
 90
        1
176
     1
 40
40.0
176
     1
 90
        0
176
     1
 62
   257
176
     1
 40
1.0
176
     1
 90
        1
176
     1
 90
        6
176
     1
 90
        2
176
     1
 62
     7
176
     1
 90
        3
176
     1
 90
        0
176
     1
 90
        0
176
     1
290
     0
176
     1
 90
        1
176
     1
 40
0.0
176
     1
 90
        0
176
     1
290
     0
176
     1
290
     1
176
     1
290
     1
176
     1
290
     0
176
     1
290
     0
176
     1
290
     0
176
     1
290
     0
176
     1
290
     0
176
     1
290
     0
176
     1
 90
       50
176
     1
 40
0.0
176
     1
 40
1.0
176
     1
 90
        0
176
     1
 62
    18
420
        0
176
     1
 90
       50
176
     1
 90
        3
176
     1
 62
     5
420
      255
176
     1
290
     0
176
     1
 90
       50
176
     1
 90
       50
176
     1
 90
       50
176
     1
290
     0
176
     1
 90
       50
176
     1
 62
   256
176
     0
 40
1.0
176
     0
 90
        2
176
     1
  1
strokes_ogs.tif
176
     1
290
     0
176
     1
 40
1.0
176
     1
 40
1.0
176
     1
  0
VISUALSTYLE
  5
179
102
{ACAD_REACTORS
330
2A
102
}
330
2A
100
AcDbVisualStyle
  2
JitterOff
 70
    20
177
     3
291
     1
 70
    58
 90
        2
176
     0
 90
        2
176
     0
 90
        0
176
     0
 90
        0
176
     0
 40
0.6
176
     0
 40
30.0
176
     0
 62
     7
420
 16777215
176
     0
 90
        1
176
     0
 90
        4
176
     0
 62
     7
176
     0
 62
   257
176
     0
 90
        1
176
     0
 90
        1
176
     0
 40
1.0
176
     0
 90
       10
176
     2
 62
     7
176
     0
 40
1.0
176
     0
 90
        1
176
     0
 90
        6
176
     0
 90
        2
176
     0
 62
     7
176
     0
 90
        5
176
     0
 90
        0
176
     0
 90
        0
176
     0
290
     0
176
     0
 90
        1
176
     0
 40
0.0
176
     0
 90
        0
176
     0
290
     0
176
     1
290
     1
176
     1
290
     1
176
     1
290
     0
176
     1
290
     0
176
     1
290
     0
176
     1
290
     0
176
     1
290
     0
176
     1
290
     0
176
     1
 90
       50
176
     1
 40
0.0
176
     1
 40
1.0
176
     1
 90
        0
176
     1
 62
    18
420
        0
176
     1
 90
       50
176
     1
 90
        3
176
     1
 62
     5
420
      255
176
     1
290
     0
176
     1
 90
       50
176
     1
 90
       50
176
     1
 90
       50
176
     1
290
     0
176
     1
 90
       50
176
     1
 62
   256
176
     0
 40
1.0
176
     0
 90
        2
176
     1
  1
strokes_ogs.tif
176
     1
290
     0
176
     1
 40
1.0
176
     1
 40
1.0
176
     1
  0
VISUALSTYLE
  5
38
102
{ACAD_REACTORS
330
2A
102
}
330
2A
100
AcDbVisualStyle
  2
Linepattern
 70
    14
177
     3
291
     1
 70
    58
 90
        2
176
     1
 90
        2
176
     1
 90
        0
176
     1
 90
        0
176
     1
 40
0.6
176
     1
 40
30.0
176
     1
 62
     7
420
 16777215
176
     1
 90
        1
176
     1
 90
        4
176
     1
 62
     7
176
     1
 62
   257
176
     1
 90
        7
176
     1
 90
        7
176
     1
 40
1.0
176
     1
 90
        8
176
     1
 62
     7
176
     1
 40
1.0
176
     1
 90
        1
176
     1
 90
        6
176
     1
 90
        2
176
     1
 62
     7
176
     1
 90
        5
176
     1
 90
        0
176
     1
 90
        0
176
     1
290
     0
176
     1
 90
        1
176
     1
 40
0.0
176
     1
 90
        0
176
     1
290
     0
176
     1
290
     1
176
     1
290
     1
176
     1
290
     0
176
     1
290
     0
176
     1
290
     0
176
     1
290
     0
176
     1
290
     0
176
     1
290
     0
176
     1
 90
       50
176
     1
 40
0.0
176
     1
 40
1.0
176
     1
 90
        0
176
     1
 62
    18
420
        0
176
     1
 90
       50
176
     1
 90
        3
176
     1
 62
     5
420
      255
176
     1
290
     0
176
     1
 90
       50
176
     1
 90
       50
176
     1
 90
       50
176
     1
290
     0
176
     1
 90
       50
176
     1
 62
   256
176
     0
 40
1.0
176
     0
 90
        2
176
     1
  1
strokes_ogs.tif
176
     1
290
     0
176
     1
 40
1.0
176
     1
 40
1.0
176
     1
  0
VISUALSTYLE
  5
17A
102
{ACAD_REACTORS
330
2A
102
}
330
2A
100
AcDbVisualStyle
  2
OverhangOff
 70
    21
177
     3
291
     1
 70
    58
 90
        2
176
     0
 90
        2
176
     0
 90
        0
176
     0
 90
        0
176
     0
 40
0.6
176
     0
 40
30.0
176
     0
 62
     7
420
 16777215
176
     0
 90
        1
176
     0
 90
        4
176
     0
 62
     7
176
     0
 62
   257
176
     0
 90
        1
176
     0
 90
        1
176
     0
 40
1.0
176
     0
 90
        9
176
     2
 62
     7
176
     0
 40
1.0
176
     0
 90
        1
176
     0
 90
        6
176
     0
 90
        2
176
     0
 62
     7
176
     0
 90
        5
176
     0
 90
        0
176
     0
 90
        0
176
     0
290
     0
176
     0
 90
        1
176
     0
 40
0.0
176
     0
 90
        0
176
     0
290
     0
176
     1
290
     1
176
     1
290
     1
176
     1
290
     0
176
     1
290
     0
176
     1
290
     0
176
     1
290
     0
176
     1
290
     0
176
     1
290
     0
176
     1
 90
       50
176
     1
 40
0.0
176
     1
 40
1.0
176
     1
 90
        0
176
     1
 62
    18
420
        0
176
     1
 90
       50
176
     1
 90
        3
176
     1
 62
     5
420
      255
176
     1
290
     0
176
     1
 90
       50
176
     1
 90
       50
176
     1
 90
       50
176
     1
290
     0
176
     1
 90
       50
176
     1
 62
   256
176
     0
 40
1.0
176
     0
 90
        2
176
     1
  1
strokes_ogs.tif
176
     1
290
     0
176
     1
 40
1.0
176
     1
 40
1.0
176
     1
  0
VISUALSTYLE
  5
33
102
{ACAD_REACTORS
330
2A
102
}
330
2A
100
AcDbVisualStyle
  2
Realistic
 70
     8
177
     3
291
     0
 70
    58
 90
        2
176
     1
 90
        2
176
     1
 90
        0
176
     1
 90
        0
176
     1
 40
0.6
176
     1
 40
30.0
176
     1
 62
     7
420
 16777215
176
     1
 90
        1
176
     1
 90
        0
176
     1
 62
     7
176
     1
 62
   257
176
     1
 90
        1
176
     1
 90
        1
176
     1
 40
1.0
176
     1
 90
        8
176
     1
 62
     8
420
  7895160
176
     1
 40
1.0
176
     1
 90
        1
176
     1
 90
        6
176
     1
 90
        2
176
     1
 62
     7
176
     1
 90
        5
176
     1
 90
        0
176
     1
 90
        0
176
     1
290
     0
176
     1
 90
       13
176
     1
 40
0.0
176
     1
 90
        0
176
     1
290
     0
176
     1
290
     1
176
     1
290
     1
176
     1
290
     0
176
     1
290
     0
176
     1
290
     0
176
     1
290
     0
176
     1
290
     0
176
     1
290
     0
176
     1
 90
       50
176
     1
 40
0.0
176
     1
 40
1.0
176
     1
 90
        0
176
     1
 62
    18
420
        0
176
     1
 90
       50
176
     1
 90
        3
176
     1
 62
     5
420
      255
176
     1
290
     0
176
     1
 90
       50
176
     1
 90
       50
176
     1
 90
       50
176
     1
290
     0
176
     1
 90
       50
176
     1
 62
   256
176
     0
 40
1.0
176
     0
 90
        2
176
     1
  1
strokes_ogs.tif
176
     1
290
     0
176
     1
 40
1.0
176
     1
 40
1.0
176
     1
  0
VISUALSTYLE
  5
304
102
{ACAD_REACTORS
330
2A
102
}
330
2A
100
AcDbVisualStyle
  2
Shaded
 70
    27
177
     3
291
     0
 70
    58
 90
        2
176
     1
 90
        2
176
     1
 90
        1
176
     1
 90
        2
176
     1
 40
0.6
176
     1
 40
30.0
176
     1
 62
     7
420
 16777215
176
     1
 90
        0
176
     1
 90
        4
176
     1
 62
     7
176
     1
 62
   257
176
     1
 90
        1
176
     1
 90
        1
176
     1
 40
1.0
176
     1
 90
        8
176
     1
 62
   257
176
     1
 40
1.0
176
     1
 90
        1
176
     1
 90
        6
176
     1
 90
        2
176
     1
 62
     8
420
  7895160
176
     1
 90
        3
176
     1
 90
        0
176
     1
 90
        0
176
     1
290
     0
176
     1
 90
        5
176
     1
 40
0.0
176
     1
 90
        0
176
     1
290
     0
176
     1
290
     1
176
     1
290
     1
176
     1
290
     0
176
     1
290
     0
176
     1
290
     0
176
     1
290
     0
176
     1
290
     0
176
     1
290
     0
176
     1
 90
       50
176
     1
 40
0.0
176
     1
 40
1.0
176
     1
 90
        0
176
     1
 62
    18
420
        0
176
     1
 90
       50
176
     1
 90
        3
176
     1
 62
     5
420
      255
176
     1
290
     0
176
     1
 90
       50
176
     1
 90
       50
176
     1
 90
       50
176
     1
290
     0
176
     1
 90
       50
176
     1
 62
   256
176
     0
 40
1.0
176
     0
 90
        2
176
     1
  1
strokes_ogs.tif
176
     1
290
     0
176
     1
 40
1.0
176
     1
 40
1.0
176
     1
  0
VISUALSTYLE
  5
303
102
{ACAD_REACTORS
330
2A
102
}
330
2A
100
AcDbVisualStyle
  2
Shaded with edges
 70
    26
177
     3
291
     0
 70
    58
 90
        2
176
     1
 90
        2
176
     1
 90
        1
176
     1
 90
        2
176
     1
 40
0.6
176
     1
 40
30.0
176
     1
 62
     7
420
 16777215
176
     1
 90
        1
176
     1
 90
        2
176
     1
 62
     7
176
     1
 62
   257
176
     1
 90
        2
176
     1
 90
        1
176
     1
 40
1.0
176
     1
 90
        8
176
     1
 62
   257
176
     1
 40
1.0
176
     1
 90
        1
176
     1
 90
        6
176
     1
 90
        2
176
     1
 62
     7
176
     1
 90
        3
176
     1
 90
        0
176
     1
 90
        0
176
     1
290
     0
176
     1
 90
        5
176
     1
 40
0.0
176
     1
 90
        0
176
     1
290
     0
176
     1
290
     1
176
     1
290
     1
176
     1
290
     0
176
     1
290
     0
176
     1
290
     0
176
     1
290
     0
176
     1
290
     0
176
     1
290
     0
176
     1
 90
       50
176
     1
 40
0.0
176
     1
 40
1.0
176
     1
 90
        0
176
     1
 62
    18
420
        0
176
     1
 90
       50
176
     1
 90
        3
176
     1
 62
     5
420
      255
176
     1
290
     0
176
     1
 90
       50
176
     1
 90
       50
176
     1
 90
       50
176
     1
290
     0
176
     1
 90
       50
176
     1
 62
   256
176
     0
 40
1.0
176
     0
 90
        2
176
     1
  1
strokes_ogs.tif
176
     1
290
     0
176
     1
 40
1.0
176
     1
 40
1.0
176
     1
  0
VISUALSTYLE
  5
300
102
{ACAD_REACTORS
330
2A
102
}
330
2A
100
AcDbVisualStyle
  2
Shades of Gray
 70
    23
177
     3
291
     0
 70
    58
 90
        2
176
     1
 90
        2
176
     1
 90
        3
176
     1
 90
        0
176
     1
 40
0.6
176
     1
 40
30.0
176
     1
 62
     7
420
 16777215
176
     1
 90
        2
176
     1
 90
        2
176
     1
 62
     7
176
     1
 62
     7
176
     1
 90
        1
176
     1
 90
        1
176
     1
 40
40.0
176
     1
 90
        8
176
     1
 62
     7
176
     1
 40
1.0
176
     1
 90
        1
176
     1
 90
        6
176
     1
 90
        2
176
     1
 62
     7
176
     1
 90
        3
176
     1
 90
        0
176
     1
 90
        0
176
     1
290
     0
176
     1
 90
        1
176
     1
 40
0.0
176
     1
 90
        0
176
     1
290
     0
176
     1
290
     1
176
     1
290
     1
176
     1
290
     0
176
     1
290
     0
176
     1
290
     0
176
     1
290
     0
176
     1
290
     0
176
     1
290
     0
176
     1
 90
       50
176
     1
 40
0.0
176
     1
 40
1.0
176
     1
 90
        0
176
     1
 62
    18
420
        0
176
     1
 90
       50
176
     1
 90
        3
176
     1
 62
     5
420
      255
176
     1
290
     0
176
     1
 90
       50
176
     1
 90
       50
176
     1
 90
       50
176
     1
290
     0
176
     1
 90
       50
176
     1
 62
   256
176
     0
 40
1.0
176
     0
 90
        2
176
     1
  1
strokes_ogs.tif
176
     1
290
     0
176
     1
 40
1.0
176
     1
 40
1.0
176
     1
  0
VISUALSTYLE
  5
301
102
{ACAD_REACTORS
330
2A
102
}
330
2A
100
AcDbVisualStyle
  2
Sketchy
 70
    24
177
     3
291
     0
 70
    58
 90
        1
176
     1
 90
        2
176
     1
 90
        2
176
     1
 90
        0
176
     1
 40
0.6
176
     1
 40
30.0
176
     1
 62
     7
420
 16777215
176
     1
 90
        2
176
     1
 90
        2
176
     1
 62
     7
176
     1
 62
     7
176
     1
 90
        1
176
     1
 90
        1
176
     1
 40
40.0
176
     1
 90
       11
176
     1
 62
     7
176
     1
 40
1.0
176
     1
 90
        1
176
     1
 90
        6
176
     1
 90
        2
176
     1
 62
     7
176
     1
 90
        6
176
     1
 90
        0
176
     1
 90
        0
176
     1
290
     0
176
     1
 90
        1
176
     1
 40
0.0
176
     1
 90
        0
176
     1
290
     0
176
     1
290
     1
176
     1
290
     1
176
     1
290
     0
176
     1
290
     0
176
     1
290
     0
176
     1
290
     0
176
     1
290
     0
176
     1
290
     0
176
     1
 90
       50
176
     1
 40
0.0
176
     1
 40
1.0
176
     1
 90
        0
176
     1
 62
    18
420
        0
176
     1
 90
       50
176
     1
 90
        3
176
     1
 62
     5
420
      255
176
     1
290
     0
176
     1
 90
       50
176
     1
 90
       50
176
     1
 90
       50
176
     1
290
     0
176
     1
 90
       50
176
     1
 62
   256
176
     0
 40
1.0
176
     0
 90
        2
176
     1
  1
strokes_ogs.tif
176
     1
290
     0
176
     1
 40
1.0
176
     1
 40
1.0
176
     1
  0
VISUALSTYLE
  5
37
102
{ACAD_REACTORS
330
2A
102
}
330
2A
100
AcDbVisualStyle
  2
Thicken
 70
    13
177
     3
291
     1
 70
    58
 90
        2
176
     1
 90
        2
176
     1
 90
        0
176
     1
 90
        0
176
     1
 40
0.6
176
     1
 40
30.0
176
     1
 62
     7
420
 16777215
176
     1
 90
        1
176
     1
 90
        4
176
     1
 62
     7
176
     1
 62
   257
176
     1
 90
        1
176
     1
 90
        1
176
     1
 40
1.0
176
     1
 90
       12
176
     1
 62
     7
176
     1
 40
1.0
176
     1
 90
        1
176
     1
 90
        6
176
     1
 90
        2
176
     1
 62
     7
176
     1
 90
        5
176
     1
 90
        0
176
     1
 90
        0
176
     1
290
     0
176
     1
 90
        1
176
     1
 40
0.0
176
     1
 90
        0
176
     1
290
     0
176
     1
290
     1
176
     1
290
     1
176
     1
290
     0
176
     1
290
     0
176
     1
290
     0
176
     1
290
     0
176
     1
290
     0
176
     1
290
     0
176
     1
 90
       50
176
     1
 40
0.0
176
     1
 40
1.0
176
     1
 90
        0
176
     1
 62
    18
420
        0
176
     1
 90
       50
176
     1
 90
        3
176
     1
 62
     5
420
      255
176
     1
290
     0
176
     1
 90
       50
176
     1
 90
       50
176
     1
 90
       50
176
     1
290
     0
176
     1
 90
       50
176
     1
 62
   256
176
     0
 40
1.0
176
     0
 90
        2
176
     1
  1
strokes_ogs.tif
176
     1
290
     0
176
     1
 40
1.0
176
     1
 40
1.0
176
     1
  0
VISUALSTYLE
  5
2FE
102
{ACAD_REACTORS
330
2A
102
}
330
2A
100
AcDbVisualStyle
  2
Wireframe
 70
     5
177
     3
291
     0
 70
    58
 90
        0
176
     1
 90
        2
176
     1
 90
        0
176
     1
 90
        0
176
     1
 40
0.6
176
     1
 40
30.0
176
     1
 62
     7
420
 16777215
176
     1
 90
        1
176
     1
 90
        4
176
     1
 62
     7
176
     1
 62
   257
176
     1
 90
        1
176
     1
 90
        1
176
     1
 40
1.0
176
     1
 90
        0
176
     1
 62
   257
176
     1
 40
1.0
176
     1
 90
        1
176
     1
 90
        6
176
     1
 90
        2
176
     1
 62
     7
176
     1
 90
        3
176
     1
 90
        0
176
     1
 90
        0
176
     1
290
     0
176
     1
 90
        1
176
     1
 40
0.0
176
     1
 90
        0
176
     1
290
     0
176
     1
290
     1
176
     1
290
     1
176
     1
290
     0
176
     1
290
     0
176
     1
290
     0
176
     1
290
     0
176
     1
290
     0
176
     1
290
     0
176
     1
 90
       50
176
     1
 40
0.0
176
     1
 40
1.0
176
     1
 90
        0
176
     1
 62
    18
420
        0
176
     1
 90
       50
176
     1
 90
        3
176
     1
 62
     5
420
      255
176
     1
290
     0
176
     1
 90
       50
176
     1
 90
       50
176
     1
 90
       50
176
     1
290
     0
176
     1
 90
       50
176
     1
 62
   256
176
     0
 40
1.0
176
     0
 90
        2
176
     1
  1
strokes_ogs.tif
176
     1
290
     0
176
     1
 40
1.0
176
     1
 40
1.0
176
     1
  0
VISUALSTYLE
  5
302
102
{ACAD_REACTORS
330
2A
102
}
330
2A
100
AcDbVisualStyle
  2
X-Ray
 70
    25
177
     3
291
     0
 70
    58
 90
        2
176
     1
 90
        2
176
     1
 90
        1
176
     1
 90
        1
176
     1
 40
0.5
176
     1
 40
30.0
176
     1
 62
     7
420
 16777215
176
     1
 90
        1
176
     1
 90
        0
176
     1
 62
     7
176
     1
 62
   257
176
     1
 90
        1
176
     1
 90
        1
176
     1
 40
1.0
176
     1
 90
        8
176
     1
 62
     7
176
     1
 40
1.0
176
     1
 90
        1
176
     1
 90
        6
176
     1
 90
        2
176
     1
 62
     7
176
     1
 90
        3
176
     1
 90
        0
176
     1
 90
        0
176
     1
290
     0
176
     1
 90
       13
176
     1
 40
0.0
176
     1
 90
        0
176
     1
290
     0
176
     1
290
     1
176
     1
290
     1
176
     1
290
     0
176
     1
290
     0
176
     1
290
     0
176
     1
290
     0
176
     1
290
     0
176
     1
290
     0
176
     1
 90
       50
176
     1
 40
0.0
176
     1
 40
1.0
176
     1
 90
        0
176
     1
 62
    18
420
        0
176
     1
 90
       50
176
     1
 90
        3
176
     1
 62
     5
420
      255
176
     1
290
     0
176
     1
 90
       50
176
     1
 90
       50
176
     1
 90
       50
176
     1
290
     0
176
     1
 90
       50
176
     1
 62
   256
176
     0
 40
1.0
176
     0
 90
        2
176
     1
  1
strokes_ogs.tif
176
     1
290
     0
176
     1
 40
1.0
176
     1
 40
1.0
176
     1
  0
DICTIONARYVAR
  5
2B7
102
{ACAD_REACTORS
330
2B3
102
}
330
2B3
100
DictionaryVariables
280
     0
  1
1:1
  0
DICTIONARYVAR
  5
2B5
102
{ACAD_REACTORS
330
2B3
102
}
330
2B3
100
DictionaryVariables
280
     0
  1
STANDARD
  0
DICTIONARYVAR
  5
2B4
102
{ACAD_REACTORS
330
2B3
102
}
330
2B3
100
DictionaryVariables
280
     0
  1
STANDARD
  0
DICTIONARYVAR
  5
4FD
102
{ACAD_REACTORS
330
2B3
102
}
330
2B3
100
DictionaryVariables
280
     0
  1
Imperial24
  0
DICTIONARYVAR
  5
4FE
102
{ACAD_REACTORS
330
2B3
102
}
330
2B3
100
DictionaryVariables
280
     0
  1
Imperial24
  0
DICTIONARYVAR
  5
2B9
102
{ACAD_REACTORS
330
2B3
102
}
330
2B3
100
DictionaryVariables
280
     0
  1
1
  0
DICTIONARYVAR
  5
2BA
102
{ACAD_REACTORS
330
2B3
102
}
330
2B3
100
DictionaryVariables
280
     0
  1
15
  0
DICTIONARYVAR
  5
2B8
102
{ACAD_REACTORS
330
2B3
102
}
330
2B3
100
DictionaryVariables
280
     0
  1
0
  0
DICTIONARYVAR
  5
2B6
102
{ACAD_REACTORS
330
2B3
102
}
330
2B3
100
DictionaryVariables
280
     0
  1
0
  0
ACAD_PROXY_OBJECT
  5
201
102
{ACAD_REACTORS
330
200
102
}
330
200
100
AcDbProxyObject
 90
      499
 91
      546
 71
    29
 97
      226
 70
     0
162
                 0
161
                84
310
90100057356C1DB7406AAC
 94
        0
  0
DICTIONARY
  5
20C
102
{ACAD_REACTORS
330
200
102
}
330
200
100
AcDbDictionary
281
     1
  3
ANSI
350
20D
  0
ACAD_PROXY_OBJECT
  5
1B0
330
0
100
AcDbProxyObject
 90
      499
 91
      511
 71
    29
 97
      226
 70
     0
162
               234
311
43904010C01340114014C016401340108013C0130014C01240168011400C
161
                34
310
000101420C
330
1AD
 94
        0
  0
ACAD_PROXY_OBJECT
  5
1B2
330
0
100
AcDbProxyObject
 90
      499
 91
      513
 71
    29
 97
      226
 70
     0
162
                74
311
41108013C013400C400C
161
                46
310
00010100AC00
330
1AD
330
0
330
0
 94
        0
  0
ACAD_PROXY_OBJECT
  5
1B6
330
0
100
AcDbProxyObject
 90
      499
 91
      517
 71
    29
 97
      226
 70
     0
162
               562
311
41190018401D001940109310034002E0030002E00340038002E00300041190018401D001940109310034002E0030002E00340038002E003000419040138014C012400CC00C400C
161
                92
310
00010101010140501000096C
330
1AD
330
1B7
330
1BD
 94
        0
  0
ACAD_PROXY_OBJECT
  5
1B7
330
0
100
AcDbProxyObject
 90
      499
 91
      518
 71
    29
 97
      226
 70
     0
162
                 0
161
                56
310
0001902422000000
330
1AD
330
1B8
330
1BA
 94
        0
  0
ACAD_PROXY_OBJECT
  5
1B8
330
0
100
AcDbProxyObject
 90
      499
 91
      519
 71
    29
 97
      226
 70
     0
162
                 0
161
                48
310
0001AA0000001E
330
1AD
330
1E
330
1B9
330
0
 94
        0
  0
ACAD_PROXY_OBJECT
  5
1B9
330
0
100
AcDbProxyObject
 90
      499
 91
      520
 71
    29
 97
      226
 70
     0
162
                 0
161
                28
310
0001AAAC
330
1AD
 94
        0
  0
ACAD_PROXY_OBJECT
  5
1BA
330
0
100
AcDbProxyObject
 90
      499
 91
      519
 71
    29
 97
      226
 70
     0
162
                 0
161
                48
310
0001AA000000EC
330
1AD
330
26
330
1BB
330
0
 94
        0
  0
ACAD_PROXY_OBJECT
  5
1BB
330
0
100
AcDbProxyObject
 90
      499
 91
      520
 71
    29
 97
      226
 70
     0
162
                 0
161
                28
310
0001AAAC
330
1AD
 94
        0
  0
ACAD_PROXY_OBJECT
  5
1BE
330
0
100
AcDbProxyObject
 90
      499
 91
      511
 71
    29
 97
      226
 70
     0
162
               138
311
42104013401200130010C01040130010C00C
161
                34
310
000101404C
330
1AD
 94
        0
  0
ACAD_PROXY_OBJECT
  5
1BF
330
0
100
AcDbProxyObject
 90
      499
 91
      511
 71
    29
 97
      226
 70
     0
162
               170
311
429040134014801140154014C011401100124013400C
161
                34
310
000101404C
330
1AD
 94
        0
  0
ACAD_PROXY_OBJECT
  5
1C0
330
0
100
AcDbProxyObject
 90
      499
 91
      511
 71
    29
 97
      226
 70
     0
162
               202
311
431040134014C0114010C01500124013C013801100124013400C
161
                26
310
0001018C
330
1AD
 94
        0
  0
ACAD_PROXY_OBJECT
  5
1C1
330
0
100
AcDbProxyObject
 90
      499
 91
      511
 71
    29
 97
      226
 70
     0
162
               170
311
429040134015801400108013C014801100114014800C
161
                34
310
000101404C
330
1AD
 94
        0
  0
ACAD_PROXY_OBJECT
  5
1C2
330
0
100
AcDbProxyObject
 90
      499
 91
      511
 71
    29
 97
      226
 70
     0
162
               170
311
4290401340110015C011C010C013C0130013C014800C
161
                26
310
0001018C
330
1AD
 94
        0
  0
ACAD_PROXY_OBJECT
  5
1C3
330
0
100
AcDbProxyObject
 90
      499
 91
      511
 71
    29
 97
      226
 70
     0
162
               218
311
435040134015801240114015C01480114011801480114014C012000C
161
                34
310
000101404C
330
1AD
 94
        0
  0
ACAD_PROXY_OBJECT
  5
1C4
330
0
100
AcDbProxyObject
 90
      499
 91
      511
 71
    29
 97
      226
 70
     0
162
               266
311
441040134010401380138013C01500114014001480114014C011401480158011400C
161
                34
310
000101404C
330
1AD
 94
        0
  0
ACAD_PROXY_OBJECT
  5
1C5
330
0
100
AcDbProxyObject
 90
      499
 91
      511
 71
    29
 97
      226
 70
     0
162
               266
311
441040134010401540150013C01100124013401040148014801040138011C011400C
161
                34
310
000101404C
330
1AD
 94
        0
  0
ACAD_PROXY_OBJECT
  5
1C6
330
0
100
AcDbProxyObject
 90
      499
 91
      511
 71
    29
 97
      226
 70
     0
162
               186
311
42D04013401140160015001480114011801100124013400C
161
                26
310
0001018C
330
1AD
 94
        0
  0
ACAD_PROXY_OBJECT
  5
1C7
330
0
100
AcDbProxyObject
 90
      499
 91
      511
 71
    29
 97
      226
 70
     0
162
               186
311
42D040134015001040140010401380138013C0150011400C
161
                34
310
000101404C
330
1AD
 94
        0
  0
ACAD_PROXY_OBJECT
  5
1C8
330
0
100
AcDbProxyObject
 90
      499
 91
      511
 71
    29
 97
      226
 70
     0
162
               138
311
421040134010401540150013C010C013000C
161
                34
310
000101404C
330
1AD
 94
        0
  0
ACAD_PROXY_OBJECT
  5
1C9
330
0
100
AcDbProxyObject
 90
      499
 91
      511
 71
    29
 97
      226
 70
     0
162
               138
311
421040134010C0130011801140104015000C
161
                34
310
000101414C
330
1AD
 94
        0
  0
ACAD_PROXY_OBJECT
  5
1CA
330
0
100
AcDbProxyObject
 90
      499
 91
      511
 71
    29
 97
      226
 70
     0
162
               138
311
421040134010C0130015801240114015C00C
161
                34
310
0001014FCC
330
1AD
 94
        0
  0
ACAD_PROXY_OBJECT
  5
1CB
330
0
100
AcDbProxyObject
 90
      499
 91
      511
 71
    29
 97
      226
 70
     0
162
               218
311
4350401340120012401100114016801140148013C01100124013400C
161
                34
310
000101404C
330
1AD
 94
        0
  0
ACAD_PROXY_OBJECT
  5
1CC
330
0
100
AcDbProxyObject
 90
      499
 91
      511
 71
    29
 97
      226
 70
     0
162
               170
311
429040134012001040150010C01200124014C013C00C
161
                34
310
000101404C
330
1AD
 94
        0
  0
ACAD_PROXY_OBJECT
  5
1CD
330
0
100
AcDbProxyObject
 90
      499
 91
      511
 71
    29
 97
      226
 70
     0
162
               234
311
439040134014C01240138011C0130011401200104015001300104016400C
161
                26
310
0001018C
330
1AD
 94
        0
  0
ACAD_PROXY_OBJECT
  5
1CE
330
0
100
AcDbProxyObject
 90
      499
 91
      511
 71
    29
 97
      226
 70
     0
162
               186
311
42D0401340110015C011C0118013001100124014C014000C
161
                26
310
0001018C
330
1AD
 94
        0
  0
ACAD_PROXY_OBJECT
  5
1CF
330
0
100
AcDbProxyObject
 90
      499
 91
      511
 71
    29
 97
      226
 70
     0
162
               138
311
421040134010401540150013C0120013800C
161
                26
310
0001018C
330
1AD
 94
        0
  0
ACAD_PROXY_OBJECT
  5
1D0
330
0
100
AcDbProxyObject
 90
      499
 91
      511
 71
    29
 97
      226
 70
     0
162
               154
311
42504013401200138010C013C01540138015000C
161
                34
310
000101404C
330
1AD
 94
        0
  0
ACAD_PROXY_OBJECT
  5
1D1
330
0
100
AcDbProxyObject
 90
      499
 91
      511
 71
    29
 97
      226
 70
     0
162
               138
311
4210401340120013801400148013C012800C
161
                34
310
000101404C
330
1AD
 94
        0
  0
ACAD_PROXY_OBJECT
  5
1D2
330
0
100
AcDbProxyObject
 90
      499
 91
      511
 71
    29
 97
      226
 70
     0
162
               138
311
42104013401200138015001640140011400C
161
                34
310
00010141CC
330
1AD
 94
        0
  0
ACAD_PROXY_OBJECT
  5
1D3
330
0
100
AcDbProxyObject
 90
      499
 91
      511
 71
    29
 97
      226
 70
     0
162
               138
311
42104013401200138015801240114015C00C
161
                34
310
00010143CC
330
1AD
 94
        0
  0
ACAD_PROXY_OBJECT
  5
1D4
330
0
100
AcDbProxyObject
 90
      499
 91
      511
 71
    29
 97
      226
 70
     0
162
               218
311
435040134014C0114010C01500124013C0138010C013C0140016400C
161
                26
310
0001018C
330
1AD
 94
        0
  0
ACAD_PROXY_OBJECT
  5
1D5
330
0
100
AcDbProxyObject
 90
      499
 91
      511
 71
    29
 97
      226
 70
     0
162
               138
311
421040134010C013001400148013C012800C
161
                34
310
00010140CC
330
1AD
 94
        0
  0
ACAD_PROXY_OBJECT
  5
1D6
330
0
100
AcDbProxyObject
 90
      499
 91
      522
 71
    29
 97
      226
 70
     0
162
               234
311
439040134010401540150013C012001040150010C01200148013C015000C
161
                90
310
0001010000000000000B900C
330
1AD
 94
        0
  0
ACAD_PROXY_OBJECT
  5
1D7
330
0
100
AcDbProxyObject
 90
      499
 91
      511
 71
    29
 97
      226
 70
     0
162
               234
311
439040134010401540150013C012001040150010C012001100114015000C
161
                34
310
000101404C
330
1AD
 94
        0
  0
ACAD_PROXY_OBJECT
  5
1E6
330
0
100
AcDbProxyObject
 90
      499
 91
      531
 71
    29
 97
      226
 70
     0
162
               212
311
421040134010C01540148014C01500110010441004E0053004900C
161
                32
310
0001010179
330
1AD
 94
        0
  0
ACAD_PROXY_OBJECT
  5
1E8
330
0
100
AcDbProxyObject
 90
      499
 91
      533
 71
    29
 97
      226
 70
     0
162
              1192
311
4795C019401900080012801D401B8008000C400E4008000C000C800E800C800CC00E800D000CC008000C800C000C400CC008000A001540150010C00A40109310034002E0030002E00340038002E0030004615C019401900080012801D401B8008000C400E4008000C400C800E800D000D400E800C800DC008000C800C000C4
311
00CC0109310034002E0030002E00340038002E0030003F
161
               114
310
0001000000009AA6A9AA404040404C
330
1AD
330
1E9
330
1EA
330
1EC
330
0
 94
        0
  0
ACAD_PROXY_OBJECT
  5
1E9
330
0
100
AcDbProxyObject
 90
      499
 91
      534
 71
    29
 97
      226
 70
     0
162
                 0
161
                70
310
0001AAA80820000000
330
1AD
330
1E9
330
1E9
 94
        0
  0
ACAD_PROXY_OBJECT
  5
1EA
330
0
100
AcDbProxyObject
 90
      499
 91
      535
 71
    29
 97
      226
 70
     0
162
                 0
161
                48
310
0001000000002D
330
1AD
330
0
330
1EB
330
0
330
0
 94
        0
  0
ACAD_PROXY_OBJECT
  5
1EB
330
0
100
AcDbProxyObject
 90
      499
 91
      536
 71
    29
 97
      226
 70
     0
162
                 0
161
                40
310
000100AAAA00
330
1AD
330
0
 94
        0
  0
ACAD_PROXY_OBJECT
  5
1F1
330
0
100
AcDbProxyObject
 90
      499
 91
      531
 71
    29
 97
      226
 70
     0
162
               276
311
431040104010C013C01340140011001180138010401340114010443004F004D005000C
161
                32
310
0001010100
330
1AD
 94
        0
  0
ACAD_PROXY_OBJECT
  5
1F2
330
0
100
AcDbProxyObject
 90
      499
 91
      531
 71
    29
 97
      226
 70
     0
162
               340
311
4390401040118013C0130011001140148011001180138010401340114010646006F006C00640065007200C
161
                32
310
0001010179
330
1AD
 94
        0
  0
ACAD_PROXY_OBJECT
  5
1F3
330
0
100
AcDbProxyObject
 90
      499
 91
      531
 71
    29
 97
      226
 70
     0
162
               260
311
431040104010401380138013C01100118013801040134011401035F0041005600C
161
                32
310
0001010100
330
1AD
 94
        0
  0
ACAD_PROXY_OBJECT
  5
1F4
330
0
100
AcDbProxyObject
 90
      499
 91
      531
 71
    29
 97
      226
 70
     0
162
               756
311
439040104010C013C01340140015801240114015C01300124014C0150012054006F0070000A00460072006F006E0074000A00520069006700680074000A004C006500660074000A0042006F00740074006F006D000A004100750078003100C
161
                32
310
0001010100
330
1AD
 94
        0
  0
ACAD_PROXY_OBJECT
  5
1F5
330
0
100
AcDbProxyObject
 90
      499
 91
      511
 71
    29
 97
      226
 70
     0
162
               234
311
439040134014C014C0150014801040130015C01040164014C013C013800C
161
                26
310
0001018C
330
1AD
 94
        0
  0
ACAD_PROXY_OBJECT
  5
1FA
330
0
100
AcDbProxyObject
 90
      499
 91
      541
 71
    29
 97
      226
 70
     0
162
                 0
161
                32
310
0001000000
330
1AD
340
1F7
330
1FB
330
1F7
 94
        0
  0
ACAD_PROXY_OBJECT
  5
1FB
330
0
100
AcDbProxyObject
 90
      499
 91
      542
 71
    29
 97
      226
 70
     0
162
               282
311
44538013C013C012C017C011401100124015000C400E400C000D800C800C000C400CC00C
161
                80
310
0001014140155005540000
330
1AD
330
1FA
330
0
 94
        0
  0
ACAD_PROXY_OBJECT
  5
1FC
330
0
100
AcDbProxyObject
 90
      499
 91
      543
 71
    29
 97
      226
 70
     0
162
                 0
161
               178
310
000100AAAAAA8C2431C253ABDC90606DFC5D45C61BA1CC
330
1AD
330
1FB
 94
        0
  0
ACAD_PROXY_OBJECT
  5
1FD
330
0
100
AcDbProxyObject
 90
      499
 91
      544
 71
    29
 97
      226
 70
     0
162
                 0
161
               108
310
0001901422000000000000AAAAAC
330
1AD
330
1FE
330
1FE
330
1FE
330
1FE
330
1FE
330
0
 94
        0
  0
ACAD_PROXY_OBJECT
  5
1FE
330
0
100
AcDbProxyObject
 90
      499
 91
      545
 71
    29
 97
      226
 70
     0
162
                 0
161
                51
310
00010000AAAA8C
330
1AD
330
1FD
330
1FB
 94
        0
  0
DICTIONARY
  5
1A7
102
{ACAD_REACTORS
330
1A6
102
}
330
1A6
100
AcDbDictionary
281
     1
  3
DWGSETTINGS
350
1A8
  3
TRANSSETTINGS
350
1A9
  0
ACAD_PROXY_OBJECT
  5
220
102
{ACAD_REACTORS
330
1A6
102
}
330
1A6
100
AcDbProxyObject
 90
      499
 91
      570
 71
    29
 97
      226
 70
     0
162
             15824
311
404C0010441004D005F0030009013100411040134017C00C402404C8010441004D005F0032009013300411040134017C00CC02404D0010441004D005F0034009013500411040134017C00D402404D8010441004D005F0036009013700411040134017C00DC02404E0010441004D005F0038009013900411040134017C00E40
311
2408C80104010541004D005F003100300090234004100415040134017C00C400C402409240140010541004D005F003100320090230004E00415040134017C00C0013802408C40138010541004D005F0031004E0090232004E00415040134017C00C8013802408CC0138010541004D005F0033004E0090234004E0041504013
311
4017C00D0013802408D40138010541004D005F0035004E0090236004E00415040134017C00D8013802408DC0138010541004D005F0037004E0090238004E00415040134017C00E0013802408E40138010541004D005F0039004E00903320041004E00419040134017C00C400C001380240CD001040138010641004D005F003
311
10031004E00903490050004E00419040134017C00C400C80138024112C013001240138010541004D005F0043004C0090449004E0046004F00421040134017C01400104014801140118024154801040120013400D4010641004D005F0042004F0052009045600490045005700421040134017C015801240114015C014C02419
311
0801140120012401380110010641004D005F0049004E00560090554005200410049004C00415040134017C015001480240D2001240110010641004D005F00480049004400903560049005300419040134017C01580124014C024194001040148011001240134010941004D005F00500041005200440049004D009065200450
311
04600440049004D00425040134017C01480114011801100124013402411080120013801580101390041508012001380158014C010642004500480049004E00440041108013C014800C801055200410048004D00350041108013C014800CC01055200410048004D00350041108013C014800D401055200410048004D0035004
311
110C0104013000C8010134004110C0104013000CC010134004110C0104013000D4010134004110C0104013000DC010134004110C011401380138010137004110C01140138015C010137004110C01300124013801044B004C0049004E004110C013C013800C4010130004110C013C013800C8010131004110C013C013800CC0
311
10132004110C013C013800D00101320041110011401500104010134004111001240104011C010135004111001240130012401013500411100124013401400106500041005200440049004D00411100124013401480106520045004600440049004D00411180114013401380101380041518011401340140013801013800415
311
1801140134014C01400102340041004151801140134014C015001023400410041518011401340158013801013200415180114013401580150010132004112001040150010C0101380041120012401100138010133004112001240110015C01013300411200130012401380101340041120013C010C01380101370041120013
311
C010C015C010137004112401380118013C010449004E0046004F00411300114010401100101350041938017C0108012001380158010239004E0041938017C010C013C013800C4010230004E0041938017C010C013C013800C8010231004E0041938017C010C013C013800CC010232004E0041938017C010C013C013800D001
311
0232004E0041938017C010C011401380138010237004E0041938017C010C01140138015C010237004E0041938017C0110012401300124010235004E0041938017C012001040150010C010238004E0041938017C0120012401100138010233004E0041938017C012001240110015C010233004E0041938017C0130011401040
311
110010235004E0041938017C0138011C012401400103490050004E0041938017C01400120010401380103340041004E0041938017C0150010C013C0138010230004E0041938017C0150012001300124010234004E0041938017C0150013001140138010230004E0041938017C01580140013001240103320041004E0041138
311
011C01240140010249005000411400104013000C801055200410048004D003500411400104013000CC01055200410048004D003500411400104013000D401055200410048004D0035004114001200104013801023400410041140013C014C01380101350041148010C011C01380101370041148010C011C015C01013700411
311
4C01080148012C010134004114C0114010C0150010134004114C0164010800CC0101350041134014C016401340101350041150010C013C0138010130004115001200130012401013400411500124015000C801055200410048004D003500411500124015000CC01055200410048004D003500411500124015000D401055200
311
410048004D0035004115001300114013801013000415500148010401240130010554005200410049004C004115001480130012401013400411500160015000C401013600411500160015000C801013600411500160015000CC01013600411500160015000D401013600411500160015000DC010136004115801240114015C0
311
1045600490045005700411580114011001200103480049004400411580114011001580103560049005300411580140013001240102320041004116801240168010401013400404FC0200
161
              8940
310
4210349201C00030C011E44203800030C011E44201400030C011E44201800030C010FA17000030C010FA17000030C010FA23000030C011EA23800030C010FA00400030C010FA3F400030C0241201C00030C011EA17000030C010FA01C00030C011E40A01C00030C011EA03800030C011EA01400030C011EA01800030C010FA
310
17000030C010FA17000030C010FA23000030C011EA23800030C010FA00400030C010FA3F400030C0241201C00030C011EA17000030C010FA01C00030C011E40A00400030C010F42623800030C010F42E01C00030C011E42600400030C010F42E3F400030C0243617000030C010F42601C00030C010F42601C00030C011E426
310
17000030C010F42623800030C010F425538000000C0003FFFFFFFE8000000C0003FFFFFFFE8010000C30043E88C0000C30047A8000000C0003FFFFFFFE8000000C0003FFFFFFFE88C0000C30047A8070000C30047A81E0000C3004F28000000C0003FFFFFFFE8000000C0003FFFFFFFE8000000C0003FFFFFFFE8000000C00
310
03FFFFFFFD038000000C0003FFFFFFFD038000000C0003FFFFFFFD038000000C0003FFFFFFFD038000000C0003FFFFFFFE8000000C0003FFFFFFFE8000000C0003FFFFFFFE8000000C0003FFFFFFFE8000000C0003FFFFFFFE8000000C0003FFFFFFFE85C0000C3003FFFFFFFE8000000C0003FFFFFFFE85C0000C30043E80
310
00000C0003FFFFFFFE85C0000C30043E8000000C0003FFFFFFFD018000000C0003FFFFFFFD038000000C0003FFFFFFFD038000000C0003FFFFFFFD018000000C0003FFFFFFFE8000000C0003FFFFFFFE8000000C0003FFFFFFFE8000000C0003FFFFFFFE8000000C0003FFFFFFFE8000000C0003FFFFFFFD038000000C0003
310
FFFFFFFD038000000C0003FFFFFFFD038000000C0003FFFFFFFD038000000C0003FFFFFFFE8000000C0003FFFFFFFE8000000C0003FFFFFFFE8000000C0003FFFFFFFD018000000C0003FFFFFFFD038000000C0003FFFFFFFD038000000C0003FFFFFFFE8000000C0003FFFFFFFE8000000C0003FFFFFFFE8000000C0003FF
310
FFFFFD038000000C0003FFFFFFFD018000000C0003FFFFFFFD038000000C0003FFFFFFFE8000000C0003FFFFFFFE8010000C3003FFFFFFFE88C0000C3003FFFFFFFE8070000C3003FFFFFFFE8000000C0003FFFFFFFE8000000C0003FFFFFFFE8000000C0003FFFFFFFE8000000C0003FFFFFFFE8070000C30047901800000
310
0C0003FFFFFFFD0188C0000C30047A88C0000C3003FFFFFFFE8000000C0003FFFFFFFD038000000C0003FFFFFFFD018010000C30043E88C0000C30047A8000000C0003FFFFFFFE8000000C0003FFFFFFFD038000000C0003FFFFFFFE8000000C0003FFFFFFFD0185C0000C30043E85C0000C30043E8000000C0003FFFFFFFE
310
8070000C30047A81E0000C3004F28000000C0003FFFFFFFE8000000C0003FFFFFFFD028000000C0003FFFFFFFD028000000C0003FFFFFFFE8000000C0003FFFFFFFD01AAA3F400030C010A4391E41D1E4190F4151E4110F40D0F4091E4050F4793C7F680200C
340
16
340
16
340
16
340
1D8
340
16
340
16
340
16
340
1DA
340
16
340
16
340
1D9
340
1D9
340
16
340
16
340
16
340
16
340
1D8
340
16
340
16
340
16
340
1DA
340
16
340
16
340
1D9
340
1D9
340
16
340
224
340
16
340
16
340
16
340
16
340
16
340
1D8
340
16
340
16
340
16
340
15
340
15
340
15
340
15
340
15
340
15
340
15
340
15
340
15
340
22A
340
15
340
15
340
15
340
15
340
15
340
15
340
16
340
15
340
15
340
15
340
15
340
15
340
15
340
16
340
15
340
15
340
15
340
15
340
22B
340
15
340
15
340
22A
340
15
340
15
340
15
340
15
340
15
340
15
340
15
340
15
340
22A
340
15
340
15
340
15
340
22B
340
15
340
15
340
15
340
15
340
15
340
22B
340
15
340
15
340
15
340
16
340
16
340
16
340
15
340
15
340
22A
340
15
340
15
340
15
340
15
340
15
340
15
340
22B
340
15
340
15
340
15
340
15
340
15
340
15
340
15
340
15
340
15
340
15
340
15
340
15
340
15
340
15
340
15
340
22C
 94
        0
  0
ACAD_PROXY_OBJECT
  5
247
102
{ACAD_REACTORS
330
242
102
}
330
242
100
AcDbProxyObject
 90
      499
 91
      574
 71
    29
 97
      226
 70
     0
162
               434
311
451100124013401140138014C0124013C013800B00104013401100150017C00A8017C01100124013401012A00404A801012A00404A800C
161
                11
310
43EC
 94
        0
  0
ACAD_PROXY_OBJECT
  5
246
102
{ACAD_REACTORS
330
242
102
}
330
242
100
AcDbProxyObject
 90
      499
 91
      574
 71
    29
 97
      226
 70
     0
162
               290
311
404A8010B41004D005F004600450041002D0041004D005F002A00404A801012A00404A800C
161
                11
310
43EC
 94
        0
  0
ACAD_PROXY_OBJECT
  5
243
102
{ACAD_REACTORS
330
242
102
}
330
242
100
AcDbProxyObject
 90
      499
 91
      574
 71
    29
 97
      226
 70
     0
162
               194
311
4152001040150010C012001012A00404A801012A00404A800C
161
                11
310
43EC
 94
        0
  0
ACAD_PROXY_OBJECT
  5
244
102
{ACAD_REACTORS
330
242
102
}
330
242
100
AcDbProxyObject
 90
      499
 91
      574
 71
    29
 97
      226
 70
     0
162
              1026
311
41130012401380114012738002C0038004E002C002A002D0038002C002A002D0038004E002C0041004D005F0038002C0041004D005F0038004E002C002A002D0041004D005F0038002C002A002D0041004D005F0038004E00404A801012A00441240138014C01140148015000B0014C01500110014001040148015000C8011
311
000C
161
                11
310
43EC
 94
        0
  0
ACAD_PROXY_OBJECT
  5
248
102
{ACAD_REACTORS
330
242
102
}
330
242
100
AcDbProxyObject
 90
      499
 91
      574
 71
    29
 97
      226
 70
     0
162
               290
311
40D040148010C010441004D005F003500404A801013200419240138014C01140148015000C
161
                11
310
43CC
 94
        0
  0
ACAD_PROXY_OBJECT
  5
245
102
{ACAD_REACTORS
330
242
102
}
330
242
100
AcDbProxyObject
 90
      499
 91
      574
 71
    29
 97
      226
 70
     0
162
              2242
311
61504010C01340118010C0118014801040134011400B00104010C013401100104015001540134015001040148011C0114015000B00104010C0134011001040150015401340124011000B00104010C0134015C011401300110014C0164013400B00104010C0134014C015401480118014C0164013400B00104010C013401180
311
114010401500124011000B00104010C0134014001040148015001480114011800B00104010C01340108010401300130013C013C013800B0010401340110015001140110011C0114014C0164013400B001040134011C014C010C01480114015C010C01040130010C0150010401080130011400B00104010C013401340104014
311
8012C014C015001040134014001012A00404A801012A00404A800C
161
                11
310
43EC
 94
        0
  0
DICTIONARY
  5
299
330
1E
100
AcDbDictionary
280
     1
281
     1
  0
DICTIONARY
  5
28B
330
26
100
AcDbDictionary
280
     1
281
     1
  0
DICTIONARY
  5
27B
330
22
100
AcDbDictionary
280
     1
281
     1
  0
DICTIONARY
  5
16A
330
169
100
AcDbDictionary
280
     1
281
     1
  3
BUMPTILE
360
16C
  3
DIFFUSETILE
360
16B
  3
OPACITYTILE
360
16F
  3
REFLECTIONTILE
360
16E
  3
REFRACTIONTILE
360
170
  3
SPECULARTILE
360
16D
  0
DICTIONARY
  5
162
330
161
100
AcDbDictionary
280
     1
281
     1
  3
BUMPTILE
360
164
  3
DIFFUSETILE
360
163
  3
OPACITYTILE
360
167
  3
REFLECTIONTILE
360
166
  3
REFRACTIONTILE
360
168
  3
SPECULARTILE
360
165
  0
DICTIONARY
  5
172
330
171
100
AcDbDictionary
280
     1
281
     1
  3
BUMPTILE
360
174
  3
DIFFUSETILE
360
173
  3
OPACITYTILE
360
177
  3
REFLECTIONTILE
360
176
  3
REFRACTIONTILE
360
178
  3
SPECULARTILE
360
175
  0
DICTIONARY
  5
5C5
330
17D
100
AcDbDictionary
280
     1
281
     1
  3
ACAD_ROUNDTRIP_2008_TABLESTYLE_CELLSTYLEMAP
360
5C6
  0
ACAD_PROXY_OBJECT
  5
20D
102
{ACAD_REACTORS
330
20C
102
}
330
20C
100
AcDbProxyObject
 90
      499
 91
      554
 71
    29
 97
      226
 70
     0
162
              3734
311
411040138014C01240243904018C01B4014C01D401C801980150019401E001D0014C01D001900109410063006D0046004300460053007400640043504018C01B4015C019401B0019001A401B8019C014C01D001900108410063006D004900640053007400640042D04018C01B40110018401D001D401B4014C01D001900109
311
410063006D0042004F004D005300740064004410401B4019001D00110019401D0018401A401B0014C01E401B4014C01D00190011141006D0064007400530065006300740069006F006E00530079006D005300740064004450401B4019001D0010C019401B801D0019401C8013001A401B80194014C01D00190011141006D00
311
640074005400680072006500610064004C0069006E00650053007400640042D0401B4019001D0013801BC01D00194014C01D00190010B410063006D00540061007000650072005300740064004350401B4019001D0010401B8015801A4019401DC014C01D00190010B4100630041006D0067004C0061007900530074006400
311
42D04018C010401B4019C011001A401B4014C01D0019001114100630041006D00670048006F006C0065004300680061007200740053007400640043504018C010401B4019C015001A401D001B00194014C01D0019000
161
               725
310
6DCB81E85EB51B8BE3F8000000C00040540623000030C0200000030000B81E85EB51B8BE3F495222812028120281202812028120281202812028120281202812028120281202812028120281202812028120280A04809FFFE7FFFC
340
11
360
20E
360
20F
360
210
360
211
360
212
360
213
360
214
360
215
360
216
360
217
360
218
360
219
360
21A
360
21B
360
21C
360
236
360
237
340
21D
340
0
340
15
340
15
 94
        0
  0
ACAD_PROXY_OBJECT
  5
1A8
102
{ACAD_REACTORS
330
1A7
102
}
330
1A7
100
AcDbProxyObject
 90
      499
 91
      507
 71
    29
 97
      226
 70
     0
162
              4140
311
42D10015C011C014C01140150015001240138011C014C0109430041004E00470041005200520041005900420CC00C001F000D000D401F000D800C00106430045004E0041004E004700424D000D401F000E400C001F000C400CC00D40106430045004E0044004900410041D0C01140138011001240104014C010B30002E0035
311
007C0031002E0030007C0031002E00350041D0C0114013801100124014C01500106430045004E004C0045004E004190C01140138013C01180118010E4300480041004D00460045005200440049004D004D004F00440045004550C0120010401340118011401480110012401340134013C01100114011001140118010401540
311
1300150010943004C0049004E0041005200520041005900438C000B800C400C800D401F000C000B800C800D401F000C000B800D4010843004C0049004E004500540059005000415600130012401380114010944005700470055005300430041004C00450041D300104014C0150013C0108012801013000421340104012C011
311
4015801240114015C010650005300430041004C00450041948011401580124014C0124010130004154C010C010401300114010331003A00310042550012401340114014C01500104013401400107560045005200530049004F004E00414C400D400B800C000C001107B00440057004700530045005400540049004E0047005
311
30045004E0044007D00C
161
               572
310
40682A0A940000000000001C07E82A50000000000000601FA50000000000000701FA50000000000000701FA7F27F20A82A50A0A9FA040C008000105415282207BD6C6CCC9CD0505C
 94
        0
  0
ACAD_PROXY_OBJECT
  5
1A9
102
{ACAD_REACTORS
330
1A7
102
}
330
1A7
100
AcDbProxyObject
 90
      499
 91
      507
 71
    29
 97
      226
 70
     0
162
              1382
311
43550014801040138014C014C01140150015001240138011C014C0112440052004100570049004E0047005400520041004E0053004C004100540049004F004E004353C01480124011C012401380104013001300164017C013C0138010A53004F0055005200430045004C0041004E00470040D1401380154010955005000520
311
0450053004500520056004500441EC0110015C011C014C01140150015001240138011C014C01140138011001F400
161
               126
310
4060C00800041801000020A0C0080000
 94
        0
  0
XRECORD
  5
16C
102
{ACAD_REACTORS
330
16A
102
}
330
16A
100
AcDbXrecord
280
     1
270
     1
271
     1
  0
XRECORD
  5
16B
102
{ACAD_REACTORS
330
16A
102
}
330
16A
100
AcDbXrecord
280
     1
270
     1
271
     1
  0
XRECORD
  5
16F
102
{ACAD_REACTORS
330
16A
102
}
330
16A
100
AcDbXrecord
280
     1
270
     1
271
     1
  0
XRECORD
  5
16E
102
{ACAD_REACTORS
330
16A
102
}
330
16A
100
AcDbXrecord
280
     1
270
     1
271
     1
  0
XRECORD
  5
170
102
{ACAD_REACTORS
330
16A
102
}
330
16A
100
AcDbXrecord
280
     1
270
     1
271
     1
  0
XRECORD
  5
16D
102
{ACAD_REACTORS
330
16A
102
}
330
16A
100
AcDbXrecord
280
     1
270
     1
271
     1
  0
XRECORD
  5
164
102
{ACAD_REACTORS
330
162
102
}
330
162
100
AcDbXrecord
280
     1
270
     1
271
     1
  0
XRECORD
  5
163
102
{ACAD_REACTORS
330
162
102
}
330
162
100
AcDbXrecord
280
     1
270
     1
271
     1
  0
XRECORD
  5
167
102
{ACAD_REACTORS
330
162
102
}
330
162
100
AcDbXrecord
280
     1
270
     1
271
     1
  0
XRECORD
  5
166
102
{ACAD_REACTORS
330
162
102
}
330
162
100
AcDbXrecord
280
     1
270
     1
271
     1
  0
XRECORD
  5
168
102
{ACAD_REACTORS
330
162
102
}
330
162
100
AcDbXrecord
280
     1
270
     1
271
     1
  0
XRECORD
  5
165
102
{ACAD_REACTORS
330
162
102
}
330
162
100
AcDbXrecord
280
     1
270
     1
271
     1
  0
XRECORD
  5
174
102
{ACAD_REACTORS
330
172
102
}
330
172
100
AcDbXrecord
280
     1
270
     1
271
     1
  0
XRECORD
  5
173
102
{ACAD_REACTORS
330
172
102
}
330
172
100
AcDbXrecord
280
     1
270
     1
271
     1
  0
XRECORD
  5
177
102
{ACAD_REACTORS
330
172
102
}
330
172
100
AcDbXrecord
280
     1
270
     1
271
     1
  0
XRECORD
  5
176
102
{ACAD_REACTORS
330
172
102
}
330
172
100
AcDbXrecord
280
     1
270
     1
271
     1
  0
XRECORD
  5
178
102
{ACAD_REACTORS
330
172
102
}
330
172
100
AcDbXrecord
280
     1
270
     1
271
     1
  0
XRECORD
  5
175
102
{ACAD_REACTORS
330
172
102
}
330
172
100
AcDbXrecord
280
     1
270
     1
271
     1
  0
CELLSTYLEMAP
  5
5C6
102
{ACAD_REACTORS
330
5C5
102
}
330
5C5
100
AcDbCellStyleMap
 90
        3
300
CELLSTYLE
  1
TABLEFORMAT_BEGIN
 90
        5
170
     1
 91
        0
 92
    32768
 62
   257
 93
        1
300
CONTENTFORMAT
  1
CONTENTFORMAT_BEGIN
 90
        0
 91
        0
 92
      512
 93
        0
300

 40
0.0
140
1.0
 94
        5
 62
     0
340
11
144
0.25
309
CONTENTFORMAT_END
171
     0
 94
        0
309
TABLEFORMAT_END
  1
CELLSTYLE_BEGIN
 90
        1
 91
        1
300
_TITLE
309
CELLSTYLE_END
300
CELLSTYLE
  1
TABLEFORMAT_BEGIN
 90
        5
170
     1
 91
        0
 92
        0
 62
   257
 93
        1
300
CONTENTFORMAT
  1
CONTENTFORMAT_BEGIN
 90
        0
 91
        0
 92
      512
 93
        0
300

 40
0.0
140
1.0
 94
        5
 62
     0
340
11
144
0.18
309
CONTENTFORMAT_END
171
     0
 94
        0
309
TABLEFORMAT_END
  1
CELLSTYLE_BEGIN
 90
        2
 91
        1
300
_HEADER
309
CELLSTYLE_END
300
CELLSTYLE
  1
TABLEFORMAT_BEGIN
 90
        5
170
     1
 91
        0
 92
        0
 62
   257
 93
        1
300
CONTENTFORMAT
  1
CONTENTFORMAT_BEGIN
 90
        0
 91
        0
 92
      512
 93
        0
300

 40
0.0
140
1.0
 94
        2
 62
     0
340
11
144
0.18
309
CONTENTFORMAT_END
171
     0
 94
        0
309
TABLEFORMAT_END
  1
CELLSTYLE_BEGIN
 90
        3
 91
        2
300
_DATA
309
CELLSTYLE_END
  0
ACAD_PROXY_OBJECT
  5
20E
330
20D
100
AcDbProxyObject
 90
      499
 91
      555
 71
    29
 97
      226
 70
     0
162
                 0
161
               423
310
6DCB81E85EB51B8BE3F2E07A17AD46E2F8FE23000030C02000000300012AF841D01405014050140501083C80A0481A0882A0D55554
 94
        0
  0
ACAD_PROXY_OBJECT
  5
20F
330
20D
100
AcDbProxyObject
 90
      499
 91
      556
 71
    29
 97
      226
 70
     0
162
                 0
161
               567
310
6DCB81E85EB51B8BE3F2E07A17AD46E2F8FE23000030C02000000300012AFA1C80A0280A0280A0280A0280A0280A0280A0284A0280A0280A0280A0280A02400000000000000080
340
239
 94
        0
  0
ACAD_PROXY_OBJECT
  5
210
330
20D
100
AcDbProxyObject
 90
      499
 91
      557
 71
    29
 97
      226
 70
     0
162
                 0
161
               648
310
6DCB81E85EB51B8BE3F2E07A17AD46E2F8FE23000030C02000000300012AF98333333333333D33F24080A0280A0280A0280A0280A0280A0280A0280A0280A0280A0280A0280A0280A0280A0280A0280A0200
340
0
 94
        0
  0
ACAD_PROXY_OBJECT
  5
211
330
20D
100
AcDbProxyObject
 90
      499
 91
      558
 71
    29
 97
      226
 70
     0
162
                 0
161
               245
310
6DCB81E85EB51B8BE3F2E07A17AD46E2F8FE23000030C02000000300012AFC
 94
        0
  0
ACAD_PROXY_OBJECT
  5
212
330
20D
100
AcDbProxyObject
 90
      499
 91
      559
 71
    29
 97
      226
 70
     0
162
                 0
161
               492
310
6DCB81E85EB51B8BE3F2E07A17AD46E2F8FE23000030C02000000300012AFC521D4454FB21E93F26A6666666666E4FE89A9999999999B93F88C0000C300C
340
23A
340
23B
 94
        0
  0
ACAD_PROXY_OBJECT
  5
213
330
20D
100
AcDbProxyObject
 90
      499
 91
      560
 71
    29
 97
      226
 70
     0
162
             23548
311
4112401500114013401044900540045004D004CD1C01140138015001480104010C013C00B001140138015400B000C000B0012401500114013400B0011C011401380150014801040150016000B0009401CC00B000A0011C011401380134014C011C0080019C019401B8019001DC019C008000C800C800C800A4029035100540
311
0590040D44015001640132470045004E0054005200410043004F002C0045004E0055002C0030002C005100540059002C00470045004E00540052004100540058002C00250073002C002800470045004E004D00530047002000670065006E0064007700670020003200320033002900A4113801040134011401044E0041004D
311
0045004CD1C01140138015001480104010C013C00B001140138015400B000C000B0013801040134011400B0011C011401380150014801040150016000B0009401CC00B000A0011C011401380134014C011C0080019C019401B8019001DC019C008000C800C800D800A4012C3D004900460028004900530042004C0041004E0
311
04B00280050004100520054003A004E0041004D00450029002C0042004C004F0043004B003A004E0041004D0045002C0050004100520054003A004E0041004D00450029009054400450053004300520042D100114014C010C01480124014001500124013C0138013A470045004E0054005200410043004F002C0045004E005
311
5002C0030002C004400450053004300520049005000540049004F004E002C00470045004E00540052004100540058002C00250073002C002800470045004E004D00530047002000670065006E0064007700670020003200310037002900A4214C015001040138011001040148011001085300540041004E004400410052004
311
4004DD1C01140138015001480104010C013C00B001140138015400B000C000B0014C015001040138011001040148011000B0011C011401380150014801040150016000B0009401CC00B000A0011C011401380134014C011C0080019C019401B8019001DC019C008000C800C400E000A4029084D00410054004500520049004
311
1004C004213401040150011401480124010401300137470045004E0054005200410043004F002C0045004E0055002C0030002C004D004100540045005200490041004C002C00470045004E00540052004100540058002C00250073002C002800470045004E004D00530047002000670065006E006400770067002000320032
311
0031002900A41138013C0150011401044E004F00540045004CD1C01140138015001480104010C013C00B001140138015400B000C000B00138013C0150011400B0011C011401380150014801040150016000B0009401CC00B000A0011C011401380134014C011C0080019C019401B8019001DC019C008000C800C800D400A40
311
2906560045004E0044004F00520041958011401380110013C01480135470045004E0054005200410043004F002C0045004E0055002C0030002C00560045004E0044004F0052002C00470045004E00540052004100540058002C00250073002C002800470045004E004D00530047002000670065006E0064007700670020003
311
200320034002900A419100114014C010C014800C8010D4400450053004300520049005000540049004F004E00200032004ED1C01140138015001480104010C013C00B001140138015400B000C000B001100114014C010C01480124014001500124013C0138008000C800B0011C011401380150014801040150016000B00094
311
01CC00B000A0011C011401380134014C011C0080019C019401B8019001DC019C008000CC00D800A4029095300540041004E00440041005200440032004294C0150010401380110010401480110008000C80139470045004E0054005200410043004F002C0045004E0055002C0030002C005300540041004E00440041005200
311
4400200032002C00470045004E00540052004100540058002C00250073002C002800470045004E004D00530047002000670065006E0064007700670020003200320030002900A42534010401500114014801240104013000C8010A4D004100540045005200490041004C00200032004E11C01140138015001480104010C013
311
C00B001140138015400B000C000B001340104015001140148012401040130008000C800B0011C011401380150014801040150016000B0009401CC00B000A0011C011401380134014C011C0080019C019401B8019001DC019C008000D000C000A4029044D00410053005300411340104014C014C0132470045004E005400520
311
0410043004F002C0045004E0055002C0030002C004D004100530053002C00470045004E00540052004100540058002C00250073002C002800470045004E004D00530047002000670065006E006400770067002000340032002900A4154001480124010C01140105500052004900430045004CD1C0114013801500148010401
311
0C013C00B001140138015400B000C000B0014001480124010C011400B0011C011401380150014801040150016000B0009401CC00B000A0011C011401380134014C011C0080019C019401B8019001DC019C008000D000CC00A402903440049004D0042D3401140104014C01540148011401340114013801500139470045004E
311
0054005200410043004F002C0045004E0055002C0030002C004D004500410053005500520045004D0045004E0054002C00470045004E00540052004100540058002C00250073002C002800470045004E004D00530047002000670065006E006400770067002000340034002900A42508013C0134017C015401380124015001
311
4C010555004E004900540053004D11C01140138015001480104010C013C00B001140138015400B000C000B00154013801240150014C00B0011C011401380150014801040150016000B0009401CC00B000A0011C011401380134014C011C0080019C019401B8019001DC019C008000C800D000CC00A4029073D003C00490054
311
0045004D003E0041CF400F0012401500114013400F801073D003C004900540045004D003E0041CF400F0012401500114013400F801073D003C004900540045004D003E00418F400F001440150016400F801073D003C004900540045004D003E0041CF400F0012401500114013400F802AAA404C40242D94018400240194018
311
4002401140184018C01A000280115730071006D000900730071006D00090053007100750061007200650020004D0065007400650072000A00471CC01C4018C01B4002401CC01C4018C01B40024014C01C401D4018401C801940080010C019401B801D001A401B4019401D0019401C800280116730071006600740009007300
311
7100660074000900530071007500610072006500200046006F006F0074000A00451CC01C401A401B8002401CC01C401A401B80024014C01C401D4018401C801940080012401B80028010F670061006C000900670061006C000900470061006C006C006F006E000A00431C401D0002401C401D00024014401D4018401C801D0
311
0028011B6C00710064005F006F007A0009006C00710064005F006F007A0009004C006900710075006900640020004F0075006E00630065000A00429B0002401B00024013001A401D0019401C8002801116D006C0009006D006C0009004D0069006C006C0069006C0069007400650072000A0042DE40190002401E401900024
311
0164018401C801900028010B66007400090066007400090046006F006F0074000A0042DA401B8002401A401B80024012401B8018C01A00028010A6D0009006D0009004D0065007400650072000A004458C01B40024018C01B40024010C019401B801D001A401B4019401D0019401C8002801116D006D0009006D006D000900
311
4D0069006C006C0069006D0065007400650072000A00431B00188002401B001880024014001BC01D401B801900028010C6F007A0009006F007A0009004F0075006E00630065000A004259C0024019C0024011C01C8018401B4002801106D00670009006D00670009004D0069006C006C0069006700720061006D000A004298
311
801E00024018801E00024010801BC01E0002801012D00C
161
              6487
310
6DCB81E85EB51B8BE3F2E07A17AD46E2F8FE23000030C02000000300012AFA1E80A0280A0280A0280D202269349E4B2196C9FA0320240501405014090140501405019011349A4F2590CB64FD0190120280A0280A3880C80C815174B85D2F97CA048080C80901405014051D40640640E883C16030180C064040440480A0280A
310
028EA0320320947077FBFDFEBF7F9FA02202405014050147501901905A0A0B6C1C7480BECFD0190120280A0280A3A80C80C835174B85D2F97CBE47E80C80901405014051D40640641E8BA5C2E97CBE5F23F40640480A0280A028EA03203211441E0B0180C060320202202405014050147501901909A383BFDFEFF5FBFCFD01
310
10120280A0280A3A80C80C8550505B60E3A405F67E80880901405014051D405024050242D03408BA5C2E97CBE5F23F40440480A0280A028EA028120281218812045D2E174BE5F2F91FA02202405014050147501409014090D40D022E970BA5F2F97C8FD0190120280A0280A3C80C80C875174B85D2F97CBE47E80C80901405
310
0F4A9022E07A17AD46E338FE07800030C0001018ACD56AB55AADF63F2B355AAD56AB7D8FD014062B355AAD56AB7D8FCACD56AB55AADF63F40501890C7E3F1783CEE3F2431F8FC5E0F3B8FD014062431F8FC5E0F3B8FC90C7E3F1783CEE3F405029012B355AAD56AB7D8FCACD56AB55AADF63F405014062B355AAD56AB7D8FC
310
ACD56AB55AADF63F4050184D2693C96432E93F1349A4F2590CBA4FD0140400ACD56AB55AADF63F2B355AAD56AB7D8FE90800000000000020810000001800169FFFE8220681A048120280A20852108820321480C8452028521485214814000000000000F0BF0000000000003C2FD0188C0000C3008070000C3003673BDD4F8E
310
96ACFCD9CEF753E3A5AB3F3673BDD4F8E96ACFCAAF1D24D6210A83F0EF7D3E365DBA48FCAAF1D24D6210A83F3673BDD4F8E96ACFCAAF1D24D6210A83F0EF7D3E365DBA48FCAAF1D24D6210A83F2E07A17AD46E2F8FE80A028120D2028120A83A0C80D2E07A17AD46E2F8FE23000030C0223000030C0200400030C00A45102F
310
E7FFF9FFFE7FFF901405014550140501405014050140501405014050140501405014050140501901A0C8120A8320E86A1C
340
15
340
0
340
11
340
11
340
16
340
16
340
16
 94
        0
  0
ACAD_PROXY_OBJECT
  5
214
330
20D
100
AcDbProxyObject
 90
      499
 91
      561
 71
    29
 97
      226
 70
     0
162
               762
311
4BCF4011001140150010401240130008000F0011001140150010401240130017C0130010401080114013000F801700140014C010C010401300114008000F0011001140150010401240130017C01040108014C014C010C01040130011400F800C
161
               658
310
6DCB81E85EB51B8CE3F2E07A17AD46E338FE07800030C020000003000123C820E4D4CCCCCCCCCDC9F9353333333333927E000000000000701FA00000000000000200000000000000288000000000000012204C
340
16
340
11
 94
        0
  0
ACAD_PROXY_OBJECT
  5
215
330
20D
100
AcDbProxyObject
 90
      499
 91
      562
 71
    29
 97
      226
 70
     0
162
               826
311
4CCF4014C0114010C01500124013C0138008000F0014C0114010C01500124013C0138017C01300104010801140130017C011801240148014C015000F800B400F0014C0114010C01500124013C0138017C01300104010801140130017C01300104014C015000F800C
161
               473
310
6DCB81E85EB51B8CE3F2E07A17AD46E338FE07800030C02000000300012AE00726A666666666764FC7FFFC000000600009A9999999999D93FA7FFFCC
340
15
340
11
 94
        0
  0
ACAD_PROXY_OBJECT
  5
216
330
20D
100
AcDbProxyObject
 90
      499
 91
      563
 71
    29
 97
      226
 70
     0
162
                 0
161
               507
310
6DC000000000000F0BF0000000000003C2FE000000320020000003200200570E2DB39DEF867E14AE47E17A945E1F852B91F85EA51787F4333333333333F33FAC
 94
        0
  0
ACAD_PROXY_OBJECT
  5
217
330
20D
100
AcDbProxyObject
 90
      499
 91
      564
 71
    29
 97
      226
 70
     0
162
                 0
161
               241
310
6DC000000000000F0BF0000000000003C2FE000000320020000003200204CC
340
0
 94
        0
  0
ACAD_PROXY_OBJECT
  5
218
330
20D
100
AcDbProxyObject
 90
      499
 91
      565
 71
    29
 97
      226
 70
     0
162
             13376
311
42950019401B401C001B0018401D00194008000C40005013D003C0069006600280065007100750061006C00280048006F006C0065003A007400610070007000650064002C0022003000220029002C00220025002500630022002C0048006F006C0065003A006E006F006D0069006E0061006C0020002200200022002000690
311
06600280065007100750061006C00280048006F006C0065003A0075006E006900740073002C0022003100220029002C002200780022002C0022002D0022002900200022002000220029003E003C0069006600280065007100750061006C00280048006F006C0065003A007400610070007000650064002C002200300022002
311
9002C0048006F006C0065003A006400690061002C0048006F006C0065003A0070006900740063006800640065007300630029003E0020007B005C00460041004D004700440054003B0078007D0020003C0069006600280065007100750061006C00280048006F006C0065003A007400650072006D0069006E0061007400690
311
06F006E002C0022003000220029002C0048006F006C0065003A00640065007000740068002C0022005400480052005500220029003E005C0050007B005C00460041004D004700440054003B0076007D002500250063003C0048006F006C0065003A00630074006400690061003E0020007B005C00460041004D00470044005
311
4003B0078007D0020003C0048006F006C0065003A0063007400640065007000740068003E0042950019401B401C001B0018401D00194008000C401FE3D003C0069006600280065007100750061006C00280048006F006C0065003A007400610070007000650064002C0022003000220029002C00220025002500630022002C
311
0048006F006C0065003A006E006F006D0069006E0061006C002000220020002200200069006600280065007100750061006C00280048006F006C0065003A0075006E006900740073002C0022003100220029002C002200780022002C0022002D0022002900200022002000220029003E003C00690066002800650071007500
311
61006C00280048006F006C0065003A007400610070007000650064002C0022003000220029002C0048006F006C0065003A006400690061002C0048006F006C0065003A0070006900740063006800640065007300630029003E0020007B005C00460041004D004700440054003B0078007D0020003C00690066002800650071
311
00750061006C00280048006F006C0065003A007400650072006D0069006E006100740069006F006E002C0022003000220029002C0048006F006C0065003A00640065007000740068002C0022005400480052005500220029003E005C0050007B005C00460041004D004700440054003B0077007D002500250063003C004800
311
6F006C0065003A00630074006400690061003E002000580020003C0048006F006C0065003A006300740061006E0067006C0065003E0025002500640042950019401B401C001B0018401D00194008000C401CF3D003C0069006600280065007100750061006C00280048006F006C0065003A007400610070007000650064002
311
C0022003000220029002C00220025002500630022002C0048006F006C0065003A006E006F006D0069006E0061006C002000220020002200200069006600280065007100750061006C00280048006F006C0065003A0075006E006900740073002C0022003100220029002C002200780022002C0022002D00220029002000220
311
02000220029003E003C0069006600280065007100750061006C00280048006F006C0065003A007400610070007000650064002C0022003000220029002C0048006F006C0065003A006400690061002C0048006F006C0065003A0070006900740063006800640065007300630029003E005C0050007B005C00460041004D004
311
700440054003B0078007D0020003C0069006600280065007100750061006C00280048006F006C0065003A007400650072006D0069006E006100740069006F006E002C0022003000220029002C0048006F006C0065003A00640065007000740068002C0022005400480052005500220029003E0042950019401B401C001B001
311
8401D00194008000C801173D003C0053005400440050003A0044004500530043003E0020003C0053005400440050003A005300540044003E0042950019401B401C001B0018401D00194008000C4010C3D003C0053005400440050003A0044004500530043003E0042950019401B401C001B0018401D00194008000CC010B3D
311
003C0053005400440050003A005300540044003E0000
161
               667
310
6DCB81E85EB51B8BE3F2E07A17AD46E2F8FE23000030C02000000300012AFA1080A17480A15480A0480A0280E9014050340501407480A0280A0280A03A405014790340501D20280A901405481A028AD556DEA06C
360
240
330
240
360
241
330
241
360
23F
330
23F
360
23D
360
23C
360
23E
330
23D
330
23C
330
23E
 94
        0
  0
ACAD_PROXY_OBJECT
  5
219
330
20D
100
AcDbProxyObject
 90
      499
 91
      566
 71
    29
 97
      226
 70
     0
162
                26
311
404E800C
161
               305
310
6DCB81E85EB51B8BE3F2E07A17AD46E2F8FE23000030C02000000300012AFA1680A0280D55554C
 94
        0
  0
ACAD_PROXY_OBJECT
  5
21A
330
20D
100
AcDbProxyObject
 90
      499
 91
      567
 71
    29
 97
      226
 70
     0
162
              1098
311
510F400F0014C015001480154010C015000E8010C013C01340140017C013801040134011400F8008000F0014C015001480154010C015000E8015801240114015C017C013801040134011400F80080015801240114015C01700140014C010C010401300114008000F0014C015001480154010C015000E8014C0158017C014C0
311
10C01040130011400F800C
161
               332
310
6DCB81E85EB51B8CE3F2E07A17AD46E2F8FE07800030C02000000300012AFA02808000000000001D07FC
340
11
 94
        0
  0
ACAD_PROXY_OBJECT
  5
21B
330
20D
100
AcDbProxyObject
 90
      499
 91
      568
 71
    29
 97
      226
 70
     0
162
                 0
161
               253
310
6DC000000000000F0BF0000000000003C2FE0000003200200000032002020754
340
220
 94
        0
  0
ACAD_PROXY_OBJECT
  5
21C
330
20D
100
AcDbProxyObject
 90
      499
 91
      569
 71
    29
 97
      226
 70
     0
162
               142
311
408F000F801023C003E0040DB0018C00CC00
161
               400
310
6DC000000000000F0BF0000000000003C2FE00000032002000000320020208000000000000701F8000000000001C07E7FFFC00
340
21D
340
0
340
0
340
22D
340
22E
340
0
340
22F
340
230
340
235
340
0
340
22E
340
0
 94
        0
  0
ACAD_PROXY_OBJECT
  5
236
330
20D
100
AcDbProxyObject
 90
      499
 91
      571
 71
    29
 97
      226
 70
     0
162
             20912
311
44D300124014C01500080013C01180080010C013C013C0148011001240138010401500114014C0142470045004E0054005200410043004F002C0045004E0055002C0030002C004C0049005300540020004F004600200043004F004F005200440049004E0041005400450053002C00470045004E00540052004100540058002
311
C00250073002C002800470045004E004D00530047002000670065006E00640069006D007A00200033003000290043CF400F0011001940198018401D401B001D0015001A401D001B0019400F8010A48004F004C00450020005400410042004C0045004E51C01140138015001480104010C013C00B001140138015400B000C00
311
0B00120013C0130011400800150010401080130011400B0011C011401380150014801040150016000B0009401CC00B000A0011C011401380134014C011C0080019C019401B8019001A401B401E8008000CC00C400A4010F3D003C00440065006600610075006C0074005400690074006C0065003E004193C01480124011C01
311
2401380134470045004E0054005200410043004F002C0045004E0055002C0030002C004F0052004900470049004E002C00470045004E00540052004100540058002C00250073002C002800470045004E004D00530047002000670065006E00640069006D007A002000310029004193C01480124011C0124013801344700450
311
04E0054005200410043004F002C0045004E0055002C0030002C004F0052004900470049004E002C00470045004E00540052004100540058002C00250073002C002800470045004E004D00530047002000670065006E00640069006D007A0020003100290041120013C013001140132470045004E0054005200410043004F00
311
2C0045004E0055002C0030002C0048004F004C0045002C00470045004E00540052004100540058002C00250073002C002800470045004E004D00530047002000670065006E00640069006D007A00200032002900538F400F00124011800A00124014C0108013001040138012C00A0012001BC01B00194012401D0019401B40
311
0A400B0013C01C801A4019C01A401B800B00080012001BC01B00194012401D0019401B400A400F800F00124011800A00124014C0108013001040138012C00A0012001BC01B00194012401D0019401B400A400B00088008800B00080012001BC01B00194012401B80190019401E000A400F8010158004BD1C01140138015001
311
480104010C013C00B001140138015400B000C000B0016000B0011C011401380150014801040150016000B0009401CC00B000A0011C011401380134014C011C0080019C019401B8019001A401B401E8008000CC00A4010159004BD1C01140138015001480104010C013C00B001140138015400B000C000B0016400B0011C011
311
401380150014801040150016000B0009401CC00B000A0011C011401380134014C011C0080019C019401B8019001A401B401E8008000D000A4010152004BD1C01140138015001480104010C013C00B001140138015400B000C000B0014800B0011C011401380150014801040150016000B0009401CC00B000A0011C01140138
311
0134014C011C0080019C019401B8019001A401B401E8008000D800A401187B005C004600530059004D0042004F004C007C00420030007C00490030007C00430032007C00500030003B004A007D005191C01140138015001480104010C013C00B001140138015400B000C000B001EC01700118014C016401340108013C01300
311
1F0010800C001F0012400C001F0010C00C801F0014000C000EC012801F400B0011C011401380150014801040150016000B0009401CC00B000A0011C011401380134014C011C0080019C019401B8019001A401B401E8008000DC00A401032500250043004C51C01140138015001480104010C013C00B001140138015400B000
311
C000B000940094010C00B0011C011401380150014801040150016000B0009401CC00B000A0011C011401380134014C011C0080019C019401B8019001A401B401E8008000E000A4010B4400450053004300520049005000540049004F004E004E91C01140138015001480104010C013C00B001140138015400B000C000B0011
311
00114014C010C01480124014001500124013C013800B0011C011401380150014801040150016000B0009401CC00B000A0011C011401380134014C011C0080019C019401B8019001A401B401E8008000C800C000A401044900540045004D004CD1C01140138015001480104010C013C00B001140138015400B000C000B00124
311
01500114013400B0011C011401380150014801040150016000B0009401CC00B000A0011C011401380134014C011C0080019C019401B8019001A401B401E8008000C400D000A4010549004E004400450058004D11C01140138015001480104010C013C00B001140138015400B000C000B00124013801100114016000B0011C0
311
11401380150014801040150016000B0009401CC00B000A0011C011401380134014C011C0080019C019401B8019001A401B401E8008000C400D400A4010448004F004C0045004CD1C01140138015001480104010C013C00B001140138015400B000C000B00120013C0130011400B0011C011401380150014801040150016000
311
B0009401CC00B000A0011C011401380134014C011C0080019C019401B8019001A401B401E8008000C400D800A4010A48004F004C004500200049004E004400450058004E51C01140138015001480104010C013C00B001140138015400B000C000B00120013C0130011400800124013801100114016000B0011C01140138015
311
0014801040150016000B0009401CC00B000A0011C011401380134014C011C0080019C019401B8019001A401B401E8008000C400DC00A40109550053004500520020004900540045004D004E11C01140138015001480104010C013C00B001140138015400B000C000B00154014C011401480080012401500114013400B0011C
311
011401380150014801040150016000B0009401CC00B000A0011C011401380134014C011C0080019C019401B8019001A401B401E8008000C800C800A401035100540059004C91C01140138015001480104010C013C00B001140138015400B000C000B001440150016400B0011C011401380150014801040150016000B000940
311
1CC00B000A0011C011401380134014C011C0080019C019401B8019001A401B401E8008000C400E400A401085300540041004E0044004100520044004DD1C01140138015001480104010C013C00B001140138015400B000C000B0014C015001040138011001040148011000B0011C011401380150014801040150016000B000
311
9401CC00B000A0011C011401380134014C011C0080019C019401B8019001A401B401E8008000C800C400A4014E3D003C004900460028004900530042004C0041004E004B00280048006F006C0065004900740065006D0029002C004F0072006900670069006E002C00200048006F006C0065004900740065006D0029003E00
311
3C004900460028004900530042004C0041004E004B00280048006F006C0065004900740065006D0029002C00220022002C00200048006F006C00650049006E0064006500780029003E00CC
161
              7065
310
6DC000000000000F0BF0000000000003C2FE00000032002000000320020246352020600005C0F42F5A8DC5F1FC46000061806808180001703D0BD6A3717C7F118000186018080F0201800000000000000000000000000000000F6295C8FC2F5487E5C0F42F5A8DC5F1FC46000061800F6295C8FC2F5487E5C0F42F5A8DC5F1
310
FC4600006180403F8080F0201800000000000000000000000000000000F6295C8FC2F5487E5C0F42F5A8DC5F1FC46000061800F6295C8FC2F5487E5C0F42F5A8DC5F1FC4600006180403FA1C8821E88A0481A0882A0E862028722489A2A82A2483A288621A880000808000808200110A000101000101040021F40002020202
310
020800446800040400040400008150000808000808000103A0001010001010000209400020200020206004168000404000404040083D000080800080020010CA0001010001010500A0340002020002020A0143A800040400040410008950000808000808280113A000101000101050022B40002020002020C0045280004040
310
00400100086D22000CFFFFFFFF0026A6666666667A4FE7FFFFFFF819353333333333D27F3FFFFFFFC049A9999999999E93F9FFFFFFFE024D4CCCCCCCCCF49FCFFFFFFFF0226A6666666667A4FE7FFFFFFF811353333333333D27F3FFFFFFFC0D9FFFFFFFE0600000000000000204FFFFFFFF0026A666666666764FE7FFFFFF
310
F801353333333333D27F3FFFFFFFC009A9999999999E93F9FFFFFFFE004D4CCCCCCCCCF49FCFFFFFFFF0026A6666666667A4FE7FFFFFFF819703D0BD6A371BC7F3FFFFFFFC0C67666666666606409FFFFFFFE880033FFFFFFFC009A9999999999E93F9FFFFFFFE064D4CCCCCCCCCF49FCFFFFFFFF0326A6666666667A4FE7F
310
FFFFFF819353333333333D27F3FFFFFFFC0C9A9999999999E93F9FFFFFFFE064D4CCCCCCCCCF49FCFFFFFFFF0367FFFFFFF81800000000000000813FFFFFFFC009A9999999999D93F9FFFFFFFE004D4CCCCCCCCCF49FCFFFFFFFF0326A6666666667A4FE7FFFFFFF801353333333333D27F3FFFFFFFC009A9999999999E93F
310
9FFFFFFFE065C0F42F5A8DC6F1FCFFFFFFFF0319D999999999819027FFFFFFFA088800000021E000000890000002260000008220E00020089000000206000200810000801FFFFFFFE812020002822200000008780000022400000089800000206000082220000000878000002240000008A8000001FFFFFFFF4C
340
0
340
0
340
0
340
0
340
11
340
11
 94
        0
  0
ACAD_PROXY_OBJECT
  5
237
330
20D
100
AcDbProxyObject
 90
      499
 91
      572
 71
    29
 97
      226
 70
     0
162
             10568
311
411040138014C0124010641004E00530049005F004300429040138014C0124017C0150012401500154014C011541004E00530049005F00420052005F005200650076006900730069006F006E006C0069007300740061004450C008000A000C400DC00B800C001E000C800C800B800C001A401B8018C01A000A4010641004E0
311
0530049005F00430044518008000A000C800E000B800C001E000D000C000B800C001A401B8018C01A000A4010641004E00530049005F00460044508008000A000C400C400B800C001E000C400DC00B800C001A401B8018C01A000A4010641004E00530049005F00420044510008000A000C800C800B800C001E000CC00D000
311
B800C001A401B8018C01A000A4010641004E00530049005F00440044514008000A000CC00D000B800C001E000D000D000B800C001A401B8018C01A000A4010641004E00530049005F00450044104008000A000E000B800D401E000C400C400B800C001A401B8018C01A000A4010641004E00530049005F00410043954014C0
311
080015001A401D001B001940080010801B001BC018C01AC010A41004E00530049005F005400490054005500530044D0401B801CC01A40080015001A401D001B001940080010801B001BC018C01AC00800110010C010C41004E00530049005F005400490054004C0045004400430044D0401B801CC01A40080015001A401D00
311
1B001940080010801B001BC018C01AC00800104010C010C41004E00530049005F005400490054004C004500410043004490401B801CC01A40080015001A401D001B001940080010801B001BC018C01AC00800104010B41004E00530049005F005400490054004C00450041004490401B801CC01A40080015001A401D001B00
311
1940080010801B001BC018C01AC00800110010B41004E00530049005F005400490054004C004500440044948019401D801A401CC01A401BC01B801B001A401CC01D000800104017C01080148017C011541004E00530049005F00420052005F005200650076006900730069006F006E006C0069007300740061004494801940
311
1D801A401CC01A401BC01B801B001A401CC01D000800104017C01500148017C011541004E00530049005F00540052005F005200650076006900730069006F006E006C00690073007400610044948019401D801A401CC01A401BC01B801B001A401CC01D000800110017C01080148017C011541004E00530049005F00420052
311
005F005200650076006900730069006F006E006C00690073007400640044948019401D801A401CC01A401BC01B801B001A401CC01D000800110017C01500148017C011541004E00530049005F00540052005F005200650076006900730069006F006E006C00690073007400640044948019401D801A401CC01A401BC01B801
311
B001A401CC01D000800104017C01080130017C011541004E00530049005F0042004C005F005200650076006900730069006F006E006C00690073007400610044948019401D801A401CC01A401BC01B801B001A401CC01D000800104017C01500130017C011541004E00530049005F0054004C005F005200650076006900730
311
069006F006E006C00690073007400610044948019401D801A401CC01A401BC01B801B001A401CC01D000800110017C01080130017C011541004E00530049005F0042004C005F005200650076006900730069006F006E006C00690073007400640044948019401D801A401CC01A401BC01B801B001A401CC01D000800110017
311
C01500130017C011541004E00530049005F0054004C005F005200650076006900730069006F006E006C006900730074006400A00
161
               291
310
6DC000000000000F0BF0000000000003C2FE0000003200200000032002032E8320A842054C
 94
        0
  0
ACAD_PROXY_OBJECT
  5
240
330
0
100
AcDbProxyObject
 90
      499
 91
      573
 71
    29
 97
      226
 70
     0
162
              4364
311
42950019401B401C001B0018401D00194008000C40005013D003C0069006600280065007100750061006C00280048006F006C0065003A007400610070007000650064002C0022003000220029002C00220025002500630022002C0048006F006C0065003A006E006F006D0069006E0061006C0020002200200022002000690
311
06600280065007100750061006C00280048006F006C0065003A0075006E006900740073002C0022003100220029002C002200780022002C0022002D0022002900200022002000220029003E003C0069006600280065007100750061006C00280048006F006C0065003A007400610070007000650064002C002200300022002
311
9002C0048006F006C0065003A006400690061002C0048006F006C0065003A0070006900740063006800640065007300630029003E0020007B005C00460041004D004700440054003B0078007D0020003C0069006600280065007100750061006C00280048006F006C0065003A007400650072006D0069006E0061007400690
311
06F006E002C0022003000220029002C0048006F006C0065003A00640065007000740068002C0022005400480052005500220029003E005C0050007B005C00460041004D004700440054003B0076007D002500250063003C0048006F006C0065003A00630074006400690061003E0020007B005C00460041004D00470044005
311
4003B0078007D0020003C0048006F006C0065003A0063007400640065007000740068003E00C
161
                29
310
6DE0101C
 94
        0
  0
ACAD_PROXY_OBJECT
  5
241
330
0
100
AcDbProxyObject
 90
      499
 91
      573
 71
    29
 97
      226
 70
     0
162
              4244
311
42950019401B401C001B0018401D00194008000C401FE3D003C0069006600280065007100750061006C00280048006F006C0065003A007400610070007000650064002C0022003000220029002C00220025002500630022002C0048006F006C0065003A006E006F006D0069006E0061006C002000220020002200200069006
311
600280065007100750061006C00280048006F006C0065003A0075006E006900740073002C0022003100220029002C002200780022002C0022002D0022002900200022002000220029003E003C0069006600280065007100750061006C00280048006F006C0065003A007400610070007000650064002C00220030002200290
311
02C0048006F006C0065003A006400690061002C0048006F006C0065003A0070006900740063006800640065007300630029003E0020007B005C00460041004D004700440054003B0078007D0020003C0069006600280065007100750061006C00280048006F006C0065003A007400650072006D0069006E006100740069006
311
F006E002C0022003000220029002C0048006F006C0065003A00640065007000740068002C0022005400480052005500220029003E005C0050007B005C00460041004D004700440054003B0077007D002500250063003C0048006F006C0065003A00630074006400690061003E002000580020003C0048006F006C0065003A0
311
06300740061006E0067006C0065003E00250025006400C
161
                29
310
6DE0101C
 94
        0
  0
ACAD_PROXY_OBJECT
  5
23F
330
0
100
AcDbProxyObject
 90
      499
 91
      573
 71
    29
 97
      226
 70
     0
162
              3492
311
42950019401B401C001B0018401D00194008000C401CF3D003C0069006600280065007100750061006C00280048006F006C0065003A007400610070007000650064002C0022003000220029002C00220025002500630022002C0048006F006C0065003A006E006F006D0069006E0061006C002000220020002200200069006
311
600280065007100750061006C00280048006F006C0065003A0075006E006900740073002C0022003100220029002C002200780022002C0022002D0022002900200022002000220029003E003C0069006600280065007100750061006C00280048006F006C0065003A007400610070007000650064002C00220030002200290
311
02C0048006F006C0065003A006400690061002C0048006F006C0065003A0070006900740063006800640065007300630029003E005C0050007B005C00460041004D004700440054003B0078007D0020003C0069006600280065007100750061006C00280048006F006C0065003A007400650072006D0069006E00610074006
311
9006F006E002C0022003000220029002C0048006F006C0065003A00640065007000740068002C0022005400480052005500220029003E00C
161
                29
310
6DE0101C
 94
        0
  0
ACAD_PROXY_OBJECT
  5
23D
330
0
100
AcDbProxyObject
 90
      499
 91
      573
 71
    29
 97
      226
 70
     0
162
               548
311
42950019401B401C001B0018401D00194008000C801173D003C0053005400440050003A0044004500530043003E0020003C0053005400440050003A005300540044003E00C
161
                29
310
6DE01014
 94
        0
  0
ACAD_PROXY_OBJECT
  5
23C
330
0
100
AcDbProxyObject
 90
      499
 91
      573
 71
    29
 97
      226
 70
     0
162
               372
311
42950019401B401C001B0018401D00194008000C4010C3D003C0053005400440050003A0044004500530043003E00C
161
                29
310
6DE0101C
 94
        0
  0
ACAD_PROXY_OBJECT
  5
23E
330
0
100
AcDbProxyObject
 90
      499
 91
      573
 71
    29
 97
      226
 70
     0
162
               356
311
42950019401B401C001B0018401D00194008000CC010B3D003C0053005400440050003A005300540044003E00C
161
                29
310
6DE01014
 94
        0
  0
ENDSEC
  0
SECTION
  2
ACDSDATA
 70
     2
 71
     8
  0
ACDSSCHEMA
 90
        0
  1
AcDb_Thumbnail_Schema
  2
AcDbDs::ID
280
    10
 91
        8
  2
Thumbnail_Data
280
    15
 91
        0
101
ACDSRECORD
 95
        0
 90
        1
  2
AcDbDs::TreatedAsObjectData
280
     1
291
     1
101
ACDSRECORD
 95
        0
 90
        2
  2
AcDbDs::Legacy
280
     1
291
     1
101
ACDSRECORD
  1
AcDbDs::ID
 90
        3
  2
AcDs:Indexable
280
     1
291
     1
101
ACDSRECORD
  1
AcDbDs::ID
 90
        4
  2
AcDbDs::HandleAttribute
280
     7
282
     1
  0
ACDSSCHEMA
 90
        1
  1
AcDbDs::TreatedAsObjectDataSchema
  2
AcDbDs::TreatedAsObjectData
280
     1
 91
        0
  0
ACDSSCHEMA
 90
        2
  1
AcDbDs::LegacySchema
  2
AcDbDs::Legacy
280
     1
 91
        0
  0
ACDSSCHEMA
 90
        3
  1
AcDbDs::IndexedPropertySchema
  2
AcDs:Indexable
280
     1
 91
        0
  0
ACDSSCHEMA
 90
        4
  1
AcDbDs::HandleAttributeSchema
  2
AcDbDs::HandleAttribute
280
     7
 91
        1
284
     1
  0
ACDSRECORD
 90
        0
  2
AcDbDs::ID
280
    10
320
22
  2
Thumbnail_Data
280
    15
 94
     1129
310
89504E470D0A1A0A0000000D49484452000001000000006F08030000003479EE6F00000300504C5445212830FFFFFF2128300000000000000000000000000000000000000000000000000000330000660000990000CC0000FF0033000033330033660033990033CC0033FF0066000066330066660066990066CC0066FF0099
310
000099330099660099990099CC0099FF00CC0000CC3300CC6600CC9900CCCC00CCFF00FF0000FF3300FF6600FF9900FFCC00FFFF3300003300333300663300993300CC3300FF3333003333333333663333993333CC3333FF3366003366333366663366993366CC3366FF3399003399333399663399993399CC3399FF33CC00
310
33CC3333CC6633CC9933CCCC33CCFF33FF0033FF3333FF6633FF9933FFCC33FFFF6600006600336600666600996600CC6600FF6633006633336633666633996633CC6633FF6666006666336666666666996666CC6666FF6699006699336699666699996699CC6699FF66CC0066CC3366CC6666CC9966CCCC66CCFF66FF0066
310
FF3366FF6666FF9966FFCC66FFFF9900009900339900669900999900CC9900FF9933009933339933669933999933CC9933FF9966009966339966669966999966CC9966FF9999009999339999669999999999CC9999FF99CC0099CC3399CC6699CC9999CCCC99CCFF99FF0099FF3399FF6699FF9999FFCC99FFFFCC0000CC00
310
33CC0066CC0099CC00CCCC00FFCC3300CC3333CC3366CC3399CC33CCCC33FFCC6600CC6633CC6666CC6699CC66CCCC66FFCC9900CC9933CC9966CC9999CC99CCCC99FFCCCC00CCCC33CCCC66CCCC99CCCCCCCCCCFFCCFF00CCFF33CCFF66CCFF99CCFFCCCCFFFFFF0000FF0033FF0066FF0099FF00CCFF00FFFF3300FF3333
310
FF3366FF3399FF33CCFF33FFFF6600FF6633FF6666FF6699FF66CCFF66FFFF9900FF9933FF9966FF9999FF99CCFF99FFFFCC00FFCC33FFCC66FFCC99FFCCCCFFCCFFFFFF00FFFF33FFFF66FFFF99FFFFCCFFFFFF0000000D0D0D1A1A1A2828283535354343435050505D5D5D6B6B6B787878868686939393A1A1A1AEAEAEBB
310
BBBBC9C9C9D6D6D6E4E4E4F1F1F1FFFFFF0000000000000000000000000000000000000000000000000000000000002E4550F1000001244944415478DAEDD94B0E83300C05C0DEFFBED9B72B5429868456081CCFAC5AD40F798043F0EB05000070A47D08002A5F02021000D5A7C18D000440ED33E0368E03DC5A03AEFE8727
310
DF83FE1A40F4A5FE97E242F7A80AF8DB2E04FB3E1CEA4303F86FF21C0610BF6CE957632D184834220108400002F82A927100192368FD14DAA289356D00E104F76700A92E81E8E46E956A8000BECFF81A011C3CA539A8010B073077E3BFD26268E7C06D6F9BD520DD318C36C61F9DFB0501244B60EEE9D2DE40735FFDE50300
310
4E948BF1822BE3B066875A3A008D119DA1A40F448601ACFE44480002281EC0157D81C48D916E3002D018593F80FEE42ED71869134570E100E66681952E018D11385D31464BE4DDAD4B76864A05A031329F0A0000000000000000708137CDE0854A34DD59110000000049454E44AE426082
  0
ACDSRECORD
 90
        0
  2
AcDbDs::ID
280
    10
320
1E
  2
Thumbnail_Data
280
    15
 94
     1154
310
89504E470D0A1A0A0000000D4948445200000100000000C508030000008CFEDCE700000300504C5445FFFFFF000000FFFFFF0000000000000000000000000000000000000000000000000000330000660000990000CC0000FF0033000033330033660033990033CC0033FF0066000066330066660066990066CC0066FF0099
310
000099330099660099990099CC0099FF00CC0000CC3300CC6600CC9900CCCC00CCFF00FF0000FF3300FF6600FF9900FFCC00FFFF3300003300333300663300993300CC3300FF3333003333333333663333993333CC3333FF3366003366333366663366993366CC3366FF3399003399333399663399993399CC3399FF33CC00
310
33CC3333CC6633CC9933CCCC33CCFF33FF0033FF3333FF6633FF9933FFCC33FFFF6600006600336600666600996600CC6600FF6633006633336633666633996633CC6633FF6666006666336666666666996666CC6666FF6699006699336699666699996699CC6699FF66CC0066CC3366CC6666CC9966CCCC66CCFF66FF0066
310
FF3366FF6666FF9966FFCC66FFFF9900009900339900669900999900CC9900FF9933009933339933669933999933CC9933FF9966009966339966669966999966CC9966FF9999009999339999669999999999CC9999FF99CC0099CC3399CC6699CC9999CCCC99CCFF99FF0099FF3399FF6699FF9999FFCC99FFFFCC0000CC00
310
33CC0066CC0099CC00CCCC00FFCC3300CC3333CC3366CC3399CC33CCCC33FFCC6600CC6633CC6666CC6699CC66CCCC66FFCC9900CC9933CC9966CC9999CC99CCCC99FFCCCC00CCCC33CCCC66CCCC99CCCCCCCCCCFFCCFF00CCFF33CCFF66CCFF99CCFFCCCCFFFFFF0000FF0033FF0066FF0099FF00CCFF00FFFF3300FF3333
310
FF3366FF3399FF33CCFF33FFFF6600FF6633FF6666FF6699FF66CCFF66FFFF9900FF9933FF9966FF9999FF99CCFF99FFFFCC00FFCC33FFCC66FFCC99FFCCCCFFCCFFFFFF00FFFF33FFFF66FFFF99FFFFCCFFFFFF0000000D0D0D1A1A1A2828283535354343435050505D5D5D6B6B6B787878868686939393A1A1A1AEAEAEBB
310
BBBBC9C9C9D6D6D6E4E4E4F1F1F1FFFFFF000000000000000000000000000000000000000000000000000000000000790CAC0F0000013D4944415478DAEDD6310A84301445D1EC7F99D9C0AFD22B922208218558BD732BF9530847065EEBC95555EB233700F100F79F000080F9F4B4FEB4B6BBF7D37DFC74FFFEE21740DEC7
310
07000000000000005882000000000000008074005318000000000000000000000000000000001007101A0000000000000000802508000000000000000000000000000000000804080D00000000000000000080290C00000000000000000000000000000004028406000000000000000000C014060000000000000000000000
310
0000000002014203000000000000000000600A0300000000000000000000000000000000F20042030000000000000000B00401000000000000000000000000000000008100A101000000000000000058820000000000004034C06C9D086BBB7B3FDDC74FF7EF2FB60401000000E001C8AE5A5545035C24F1F5340517BCD300
310
00000049454E44AE426082
  0
ACDSRECORD
 90
        0
  2
AcDbDs::ID
280
    10
320
26
  2
Thumbnail_Data
280
    15
 94
     1154
310
89504E470D0A1A0A0000000D4948445200000100000000C508030000008CFEDCE700000300504C5445FFFFFF000000FFFFFF0000000000000000000000000000000000000000000000000000330000660000990000CC0000FF0033000033330033660033990033CC0033FF0066000066330066660066990066CC0066FF0099
310
000099330099660099990099CC0099FF00CC0000CC3300CC6600CC9900CCCC00CCFF00FF0000FF3300FF6600FF9900FFCC00FFFF3300003300333300663300993300CC3300FF3333003333333333663333993333CC3333FF3366003366333366663366993366CC3366FF3399003399333399663399993399CC3399FF33CC00
310
33CC3333CC6633CC9933CCCC33CCFF33FF0033FF3333FF6633FF9933FFCC33FFFF6600006600336600666600996600CC6600FF6633006633336633666633996633CC6633FF6666006666336666666666996666CC6666FF6699006699336699666699996699CC6699FF66CC0066CC3366CC6666CC9966CCCC66CCFF66FF0066
310
FF3366FF6666FF9966FFCC66FFFF9900009900339900669900999900CC9900FF9933009933339933669933999933CC9933FF9966009966339966669966999966CC9966FF9999009999339999669999999999CC9999FF99CC0099CC3399CC6699CC9999CCCC99CCFF99FF0099FF3399FF6699FF9999FFCC99FFFFCC0000CC00
310
33CC0066CC0099CC00CCCC00FFCC3300CC3333CC3366CC3399CC33CCCC33FFCC6600CC6633CC6666CC6699CC66CCCC66FFCC9900CC9933CC9966CC9999CC99CCCC99FFCCCC00CCCC33CCCC66CCCC99CCCCCCCCCCFFCCFF00CCFF33CCFF66CCFF99CCFFCCCCFFFFFF0000FF0033FF0066FF0099FF00CCFF00FFFF3300FF3333
310
FF3366FF3399FF33CCFF33FFFF6600FF6633FF6666FF6699FF66CCFF66FFFF9900FF9933FF9966FF9999FF99CCFF99FFFFCC00FFCC33FFCC66FFCC99FFCCCCFFCCFFFFFF00FFFF33FFFF66FFFF99FFFFCCFFFFFF0000000D0D0D1A1A1A2828283535354343435050505D5D5D6B6B6B787878868686939393A1A1A1AEAEAEBB
310
BBBBC9C9C9D6D6D6E4E4E4F1F1F1FFFFFF000000000000000000000000000000000000000000000000000000000000790CAC0F0000013D4944415478DAEDD6310A84301445D1EC7F99D9C0AFD22B922208218558BD732BF9530847065EEBC95555EB233700F100F79F000080F9F4B4FEB4B6BBF7D37DFC74FFFEE21740DEC7
310
07000000000000005882000000000000008074005318000000000000000000000000000000001007101A0000000000000000802508000000000000000000000000000000000804080D00000000000000000080290C00000000000000000000000000000004028406000000000000000000C014060000000000000000000000
310
0000000002014203000000000000000000600A0300000000000000000000000000000000F20042030000000000000000B00401000000000000000000000000000000008100A101000000000000000058820000000000004034C06C9D086BBB7B3FDDC74FF7EF2FB60401000000E001C8AE5A5545035C24F1F5340517BCD300
310
00000049454E44AE426082
  0
ENDSEC
  0
EOF
