  0
SECTION
  2
HEADER
  9
$ACADVER
  1
AC1027
  9
$ACADMAINTVER
 70
   125
  9
$DWGCODEPAGE
  3
ANSI_1252
  9
$LASTSAVEDBY
  1
carolina.coriani
  9
$REQUIREDVERSIONS
160
                 0
  9
$INSBASE
 10
0.0
 20
0.0
 30
0.0
  9
$EXTMIN
 10
-36.62717300348004
 20
1769.440713140104
 30
0.0
  9
$EXTMAX
 10
10290.86512025204
 20
6402.369215259891
 30
0.0
  9
$LIMMIN
 10
0.0
 20
0.0
  9
$LIMMAX
 10
12.0
 20
9.0
  9
$ORTHOMODE
 70
     0
  9
$REGENMODE
 70
     1
  9
$FILLMODE
 70
     1
  9
$QTEXTMODE
 70
     0
  9
$MIRRTEXT
 70
     0
  9
$LTSCALE
 40
1.0
  9
$ATTMODE
 70
     1
  9
$TEXTSIZE
 40
0.2
  9
$TRACEWID
 40
0.05
  9
$TEXTSTYLE
  7
Standard
  9
$CLAYER
  8
0
  9
$CELTYPE
  6
ByLayer
  9
$CECOLOR
 62
   256
  9
$CELTSCALE
 40
1.0
  9
$DISPSILH
 70
     0
  9
$DIMSCALE
 40
1.0
  9
$DIMASZ
 40
0.18
  9
$DIMEXO
 40
0.0625
  9
$DIMDLI
 40
0.38
  9
$DIMRND
 40
0.0
  9
$DIMDLE
 40
0.0
  9
$DIMEXE
 40
0.18
  9
$DIMTP
 40
0.0
  9
$DIMTM
 40
0.0
  9
$DIMTXT
 40
0.18
  9
$DIMCEN
 40
0.09
  9
$DIMTSZ
 40
0.0
  9
$DIMTOL
 70
     0
  9
$DIMLIM
 70
     0
  9
$DIMTIH
 70
     1
  9
$DIMTOH
 70
     1
  9
$DIMSE1
 70
     0
  9
$DIMSE2
 70
     0
  9
$DIMTAD
 70
     0
  9
$DIMZIN
 70
     0
  9
$DIMBLK
  1

  9
$DIMASO
 70
     1
  9
$DIMSHO
 70
     1
  9
$DIMPOST
  1

  9
$DIMAPOST
  1

  9
$DIMALT
 70
     0
  9
$DIMALTD
 70
     2
  9
$DIMALTF
 40
25.4
  9
$DIMLFAC
 40
1.0
  9
$DIMTOFL
 70
     0
  9
$DIMTVP
 40
0.0
  9
$DIMTIX
 70
     0
  9
$DIMSOXD
 70
     0
  9
$DIMSAH
 70
     0
  9
$DIMBLK1
  1

  9
$DIMBLK2
  1

  9
$DIMSTYLE
  2
Standard
  9
$DIMCLRD
 70
     0
  9
$DIMCLRE
 70
     0
  9
$DIMCLRT
 70
     0
  9
$DIMTFAC
 40
1.0
  9
$DIMGAP
 40
0.09
  9
$DIMJUST
 70
     0
  9
$DIMSD1
 70
     0
  9
$DIMSD2
 70
     0
  9
$DIMTOLJ
 70
     1
  9
$DIMTZIN
 70
     0
  9
$DIMALTZ
 70
     0
  9
$DIMALTTZ
 70
     0
  9
$DIMUPT
 70
     0
  9
$DIMDEC
 70
     4
  9
$DIMTDEC
 70
     4
  9
$DIMALTU
 70
     2
  9
$DIMALTTD
 70
     2
  9
$DIMTXSTY
  7
Standard
  9
$DIMAUNIT
 70
     0
  9
$DIMADEC
 70
     0
  9
$DIMALTRND
 40
0.0
  9
$DIMAZIN
 70
     0
  9
$DIMDSEP
 70
    46
  9
$DIMATFIT
 70
     3
  9
$DIMFRAC
 70
     0
  9
$DIMLDRBLK
  1

  9
$DIMLUNIT
 70
     2
  9
$DIMLWD
 70
    -2
  9
$DIMLWE
 70
    -2
  9
$DIMTMOVE
 70
     0
  9
$DIMFXL
 40
1.0
  9
$DIMFXLON
 70
     0
  9
$DIMJOGANG
 40
0.7853981633974483
  9
$DIMTFILL
 70
     0
  9
$DIMTFILLCLR
 70
     0
  9
$DIMARCSYM
 70
     0
  9
$DIMLTYPE
  6

  9
$DIMLTEX1
  6

  9
$DIMLTEX2
  6

  9
$DIMTXTDIRECTION
 70
     0
  9
$LUNITS
 70
     2
  9
$LUPREC
 70
     4
  9
$SKETCHINC
 40
0.1
  9
$FILLETRAD
 40
0.0
  9
$AUNITS
 70
     0
  9
$AUPREC
 70
     0
  9
$MENU
  1
.
  9
$ELEVATION
 40
0.0
  9
$PELEVATION
 40
0.0
  9
$THICKNESS
 40
0.0
  9
$LIMCHECK
 70
     0
  9
$CHAMFERA
 40
0.0
  9
$CHAMFERB
 40
0.0
  9
$CHAMFERC
 40
0.0
  9
$CHAMFERD
 40
0.0
  9
$SKPOLY
 70
     0
  9
$TDCREATE
 40
2458166.602800926
  9
$TDUCREATE
 40
2458166.144469780
  9
$TDUPDATE
 40
2458639.514652778
  9
$TDUUPDATE
 40
2458639.097986111
  9
$TDINDWG
 40
0.3196166782
  9
$TDUSRTIMER
 40
0.3196166551
  9
$USRTIMER
 70
     1
  9
$ANGBASE
 50
0.0
  9
$ANGDIR
 70
     0
  9
$PDMODE
 70
     0
  9
$PDSIZE
 40
0.0
  9
$PLINEWID
 40
0.0
  9
$SPLFRAME
 70
     0
  9
$SPLINETYPE
 70
     6
  9
$SPLINESEGS
 70
     8
  9
$HANDSEED
  5
682
  9
$SURFTAB1
 70
     6
  9
$SURFTAB2
 70
     6
  9
$SURFTYPE
 70
     6
  9
$SURFU
 70
     6
  9
$SURFV
 70
     6
  9
$UCSBASE
  2

  9
$UCSNAME
  2

  9
$UCSORG
 10
0.0
 20
0.0
 30
0.0
  9
$UCSXDIR
 10
1.0
 20
0.0
 30
0.0
  9
$UCSYDIR
 10
0.0
 20
1.0
 30
0.0
  9
$UCSORTHOREF
  2

  9
$UCSORTHOVIEW
 70
     0
  9
$UCSORGTOP
 10
0.0
 20
0.0
 30
0.0
  9
$UCSORGBOTTOM
 10
0.0
 20
0.0
 30
0.0
  9
$UCSORGLEFT
 10
0.0
 20
0.0
 30
0.0
  9
$UCSORGRIGHT
 10
0.0
 20
0.0
 30
0.0
  9
$UCSORGFRONT
 10
0.0
 20
0.0
 30
0.0
  9
$UCSORGBACK
 10
0.0
 20
0.0
 30
0.0
  9
$PUCSBASE
  2

  9
$PUCSNAME
  2

  9
$PUCSORG
 10
0.0
 20
0.0
 30
0.0
  9
$PUCSXDIR
 10
1.0
 20
0.0
 30
0.0
  9
$PUCSYDIR
 10
0.0
 20
1.0
 30
0.0
  9
$PUCSORTHOREF
  2

  9
$PUCSORTHOVIEW
 70
     0
  9
$PUCSORGTOP
 10
0.0
 20
0.0
 30
0.0
  9
$PUCSORGBOTTOM
 10
0.0
 20
0.0
 30
0.0
  9
$PUCSORGLEFT
 10
0.0
 20
0.0
 30
0.0
  9
$PUCSORGRIGHT
 10
0.0
 20
0.0
 30
0.0
  9
$PUCSORGFRONT
 10
0.0
 20
0.0
 30
0.0
  9
$PUCSORGBACK
 10
0.0
 20
0.0
 30
0.0
  9
$USERI1
 70
     0
  9
$USERI2
 70
     0
  9
$USERI3
 70
     0
  9
$USERI4
 70
     0
  9
$USERI5
 70
     0
  9
$USERR1
 40
0.0
  9
$USERR2
 40
0.0
  9
$USERR3
 40
0.0
  9
$USERR4
 40
0.0
  9
$USERR5
 40
0.0
  9
$WORLDVIEW
 70
     1
  9
$SHADEDGE
 70
     3
  9
$SHADEDIF
 70
    70
  9
$TILEMODE
 70
     1
  9
$MAXACTVP
 70
    64
  9
$PINSBASE
 10
0.0
 20
0.0
 30
0.0
  9
$PLIMCHECK
 70
     0
  9
$PEXTMIN
 10
0.0
 20
0.0
 30
0.0
  9
$PEXTMAX
 10
0.0
 20
0.0
 30
0.0
  9
$PLIMMIN
 10
0.0
 20
0.0
  9
$PLIMMAX
 10
12.0
 20
9.0
  9
$UNITMODE
 70
     0
  9
$VISRETAIN
 70
     1
  9
$PLINEGEN
 70
     0
  9
$PSLTSCALE
 70
     1
  9
$TREEDEPTH
 70
  3020
  9
$CMLSTYLE
  2
Standard
  9
$CMLJUST
 70
     0
  9
$CMLSCALE
 40
1.0
  9
$PROXYGRAPHICS
 70
     1
  9
$MEASUREMENT
 70
     0
  9
$CELWEIGHT
370
    -1
  9
$ENDCAPS
280
     0
  9
$JOINSTYLE
280
     0
  9
$LWDISPLAY
290
     0
  9
$INSUNITS
 70
     1
  9
$HYPERLINKBASE
  1

  9
$STYLESHEET
  1

  9
$XEDIT
290
     1
  9
$CEPSNTYPE
380
     0
  9
$PSTYLEMODE
290
     1
  9
$FINGERPRINTGUID
  2
{FAC30E4E-F6E6-4662-BC9E-63EC0C2FDA66}
  9
$VERSIONGUID
  2
{0087DE91-DDDE-2B4C-B0E0-66EC73E600B6}
  9
$EXTNAMES
290
     1
  9
$PSVPSCALE
 40
0.0
  9
$OLESTARTUP
290
     0
  9
$SORTENTS
280
   127
  9
$INDEXCTL
280
     0
  9
$HIDETEXT
280
     1
  9
$XCLIPFRAME
280
     2
  9
$HALOGAP
280
     0
  9
$OBSCOLOR
 70
   257
  9
$OBSLTYPE
280
     0
  9
$INTERSECTIONDISPLAY
280
     0
  9
$INTERSECTIONCOLOR
 70
   257
  9
$DIMASSOC
280
     2
  9
$PROJECTNAME
  1

  9
$CAMERADISPLAY
290
     0
  9
$LENSLENGTH
 40
50.0
  9
$CAMERAHEIGHT
 40
0.0
  9
$STEPSPERSEC
 40
2.0
  9
$STEPSIZE
 40
6.0
  9
$3DDWFPREC
 40
2.0
  9
$PSOLWIDTH
 40
0.25
  9
$PSOLHEIGHT
 40
4.0
  9
$LOFTANG1
 40
1.570796326794896
  9
$LOFTANG2
 40
1.570796326794896
  9
$LOFTMAG1
 40
0.0
  9
$LOFTMAG2
 40
0.0
  9
$LOFTPARAM
 70
     7
  9
$LOFTNORMALS
280
     1
  9
$LATITUDE
 40
37.795
  9
$LONGITUDE
 40
-122.394
  9
$NORTHDIRECTION
 40
0.0
  9
$TIMEZONE
 70
 -8000
  9
$LIGHTGLYPHDISPLAY
280
     1
  9
$TILEMODELIGHTSYNCH
280
     1
  9
$CMATERIAL
347
96
  9
$SOLIDHIST
280
     0
  9
$SHOWHIST
280
     1
  9
$DWFFRAME
280
     2
  9
$DGNFRAME
280
     0
  9
$REALWORLDSCALE
290
     1
  9
$INTERFERECOLOR
 62
     1
  9
$INTERFEREOBJVS
345
A3
  9
$INTERFEREVPVS
346
A0
  9
$CSHADOW
280
     0
  9
$SHADOWPLANELOCATION
 40
0.0
  0
ENDSEC
  0
SECTION
  2
CLASSES
  0
CLASS
  1
ACDBDICTIONARYWDFLT
  2
AcDbDictionaryWithDefault
  3
ObjectDBX Classes
 90
        0
 91
        1
280
     0
281
     0
  0
CLASS
  1
DICTIONARYVAR
  2
AcDbDictionaryVar
  3
ObjectDBX Classes
 90
        0
 91
        9
280
     0
281
     0
  0
CLASS
  1
TABLESTYLE
  2
AcDbTableStyle
  3
ObjectDBX Classes
 90
     4095
 91
        1
280
     0
281
     0
  0
CLASS
  1
MATERIAL
  2
AcDbMaterial
  3
ObjectDBX Classes
 90
     1153
 91
        3
280
     0
281
     0
  0
CLASS
  1
VISUALSTYLE
  2
AcDbVisualStyle
  3
ObjectDBX Classes
 90
     4095
 91
       24
280
     0
281
     0
  0
CLASS
  1
SCALE
  2
AcDbScale
  3
ObjectDBX Classes
 90
     1153
 91
       33
280
     0
281
     0
  0
CLASS
  1
MLEADERSTYLE
  2
AcDbMLeaderStyle
  3
ACDB_MLEADERSTYLE_CLASS
 90
     4095
 91
        2
280
     0
281
     0
  0
CLASS
  1
CELLSTYLEMAP
  2
AcDbCellStyleMap
  3
ObjectDBX Classes
 90
     1152
 91
        1
280
     0
281
     0
  0
CLASS
  1
EXACXREFPANELOBJECT
  2
ExAcXREFPanelObject
  3
EXAC_ESW
 90
     1025
 91
        0
280
     0
281
     0
  0
CLASS
  1
NPOCOLLECTION
  2
AcDbImpNonPersistentObjectsCollection
  3
ObjectDBX Classes
 90
     1153
 91
        0
280
     0
281
     0
  0
CLASS
  1
LAYER_INDEX
  2
AcDbLayerIndex
  3
ObjectDBX Classes
 90
        0
 91
        0
280
     0
281
     0
  0
CLASS
  1
SPATIAL_INDEX
  2
AcDbSpatialIndex
  3
ObjectDBX Classes
 90
        0
 91
        0
280
     0
281
     0
  0
CLASS
  1
IDBUFFER
  2
AcDbIdBuffer
  3
ObjectDBX Classes
 90
        0
 91
        0
280
     0
281
     0
  0
CLASS
  1
ACDBSECTIONVIEWSTYLE
  2
AcDbSectionViewStyle
  3
ObjectDBX Classes
 90
     1025
 91
        3
280
     0
281
     0
  0
CLASS
  1
ACDBDETAILVIEWSTYLE
  2
AcDbDetailViewStyle
  3
ObjectDBX Classes
 90
     1025
 91
        3
280
     0
281
     0
  0
CLASS
  1
SORTENTSTABLE
  2
AcDbSortentsTable
  3
ObjectDBX Classes
 90
        0
 91
        0
280
     0
281
     0
  0
CLASS
  1
ACME_DOCUMENT
  2
AcMeDbDoc
  3
AcMeServices
 90
     1024
 91
        2
280
     0
281
     0
  0
CLASS
  1
AMGSETTINGSOBJ
  2
AmgSettingsObj
  3
"AcadM|Product Description: AutoCAD Mechanical|Company: Autodesk, Inc."
 90
     1024
 91
        2
280
     0
281
     0
  0
CLASS
  1
ACMESCOPE
  2
AcMeScope
  3
AcMeServices
 90
     1024
 91
        1
280
     0
281
     0
  0
CLASS
  1
ACMECOMMANDHISTORY
  2
AcMeCommandHistory
  3
AcMeServices
 90
     1024
 91
        1
280
     0
281
     0
  0
CLASS
  1
ACIMSYSVARMAN
  2
AcImSysVarManager
  3
AcMeServices
 90
     1024
 91
        3
280
     0
281
     0
  0
CLASS
  1
ACIMINTSYSVAR
  2
AcImIntSysVar
  3
AcMeServices
 90
     1024
 91
        2
280
     0
281
     0
  0
CLASS
  1
ACMESTATEMGR
  2
AcMeStateMgr
  3
AcMeServices
 90
     1024
 91
        1
280
     0
281
     0
  0
CLASS
  1
ACDBENTITYCACHE
  2
AcMeEntityCache
  3
AcMeServices
 90
     1024
 91
        1
280
     0
281
     0
  0
CLASS
  1
ACGREFMASTER
  2
AcGrefMaster
  3
AcAttribServices
 90
     1024
 91
        1
280
     0
281
     0
  0
CLASS
  1
ACME_DATABASE
  2
AcMeDbDatabase
  3
AcMeServices
 90
     1024
 91
        1
280
     0
281
     0
  0
CLASS
  1
ACRFINSADJUSTERMGR
  2
AcRfInsAdjusterMgr
  3
AcMeServices
 90
     1024
 91
        1
280
     0
281
     0
  0
CLASS
  1
ACGREFACADMASTER
  2
AcGrefacadMaster
  3
AcGrefServices
 90
     1024
 91
        1
280
     0
281
     0
  0
CLASS
  1
AMIMASTER
  2
AmiMaster
  3
AmiServices
 90
     1024
 91
        1
280
     0
281
     0
  0
CLASS
  1
AMDTMENUSTATEMGR
  2
AmdtMenuStateMgr
  3
McadcomServices
 90
     1024
 91
        1
280
     0
281
     0
  0
CLASS
  1
AMDTMCOMMENUSTATE
  2
AmdtMcomMenuState
  3
McadcomServices
 90
     1024
 91
        1
280
     0
281
     0
  0
CLASS
  1
MAPIAMMOUDLE
  2
MApiAmModule
  3
MApiAmServices
 90
     1024
 91
        1
280
     0
281
     0
  0
CLASS
  1
ACIMSTRSYSVAR
  2
AcImStrSysVar
  3
AcMeServices
 90
     1024
 91
        5
280
     0
281
     0
  0
CLASS
  1
AMDTAMMENUSTATE
  2
AmdtAmMenuState
  3
DesignerAssemblies_arx
 90
     1024
 91
        1
280
     0
281
     0
  0
CLASS
  1
ACAMPROJECT
  2
AcAmProject
  3
DesignerAssemblies
 90
     1024
 91
        1
280
     0
281
     0
  0
CLASS
  1
ACAMGRCOMPDEF
  2
AcAmGrCompDef
  3
DesignerAssemblies
 90
     1024
 91
        1
280
     0
281
     0
  0
CLASS
  1
ACAMCOMPDEF
  2
AcAmCompDef
  3
DesignerAssemblies
 90
     1024
 91
        1
280
     0
281
     0
  0
CLASS
  1
ACAMCOMPDEFMGR
  2
AcAmCompDefMgr
  3
DesignerAssemblies
 90
     1024
 91
        1
280
     0
281
     0
  0
CLASS
  1
AMCONTEXTMGR
  2
AcAmContextMgr
  3
DesignerAssemblies
 90
     1024
 91
        1
280
     0
281
     0
  0
CLASS
  1
ACAMCONTEXTMODELER
  2
AcAmContextModeler
  3
DesignerAssemblies
 90
     1024
 91
        1
280
     0
281
     0
  0
CLASS
  1
ACMDATADICTIONARY
  2
AcmDataDictionary
  3
"AcmSymBB|Product Description: AutoCAD Mechanical|Company: Autodesk, Inc."
 90
     1024
 91
        1
280
     0
281
     0
  0
CLASS
  1
ACAMGRCOMPDEFSET
  2
AcAmGrCompDefSet
  3
DesignerAssemblies
 90
     1024
 91
        1
280
     0
281
     0
  0
CLASS
  1
AMDTBROWSERDBTAB
  2
AmdtBrowserDbTab
  3
McadcomServices
 90
     1024
 91
        1
280
     0
281
     0
  0
CLASS
  1
CBROWSERAPPOBJECT
  2
CBrowserAppObject
  3
McadcomServices
 90
     1024
 91
        2
280
     0
281
     0
  0
CLASS
  1
DM_PLACEHOLDER
  2
AcDmSelsetPlaceholder
  3
McadcomServices
 90
     1024
 91
        1
280
     0
281
     0
  0
CLASS
  1
ACMSTANDARDANSI
  2
AcmStandardANSI
  3
"Amdt_StdImp|Product Description: AutoCAD Mechanical|Company: Autodesk, Inc."
 90
     1024
 91
        1
280
     0
281
     0
  0
CLASS
  1
ACMSURFSTANDARDANSI
  2
AcmSurfTextStdANSI
  3
"Amdt_StdImp|Product Description: AutoCAD Mechanical|Company: Autodesk, Inc."
 90
     1024
 91
        1
280
     0
281
     0
  0
CLASS
  1
ACMFCFSTANDARDANSI
  2
AcmFCFStdANSI
  3
"Amdt_StdImp|Product Description: AutoCAD Mechanical|Company: Autodesk, Inc."
 90
     1024
 91
        1
280
     0
281
     0
  0
CLASS
  1
ACMWELDSTANDARDANSI
  2
AcmWeldingStdANSI
  3
"Amdt_StdImp|Product Description: AutoCAD Mechanical|Company: Autodesk, Inc."
 90
     1024
 91
        1
280
     0
281
     0
  0
CLASS
  1
ACMIDSTANDARDANSI
  2
AcmIdStdANSI
  3
"Amdt_StdImp|Product Description: AutoCAD Mechanical|Company: Autodesk, Inc."
 90
     1024
 91
        1
280
     0
281
     0
  0
CLASS
  1
ACMDATUMSTANDARDANSI
  2
AcmDatumStdANSI
  3
"Amdt_StdImp|Product Description: AutoCAD Mechanical|Company: Autodesk, Inc."
 90
     1024
 91
        1
280
     0
281
     0
  0
CLASS
  1
ACMBOMSTANDARDANSI
  2
AcmBOMStdANSI
  3
"Amdt_StdImp|Product Description: AutoCAD Mechanical|Company: Autodesk, Inc."
 90
     1024
 91
        1
280
     0
281
     0
  0
CLASS
  1
ACMDETAILSTANDARDANSI
  2
AmdtDetailSymStdANSI
  3
"Amdt_StdImp|Product Description: AutoCAD Mechanical|Company: Autodesk, Inc."
 90
     1024
 91
        1
280
     0
281
     0
  0
CLASS
  1
ACMSECTIONSTANDARDANSI
  2
AmdtSectionSymStdANSI
  3
"Amdt_StdImp|Product Description: AutoCAD Mechanical|Company: Autodesk, Inc."
 90
     1024
 91
        1
280
     0
281
     0
  0
CLASS
  1
ACMCENTERLINESTANDARDANSI
  2
AmdtCenterLineStdANSI
  3
"Amdt_StdImp|Product Description: AutoCAD Mechanical|Company: Autodesk, Inc."
 90
     1024
 91
        1
280
     0
281
     0
  0
CLASS
  1
ACMTHREADLINESTANDARDANSI
  2
AmdtThreadLineStdANSI
  3
"Amdt_StdImp|Product Description: AutoCAD Mechanical|Company: Autodesk, Inc."
 90
     1024
 91
        1
280
     0
281
     0
  0
CLASS
  1
ACMNOTESTANDARDANSI
  2
AmdtNoteStdANSI
  3
"Amdt_StdImp|Product Description: AutoCAD Mechanical|Company: Autodesk, Inc."
 90
     1024
 91
        1
280
     0
281
     0
  0
CLASS
  1
ACMTAPERSTANDARDANSI
  2
AcmTaperStdANSI
  3
"Amdt_StdImp|Product Description: AutoCAD Mechanical|Company: Autodesk, Inc."
 90
     1024
 91
        1
280
     0
281
     0
  0
CLASS
  1
ACMANOOTATIONVIEWSTANDARDANSI
  2
AmdtAnViewStdANSI
  3
"Amdt_StdImp|Product Description: AutoCAD Mechanical|Company: Autodesk, Inc."
 90
     1024
 91
        1
280
     0
281
     0
  0
CLASS
  1
ACAMGLAYSTD
  2
AcAmgLayStd
  3
"AmgLay|Product Description: AutoCAD Mechanical|Company: Autodesk, Inc."
 90
     1024
 91
        1
280
     0
281
     0
  0
CLASS
  1
ACAMGDIMSTD
  2
AcAmgDimStd
  3
"AmgDim|Product Description: AutoCAD Mechanical|Company: Autodesk, Inc."
 90
     1024
 91
        1
280
     0
281
     0
  0
CLASS
  1
AMGOBJPROPCFG
  2
AmgObjPropCfg
  3
"AmgLay|Product Description: AutoCAD Mechanical|Company: Autodesk, Inc."
 90
     1024
 91
        1
280
     0
281
     0
  0
CLASS
  1
ACAMGHOLECHARTSTDANSI
  2
AcAmgHoleChartStdANSI
  3
"AmgDim" "Product Description: AutoCAD Mechanical|Company: Autodesk, Inc."
 90
     1024
 91
        1
280
     0
281
     0
  0
CLASS
  1
ACAMGTITLESTD
  2
AcAmgTitleStd
  3
"AmgTitle|Product Description: AutoCAD Mechanical|Company: Autodesk, Inc."
 90
     1024
 91
        1
280
     0
281
     0
  0
CLASS
  1
ACMSECTIONSTANDARDCUSTOM
  2
AmdtSectionSymStdCustom
  3
"Amdt_StdImp|Product Description: AutoCAD Mechanical|Company: Autodesk, Inc."
 90
     1024
 91
        2
280
     0
281
     0
  0
CLASS
  1
ACMDETAILTANDARDCUSTOM
  2
AmdtDetailSymStdCustom
  3
"Amdt_StdImp|Product Description: AutoCAD Mechanical|Company: Autodesk, Inc."
 90
     1024
 91
        2
280
     0
281
     0
  0
CLASS
  1
FIELD
  2
AcDbField
  3
ObjectDBX Classes
 90
     1152
 91
        4
280
     0
281
     0
  0
CLASS
  1
FIELDLIST
  2
AcDbFieldList
  3
ObjectDBX Classes
 90
     1152
 91
        1
280
     0
281
     0
  0
CLASS
  1
AMDTNOTETEMPLATEDB
  2
AmdtNoteTemplateDB
  3
"AcmSymBB" "Product Description: AutoCAD Mechanical|Company: Autodesk, Inc."
 90
     1024
 91
        7
280
     0
281
     0
  0
CLASS
  1
ACAMGFILTERDAT
  2
AcAmgFilterDat
  3
"AcadM|Product Description: AutoCAD Mechanical|Company: Autodesk, Inc."
 90
     1024
 91
        6
280
     0
281
     0
  0
CLASS
  1
CAMSSTRUCTBTNSTATE
  2
StructBtnState
  3
DesignerAssemblies_arx
 90
     1024
 91
        1
280
     0
281
     0
  0
ENDSEC
  0
SECTION
  2
TABLES
  0
TABLE
  2
VPORT
  5
8
330
0
100
AcDbSymbolTable
 70
     1
1001
ACAD
1000
DbSaveVer
1071
      123
  0
VPORT
  5
94
330
8
100
AcDbSymbolTableRecord
100
AcDbViewportTableRecord
  2
*Active
 70
     0
 10
0.0
 20
0.0
 11
1.0
 21
1.0
 12
4218.433977177097
 22
3373.604755438547
 13
0.0
 23
0.0
 14
0.5
 24
0.5
 15
0.5
 25
0.5
 16
0.0
 26
0.0
 36
1.0
 17
0.0
 27
0.0
 37
0.0
 40
11978.70756311191
 41
2.153519932145886
 42
50.0
 43
0.0
 44
0.0
 50
0.0
 51
0.0
 71
     0
 72
  1000
 73
     1
 74
     3
 75
     0
 76
     1
 77
     0
 78
     0
281
     0
 65
     1
110
0.0
120
0.0
130
0.0
111
1.0
121
0.0
131
0.0
112
0.0
122
1.0
132
0.0
 79
     0
146
0.0
348
9F
 60
     3
 61
     5
292
     1
282
     1
141
0.0
142
0.0
 63
   250
421
  3355443
1001
ACAD_NAV_VCDISPLAY
1070
     3
  0
ENDTAB
  0
TABLE
  2
LTYPE
  5
5
330
0
100
AcDbSymbolTable
 70
    16
  0
LTYPE
  5
14
330
5
100
AcDbSymbolTableRecord
100
AcDbLinetypeTableRecord
  2
ByBlock
 70
     0
  3

 72
    65
 73
     0
 40
0.0
  0
LTYPE
  5
15
330
5
100
AcDbSymbolTableRecord
100
AcDbLinetypeTableRecord
  2
ByLayer
 70
     0
  3

 72
    65
 73
     0
 40
0.0
  0
LTYPE
  5
16
330
5
100
AcDbSymbolTableRecord
100
AcDbLinetypeTableRecord
  2
Continuous
 70
     0
  3
Solid line
 72
    65
 73
     0
 40
0.0
  0
LTYPE
  5
5B9
330
5
100
AcDbSymbolTableRecord
100
AcDbLinetypeTableRecord
  2
HIDDEN
 70
     0
  3
Hidden __ __ __ __ __ __ __ __ __ __ __ __ __ _
 72
    65
 73
     2
 40
0.375
 49
0.25
 74
     0
 49
-0.125
 74
     0
  0
LTYPE
  5
5BA
330
5
100
AcDbSymbolTableRecord
100
AcDbLinetypeTableRecord
  2
PHANTOM2
 70
     0
  3
Phantom (.5x) ___ _ _ ___ _ _ ___ _ _ ___ _ _
 72
    65
 73
     6
 40
1.25
 49
0.625
 74
     0
 49
-0.125
 74
     0
 49
0.125
 74
     0
 49
-0.125
 74
     0
 49
0.125
 74
     0
 49
-0.125
 74
     0
  0
LTYPE
  5
5BB
330
5
100
AcDbSymbolTableRecord
100
AcDbLinetypeTableRecord
  2
CENTER
 70
     0
  3
Center ____ _ ____ _ ____ _ ____ _ ____ _ ____
 72
    65
 73
     4
 40
2.0
 49
1.25
 74
     0
 49
-0.25
 74
     0
 49
0.25
 74
     0
 49
-0.25
 74
     0
  0
LTYPE
  5
5F4
330
5
100
AcDbSymbolTableRecord
100
AcDbLinetypeTableRecord
  2
AM_ISO02W050
 70
     0
  3
__ __ __ __ __ __ __ __ __ __ __ __ __ __ __
 72
    65
 73
     2
 40
7.5
 49
6.0
 74
     0
 49
-1.5
 74
     0
  0
LTYPE
  5
5F5
330
5
100
AcDbSymbolTableRecord
100
AcDbLinetypeTableRecord
  2
AM_ISO08W050
 70
     0
  3
____ . ____ . ____ . ____ . ____ . ____ . ____
 72
    65
 73
     4
 40
18.0
 49
12.0
 74
     0
 49
-1.5
 74
     0
 49
3.0
 74
     0
 49
-1.5
 74
     0
  0
LTYPE
  5
5F6
330
5
100
AcDbSymbolTableRecord
100
AcDbLinetypeTableRecord
  2
AM_ISO09W050
 70
     0
  3
_____ . . _____ . . _____ . . ____ .. ____
 72
    65
 73
     6
 40
22.5
 49
12.0
 74
     0
 49
-1.5
 74
     0
 49
3.0
 74
     0
 49
-1.5
 74
     0
 49
3.0
 74
     0
 49
-1.5
 74
     0
  0
LTYPE
  5
5F7
330
5
100
AcDbSymbolTableRecord
100
AcDbLinetypeTableRecord
  2
Amconstr
 70
     0
  3
_______________________
 72
    65
 73
     2
 40
9999.0
 49
9999.0
 74
     0
 49
0.0
 74
     0
  0
LTYPE
  5
5F8
330
5
100
AcDbSymbolTableRecord
100
AcDbLinetypeTableRecord
  2
AM_ISO08W050x2
 70
     0
  3
__ . __ . __ . __ . __ . __
 72
    65
 73
     4
 40
9.0
 49
6.0
 74
     0
 49
-0.75
 74
     0
 49
1.5
 74
     0
 49
-0.75
 74
     0
  0
LTYPE
  5
5F9
330
5
100
AcDbSymbolTableRecord
100
AcDbLinetypeTableRecord
  2
AM_ISO02W050x2
 70
     0
  3
 _ _ _ _ _ _ _ _ _ _ _ _
 72
    65
 73
     2
 40
3.75
 49
3.0
 74
     0
 49
-0.75
 74
     0
  0
LTYPE
  5
5FC
330
5
100
AcDbSymbolTableRecord
100
AcDbLinetypeTableRecord
  2
Amzigzag
 70
     0
  3
/\/-/\/-/\/-/\/-/\/-/\/
 72
    65
 73
     2
 40
11.0001
 49
0.0001
 74
     4
 75
   136
340
5FB
 46
0.04
 50
0.0
 44
0.0
 45
0.0
 49
-11.0
 74
     0
  0
LTYPE
  5
5FD
330
5
100
AcDbSymbolTableRecord
100
AcDbLinetypeTableRecord
  2
CENTER2
 70
     0
  3
Center (.5x) ___ _ ___ _ ___ _ ___ _ ___ _ ___
 72
    65
 73
     4
 40
1.125
 49
0.75
 74
     0
 49
-0.125
 74
     0
 49
0.125
 74
     0
 49
-0.125
 74
     0
  0
LTYPE
  5
5FE
330
5
100
AcDbSymbolTableRecord
100
AcDbLinetypeTableRecord
  2
HIDDEN2
 70
     0
  3
Hidden (.5x) _ _ _ _ _ _ _ _ _ _ _ _ _ _ _ _ _
 72
    65
 73
     2
 40
0.1875
 49
0.125
 74
     0
 49
-0.0625
 74
     0
  0
LTYPE
  5
5FF
330
5
100
AcDbSymbolTableRecord
100
AcDbLinetypeTableRecord
  2
Amzigzag2
 70
     0
  3
/\/-/\/-/\/-/\/-/\/-/\/
 72
    65
 73
     2
 40
0.4401
 49
0.0001
 74
     4
 75
   136
340
5FB
 46
0.0016
 50
0.0
 44
0.0
 45
0.0
 49
-0.4400000000000001
 74
     0
  0
LTYPE
  5
611
330
5
100
AcDbSymbolTableRecord
100
AcDbLinetypeTableRecord
  2
ACANSTGB
 70
     0
  3
__ . . __ . .
 72
    65
 73
     6
 40
0.35433070866
 49
0.15748031496
 74
     0
 49
-0.03937007874
 74
     0
 49
0.03937007874
 74
     0
 49
-0.03937007874
 74
     0
 49
0.03937007874
 74
     0
 49
-0.03937007874
 74
     0
  0
LTYPE
  5
612
330
5
100
AcDbSymbolTableRecord
100
AcDbLinetypeTableRecord
  2
ACANSTGL
 70
     0
  3
_ _ _ _ _
 72
    65
 73
     2
 40
0.11811023622
 49
0.07874015748
 74
     0
 49
-0.03937007874
 74
     0
  0
ENDTAB
  0
TABLE
  2
LAYER
  5
2
102
{ACAD_XDICTIONARY
360
18E
102
}
330
0
100
AcDbSymbolTable
 70
     4
  0
LAYER
  5
10
102
{ACAD_XDICTIONARY
360
E6
102
}
330
2
100
AcDbSymbolTableRecord
100
AcDbLayerTableRecord
  2
0
 70
     0
 62
     7
  6
Continuous
370
    -3
390
F
347
98
348
0
  0
LAYER
  5
2EC
330
2
100
AcDbSymbolTableRecord
100
AcDbLayerTableRecord
  2
LINE
 70
     0
 62
     7
  6
Continuous
370
     5
390
F
347
98
348
0
1001
AcAecLayerStandard
1000

1000

1001
AcCmTransparency
1071
        0
  0
LAYER
  5
3D2
330
2
100
AcDbSymbolTableRecord
100
AcDbLayerTableRecord
  2
Dimension (ANSI)
 70
     0
 62
     7
  6
Continuous
370
    25
390
F
347
98
348
0
  0
LAYER
  5
3D3
330
2
100
AcDbSymbolTableRecord
100
AcDbLayerTableRecord
  2
Visible (ANSI)
 70
     0
 62
     7
  6
Continuous
370
    50
390
F
347
98
348
0
  0
ENDTAB
  0
TABLE
  2
STYLE
  5
3
330
0
100
AcDbSymbolTable
 70
     6
  0
STYLE
  5
11
330
3
100
AcDbSymbolTableRecord
100
AcDbTextStyleTableRecord
  2
Standard
 70
     0
 40
0.0
 41
1.0
 50
0.0
 71
     0
 42
0.2
  3
arial.ttf
  4

1001
ACAD
1000
Arial
1071
       34
  0
STYLE
  5
DC
330
3
100
AcDbSymbolTableRecord
100
AcDbTextStyleTableRecord
  2
Annotative
 70
     0
 40
0.0
 41
1.0
 50
0.0
 71
     0
 42
0.2
  3
arial.ttf
  4

1001
AcadAnnotative
1000
AnnotativeData
1002
{
1070
     1
1070
     1
1002
}
1001
ACAD
1000
Arial
1071
       34
  0
STYLE
  5
3D4
330
3
100
AcDbSymbolTableRecord
100
AcDbTextStyleTableRecord
  2
Note Text (ANSI)
 70
     0
 40
0.0
 41
1.0
 50
0.0
 71
     0
 42
0.2
  3
apercu_regular-webfont.ttf
  4

1001
ACAD
1000
Apercu
1071
      256
  0
STYLE
  5
5FB
330
3
100
AcDbSymbolTableRecord
100
AcDbTextStyleTableRecord
  2

 70
     1
 40
0.0
 41
1.0
 50
0.0
 71
     0
 42
0.2
  3
genltshp.shx
  4

  0
STYLE
  5
60F
330
3
100
AcDbSymbolTableRecord
100
AcDbTextStyleTableRecord
  2
ACANSTS
 70
     0
 40
0.0
 41
1.0
 50
0.0
 71
     0
 42
0.2
  3
romans.shx
  4

  0
STYLE
  5
610
330
3
100
AcDbSymbolTableRecord
100
AcDbTextStyleTableRecord
  2
ACANSGDT
 70
     0
 40
0.0
 41
1.0
 50
0.0
 71
     0
 42
0.2
  3
amgdt.shx
  4

  0
ENDTAB
  0
TABLE
  2
VIEW
  5
6
330
0
100
AcDbSymbolTable
 70
     0
  0
ENDTAB
  0
TABLE
  2
UCS
  5
7
330
0
100
AcDbSymbolTable
 70
     0
  0
ENDTAB
  0
TABLE
  2
APPID
  5
9
330
0
100
AcDbSymbolTable
 70
    15
  0
APPID
  5
12
330
9
100
AcDbSymbolTableRecord
100
AcDbRegAppTableRecord
  2
ACAD
 70
     0
  0
APPID
  5
DD
330
9
100
AcDbSymbolTableRecord
100
AcDbRegAppTableRecord
  2
AcadAnnoPO
 70
     0
  0
APPID
  5
DE
330
9
100
AcDbSymbolTableRecord
100
AcDbRegAppTableRecord
  2
AcadAnnotative
 70
     0
  0
APPID
  5
DF
330
9
100
AcDbSymbolTableRecord
100
AcDbRegAppTableRecord
  2
ACAD_DSTYLE_DIMJAG
 70
     0
  0
APPID
  5
E0
330
9
100
AcDbSymbolTableRecord
100
AcDbRegAppTableRecord
  2
ACAD_DSTYLE_DIMTALN
 70
     0
  0
APPID
  5
107
330
9
100
AcDbSymbolTableRecord
100
AcDbRegAppTableRecord
  2
ACAD_MLEADERVER
 70
     0
  0
APPID
  5
1A6
330
9
100
AcDbSymbolTableRecord
100
AcDbRegAppTableRecord
  2
ACAD_NAV_VCDISPLAY
 70
     0
  0
APPID
  5
2ED
330
9
100
AcDbSymbolTableRecord
100
AcDbRegAppTableRecord
  2
AcAecLayerStandard
 70
     0
  0
APPID
  5
2EE
330
9
100
AcDbSymbolTableRecord
100
AcDbRegAppTableRecord
  2
AcCmTransparency
 70
     0
  0
APPID
  5
382
330
9
100
AcDbSymbolTableRecord
100
AcDbRegAppTableRecord
  2
ACAD_EXEMPT_FROM_CAD_STANDARDS
 70
     0
  0
APPID
  5
5B2
330
9
100
AcDbSymbolTableRecord
100
AcDbRegAppTableRecord
  2
MCAD_NO_VIS
 70
     0
  0
APPID
  5
5B3
330
9
100
AcDbSymbolTableRecord
100
AcDbRegAppTableRecord
  2
ACAD_TEMP_GRAPHIC
 70
     0
  0
APPID
  5
5C0
330
9
100
AcDbSymbolTableRecord
100
AcDbRegAppTableRecord
  2
ACATTRIBSERVICES
 70
     0
  0
APPID
  5
5D8
330
9
100
AcDbSymbolTableRecord
100
AcDbRegAppTableRecord
  2
DESIGNERASSEMBLIES
 70
     0
  0
APPID
  5
5F2
330
9
100
AcDbSymbolTableRecord
100
AcDbRegAppTableRecord
  2
ACAD_DSTYLE_DIMBREAK
 70
     0
  0
ENDTAB
  0
TABLE
  2
DIMSTYLE
  5
A
330
0
100
AcDbSymbolTable
 70
     9
100
AcDbDimStyleTable
 71
     2
340
27
340
E1
  0
DIMSTYLE
105
27
330
A
100
AcDbSymbolTableRecord
100
AcDbDimStyleTableRecord
  2
Standard
 70
     0
340
11
  0
DIMSTYLE
105
E1
330
A
100
AcDbSymbolTableRecord
100
AcDbDimStyleTableRecord
  2
Annotative
 70
     0
 40
0.0
340
11
1001
AcadAnnotative
1000
AnnotativeData
1002
{
1070
     1
1070
     1
1002
}
1001
ACAD_DSTYLE_DIMJAG
1070
   388
1040
1.5
1001
ACAD_DSTYLE_DIMTALN
1070
   392
1070
     0
  0
DIMSTYLE
105
3D5
330
A
100
AcDbSymbolTableRecord
100
AcDbDimStyleTableRecord
  2
Default - mm (ANSI)
 70
     0
 40
10.0
 41
2.5
 42
1.600199999999999
 43
5.999999999999999
 44
3.174999999999998
 45
0.00000001
 73
     0
 78
    12
 79
     1
140
3.048000097274779
143
1.0
147
0.8
171
     0
176
   256
177
   256
178
   256
271
     1
272
     2
274
     1
284
     4
285
     4
340
3D4
342
3CE
371
    -1
372
    -1
  0
DIMSTYLE
105
5F1
102
{ACAD_REACTORS
330
5E1
102
}
330
A
100
AcDbSymbolTableRecord
100
AcDbDimStyleTableRecord
  2
AM_ANSI
 70
     0
  4
mm
 41
0.12
 42
0.05
 43
0.5
 44
0.1
 47
0.1
 48
0.1
 78
     7
 79
     2
 90
     1
140
0.12
141
0.0
146
0.71
147
0.06
176
   256
177
   256
178
     2
274
     4
284
     7
340
11
345
14
346
14
347
14
371
    -1
372
    -1
1001
ACAD_DSTYLE_DIMJAG
1070
   388
1040
1.5
1001
ACAD_DSTYLE_DIMBREAK
1070
   391
1040
0.125
  0
DIMSTYLE
105
600
330
A
100
AcDbSymbolTableRecord
100
AcDbDimStyleTableRecord
  2
AM_ANSI$3
 70
     0
  4
mm
 41
0.12
 42
0.05
 43
0.5
 44
0.1
 47
0.1
 48
0.1
 78
     7
 79
     2
 90
     1
140
0.12
141
0.0
146
0.71
147
0.06
176
   256
177
   256
178
     2
274
     4
284
     7
288
     1
289
     0
340
11
345
14
346
14
347
14
371
    -1
372
    -1
1001
ACAD_DSTYLE_DIMBREAK
1070
   391
1040
0.125
1001
ACAD_DSTYLE_DIMJAG
1070
   388
1040
1.5
  0
DIMSTYLE
105
601
330
A
100
AcDbSymbolTableRecord
100
AcDbDimStyleTableRecord
  2
AM_ANSI$4
 70
     0
  4
mm
 41
0.12
 42
0.05
 43
0.5
 44
0.1
 47
0.1
 48
0.1
 78
     7
 79
     2
 90
     1
140
0.12
141
0.0
146
0.71
147
0.06
176
   256
177
   256
178
     2
274
     4
284
     7
288
     1
289
     0
340
11
345
14
346
14
347
14
371
    -1
372
    -1
1001
ACAD_DSTYLE_DIMBREAK
1070
   391
1040
0.125
1001
ACAD_DSTYLE_DIMJAG
1070
   388
1040
1.5
  0
DIMSTYLE
105
602
330
A
100
AcDbSymbolTableRecord
100
AcDbDimStyleTableRecord
  2
AM_ANSI$7
 70
     0
  4
mm
 41
0.12
 42
0.05
 43
0.5
 44
0.1
 47
0.1
 48
0.1
 78
     7
 79
     2
 90
     1
140
0.12
141
0.0
146
0.71
147
0.06
176
   256
177
   256
178
     2
274
     4
284
     7
340
11
345
14
346
14
347
14
371
    -1
372
    -1
1001
ACAD_DSTYLE_DIMBREAK
1070
   391
1040
0.125
1001
ACAD_DSTYLE_DIMJAG
1070
   388
1040
1.5
  0
DIMSTYLE
105
603
330
A
100
AcDbSymbolTableRecord
100
AcDbDimStyleTableRecord
  2
AM_ANSI$SF
 70
     0
  4
mm
 41
0.12
 42
0.05
 43
0.5
 44
0.1
 47
0.1
 48
0.1
 75
     1
 76
     1
 78
     7
 79
     2
 90
     1
140
0.12
141
0.0
146
0.71
147
0.06
176
   256
177
   256
178
     2
274
     4
284
     7
340
11
345
14
346
14
347
14
371
    -1
372
    -1
1001
ACAD_DSTYLE_DIMBREAK
1070
   391
1040
0.125
1001
ACAD_DSTYLE_DIMJAG
1070
   388
1040
1.5
  0
DIMSTYLE
105
608
330
A
100
AcDbSymbolTableRecord
100
AcDbDimStyleTableRecord
  2
AM_ANSI$SH
 70
     0
  4
mm
 41
0.12
 42
0.05
 43
0.5
 44
0.1
 47
0.1
 48
0.1
 75
     1
 76
     1
 78
     7
 79
     2
 90
     1
140
0.12
141
0.0
146
0.71
147
0.06
173
     1
176
   256
177
   256
178
     2
274
     4
284
     7
340
11
343
604
345
14
346
14
347
14
371
    -1
372
    -1
1001
ACAD_DSTYLE_DIMBREAK
1070
   391
1040
0.125
1001
ACAD_DSTYLE_DIMJAG
1070
   388
1040
1.5
  0
ENDTAB
  0
TABLE
  2
BLOCK_RECORD
  5
1
330
0
100
AcDbSymbolTable
 70
     5
  0
BLOCK_RECORD
  5
1F
102
{ACAD_XDICTIONARY
360
15D
102
}
330
1
100
AcDbSymbolTableRecord
100
AcDbBlockTableRecord
  2
*Model_Space
340
22
 70
     0
280
     1
281
     0
  0
BLOCK_RECORD
  5
58
330
1
100
AcDbSymbolTableRecord
100
AcDbBlockTableRecord
  2
*Paper_Space
340
59
 70
     0
280
     1
281
     0
  0
BLOCK_RECORD
  5
5D
330
1
100
AcDbSymbolTableRecord
100
AcDbBlockTableRecord
  2
*Paper_Space0
340
5E
 70
     0
280
     1
281
     0
  0
BLOCK_RECORD
  5
3CE
330
1
100
AcDbSymbolTableRecord
100
AcDbBlockTableRecord
  2
_Oblique
340
0
 70
     0
280
     1
281
     0
  0
BLOCK_RECORD
  5
604
330
1
100
AcDbSymbolTableRecord
100
AcDbBlockTableRecord
  2
GENAXEH
340
0
 70
     0
280
     1
281
     0
  0
BLOCK_RECORD
  5
614
330
1
100
AcDbSymbolTableRecord
100
AcDbBlockTableRecord
  2
_ACMFILLEDHALF
340
0
 70
     0
280
     1
281
     0
  0
ENDTAB
  0
ENDSEC
  0
SECTION
  2
BLOCKS
  0
BLOCK
  5
20
330
1F
100
AcDbEntity
  8
0
100
AcDbBlockBegin
  2
*Model_Space
 70
     0
 10
0.0
 20
0.0
 30
0.0
  3
*Model_Space
  1

  0
ENDBLK
  5
21
330
1F
100
AcDbEntity
  8
0
100
AcDbBlockEnd
  0
BLOCK
  5
5A
330
58
100
AcDbEntity
 67
     1
  8
0
100
AcDbBlockBegin
  2
*Paper_Space
 70
     0
 10
0.0
 20
0.0
 30
0.0
  3
*Paper_Space
  1

  0
ENDBLK
  5
5B
330
58
100
AcDbEntity
 67
     1
  8
0
100
AcDbBlockEnd
  0
BLOCK
  5
5F
330
5D
100
AcDbEntity
 67
     1
  8
0
100
AcDbBlockBegin
  2
*Paper_Space0
 70
     0
 10
0.0
 20
0.0
 30
0.0
  3
*Paper_Space0
  1

  0
ENDBLK
  5
60
330
5D
100
AcDbEntity
 67
     1
  8
0
100
AcDbBlockEnd
  0
BLOCK
  5
3CF
330
3CE
100
AcDbEntity
  8
0
100
AcDbBlockBegin
  2
_Oblique
 70
     0
 10
0.0
 20
0.0
 30
0.0
  3
_Oblique
  1

  0
LINE
  5
3D0
330
3CE
100
AcDbEntity
  8
0
  6
ByBlock
 62
     0
370
    -2
100
AcDbLine
 10
-0.5
 20
-0.5
 30
0.0
 11
0.5
 21
0.5
 31
0.0
  0
ENDBLK
  5
3D1
330
3CE
100
AcDbEntity
  8
0
100
AcDbBlockEnd
  0
BLOCK
  5
606
330
604
100
AcDbEntity
  8
0
100
AcDbBlockBegin
  2
GENAXEH
 70
     0
 10
0.0
 20
0.0
 30
0.0
  3
GENAXEH
  1

  0
LINE
  5
605
330
604
100
AcDbEntity
  8
0
100
AcDbLine
 10
-1.0
 20
0.0
 30
0.0
 11
1.0
 21
0.0
 31
0.0
  0
ENDBLK
  5
607
330
604
100
AcDbEntity
  8
0
100
AcDbBlockEnd
  0
BLOCK
  5
615
330
614
100
AcDbEntity
  8
0
100
AcDbBlockBegin
  2
_ACMFILLEDHALF
 70
     0
 10
0.0
 20
0.0
 30
0.0
  3
_ACMFILLEDHALF
  1

  0
TRACE
  5
617
330
614
100
AcDbEntity
  8
0
 62
     0
100
AcDbTrace
 10
-0.8
 20
0.0
 30
0.0
 11
-1.0
 21
0.166666666
 31
0.0
 12
0.0
 22
0.0
 32
0.0
 13
0.0
 23
0.0
 33
0.0
  0
LINE
  5
618
330
614
100
AcDbEntity
  8
0
 62
     0
100
AcDbLine
 10
-1.0
 20
0.0
 30
0.0
 11
-0.8
 21
0.0
 31
0.0
  0
ENDBLK
  5
616
330
614
100
AcDbEntity
  8
0
100
AcDbBlockEnd
  0
ENDSEC
  0
SECTION
  2
ENTITIES
  0
TEXT
  5
352
330
1F
100
AcDbEntity
  8
LINE
100
AcDbText
 10
-36.62717300348004
 20
3674.742416200729
 30
0.0
 40
233.9816249415046
  1
Dining Chair
 41
1.000399999999999
100
AcDbText
  0
LINE
  5
353
330
1F
100
AcDbEntity
  8
LINE
370
     9
100
AcDbLine
 10
-36.62717300348004
 20
4415.189281982412
 30
0.0
 11
10290.86512025204
 21
4415.189281982412
 31
0.0
  0
TEXT
  5
354
330
1F
100
AcDbEntity
  8
LINE
100
AcDbText
 10
-36.62717300348004
 20
6158.679822073884
 30
0.0
 40
192.6907499518273
  1
Mckenzie
 41
1.000399999999999
100
AcDbText
  0
TEXT
  5
355
330
1F
100
AcDbEntity
  8
LINE
100
AcDbText
 10
-36.62717300348004
 20
5556.056853718683
 30
0.0
 40
192.6907499518273
  1
—
 41
1.000399999999999
100
AcDbText
  0
TEXT
  5
356
330
1F
100
AcDbEntity
  8
LINE
100
AcDbText
 10
-36.62717300348004
 20
4881.086337840219
 30
0.0
 40
233.9816249415046
  1
DIMENSIONS
 41
1.000399999999999
100
AcDbText
  0
TEXT
  5
36A
330
1F
100
AcDbEntity
  8
LINE
100
AcDbText
 10
5352.311707732704
 20
1838.709488873128
 30
0.0
 40
233.9816249415046
  1
MK
 41
1.000399999999999
100
AcDbText
  0
LINE
  5
49E
330
1F
100
AcDbEntity
  8
Visible (ANSI)
100
AcDbLine
 10
2409.702402259715
 20
2195.7831488753
 30
0.0
 11
2374.568707945697
 21
2195.7831488753
 31
0.0
  0
LINE
  5
49F
330
1F
100
AcDbEntity
  8
Visible (ANSI)
100
AcDbLine
 10
2374.568707945697
 20
2195.7831488753
 30
0.0
 11
2336.688282246629
 21
2628.758395866498
 31
0.0
  0
LINE
  5
4A0
330
1F
100
AcDbEntity
  8
Visible (ANSI)
100
AcDbLine
 10
2409.702402259715
 20
2195.7831488753
 30
0.0
 11
2371.821976560647
 21
2628.758395866498
 31
0.0
  0
SPLINE
  5
4A1
330
1F
100
AcDbEntity
  8
Visible (ANSI)
100
AcDbSpline
210
0.0
220
0.0
230
1.0
 70
     8
 71
     3
 72
    10
 73
     6
 74
     0
 42
0.000000001
 43
0.0000000001
 40
-1.555749757702731
 40
-1.555749757702731
 40
-1.555749757702731
 40
-1.555749757702731
 40
0.0
 40
0.0
 40
0.0044816803505946
 40
0.0044816803505946
 40
0.0044816803505946
 40
0.0044816803505946
 10
1987.890346269962
 20
2638.936631446362
 30
0.0
 10
1982.714629948731
 20
2638.927993549362
 30
0.0
 10
1977.541916265742
 20
2639.085725741188
 30
0.0
 10
1972.379837890553
 20
2639.407774453692
 30
0.0
 10
1972.365008336945
 20
2639.408700997021
 30
0.0
 10
1972.350180787364
 20
2639.409628781156
 30
0.0
  0
SPLINE
  5
4A2
330
1F
100
AcDbEntity
  8
Visible (ANSI)
100
AcDbSpline
210
0.0
220
0.0
230
1.0
 70
     8
 71
     3
 72
    10
 73
     6
 74
     0
 42
0.000000001
 43
0.0000000001
 40
-1.564307760457789
 40
-1.564307760457789
 40
-1.564307760457789
 40
-1.564307760457789
 40
-1.559814515353246
 40
-1.559814515353246
 40
0.0
 40
0.0
 40
0.0
 40
0.0
 10
2339.697809298838
 20
2639.409628781156
 30
0.0
 10
2339.682982382461
 20
2639.408701036642
 30
0.0
 10
2339.668151562823
 20
2639.407774414376
 30
0.0
 10
2334.50612790455
 20
2639.085729101145
 30
0.0
 10
2329.333414228102
 20
2638.927993459089
 30
0.0
 10
2324.15764381624
 20
2638.936631446359
 30
0.0
  0
ELLIPSE
  5
4A3
330
1F
100
AcDbEntity
  8
Visible (ANSI)
100
AcDbEllipse
 10
2156.023995043103
 20
2608.251519039037
 30
0.0
 11
-1766.237492177723
 21
0.0000000000009891
 31
0.0
210
0.0
220
0.0
230
1.0
 40
0.0174524064372807
 41
4.617051506871407
 42
4.807726453897987
  0
SPLINE
  5
4A4
330
1F
100
AcDbEntity
  8
Visible (ANSI)
100
AcDbSpline
210
0.0
220
0.0
230
1.0
 70
     8
 71
     3
 72
    20
 73
    16
 74
     0
 42
0.000000001
 43
0.0000000001
 40
0.0000000000000001
 40
0.0000000000000001
 40
0.0000000000000001
 40
0.0000000000000001
 40
0.0080538801939084
 40
0.0080538801939084
 40
0.0169698452987799
 40
0.0169698452987799
 40
0.0295981992095627
 40
0.0295981992095627
 40
0.0580097583866993
 40
0.0580097583866993
 40
0.1233908219185352
 40
0.1233908219185352
 40
0.1887718854503711
 40
0.1887718854503711
 40
0.2202078583240736
 40
0.2202078583240736
 40
0.2202078583240736
 40
0.2202078583240736
 10
2396.023995043098
 20
2637.218969448088
 30
0.0
 10
2396.023995043098
 20
2635.652298392186
 30
0.0
 10
2395.628634702322
 20
2634.123491435206
 30
0.0
 10
2394.481274754843
 20
2631.637266324706
 30
0.0
 10
2393.74677437137
 20
2630.726871556984
 30
0.0
 10
2392.198011683128
 20
2629.134220548163
 30
0.0
 10
2391.44831243608
 20
2628.651713003132
 30
0.0
 10
2389.459958060971
 20
2627.479633770116
 30
0.0
 10
2388.646763553669
 20
2627.258277913326
 30
0.0
 10
2386.121650344796
 20
2626.4994425183
 30
0.0
 10
2384.677041642958
 20
2626.277058437558
 30
0.0
 10
2380.935915367969
 20
2625.750601470398
 30
0.0
 10
2378.746942864513
 20
2625.510565169589
 30
0.0
 10
2374.916187103267
 20
2625.160619622871
 30
0.0
 10
2373.582406210661
 20
2625.04844547097
 30
0.0
 10
2372.156283325658
 20
2624.937252057222
 30
0.0
  0
SPLINE
  5
4A5
330
1F
100
AcDbEntity
  8
Visible (ANSI)
100
AcDbSpline
210
0.0
220
0.0
230
1.0
 70
     8
 71
     3
 72
    20
 73
    16
 74
     0
 42
0.000000001
 43
0.0000000001
 40
2.921381146356698
 40
2.921381146356698
 40
2.921381146356698
 40
2.921381146356698
 40
2.94544946299429
 40
2.94544946299429
 40
3.010830526526123
 40
3.010830526526123
 40
3.076211590057957
 40
3.076211590057957
 40
3.108902121823874
 40
3.108902121823874
 40
3.125247387706834
 40
3.125247387706834
 40
3.137466685792629
 40
3.137466685792629
 40
3.141592653589792
 40
3.141592653589792
 40
3.141592653589792
 40
3.141592653589792
 10
1939.892203372982
 20
2624.937213337166
 30
0.0
 10
1938.800304852226
 20
2625.022346145095
 30
0.0
 10
1937.762496502777
 20
2625.108062115276
 30
0.0
 10
1934.102931841062
 20
2625.429495921329
 30
0.0
 10
1931.827373127446
 20
2625.66815484767
 30
0.0
 10
1927.944712129555
 20
2626.183404368323
 30
0.0
 10
1926.41158150592
 20
2626.420366764123
 30
0.0
 10
1923.910461568734
 20
2627.087048279543
 30
0.0
 10
1923.078167570277
 20
2627.283118453445
 30
0.0
 10
1920.920589328302
 20
2628.434568608387
 30
0.0
 10
1919.997648531324
 20
2628.93819051643
 30
0.0
 10
1917.916073238983
 20
2631.160562606729
 30
0.0
 10
1916.816147876611
 20
2632.680431907771
 30
0.0
 10
1916.122267107841
 20
2635.615457354605
 30
0.0
 10
1916.023995043104
 20
2636.416370679574
 30
0.0
 10
1916.023995043104
 20
2637.218969448088
 30
0.0
  0
SPLINE
  5
4A6
330
1F
100
AcDbEntity
  8
Visible (ANSI)
100
AcDbSpline
210
0.0
220
0.0
230
1.0
 70
     8
 71
     3
 72
    16
 73
    12
 74
     0
 42
0.000000001
 43
0.0000000001
 40
0.0
 40
0.0
 40
0.0
 40
0.0
 40
0.4001652510909969
 40
0.4001652510909969
 40
0.8003305021819935
 40
0.8003305021819935
 40
1.20049575327299
 40
1.20049575327299
 40
1.600661004363986
 40
1.600661004363986
 40
2.000826255454982
 40
2.000826255454982
 40
2.000826255454982
 40
2.000826255454982
 10
1988.824397506713
 20
2648.263179452577
 30
0.0
 10
1987.607073028035
 20
2648.261147825881
 30
0.0
 10
1986.389919276513
 20
2648.279295610861
 30
0.0
 10
1983.957327105897
 20
2648.355925864125
 30
0.0
 10
1982.741888595634
 20
2648.41440830948
 30
0.0
 10
1980.314093753097
 20
2648.571648876507
 30
0.0
 10
1979.10173732578
 20
2648.670406998081
 30
0.0
 10
1976.681469440471
 20
2648.908105481965
 30
0.0
 10
1975.473557889076
 20
2649.04704586721
 30
0.0
 10
1973.06354134103
 20
2649.364980671631
 30
0.0
 10
1971.861436258089
 20
2649.543975136058
 30
0.0
 10
1970.662916000705
 20
2649.742914615196
 30
0.0
  0
SPLINE
  5
4A7
330
1F
100
AcDbEntity
  8
Visible (ANSI)
100
AcDbSpline
210
0.0
220
0.0
230
1.0
 70
     8
 71
     3
 72
    16
 73
    12
 74
     0
 42
0.000000001
 43
0.0000000001
 40
0.0
 40
0.0
 40
0.0
 40
0.0
 40
0.3048353814291078
 40
0.3048353814291078
 40
0.6096707628582157
 40
0.6096707628582157
 40
0.9145061442873231
 40
0.9145061442873231
 40
1.21934152571643
 40
1.21934152571643
 40
1.524176907145537
 40
1.524176907145537
 40
1.524176907145537
 40
1.524176907145537
 10
1952.179795467582
 20
2651.145513177366
 30
0.0
 10
1953.160782895814
 20
2651.154599403461
 30
0.0
 10
1954.16342274313
 20
2651.151596559725
 30
0.0
 10
1956.205948130639
 20
2651.117271271702
 30
0.0
 10
1957.245829005437
 20
2651.085944178664
 30
0.0
 10
1959.356182106096
 20
2650.991137068221
 30
0.0
 10
1960.426651855232
 20
2650.927652680588
 30
0.0
 10
1962.591081405394
 20
2650.765149502459
 30
0.0
 10
1963.685037357471
 20
2650.666126120679
 30
0.0
 10
1965.888882025979
 20
2650.429754983401
 30
0.0
 10
1966.998763691712
 20
2650.292403734038
 30
0.0
 10
1968.11269691793
 20
2650.134852809686
 30
0.0
  0
ELLIPSE
  5
4A8
330
1F
100
AcDbEntity
  8
Visible (ANSI)
100
AcDbEllipse
 10
1953.447476283588
 20
2542.751991116442
 30
0.0
 11
33.27296572490422
 21
-103.2764195031042
 31
0.0
210
0.0
220
0.0
230
1.0
 40
0.9939239779726378
 41
2.667911239568241
 42
2.691807534313173
  0
SPLINE
  5
4A9
330
1F
100
AcDbEntity
  8
Visible (ANSI)
100
AcDbSpline
210
0.0
220
0.0
230
1.0
 70
     8
 71
     3
 72
    16
 73
    12
 74
     0
 42
0.000000001
 43
0.0000000001
 40
1.475458853281604
 40
1.475458853281604
 40
1.475458853281604
 40
1.475458853281604
 40
1.51359384268692
 40
1.51359384268692
 40
1.551728832092236
 40
1.551728832092236
 40
1.589863821497553
 40
1.589863821497553
 40
1.62799881090287
 40
1.62799881090287
 40
1.666133800308188
 40
1.666133800308188
 40
1.666133800308188
 40
1.666133800308188
 10
2323.223592579489
 20
2648.263179452577
 30
0.0
 10
2300.997876534182
 20
2648.300272568588
 30
0.0
 10
2278.731642794512
 20
2648.329968634458
 30
0.0
 10
2234.150504299107
 20
2648.374523528295
 30
0.0
 10
2211.835601117108
 20
2648.389382354661
 30
0.0
 10
2167.18956214845
 20
2648.404241181561
 30
0.0
 10
2144.858427937752
 20
2648.404241181561
 30
0.0
 10
2100.212388969094
 20
2648.389382354661
 30
0.0
 10
2077.897485787095
 20
2648.374523528295
 30
0.0
 10
2033.31634729169
 20
2648.329968634458
 30
0.0
 10
2011.05011355202
 20
2648.300272568588
 30
0.0
 10
1988.824397506713
 20
2648.263179452577
 30
0.0
  0
SPLINE
  5
4AA
330
1F
100
AcDbEntity
  8
Visible (ANSI)
100
AcDbSpline
210
0.0
220
0.0
230
1.0
 70
     8
 71
     3
 72
    16
 73
    12
 74
     0
 42
0.000000001
 43
0.0000000001
 40
0.0000000000000151
 40
0.0000000000000151
 40
0.0000000000000151
 40
0.0000000000000151
 40
0.4001652510910201
 40
0.4001652510910201
 40
0.8003305021820247
 40
0.8003305021820247
 40
1.200495753273028
 40
1.200495753273028
 40
1.600661004364034
 40
1.600661004364034
 40
2.000826255455039
 40
2.000826255455039
 40
2.000826255455039
 40
2.000826255455039
 10
2323.223592579489
 20
2648.263179452577
 30
0.0
 10
2324.440917058166
 20
2648.261147825881
 30
0.0
 10
2325.658070809689
 20
2648.279295610861
 30
0.0
 10
2328.090662980305
 20
2648.355925864125
 30
0.0
 10
2329.306101490567
 20
2648.41440830948
 30
0.0
 10
2331.733896333105
 20
2648.571648876507
 30
0.0
 10
2332.946252760422
 20
2648.670406998081
 30
0.0
 10
2335.366520645729
 20
2648.908105481965
 30
0.0
 10
2336.574432197128
 20
2649.04704586721
 30
0.0
 10
2338.984448745172
 20
2649.364980671631
 30
0.0
 10
2340.186553828113
 20
2649.543975136058
 30
0.0
 10
2341.385074085498
 20
2649.742914615196
 30
0.0
  0
ELLIPSE
  5
4AB
330
1F
100
AcDbEntity
  8
Visible (ANSI)
100
AcDbEllipse
 10
2358.601168055919
 20
2542.74487819738
 30
0.0
 11
33.30653373587625
 21
103.2733085111387
 31
0.0
210
0.0
220
0.0
230
1.0
 40
0.9939221489065666
 41
0.450087322541089
 42
0.4739820013278468
  0
SPLINE
  5
4AC
330
1F
100
AcDbEntity
  8
Visible (ANSI)
100
AcDbSpline
210
0.0
220
0.0
230
1.0
 70
     8
 71
     3
 72
    16
 73
    12
 74
     0
 42
0.000000001
 43
0.0000000001
 40
0.0
 40
0.0
 40
0.0
 40
0.0
 40
0.3048353814341338
 40
0.3048353814341338
 40
0.6096707628682676
 40
0.6096707628682676
 40
0.9145061443024014
 40
0.9145061443024014
 40
1.219341525736534
 40
1.219341525736534
 40
1.524176907170668
 40
1.524176907170668
 40
1.524176907170668
 40
1.524176907170668
 10
2343.935293167897
 20
2650.134852809635
 30
0.0
 10
2345.049226394133
 20
2650.292403733991
 30
0.0
 10
2346.159108059929
 20
2650.429754983369
 30
0.0
 10
2348.362952728587
 20
2650.666126120665
 30
0.0
 10
2349.456908680768
 20
2650.765149502455
 30
0.0
 10
2351.621338231091
 20
2650.927652680599
 30
0.0
 10
2352.691807980241
 20
2650.991137068228
 30
0.0
 10
2354.802161080796
 20
2651.085944178664
 30
0.0
 10
2355.842041955532
 20
2651.117271271702
 30
0.0
 10
2357.884567343023
 20
2651.151596559725
 30
0.0
 10
2358.887207190372
 20
2651.154599403461
 30
0.0
 10
2359.868194618619
 20
2651.145513177366
 30
0.0
  0
SPLINE
  5
4AD
330
1F
100
AcDbEntity
  8
Visible (ANSI)
100
AcDbSpline
210
0.0
220
0.0
230
1.0
 70
     8
 71
     3
 72
    16
 73
    12
 74
     0
 42
0.000000001
 43
0.0000000001
 40
5.200308853511525
 40
5.200308853511525
 40
5.200308853511525
 40
5.200308853511525
 40
5.390291546253642
 40
5.390291546253642
 40
5.580274238995762
 40
5.580274238995762
 40
5.770256931737879
 40
5.770256931737879
 40
5.960239624479997
 40
5.960239624479997
 40
6.150222317222119
 40
6.150222317222119
 40
6.150222317222119
 40
6.150222317222119
 10
2359.868194618619
 20
2651.145513177366
 30
0.0
 10
2362.11987257386
 20
2651.124657400414
 30
0.0
 10
2364.2597167068
 20
2651.100041533748
 30
0.0
 10
2368.242157331721
 20
2651.044077702493
 30
0.0
 10
2370.08454365811
 20
2651.012738452199
 30
0.0
 10
2373.412410687303
 20
2650.944190278082
 30
0.0
 10
2374.897268312918
 20
2650.907026179157
 30
0.0
 10
2377.475068686361
 20
2650.827146830295
 30
0.0
 10
2378.563772333723
 20
2650.784908034781
 30
0.0
 10
2380.39016514979
 20
2650.689662771329
 30
0.0
 10
2381.015853616677
 20
2650.661618094626
 30
0.0
 10
2381.964796483499
 20
2650.537796988028
 30
0.0
  0
SPLINE
  5
4AE
330
1F
100
AcDbEntity
  8
Visible (ANSI)
100
AcDbSpline
210
0.0
220
0.0
230
1.0
 70
     8
 71
     3
 72
    20
 73
    16
 74
     0
 42
0.000000001
 43
0.0000000001
 40
6.15022231722211
 40
6.15022231722211
 40
6.15022231722211
 40
6.15022231722211
 40
6.176814915213605
 40
6.176814915213605
 40
6.203407513205099
 40
6.203407513205099
 40
6.230000111196596
 40
6.230000111196596
 40
6.25659270918809
 40
6.25659270918809
 40
6.268148629193593
 40
6.268148629193593
 40
6.279596881065312
 40
6.279596881065312
 40
6.283185307179585
 40
6.283185307179585
 40
6.283185307179585
 40
6.283185307179585
 10
2381.964796483499
 20
2650.537796988028
 30
0.0
 10
2382.763307817103
 20
2650.433604670012
 30
0.0
 10
2383.506658823041
 20
2650.326298367934
 30
0.0
 10
2384.912017129527
 20
2650.096588675268
 30
0.0
 10
2385.572254015436
 20
2649.975201075216
 30
0.0
 10
2386.88341064291
 20
2649.688977670139
 30
0.0
 10
2387.526173067533
 20
2649.531398126263
 30
0.0
 10
2389.037141127085
 20
2649.036050510837
 30
0.0
 10
2389.873603944389
 20
2648.793946774542
 30
0.0
 10
2391.913322554129
 20
2647.455619222787
 30
0.0
 10
2392.668960409494
 20
2646.905963783389
 30
0.0
 10
2394.385236681918
 20
2644.91410803088
 30
0.0
 10
2395.384359692917
 20
2643.365948761763
 30
0.0
 10
2395.950221599571
 20
2640.613876048305
 30
0.0
 10
2396.023995043098
 20
2639.916698977737
 30
0.0
 10
2396.023995043098
 20
2639.218664838401
 30
0.0
  0
SPLINE
  5
4AF
330
1F
100
AcDbEntity
  8
Visible (ANSI)
100
AcDbSpline
210
0.0
220
0.0
230
1.0
 70
     8
 71
     3
 72
    20
 73
    16
 74
     0
 42
0.000000001
 43
0.0000000001
 40
3.141592653589792
 40
3.141592653589792
 40
3.141592653589792
 40
3.141592653589792
 40
3.1496465337837
 40
3.1496465337837
 40
3.158562498888571
 40
3.158562498888571
 40
3.171190852799354
 40
3.171190852799354
 40
3.197783450790851
 40
3.197783450790851
 40
3.224376048782346
 40
3.224376048782346
 40
3.250968646773843
 40
3.250968646773843
 40
3.274555643547271
 40
3.274555643547271
 40
3.274555643547271
 40
3.274555643547271
 10
1916.023995043104
 20
2639.218664838401
 30
0.0
 10
1916.023995043104
 20
2640.785335894303
 30
0.0
 10
1916.41935538388
 20
2642.314142851283
 30
0.0
 10
1917.566715331357
 20
2644.800367961784
 30
0.0
 10
1918.301215714832
 20
2645.710762729505
 30
0.0
 10
1919.849978403074
 20
2647.303413738326
 30
0.0
 10
1920.599677650122
 20
2647.785921283361
 30
0.0
 10
1922.499904659466
 20
2648.906051901697
 30
0.0
 10
1923.288653893002
 20
2649.137699667699
 30
0.0
 10
1924.747117871875
 20
2649.590209910192
 30
0.0
 10
1925.386011942547
 20
2649.741645967017
 30
0.0
 10
1926.699125637535
 20
2650.017844100377
 30
0.0
 10
1927.366570701281
 20
2650.136953720401
 30
0.0
 10
1928.709882205487
 20
2650.350441664552
 30
0.0
 10
1929.374933196734
 20
2650.445380900299
 30
0.0
 10
1930.083193602703
 20
2650.537796988028
 30
0.0
  0
SPLINE
  5
4B0
330
1F
100
AcDbEntity
  8
Visible (ANSI)
100
AcDbSpline
210
0.0
220
0.0
230
1.0
 70
     8
 71
     3
 72
    18
 73
    14
 74
     0
 42
0.000000001
 43
0.0000000001
 40
3.274555643547272
 40
3.274555643547272
 40
3.274555643547272
 40
3.274555643547272
 40
3.415061510596238
 40
3.415061510596238
 40
3.605044203338357
 40
3.605044203338357
 40
3.795026896080476
 40
3.795026896080476
 40
3.985009588822595
 40
3.985009588822595
 40
4.174992281564713
 40
4.174992281564713
 40
4.224469107257866
 40
4.224469107257866
 40
4.224469107257866
 40
4.224469107257866
 10
1930.083193602701
 20
2650.537796988028
 30
0.0
 10
1930.785005111731
 20
2650.629371603012
 30
0.0
 10
1931.272030362389
 20
2650.660130389399
 30
0.0
 10
1932.724177129209
 20
2650.750482583444
 30
0.0
 10
1933.706797394536
 20
2650.793817164151
 30
0.0
 10
1936.081991293732
 20
2650.876763514756
 30
0.0
 10
1937.466279763039
 20
2650.915311292243
 30
0.0
 10
1940.605876482119
 20
2650.986877164644
 30
0.0
 10
1942.360242256417
 20
2651.019819061869
 30
0.0
 10
1946.183896518651
 20
2651.07922447169
 30
0.0
 10
1948.252925848445
 20
2651.105675337545
 30
0.0
 10
1951.014550763144
 20
2651.134395757567
 30
0.0
 10
1951.593395327125
 20
2651.140081747661
 30
0.0
 10
1952.179795467582
 20
2651.145513177366
 30
0.0
  0
LINE
  5
4B1
330
1F
100
AcDbEntity
  8
Visible (ANSI)
100
AcDbLine
 10
1916.023995043104
 20
2637.218969448088
 30
0.0
 11
1916.023995043104
 21
2639.218664838401
 31
0.0
  0
LINE
  5
4B2
330
1F
100
AcDbEntity
  8
Visible (ANSI)
100
AcDbLine
 10
2396.023995043098
 20
2637.218969448088
 30
0.0
 11
2396.023995043098
 21
2639.218664838401
 31
0.0
  0
SPLINE
  5
4B3
330
1F
100
AcDbEntity
  8
Visible (ANSI)
100
AcDbSpline
210
0.0
220
0.0
230
1.0
 70
     8
 71
     3
 72
    22
 73
    18
 74
     0
 42
0.000000001
 43
0.0000000001
 40
38.06357824768357
 40
38.06357824768357
 40
38.06357824768357
 40
38.06357824768357
 40
40.41835451310173
 40
40.41835451310173
 40
42.77313077851991
 40
42.77313077851991
 40
45.1279070439381
 40
45.1279070439381
 40
47.48268330935629
 40
47.48268330935629
 40
49.85237738374256
 40
49.85237738374256
 40
52.22207145812882
 40
52.22207145812882
 40
54.59176553251507
 40
54.59176553251507
 40
56.96145960690135
 40
56.96145960690135
 40
56.96145960690135
 40
56.96145960690135
 10
1906.023995043112
 20
2877.076849474845
 30
0.0
 10
1906.023995043112
 20
2869.371808164604
 30
0.0
 10
1906.727072181386
 20
2861.35322399838
 30
0.0
 10
1909.694139014775
 20
2845.293529544819
 30
0.0
 10
1911.957579407991
 20
2837.252376514298
 30
0.0
 10
1917.962013702172
 20
2821.724490070664
 30
0.0
 10
1921.70814263405
 20
2814.225534170673
 30
0.0
 10
1930.399947918441
 20
2800.260926022696
 30
0.0
 10
1935.346652705316
 20
2793.795890545709
 30
0.0
 10
1945.969110791548
 20
2782.229739232505
 30
0.0
 10
1952.010810530921
 20
2776.743633345126
 30
0.0
 10
1965.227530765248
 20
2766.985379626742
 30
0.0
 10
1972.402573650216
 20
2762.712959699122
 30
0.0
 10
1987.43255960672
 20
2755.73763436174
 30
0.0
 10
1995.300428959398
 20
2753.028912510225
 30
0.0
 10
2011.179895330365
 20
2749.288194342371
 30
0.0
 10
2019.191636410573
 20
2748.256614512826
 30
0.0
 10
2026.960127801557
 20
2747.983788976886
 30
0.0
  0
SPLINE
  5
4B4
330
1F
100
AcDbEntity
  8
Visible (ANSI)
100
AcDbSpline
210
0.0
220
0.0
230
1.0
 70
     8
 71
     3
 72
    18
 73
    14
 74
     0
 42
0.000000001
 43
0.0000000001
 40
25.26568878198661
 40
25.26568878198661
 40
25.26568878198661
 40
25.26568878198661
 40
26.27477911162456
 40
26.27477911162456
 40
28.64447318601083
 40
28.64447318601083
 40
30.99924945142901
 40
30.99924945142901
 40
33.35402571684719
 40
33.35402571684719
 40
35.70880198226537
 40
35.70880198226537
 40
38.06357824768357
 40
38.06357824768357
 40
38.06357824768357
 40
38.06357824768357
 10
1967.352080199979
 20
2980.603531127134
 30
0.0
 10
1964.350024130419
 20
2979.073959536508
 30
0.0
 10
1961.433218402634
 20
2977.419695033674
 30
0.0
 10
1952.010810530923
 20
2971.498923045645
 30
0.0
 10
1945.96911079155
 20
2966.716913679248
 30
0.0
 10
1935.346652705317
 20
2956.435320716933
 30
0.0
 10
1930.399947918441
 20
2950.595093563265
 30
0.0
 10
1921.70814263405
 20
2937.76073386012
 30
0.0
 10
1917.962013702172
 20
2930.766768963298
 30
0.0
 10
1911.957579407992
 20
2916.062078791747
 30
0.0
 10
1909.694139014775
 20
2908.339452589637
 30
0.0
 10
1906.727072181386
 20
2892.699466680879
 30
0.0
 10
1906.023995043112
 20
2884.781890785085
 30
0.0
 10
1906.023995043112
 20
2877.076849474845
 30
0.0
  0
SPLINE
  5
4B5
330
1F
100
AcDbEntity
  8
Visible (ANSI)
100
AcDbSpline
210
0.0
220
0.0
230
1.0
 70
     8
 71
     3
 72
    18
 73
    14
 74
     0
 42
0.000000001
 43
0.0000000001
 40
38.06357824768358
 40
38.06357824768358
 40
38.06357824768358
 40
38.06357824768358
 40
40.41835451310176
 40
40.41835451310176
 40
42.77313077851993
 40
42.77313077851993
 40
45.12790704393812
 40
45.12790704393812
 40
47.48268330935629
 40
47.48268330935629
 40
49.85237738374257
 40
49.85237738374257
 40
50.86146771338055
 40
50.86146771338055
 40
50.86146771338055
 40
50.86146771338055
 10
2406.0239950431
 20
2877.076849474838
 30
0.0
 10
2406.0239950431
 20
2884.781890785078
 30
0.0
 10
2405.320917904827
 20
2892.699466680872
 30
0.0
 10
2402.353851071436
 20
2908.339452589629
 30
0.0
 10
2400.090410678221
 20
2916.062078791739
 30
0.0
 10
2394.08597638404
 20
2930.766768963295
 30
0.0
 10
2390.339847452162
 20
2937.760733860116
 30
0.0
 10
2381.648042167772
 20
2950.595093563257
 30
0.0
 10
2376.701337380895
 20
2956.435320716926
 30
0.0
 10
2366.078879294663
 20
2966.716913679244
 30
0.0
 10
2360.037179555291
 20
2971.498923045642
 30
0.0
 10
2350.614771683579
 20
2977.41969503367
 30
0.0
 10
2347.697965955795
 20
2979.073959536505
 30
0.0
 10
2344.695909886234
 20
2980.60353112713
 30
0.0
  0
SPLINE
  5
4B6
330
1F
100
AcDbEntity
  8
Visible (ANSI)
100
AcDbSpline
210
0.0
220
0.0
230
1.0
 70
     8
 71
     3
 72
    22
 73
    18
 74
     0
 42
0.000000001
 43
0.0000000001
 40
19.16569688846578
 40
19.16569688846578
 40
19.16569688846578
 40
19.16569688846578
 40
21.53539096285205
 40
21.53539096285205
 40
23.90508503723831
 40
23.90508503723831
 40
26.27477911162458
 40
26.27477911162458
 40
28.64447318601085
 40
28.64447318601085
 40
30.99924945142904
 40
30.99924945142904
 40
33.35402571684721
 40
33.35402571684721
 40
35.7088019822654
 40
35.7088019822654
 40
38.06357824768358
 40
38.06357824768358
 40
38.06357824768358
 40
38.06357824768358
 10
2285.087862284653
 20
2747.983788976883
 30
0.0
 10
2292.856353675638
 20
2748.256614512822
 30
0.0
 10
2300.868094755843
 20
2749.288194342367
 30
0.0
 10
2316.747561126812
 20
2753.028912510221
 30
0.0
 10
2324.615430479489
 20
2755.737634361736
 30
0.0
 10
2339.645416435995
 20
2762.712959699115
 30
0.0
 10
2346.820459320964
 20
2766.985379626738
 30
0.0
 10
2360.037179555288
 20
2776.743633345123
 30
0.0
 10
2366.078879294661
 20
2782.229739232502
 30
0.0
 10
2376.701337380894
 20
2793.795890545706
 30
0.0
 10
2381.64804216777
 20
2800.260926022689
 30
0.0
 10
2390.33984745216
 20
2814.22553417067
 30
0.0
 10
2394.085976384038
 20
2821.724490070661
 30
0.0
 10
2400.090410678221
 20
2837.252376514291
 30
0.0
 10
2402.353851071436
 20
2845.293529544815
 30
0.0
 10
2405.320917904827
 20
2861.353223998376
 30
0.0
 10
2406.0239950431
 20
2869.371808164601
 30
0.0
 10
2406.0239950431
 20
2877.076849474838
 30
0.0
  0
SPLINE
  5
4B7
330
1F
100
AcDbEntity
  8
Visible (ANSI)
100
AcDbSpline
210
0.0
220
0.0
230
1.0
 70
     8
 71
     3
 72
    22
 73
    18
 74
     0
 42
0.000000001
 43
0.0000000001
 40
38.07396630184849
 40
38.07396630184849
 40
38.07396630184849
 40
38.07396630184849
 40
40.42875456571709
 40
40.42875456571709
 40
42.78354282958568
 40
42.78354282958568
 40
45.13833109345429
 40
45.13833109345429
 40
47.4931193573229
 40
47.4931193573229
 40
49.86320051809136
 40
49.86320051809136
 40
52.23328167885982
 40
52.23328167885982
 40
54.60336283962829
 40
54.60336283962829
 40
56.97344400039675
 40
56.97344400039675
 40
56.97344400039675
 40
56.97344400039675
 10
1909.057885638231
 20
2878.623037804686
 30
0.0
 10
1909.057885638231
 20
2886.328118374942
 30
0.0
 10
1909.76096433754
 20
2894.245727732512
 30
0.0
 10
1912.728100159892
 20
2909.885791681565
 30
0.0
 10
1914.991609045809
 20
2917.608462956931
 30
0.0
 10
1920.996439259778
 20
2932.313350597178
 30
0.0
 10
1924.742900536789
 20
2939.307470652872
 30
0.0
 10
1933.43587791339
 20
2952.142381071732
 30
0.0
 10
1938.383428218082
 20
2957.98300664483
 30
0.0
 10
1949.009081206099
 20
2968.266559412234
 30
0.0
 10
1955.053326584326
 20
2973.049935384694
 30
0.0
 10
1968.276157134511
 20
2981.357768122729
 30
0.0
 10
1975.454768524213
 20
2984.883037626551
 30
0.0
 10
1990.492616311415
 20
2990.399687830654
 30
0.0
 10
1998.364805333627
 20
2992.396019869262
 30
0.0
 10
2014.253163400774
 20
2994.811830383977
 30
0.0
 10
2022.269475298079
 20
2995.231028471783
 30
0.0
 10
2030.042346049599
 20
2994.96140281517
 30
0.0
  0
SPLINE
  5
4B8
330
1F
100
AcDbEntity
  8
Visible (ANSI)
100
AcDbSpline
210
0.0
220
0.0
230
1.0
 70
     8
 71
     3
 72
    22
 73
    18
 74
     0
 42
0.000000001
 43
0.0000000001
 40
19.1744886033002
 40
19.1744886033002
 40
19.1744886033002
 40
19.1744886033002
 40
21.54456976406867
 40
21.54456976406867
 40
23.91465092483713
 40
23.91465092483713
 40
26.28473208560559
 40
26.28473208560559
 40
28.65481324637406
 40
28.65481324637406
 40
31.00960151024267
 40
31.00960151024267
 40
33.36438977411127
 40
33.36438977411127
 40
35.71917803797989
 40
35.71917803797989
 40
38.07396630184849
 40
38.07396630184849
 40
38.07396630184849
 40
38.07396630184849
 10
2030.042346049597
 20
2749.554606953254
 30
0.0
 10
2022.269475298077
 20
2749.824232609863
 30
0.0
 10
2014.253163400771
 20
2750.852507352138
 30
0.0
 10
1998.364805333626
 20
2754.58726024703
 30
0.0
 10
1990.492616311413
 20
2757.293328941713
 30
0.0
 10
1975.454768524213
 20
2764.264500022207
 30
0.0
 10
1968.27615713451
 20
2768.535424166967
 30
0.0
 10
1955.053326584324
 20
2778.291927058508
 30
0.0
 10
1949.009081206098
 20
2783.777774241546
 30
0.0
 10
1938.383428218082
 20
2795.343453805566
 30
0.0
 10
1933.435877913387
 20
2801.808000400834
 30
0.0
 10
1924.742900536787
 20
2815.771953926422
 30
0.0
 10
1920.996439259776
 20
2823.270740493077
 30
0.0
 10
1914.991609045809
 20
2838.798454141106
 30
0.0
 10
1912.72810015989
 20
2846.839602131255
 30
0.0
 10
1909.760964337538
 20
2862.899332568464
 30
0.0
 10
1909.057885638231
 20
2870.917957234429
 30
0.0
 10
1909.057885638231
 20
2878.623037804686
 30
0.0
  0
SPLINE
  5
4B9
330
1F
100
AcDbEntity
  8
Visible (ANSI)
100
AcDbSpline
210
0.0
220
0.0
230
1.0
 70
     8
 71
     3
 72
    22
 73
    18
 74
     0
 42
0.000000001
 43
0.0000000001
 40
38.0739663018485
 40
38.0739663018485
 40
38.0739663018485
 40
38.0739663018485
 40
40.42875456571709
 40
40.42875456571709
 40
42.78354282958571
 40
42.78354282958571
 40
45.13833109345433
 40
45.13833109345433
 40
47.49311935732293
 40
47.49311935732293
 40
49.86320051809139
 40
49.86320051809139
 40
52.23328167885985
 40
52.23328167885985
 40
54.60336283962831
 40
54.60336283962831
 40
56.97344400039678
 40
56.97344400039678
 40
56.97344400039678
 40
56.97344400039678
 10
2402.990104447982
 20
2878.623037804682
 30
0.0
 10
2402.990104447982
 20
2870.917957234425
 30
0.0
 10
2402.287025748673
 20
2862.89933256846
 30
0.0
 10
2399.319889926321
 20
2846.839602131248
 30
0.0
 10
2397.056381040402
 20
2838.798454141099
 30
0.0
 10
2391.051550826433
 20
2823.27074049307
 30
0.0
 10
2387.305089549424
 20
2815.771953926415
 30
0.0
 10
2378.612112172823
 20
2801.80800040083
 30
0.0
 10
2373.664561868129
 20
2795.343453805563
 30
0.0
 10
2363.038908880112
 20
2783.777774241542
 30
0.0
 10
2356.994663501885
 20
2778.291927058504
 30
0.0
 10
2343.7718329517
 20
2768.535424166963
 30
0.0
 10
2336.593221561998
 20
2764.264500022204
 30
0.0
 10
2321.555373774796
 20
2757.293328941709
 30
0.0
 10
2313.683184752584
 20
2754.587260247026
 30
0.0
 10
2297.794826685439
 20
2750.852507352134
 30
0.0
 10
2289.778514788132
 20
2749.824232609863
 30
0.0
 10
2282.005644036612
 20
2749.55460695325
 30
0.0
  0
SPLINE
  5
4BA
330
1F
100
AcDbEntity
  8
Visible (ANSI)
100
AcDbSpline
210
0.0
220
0.0
230
1.0
 70
     8
 71
     3
 72
    22
 73
    18
 74
     0
 42
0.000000001
 43
0.0000000001
 40
19.1744886033002
 40
19.1744886033002
 40
19.1744886033002
 40
19.1744886033002
 40
21.54456976406867
 40
21.54456976406867
 40
23.91465092483713
 40
23.91465092483713
 40
26.2847320856056
 40
26.2847320856056
 40
28.65481324637406
 40
28.65481324637406
 40
31.00960151024267
 40
31.00960151024267
 40
33.36438977411127
 40
33.36438977411127
 40
35.71917803797989
 40
35.71917803797989
 40
38.07396630184849
 40
38.07396630184849
 40
38.07396630184849
 40
38.07396630184849
 10
2282.005644036614
 20
2994.961402815166
 30
0.0
 10
2289.778514788132
 20
2995.231028471779
 30
0.0
 10
2297.794826685439
 20
2994.811830383969
 30
0.0
 10
2313.683184752585
 20
2992.396019869259
 30
0.0
 10
2321.555373774798
 20
2990.39968783065
 30
0.0
 10
2336.593221562
 20
2984.883037626547
 30
0.0
 10
2343.771832951703
 20
2981.357768122725
 30
0.0
 10
2356.994663501888
 20
2973.04993538469
 30
0.0
 10
2363.038908880115
 20
2968.266559412226
 30
0.0
 10
2373.664561868131
 20
2957.983006644823
 30
0.0
 10
2378.612112172823
 20
2952.142381071728
 30
0.0
 10
2387.305089549424
 20
2939.307470652864
 30
0.0
 10
2391.051550826435
 20
2932.313350597175
 30
0.0
 10
2397.056381040402
 20
2917.608462956923
 30
0.0
 10
2399.319889926321
 20
2909.885791681562
 30
0.0
 10
2402.287025748673
 20
2894.245727732505
 30
0.0
 10
2402.990104447982
 20
2886.328118374939
 30
0.0
 10
2402.990104447982
 20
2878.623037804682
 30
0.0
  0
LINE
  5
4BB
330
1F
100
AcDbEntity
  8
Visible (ANSI)
100
AcDbLine
 10
1967.351019403337
 20
2980.605285244012
 30
0.0
 11
1970.397513088732
 21
2982.157896597524
 31
0.0
  0
LINE
  5
4BC
330
1F
100
AcDbEntity
  8
Visible (ANSI)
100
AcDbLine
 10
2341.650476997481
 20
2982.15789659752
 30
0.0
 11
2344.696970682875
 21
2980.605285244005
 31
0.0
  0
ELLIPSE
  5
4BD
330
1F
100
AcDbEntity
  8
Visible (ANSI)
100
AcDbEllipse
 10
2156.023995043105
 20
2881.783148875289
 30
0.0
 11
-712.9999999999803
 21
0.000000000008879
 31
0.0
210
0.0
220
0.0
230
1.0
 40
0.1908089953765503
 41
1.388777678631716
 42
1.752814974958079
  0
ELLIPSE
  5
4BE
330
1F
100
AcDbEntity
  8
Visible (ANSI)
100
AcDbEllipse
 10
2156.023995043108
 20
3127.189944737209
 30
0.0
 11
704.347344022707
 21
-0.0000000000087708
 31
0.0
210
0.0
220
0.0
230
1.0
 40
0.1908089953765504
 41
4.532558329900116
 42
4.892219630869262
  0
ELLIPSE
  5
4BF
330
1F
100
AcDbEntity
  8
Visible (ANSI)
100
AcDbEllipse
 10
2156.023995043105
 20
2881.783148875289
 30
0.0
 11
704.347344022707
 21
-0.0000000000087708
 31
0.0
210
0.0
220
0.0
230
1.0
 40
0.1908089953765504
 41
4.532558329900116
 42
4.892219630869262
  0
ELLIPSE
  5
4C0
330
1F
100
AcDbEntity
  8
Visible (ANSI)
100
AcDbEllipse
 10
2358.012474818998
 20
2580.059640952477
 30
0.0
 11
17.5000217243645
 21
-0.0004786970718941
 31
0.0
210
0.0
220
0.0
230
0.9999999999999998
 40
0.0175146846135942
 41
2.91933406450497
 42
3.026045417639396
  0
LINE
  5
4C1
330
1F
100
AcDbEntity
  8
Visible (ANSI)
100
AcDbLine
 10
2334.383974186597
 20
2648.811847481706
 30
0.0
 11
2324.818711939556
 21
2756.11730515823
 31
0.0
  0
LINE
  5
4C2
330
1F
100
AcDbEntity
  8
Visible (ANSI)
100
AcDbLine
 10
2369.18656452058
 20
2651.026529226117
 30
0.0
 11
2358.092590083941
 21
2775.481455147634
 31
0.0
  0
LINE
  5
4C3
330
1F
100
AcDbEntity
  8
Visible (ANSI)
100
AcDbLine
 10
2364.095819469171
 20
2315.48881192302
 30
0.0
 11
2340.509102187682
 21
2580.09747254066
 31
0.0
  0
LINE
  5
4C4
330
1F
100
AcDbEntity
  8
Visible (ANSI)
100
AcDbLine
 10
2409.766146958726
 20
2195.783266521929
 30
0.0
 11
2406.320759754168
 21
2234.435499582913
 31
0.0
  0
LINE
  5
4C5
330
1F
100
AcDbEntity
  8
Visible (ANSI)
100
AcDbLine
 10
2156.024355925193
 20
2625.695410836907
 30
0.0
 11
1975.358040777749
 21
2628.733626236142
 31
0.0
  0
LINE
  5
4C6
330
1F
100
AcDbEntity
  8
Visible (ANSI)
100
AcDbLine
 10
2340.899487304406
 20
2580.62410179849
 30
0.0
 11
1971.69220734792
 21
2586.832958400009
 31
0.0
  0
LINE
  5
4C7
330
1F
100
AcDbEntity
  8
Visible (ANSI)
100
AcDbLine
 10
2340.629146970069
 20
2580.095453780858
 30
0.0
 11
1971.645627426809
 21
2586.300547465461
 31
0.0
  0
LINE
  5
4C8
330
1F
100
AcDbEntity
  8
Visible (ANSI)
100
AcDbLine
 10
1902.346087826491
 20
2195.7831488753
 30
0.0
 11
1937.479782140508
 21
2195.7831488753
 31
0.0
  0
LINE
  5
4C9
330
1F
100
AcDbEntity
  8
Visible (ANSI)
100
AcDbLine
 10
1975.360207839576
 20
2628.758395866491
 30
0.0
 11
1937.479782140511
 21
2195.7831488753
 31
0.0
  0
LINE
  5
4CA
330
1F
100
AcDbEntity
  8
Visible (ANSI)
100
AcDbLine
 10
1940.226513525559
 20
2628.758395866491
 30
0.0
 11
1902.346087826491
 21
2195.7831488753
 31
0.0
  0
LINE
  5
4CB
330
1F
100
AcDbEntity
  8
Visible (ANSI)
100
AcDbLine
 10
2155.914409808344
 20
2583.201750372191
 30
0.0
 11
2155.91440778048
 21
2583.198169796633
 31
0.0
  0
LINE
  5
4CC
330
1F
100
AcDbEntity
  8
Visible (ANSI)
100
AcDbLine
 10
2140.052258062606
 20
2583.464612806875
 30
0.0
 11
2140.05225806203
 21
2583.468499786221
 31
0.0
  0
LINE
  5
4CD
330
1F
100
AcDbEntity
  8
Visible (ANSI)
100
AcDbLine
 10
2155.91440778048
 20
2583.198169796633
 30
0.0
 11
2140.052258062606
 21
2583.464612806875
 31
0.0
  0
LINE
  5
4CE
330
1F
100
AcDbEntity
  8
Visible (ANSI)
100
AcDbLine
 10
2156.02434565072
 20
2583.73321719089
 30
0.0
 11
2340.356266174743
 21
2586.833147722388
 31
0.0
  0
LINE
  5
4CF
330
1F
100
AcDbEntity
  8
Visible (ANSI)
100
AcDbLine
 10
1971.149006818038
 20
2580.624147932889
 30
0.0
 11
2140.052258062606
 21
2583.464612806875
 31
0.0
  0
LINE
  5
4D0
330
1F
100
AcDbEntity
  8
Visible (ANSI)
100
AcDbLine
 10
2171.877445477965
 20
2583.466621987624
 30
0.0
 11
2340.402846469972
 21
2586.300732511638
 31
0.0
  0
LINE
  5
4D1
330
1F
100
AcDbEntity
  8
Visible (ANSI)
100
AcDbLine
 10
1971.417163168353
 20
2580.095458991447
 30
0.0
 11
2155.91440778048
 21
2583.198169796633
 31
0.0
  0
ELLIPSE
  5
4D2
330
1F
100
AcDbEntity
  8
Visible (ANSI)
100
AcDbEllipse
 10
1954.033529903282
 20
2580.05955469409
 30
0.0
 11
-17.50002189241114
 21
-0.0004850205406632
 31
0.0
210
0.0
220
0.0
230
0.9999999999999998
 40
0.0175149289752378
 41
3.257133732835314
 42
3.363212223849159
  0
LINE
  5
4D3
330
1F
100
AcDbEntity
  8
Visible (ANSI)
100
AcDbLine
 10
1902.346087826494
 20
2195.7831488753
 30
0.0
 11
1902.2794950431
 21
2195.7831488753
 31
0.0
  0
LINE
  5
4D4
330
1F
100
AcDbEntity
  8
Visible (ANSI)
100
AcDbLine
 10
1987.227221992293
 20
2756.118101066095
 30
0.0
 11
1977.662061645175
 21
2648.812043543509
 31
0.0
  0
LINE
  5
4D5
330
1F
100
AcDbEntity
  8
Visible (ANSI)
100
AcDbLine
 10
1953.953398294483
 20
2775.483084703378
 30
0.0
 11
1942.859455799359
 21
2651.026495547216
 31
0.0
  0
LINE
  5
4D6
330
1F
100
AcDbEntity
  8
Visible (ANSI)
100
AcDbLine
 10
1971.53690988602
 20
2580.097472785332
 30
0.0
 11
1948.097186083987
 21
2317.140631268831
 31
0.0
  0
LINE
  5
4D7
330
1F
100
AcDbEntity
  8
Visible (ANSI)
100
AcDbLine
 10
1905.876232754234
 20
2236.132890035693
 30
0.0
 11
1902.2794950431
 21
2195.7831488753
 31
0.0
  0
LINE
  5
4D8
330
1F
100
AcDbEntity
  8
Visible (ANSI)
100
AcDbLine
 10
3114.355012993987
 20
2195.7831488753
 30
0.0
 11
3079.355012993986
 21
2195.7831488753
 31
0.0
  0
LINE
  5
4D9
330
1F
100
AcDbEntity
  8
Visible (ANSI)
100
AcDbLine
 10
3079.355012993986
 20
2195.7831488753
 30
0.0
 11
3079.355012993975
 21
2629.063859502745
 31
0.0
  0
LINE
  5
4DA
330
1F
100
AcDbEntity
  8
Visible (ANSI)
100
AcDbLine
 10
3114.355012993987
 20
2195.7831488753
 30
0.0
 11
3114.355012993977
 21
2628.452932230255
 31
0.0
  0
LINE
  5
4DB
330
1F
100
AcDbEntity
  8
Visible (ANSI)
100
AcDbLine
 10
3070.113935598488
 20
2629.22516310868
 30
0.0
 11
3059.882427865769
 21
2629.403754740466
 31
0.0
  0
SPLINE
  5
4DC
330
1F
100
AcDbEntity
  8
Visible (ANSI)
100
AcDbSpline
210
0.0
220
0.0
230
1.0
 70
     8
 71
     3
 72
    10
 73
     6
 74
     0
 42
0.000000001
 43
0.0000000001
 40
-1.564307760457789
 40
-1.564307760457789
 40
-1.564307760457789
 40
-1.564307760457789
 40
-1.559814515353246
 40
-1.559814515353246
 40
0.0
 40
0.0
 40
0.0
 40
0.0
 10
3059.633172978011
 20
2639.409628781156
 30
0.0
 10
3059.631606279429
 20
2639.408701036642
 30
0.0
 10
3059.630039519724
 20
2639.407774414376
 30
0.0
 10
3059.084834095315
 20
2639.085729101145
 30
0.0
 10
3058.576697849995
 20
2638.927993459089
 30
0.0
 10
3058.081827890583
 20
2638.936631446359
 30
0.0
  0
LINE
  5
4DD
330
1F
100
AcDbEntity
  8
Visible (ANSI)
100
AcDbLine
 10
3050.062254692636
 20
2639.076613617286
 30
0.0
 11
3058.081827890581
 21
2638.936631446421
 31
0.0
  0
LINE
  5
4DE
330
1F
100
AcDbEntity
  8
Visible (ANSI)
100
AcDbLine
 10
3104.572757987052
 20
2628.623682126538
 30
0.0
 11
3070.113935598488
 21
2629.22516310868
 31
0.0
  0
LINE
  5
4DF
330
1F
100
AcDbEntity
  8
Visible (ANSI)
100
AcDbLine
 10
3379.678265225287
 20
2623.821697635583
 30
0.0
 11
3104.572757987052
 21
2628.623682126538
 31
0.0
  0
LINE
  5
4E0
330
1F
100
AcDbEntity
  8
Visible (ANSI)
100
AcDbLine
 10
3406.304996578672
 20
2623.356926310982
 30
0.0
 11
3379.678265225287
 21
2623.821697635583
 31
0.0
  0
LINE
  5
4E1
330
1F
100
AcDbEntity
  8
Visible (ANSI)
100
AcDbLine
 10
3409.895235777595
 20
2623.294258452657
 30
0.0
 11
3406.304996578675
 21
2623.356926310982
 31
0.0
  0
LINE
  5
4E2
330
1F
100
AcDbEntity
  8
Visible (ANSI)
100
AcDbLine
 10
3060.214023588075
 20
2648.400860948437
 30
0.0
 11
3064.364502782514
 21
2648.328414064617
 31
0.0
  0
LINE
  5
4E3
330
1F
100
AcDbEntity
  8
Visible (ANSI)
100
AcDbLine
 10
3074.93175043771
 20
2651.144419054814
 30
0.0
 11
3104.956710928671
 21
2650.620331419978
 31
0.0
  0
LINE
  5
4E4
330
1F
100
AcDbEntity
  8
Visible (ANSI)
100
AcDbLine
 10
3104.956710928671
 20
2650.620331419978
 30
0.0
 11
3380.062218166905
 21
2645.818346929023
 31
0.0
  0
LINE
  5
4E5
330
1F
100
AcDbEntity
  8
Visible (ANSI)
100
AcDbLine
 10
3380.062218166905
 20
2645.818346929023
 30
0.0
 11
3406.688949520294
 21
2645.353575604426
 31
0.0
  0
LINE
  5
4E6
330
1F
100
AcDbEntity
  8
Visible (ANSI)
100
AcDbLine
 10
3406.688949520294
 20
2645.353575604426
 30
0.0
 11
3420.211551063684
 21
2645.117537716487
 31
0.0
  0
ARC
  5
4E7
330
1F
100
AcDbEntity
  8
Visible (ANSI)
100
AcDbCircle
 10
3060.056951930141
 20
2639.402231692031
 30
0.0
 40
10.00000000000003
100
AcDbArc
 50
181.8659839822838
 51
268.9999999999197
  0
ARC
  5
4E8
330
1F
100
AcDbEntity
  8
Visible (ANSI)
100
AcDbCircle
 10
3420.002122186436
 20
2633.119365374609
 30
0.0
 40
10.00000000000003
100
AcDbArc
 50
268.9999999999197
 51
358.9999999999721
  0
SPLINE
  5
4E9
330
1F
100
AcDbEntity
  8
Visible (ANSI)
100
AcDbSpline
210
0.0
220
0.0
230
1.0
 70
     8
 71
     3
 72
    16
 73
    12
 74
     0
 42
0.000000001
 43
0.0000000001
 40
0.0
 40
0.0
 40
0.0
 40
0.0
 40
0.3048353814291078
 40
0.3048353814291078
 40
0.6096707628582157
 40
0.6096707628582157
 40
0.9145061442873231
 40
0.9145061442873231
 40
1.21934152571643
 40
1.21934152571643
 40
1.34776292853604
 40
1.34776292853604
 40
1.34776292853604
 40
1.34776292853604
 10
3074.931750437589
 20
2651.144419054814
 30
0.0
 10
3074.308942504238
 20
2651.155290207727
 30
0.0
 10
3073.687091967137
 20
2651.15305130398
 30
0.0
 10
3072.408099848994
 20
2651.103870074454
 30
0.0
 10
3071.751460286693
 20
2651.057986764132
 30
0.0
 10
3070.336234807959
 20
2650.876116420375
 30
0.0
 10
3069.577037053505
 20
2650.743199010998
 30
0.0
 10
3067.853173126125
 20
2650.258157692857
 30
0.0
 10
3066.878075400513
 20
2649.909102115508
 30
0.0
 10
3065.330022379298
 20
2649.024095823163
 30
0.0
 10
3064.847712688405
 20
2648.706931375866
 30
0.0
 10
3064.365288109816
 20
2648.328400356673
 30
0.0
  0
ARC
  5
4EA
330
1F
100
AcDbEntity
  8
Visible (ANSI)
100
AcDbCircle
 10
3060.039499523703
 20
2638.402383996873
 30
0.0
 40
10.00000000000004
100
AcDbArc
 50
89.00000000002384
 51
176.1340160170828
  0
SPLINE
  5
4EB
330
1F
100
AcDbEntity
  8
Visible (ANSI)
100
AcDbSpline
210
0.0
220
0.0
230
1.0
 70
     8
 71
     3
 72
    16
 73
    12
 74
     0
 42
0.000000001
 43
0.0000000001
 40
0.0
 40
0.0
 40
0.0
 40
0.0
 40
0.0470859230315579
 40
0.0470859230315579
 40
0.0941718460631158
 40
0.0941718460631158
 40
0.1412577690946737
 40
0.1412577690946737
 40
0.1883436921262316
 40
0.1883436921262316
 40
0.2354296151577895
 40
0.2354296151577895
 40
0.2354296151577895
 40
0.2354296151577895
 10
3061.714817958686
 20
2645.401927096853
 30
0.0
 10
3061.758337391044
 20
2645.467597902429
 30
0.0
 10
3061.802680994648
 20
2645.533483393396
 30
0.0
 10
3061.893131238918
 20
2645.665703262661
 30
0.0
 10
3061.939237868285
 20
2645.732037670157
 30
0.0
 10
3062.033336869163
 20
2645.865170992355
 30
0.0
 10
3062.081329231171
 20
2645.931969940793
 30
0.0
 10
3062.179330752394
 20
2646.066043075549
 30
0.0
 10
3062.22933990468
 20
2646.13331730061
 30
0.0
 10
3062.331514661094
 20
2646.268345744604
 30
0.0
 10
3062.383680261809
 20
2646.336100007724
 30
0.0
 10
3062.436998295036
 20
2646.404093037294
 30
0.0
  0
SPLINE
  5
4EC
330
1F
100
AcDbEntity
  8
Visible (ANSI)
100
AcDbSpline
210
0.0
220
0.0
230
1.0
 70
     8
 71
     3
 72
    18
 73
    14
 74
     0
 42
0.000000001
 43
0.0000000001
 40
0.0
 40
0.0
 40
0.0
 40
0.0
 40
0.2459364398369323
 40
0.2459364398369323
 40
0.5507718212710661
 40
0.5507718212710661
 40
0.8556072027051998
 40
0.8556072027051998
 40
1.160442584139333
 40
1.160442584139333
 40
1.465277965573466
 40
1.465277965573466
 40
1.524176907170668
 40
1.524176907170668
 40
1.524176907170668
 40
1.524176907170668
 10
3062.436998298702
 20
2646.404093041969
 30
0.0
 10
3063.277142714946
 20
2647.475474723058
 30
0.0
 10
3064.242016552084
 20
2648.296067556134
 30
0.0
 10
3066.269665506775
 20
2649.631648587227
 30
0.0
 10
3067.300147314971
 20
2650.054552440062
 30
0.0
 10
3069.107081489094
 20
2650.638000229454
 30
0.0
 10
3069.897852511147
 20
2650.797987958817
 30
0.0
 10
3071.357086500081
 20
2651.019512365721
 30
0.0
 10
3072.026955996044
 20
2651.077442959512
 30
0.0
 10
3073.322319291401
 20
2651.145586803105
 30
0.0
 10
3073.947335560929
 20
2651.154481231617
 30
0.0
 10
3074.691081083166
 20
2651.148109241785
 30
0.0
 10
3074.811414248647
 20
2651.146519530808
 30
0.0
 10
3074.93175043771
 20
2651.144419054814
 30
0.0
  0
ARC
  5
4ED
330
1F
100
AcDbEntity
  8
Visible (ANSI)
100
AcDbCircle
 10
3420.037026999312
 20
2635.119060764922
 30
0.0
 40
10.00000000000003
100
AcDbArc
 50
358.9999999999721
 51
89.00000000002384
  0
LINE
  5
4EE
330
1F
100
AcDbEntity
  8
Visible (ANSI)
100
AcDbLine
 10
3430.000599137999
 20
2632.944841310237
 30
0.0
 11
3430.035503950874
 21
2634.94453670055
 31
0.0
  0
LINE
  5
4EF
330
1F
100
AcDbEntity
  8
Visible (ANSI)
100
AcDbLine
 10
3553.70244013317
 20
2991.143131033729
 30
0.0
 11
3542.14029263462
 21
2993.390584838799
 31
0.0
  0
LINE
  5
4F0
330
1F
100
AcDbEntity
  8
Visible (ANSI)
100
AcDbLine
 10
3532.454117766009
 20
2881.829988867114
 30
0.0
 11
3553.70244013317
 21
2991.143131033729
 31
0.0
  0
SPLINE
  5
4F1
330
1F
100
AcDbEntity
  8
Visible (ANSI)
100
AcDbSpline
210
0.0
220
0.0
230
1.0
 70
     8
 71
     3
 72
    22
 73
    18
 74
     0
 42
0.000000001
 43
0.0000000001
 40
38.06357824768358
 40
38.06357824768358
 40
38.06357824768358
 40
38.06357824768358
 40
40.41835451310176
 40
40.41835451310176
 40
42.77313077851993
 40
42.77313077851993
 40
45.12790704393812
 40
45.12790704393812
 40
47.48268330935629
 40
47.48268330935629
 40
49.85237738374257
 40
49.85237738374257
 40
52.22207145812884
 40
52.22207145812884
 40
54.59176553251509
 40
54.59176553251509
 40
56.96145960690135
 40
56.96145960690135
 40
56.96145960690135
 40
56.96145960690135
 10
3485.417203992842
 20
2877.076849474838
 30
0.0
 10
3486.914912304645
 20
2884.781890785078
 30
0.0
 10
3488.723571415953
 20
2892.699466680872
 30
0.0
 10
3492.884074890002
 20
2908.339452589629
 30
0.0
 10
3495.235498267355
 20
2916.062078791739
 30
0.0
 10
3500.291295905327
 20
2930.766768963295
 30
0.0
 10
3502.998841864416
 20
2937.760733860116
 30
0.0
 10
3508.51074978011
 20
2950.595093563257
 30
0.0
 10
3511.313880241657
 20
2956.435320716926
 30
0.0
 10
3516.741505796176
 20
2966.716913679244
 30
0.0
 10
3519.550596797143
 20
2971.498923045642
 30
0.0
 10
3525.044314818266
 20
2979.803932550902
 30
0.0
 10
3527.727663364593
 20
2983.327742692378
 30
0.0
 10
3532.702058554003
 20
2988.841087296027
 30
0.0
 10
3534.996412847978
 20
2990.835558615014
 30
0.0
 10
3539.013944935855
 20
2993.246864794972
 30
0.0
 10
3540.736726928039
 20
2993.663410374738
 30
0.0
 10
3542.14029263462
 20
2993.390584838799
 30
0.0
  0
SPLINE
  5
4F2
330
1F
100
AcDbEntity
  8
Visible (ANSI)
100
AcDbSpline
210
0.0
220
0.0
230
1.0
 70
     8
 71
     3
 72
    18
 73
    14
 74
     0
 42
0.000000001
 43
0.0000000001
 40
24.09474942131252
 40
24.09474942131252
 40
24.09474942131252
 40
24.09474942131252
 40
26.27477911162458
 40
26.27477911162458
 40
28.64447318601085
 40
28.64447318601085
 40
30.99924945142904
 40
30.99924945142904
 40
33.35402571684721
 40
33.35402571684721
 40
35.7088019822654
 40
35.7088019822654
 40
38.06357824768358
 40
38.06357824768358
 40
38.06357824768358
 40
38.06357824768358
 10
3485.814215084424
 20
2760.077718586537
 30
0.0
 10
3484.658671142533
 20
2763.400753864778
 30
0.0
 10
3483.597238526332
 20
2767.375892731601
 30
0.0
 10
3481.694003378951
 20
2776.743633345123
 30
0.0
 10
3480.880831795277
 20
2782.229739232502
 30
0.0
 10
3479.699977526993
 20
2793.795890545706
 30
0.0
 10
3479.288747819615
 20
2800.260926022689
 30
0.0
 10
3478.986031559393
 20
2814.22553417067
 30
0.0
 10
3479.095624025099
 20
2821.724490070661
 30
0.0
 10
3479.916443975614
 20
2837.252376514291
 30
0.0
 10
3480.629188878677
 20
2845.293529544815
 30
0.0
 10
3482.630479073023
 20
2861.353223998376
 30
0.0
 10
3483.919495681039
 20
2869.371808164601
 30
0.0
 10
3485.417203992842
 20
2877.076849474838
 30
0.0
  0
LINE
  5
4F3
330
1F
100
AcDbEntity
  8
Visible (ANSI)
100
AcDbLine
 10
3542.14029263462
 20
2993.390584838799
 30
0.0
 11
3534.059134705935
 21
2994.961402815166
 31
0.0
  0
SPLINE
  5
4F4
330
1F
100
AcDbEntity
  8
Visible (ANSI)
100
AcDbSpline
210
0.0
220
0.0
230
1.0
 70
     8
 71
     3
 72
    22
 73
    18
 74
     0
 42
0.000000001
 43
0.0000000001
 40
38.0739663018485
 40
38.0739663018485
 40
38.0739663018485
 40
38.0739663018485
 40
40.42875456571709
 40
40.42875456571709
 40
42.78354282958571
 40
42.78354282958571
 40
45.13833109345433
 40
45.13833109345433
 40
47.49311935732293
 40
47.49311935732293
 40
49.86320051809139
 40
49.86320051809139
 40
52.23328167885985
 40
52.23328167885985
 40
54.60336283962831
 40
54.60336283962831
 40
55.6407298811159
 40
55.6407298811159
 40
55.6407298811159
 40
55.6407298811159
 10
3477.462754611103
 20
2878.623037804682
 30
0.0
 10
3475.965038667925
 20
2870.917957234425
 30
0.0
 10
3474.676032975173
 20
2862.89933256846
 30
0.0
 10
3472.67462351748
 20
2846.839602131248
 30
0.0
 10
3471.96174581749
 20
2838.798454141099
 30
0.0
 10
3471.139971046647
 20
2823.27074049307
 30
0.0
 10
3471.029545274715
 20
2815.771953926415
 30
0.0
 10
3471.32917117014
 20
2801.80800040083
 30
0.0
 10
3471.738127285224
 20
2795.343453805563
 30
0.0
 10
3472.912582297979
 20
2783.777774241542
 30
0.0
 10
3473.721465455931
 20
2778.291927058504
 30
0.0
 10
3475.692170811923
 20
2768.535424166963
 30
0.0
 10
3476.85248783494
 20
2764.264500022204
 30
0.0
 10
3479.380225162035
 20
2757.293328941709
 30
0.0
 10
3480.748837390071
 20
2754.587260247026
 30
0.0
 10
3482.757948818996
 20
2751.90254690298
 30
0.0
 10
3483.375079653754
 20
2751.245960775239
 30
0.0
 10
3483.992024738462
 20
2750.743379392516
 30
0.0
  0
SPLINE
  5
4F5
330
1F
100
AcDbEntity
  8
Visible (ANSI)
100
AcDbSpline
210
0.0
220
0.0
230
1.0
 70
     8
 71
     3
 72
    22
 73
    18
 74
     0
 42
0.000000001
 43
0.0000000001
 40
19.1744886033002
 40
19.1744886033002
 40
19.1744886033002
 40
19.1744886033002
 40
21.54456976406867
 40
21.54456976406867
 40
23.91465092483713
 40
23.91465092483713
 40
26.2847320856056
 40
26.2847320856056
 40
28.65481324637406
 40
28.65481324637406
 40
31.00960151024267
 40
31.00960151024267
 40
33.36438977411127
 40
33.36438977411127
 40
35.71917803797989
 40
35.71917803797989
 40
38.07396630184849
 40
38.07396630184849
 40
38.07396630184849
 40
38.07396630184849
 10
3534.059134705935
 20
2994.961402815166
 30
0.0
 10
3532.672030951419
 20
2995.231028471779
 30
0.0
 10
3530.964636968939
 20
2994.811830383969
 30
0.0
 10
3526.974177601093
 20
2992.396019869259
 30
0.0
 10
3524.691511264834
 20
2990.39968783065
 30
0.0
 10
3519.736387375983
 20
2984.883037626547
 30
0.0
 10
3517.060643821457
 20
2981.357768122725
 30
0.0
 10
3511.57858732142
 20
2973.04993538469
 30
0.0
 10
3508.773569391897
 20
2968.266559412226
 30
0.0
 10
3503.352053844139
 20
2957.983006644823
 30
0.0
 10
3500.551214558973
 20
2952.142381071728
 30
0.0
 10
3495.04241720549
 20
2939.307470652864
 30
0.0
 10
3492.335707307866
 20
2932.313350597175
 30
0.0
 10
3487.280859694255
 20
2917.608462956923
 30
0.0
 10
3484.929561332226
 20
2909.885791681562
 30
0.0
 10
3480.769154957513
 20
2894.245727732505
 30
0.0
 10
3478.960470554279
 20
2886.328118374939
 30
0.0
 10
3477.462754611103
 20
2878.623037804682
 30
0.0
  0
SPLINE
  5
4F6
330
1F
100
AcDbEntity
  8
Visible (ANSI)
100
AcDbSpline
210
0.0
220
0.0
230
1.0
 70
     8
 71
     3
 72
    27
 73
    23
 74
     0
 42
0.000000001
 43
0.0000000001
 40
-2.23479437082174
 40
-2.23479437082174
 40
-2.23479437082174
 40
-2.23479437082174
 40
-2.037005367183675
 40
-2.037005367183675
 40
-1.3741147377413
 40
-1.3741147377413
 40
-0.6948410857662483
 40
-0.6948410857662483
 40
0.0
 40
0.0
 40
0.0
 40
0.3952650684306977
 40
0.3952650684306977
 40
0.7898753292266001
 40
0.7898753292266001
 40
1.477725659844089
 40
1.477725659844089
 40
2.149275851487798
 40
2.149275851487798
 40
2.807512712008714
 40
2.807512712008714
 40
3.220143462371151
 40
3.220143462371151
 40
3.220143462371151
 40
3.220143462371151
 10
3546.218476134987
 20
2846.832131241459
 30
0.0
 10
3546.874272503236
 20
2846.832131401388
 30
0.0
 10
3547.530879793305
 20
2846.870674917664
 30
0.0
 10
3550.377526353575
 20
2847.207537745355
 30
0.0
 10
3552.494556253444
 20
2847.897829766997
 30
0.0
 10
3556.396008160539
 20
2850.081243846926
 30
0.0
 10
3558.128524310704
 20
2851.56982792361
 30
0.0
 10
3560.957978919307
 20
2855.169884892308
 30
0.0
 10
3562.011394292408
 20
2857.258850704507
 30
0.0
 10
3562.634298651336
 20
2859.489653372289
 30
0.0
 10
3562.988642024375
 20
2860.758660613229
 30
0.0
 10
3563.200898808559
 20
2862.063609839719
 30
0.0
 10
3563.334806085599
 20
2864.693198771125
 30
0.0
 10
3563.256582320448
 20
2866.010828975694
 30
0.0
 10
3562.647922975856
 20
2869.567427424529
 30
0.0
 10
3561.829622261765
 20
2871.734316496178
 30
0.0
 10
3559.440578710159
 20
2875.583724695989
 30
0.0
 10
3557.908519335679
 20
2877.243426537047
 30
0.0
 10
3554.330697971613
 20
2879.85623805441
 30
0.0
 10
3552.329658561581
 20
2880.797692969536
 30
0.0
 10
3548.869354567758
 20
2881.662356891972
 30
0.0
 10
3547.504193150802
 20
2881.829957470563
 30
0.0
 10
3546.136737328111
 20
2881.829957137084
 30
0.0
  0
SPLINE
  5
4F7
330
1F
100
AcDbEntity
  8
Visible (ANSI)
100
AcDbSpline
210
0.0
220
0.0
230
1.0
 70
     8
 71
     3
 72
    10
 73
     6
 74
     0
 42
0.000000001
 43
0.0000000001
 40
0.0
 40
0.0
 40
0.0
 40
0.0
 40
8.131003566502277
 40
8.131003566502277
 40
9.702692829432658
 40
9.702692829432658
 40
9.702692829432658
 40
9.702692829432658
 10
3546.218476134987
 20
2846.832131241459
 30
0.0
 10
3545.839874568059
 20
2846.832124289289
 30
0.0
 10
3544.121977094705
 20
2846.83211700699
 30
0.0
 10
3540.48862321676
 20
2846.832107986109
 30
0.0
 10
3539.850295805235
 20
2846.832106513899
 30
0.0
 10
3539.162405094756
 20
2846.832105031135
 30
0.0
  0
ELLIPSE
  5
4F8
330
1F
100
AcDbEntity
  8
Visible (ANSI)
100
AcDbEllipse
 10
3517.191321070992
 20
2831.134114805638
 30
0.0
 11
-16.8646368500355
 21
3.309144787127451
 31
0.0
210
0.0
220
0.0
230
1.0
 40
0.0674637251501706
 41
3.139910496802728
 42
6.283254683848639
  0
SPLINE
  5
4F9
330
1F
100
AcDbEntity
  8
Visible (ANSI)
100
AcDbSpline
210
0.0
220
0.0
230
1.0
 70
     8
 71
     3
 72
    25
 73
    21
 74
     0
 42
0.000000001
 43
0.0000000001
 40
-14.60712623904295
 40
-14.60712623904295
 40
-14.60712623904295
 40
-14.60712623904295
 40
-14.34312133371347
 40
-14.34312133371347
 40
-13.67402386473383
 40
-13.67402386473383
 40
-12.98802558651922
 40
-12.98802558651922
 40
-12.2901895013417
 40
-12.2901895013417
 40
-11.59292008889898
 40
-11.59292008889898
 40
-10.90797444309006
 40
-10.90797444309006
 40
-10.90797444309006
 40
-10.53667703819704
 40
-10.53667703819704
 40
-10.16510061209688
 40
-10.16510061209688
 40
-10.14557509536778
 40
-10.14557509536778
 40
-10.14557509536778
 40
-10.14557509536778
 10
3531.191463536432
 20
2881.82999024797
 30
0.0
 10
3532.047061340171
 20
2881.829986666176
 30
0.0
 10
3532.903375523968
 20
2881.761378144274
 30
0.0
 10
3535.905650097042
 20
2881.27541318399
 30
0.0
 10
3537.967027181238
 20
2880.49227214207
 30
0.0
 10
3541.729248680228
 20
2878.128662407042
 30
0.0
 10
3543.379803784594
 20
2876.55385494668
 30
0.0
 10
3546.019549491141
 20
2872.813250991487
 30
0.0
 10
3546.97184211303
 20
2870.673405624231
 30
0.0
 10
3548.01959739293
 20
2866.146708956251
 30
0.0
 10
3548.10687320529
 20
2863.798435252251
 30
0.0
 10
3547.404059783473
 20
2859.246161431798
 30
0.0
 10
3546.635219869385
 20
2857.077756774812
 30
0.0
 10
3545.482526113802
 20
2855.122517126253
 30
0.0
 10
3544.857670400502
 20
2854.062614910803
 30
0.0
 10
3544.12469161945
 20
2853.07336478871
 30
0.0
 10
3542.464106720621
 20
2851.271510961815
 30
0.0
 10
3541.541216516264
 20
2850.464331187082
 30
0.0
 10
3540.488275952323
 20
2849.729887324393
 30
0.0
 10
3540.435519220163
 20
2849.69353997046
 30
0.0
 10
3540.382575885746
 20
2849.657513294609
 30
0.0
  0
ELLIPSE
  5
4FA
330
1F
100
AcDbEntity
  8
Visible (ANSI)
100
AcDbEllipse
 10
3517.362783936368
 20
2832.012734624874
 30
0.0
 11
-16.86373112166372
 21
3.313785725455248
 31
0.0
210
0.0
220
0.0
230
1.0
 40
0.077911948623155
 41
3.150209276225821
 42
6.28328686445754
  0
ELLIPSE
  5
4FB
330
1F
100
AcDbEntity
  8
Visible (ANSI)
100
AcDbEllipse
 10
3517.362783936368
 20
2832.012734624874
 30
0.0
 11
-16.86373112166372
 21
3.313785725455248
 31
0.0
210
0.0
220
0.0
230
1.0
 40
0.077911948623155
 41
3.141694210867747
 42
3.150209276225821
  0
SPLINE
  5
4FC
330
1F
100
AcDbEntity
  8
Visible (ANSI)
100
AcDbSpline
210
0.0
220
0.0
230
1.0
 70
     8
 71
     3
 72
    10
 73
     6
 74
     0
 42
0.000000001
 43
0.0000000001
 40
0.0
 40
0.0
 40
0.0
 40
0.0
 40
8.131003939965006
 40
8.131003939965006
 40
9.703533118964342
 40
9.703533118964342
 40
9.703533118964342
 40
9.703533118964342
 10
3546.218476134987
 20
2846.832131241459
 30
0.0
 10
3545.840207014117
 20
2846.832138009057
 30
0.0
 10
3544.122545030269
 20
2846.832144453674
 30
0.0
 10
3540.48929647816
 20
2846.832151703129
 30
0.0
 10
3539.85066872735
 20
2846.832152864627
 30
0.0
 10
3539.162424255172
 20
2846.832154012492
 30
0.0
  0
SPLINE
  5
4FD
330
1F
100
AcDbEntity
  8
Visible (ANSI)
100
AcDbSpline
210
0.0
220
0.0
230
1.0
 70
     8
 71
     3
 72
    10
 73
     6
 74
     0
 42
0.000000001
 43
0.0000000001
 40
0.0
 40
0.0
 40
0.0
 40
0.0
 40
8.130601491783504
 40
8.130601491783504
 40
14.61161814130172
 40
14.61161814130172
 40
14.61161814130172
 40
14.61161814130172
 10
3531.191463536432
 20
2881.82999024797
 30
0.0
 10
3536.340957448069
 20
2881.82998476856
 30
0.0
 10
3540.182099524324
 20
2881.829978897502
 30
0.0
 10
3544.683522760085
 20
2881.829967719423
 30
0.0
 10
3545.835198736781
 20
2881.829962531359
 30
0.0
 10
3546.136737328111
 20
2881.829957137084
 30
0.0
  0
SPLINE
  5
4FE
330
1F
100
AcDbEntity
  8
Visible (ANSI)
100
AcDbSpline
210
0.0
220
0.0
230
1.0
 70
     8
 71
     3
 72
    18
 73
    14
 74
     0
 42
0.000000001
 43
0.0000000001
 40
0.0
 40
0.0
 40
0.0
 40
0.0
 40
1.439665677065691
 40
1.439665677065691
 40
2.879614717271011
 40
2.879614717271011
 40
4.502703682394781
 40
4.502703682394781
 40
5.47066477829576
 40
5.47066477829576
 40
6.085337896182255
 40
6.085337896182255
 40
6.931096282300638
 40
6.931096282300638
 40
6.931096282300638
 40
6.931096282300638
 10
3500.635017632986
 20
2836.023885458402
 30
0.0
 10
3501.551712635543
 20
2840.725620598911
 30
0.0
 10
3502.665216261636
 20
2845.39857710791
 30
0.0
 10
3505.135812635642
 20
2854.008103165197
 30
0.0
 10
3506.513541089685
 20
2858.034207364493
 30
0.0
 10
3509.693860881659
 20
2865.640646520122
 30
0.0
 10
3511.504376044387
 20
2869.171888253757
 30
0.0
 10
3515.315270472746
 20
2874.278000598562
 30
0.0
 10
3516.999914392741
 20
2876.117365538088
 30
0.0
 10
3520.433430301824
 20
2878.711752549964
 30
0.0
 10
3521.949123670231
 20
2879.617467421791
 30
0.0
 10
3525.867400077993
 20
2881.268783705298
 30
0.0
 10
3528.451932480307
 20
2881.829992523221
 30
0.0
 10
3531.027267030266
 20
2881.829990384347
 30
0.0
  0
SPLINE
  5
4FF
330
1F
100
AcDbEntity
  8
Visible (ANSI)
100
AcDbSpline
210
0.0
220
0.0
230
1.0
 70
     8
 71
     3
 72
    20
 73
    16
 74
     0
 42
0.000000001
 43
0.0000000001
 40
1.862084520831924
 40
1.862084520831924
 40
1.862084520831924
 40
1.862084520831924
 40
1.902524248364504
 40
1.902524248364504
 40
2.258679493276881
 40
2.258679493276881
 40
2.693254751828903
 40
2.693254751828903
 40
3.245110707846883
 40
3.245110707846883
 40
3.929521648803214
 40
3.929521648803214
 40
4.72849960206717
 40
4.72849960206717
 40
5.138439015039796
 40
5.138439015039796
 40
5.138439015039796
 40
5.138439015039796
 10
3541.204434247668
 20
2851.157704969072
 30
0.0
 10
3541.204434247657
 20
2851.157704969054
 30
0.0
 10
3541.203110125027
 20
2851.155833415968
 30
0.0
 10
3541.17799891427
 20
2851.119400152784
 30
0.0
 10
3541.059577776147
 20
2850.939872831569
 30
0.0
 10
3540.68581451971
 20
2850.272668094738
 30
0.0
 10
3540.403129334161
 20
2849.721741469832
 30
0.0
 10
3539.69559814023
 20
2848.174443004333
 30
0.0
 10
3539.245053899266
 20
2847.083071698751
 30
0.0
 10
3538.221391374397
 20
2844.316567609345
 30
0.0
 10
3537.632451652592
 20
2842.533414232148
 30
0.0
 10
3536.41079752098
 20
2838.379790311538
 30
0.0
 10
3535.772214723706
 20
2835.911522115206
 30
0.0
 10
3534.904823585019
 20
2832.073258453475
 30
0.0
 10
3534.625089877853
 20
2830.743241369335
 30
0.0
 10
3534.364329123041
 20
2829.405797616783
 30
0.0
  0
LINE
  5
500
330
1F
100
AcDbEntity
  8
Visible (ANSI)
100
AcDbLine
 10
3500.49902667971
 20
2835.326386898869
 30
0.0
 11
3500.635017632986
 21
2836.023885458402
 31
0.0
  0
LINE
  5
501
330
1F
100
AcDbEntity
  8
Visible (ANSI)
100
AcDbLine
 10
3534.226544668839
 20
2828.699100178335
 30
0.0
 11
3534.364329123041
 21
2829.405797616783
 31
0.0
  0
LINE
  5
502
330
1F
100
AcDbEntity
  8
Visible (ANSI)
100
AcDbLine
 10
3500.3266687734
 20
2834.443180651444
 30
0.0
 11
3500.499026681261
 21
2835.326386898563
 31
0.0
  0
LINE
  5
503
330
1F
100
AcDbEntity
  8
Visible (ANSI)
100
AcDbLine
 10
3534.055973368584
 20
2827.825048959829
 30
0.0
 11
3534.226541191475
 21
2828.699082351181
 31
0.0
  0
ELLIPSE
  5
504
330
1F
100
AcDbEntity
  8
Visible (ANSI)
100
AcDbEllipse
 10
3517.192397712512
 20
2831.139631793158
 30
0.0
 11
16.86274955335281
 21
-3.318815413766911
 31
0.0
210
0.0
220
0.0
230
1.0
 40
0.071164394068585
 41
0.0001139816435067
 42
3.141706635233298
  0
ELLIPSE
  5
505
330
1F
100
AcDbEntity
  8
Visible (ANSI)
100
AcDbEllipse
 10
3477.158061841585
 20
2625.993398706018
 30
0.0
 11
-17.50260403545694
 21
0.0269025273236656
 31
0.0
210
0.0
220
0.0
230
1.0
 40
0.0884100869421273
 41
4.729775542792714
 42
6.300578053110629
  0
ELLIPSE
  5
506
330
1F
100
AcDbEntity
  8
Visible (ANSI)
100
AcDbEllipse
 10
3477.158061841585
 20
2625.993398706018
 30
0.0
 11
-17.50260403545694
 21
0.0269025273236656
 31
0.0
210
0.0
220
0.0
230
1.0
 40
0.0884100869421273
 41
3.158985399520837
 42
4.729775542792713
  0
LINE
  5
507
330
1F
100
AcDbEntity
  8
Visible (ANSI)
100
AcDbLine
 10
3459.658060566543
 20
2626.046772991453
 30
0.0
 11
3500.329621348343
 21
2834.458310404276
 31
0.0
  0
LINE
  5
508
330
1F
100
AcDbEntity
  8
Visible (ANSI)
100
AcDbLine
 10
3494.663270919085
 20
2625.966710539717
 30
0.0
 11
3534.055174076679
 21
2827.820953182039
 31
0.0
  0
LINE
  5
509
330
1F
100
AcDbEntity
  8
Visible (ANSI)
100
AcDbLine
 10
3543.614359944076
 20
2195.783257824576
 30
0.0
 11
3459.658063709078
 21
2625.993384868918
 31
0.0
  0
LINE
  5
50A
330
1F
100
AcDbEntity
  8
Visible (ANSI)
100
AcDbLine
 10
3578.614359944068
 20
2195.783266359933
 30
0.0
 11
3494.658059974091
 21
2625.993412543117
 31
0.0
  0
LINE
  5
50B
330
1F
100
AcDbEntity
  8
Visible (ANSI)
100
AcDbLine
 10
3289.390550254345
 20
2604.445639410577
 30
0.0
 11
3289.275010647509
 21
2604.447656161916
 31
0.0
  0
LINE
  5
50C
330
1F
100
AcDbEntity
  8
Visible (ANSI)
100
AcDbLine
 10
3287.720090668145
 20
2625.426833543159
 30
0.0
 11
3289.390550254345
 21
2604.445639410577
 31
0.0
  0
LINE
  5
50D
330
1F
100
AcDbEntity
  8
Visible (ANSI)
100
AcDbLine
 10
3468.562302629596
 20
2580.366148687517
 30
0.0
 11
3114.355012993869
 21
2586.548859926156
 31
0.0
  0
LINE
  5
50E
330
1F
100
AcDbEntity
  8
Visible (ANSI)
100
AcDbLine
 10
3460.356694491262
 20
2622.413450414439
 30
0.0
 11
3409.895235777599
 21
2623.294258452657
 31
0.0
  0
LINE
  5
50F
330
1F
100
AcDbEntity
  8
Visible (ANSI)
100
AcDbLine
 10
3289.376488259744
 20
2604.445884863606
 30
0.0
 11
3289.376476839145
 21
2604.446003947032
 31
0.0
  0
LINE
  5
510
330
1F
100
AcDbEntity
  8
Visible (ANSI)
100
AcDbLine
 10
3289.376476839145
 20
2604.446003947032
 30
0.0
 11
3289.390540776667
 21
2604.445758451402
 31
0.0
  0
LINE
  5
511
330
1F
100
AcDbEntity
  8
Visible (ANSI)
100
AcDbLine
 10
3289.389465238829
 20
2604.445658349592
 30
0.0
 11
3289.389456309101
 21
2604.445770649647
 31
0.0
  0
LINE
  5
512
330
1F
100
AcDbEntity
  8
Visible (ANSI)
100
AcDbLine
 10
3275.670018213798
 20
2583.73321719089
 30
0.0
 11
3114.35501299396
 21
2586.549080742803
 31
0.0
  0
LINE
  5
513
330
1F
100
AcDbEntity
  8
Visible (ANSI)
100
AcDbLine
 10
3290.943360865496
 20
2583.466621987624
 30
0.0
 11
3114.355012993969
 21
2586.549092163208
 31
0.0
  0
LINE
  5
514
330
1F
100
AcDbEntity
  8
Visible (ANSI)
100
AcDbLine
 10
3460.356691082951
 20
2622.413467878822
 30
0.0
 11
3419.856721593897
 21
2623.120422497101
 31
0.0
  0
ELLIPSE
  5
515
330
1F
100
AcDbEntity
  8
Visible (ANSI)
100
AcDbEllipse
 10
3477.155503814975
 20
2625.993315670072
 30
0.0
 11
-17.50260586647466
 21
0.0269162060057881
 31
0.0
210
0.0
220
0.0
230
0.9999999999999998
 40
0.0884098171800896
 41
6.266074805855018
 42
6.317727703484398
  0
LINE
  5
516
330
1F
100
AcDbEntity
  8
Visible (ANSI)
100
AcDbLine
 10
3578.611461780624
 20
2195.7831488753
 30
0.0
 11
3543.611461780631
 21
2195.7831488753
 31
0.0
  0
LINE
  5
517
330
1F
100
AcDbEntity
  8
Visible (ANSI)
100
AcDbLine
 10
3483.990088724091
 20
2750.742882521172
 30
0.0
 11
3459.655500713579
 21
2626.046703471304
 31
0.0
  0
LINE
  5
518
330
1F
100
AcDbEntity
  8
Visible (ANSI)
100
AcDbLine
 10
3578.611438837722
 20
2195.783266440154
 30
0.0
 11
3578.611461780624
 21
2195.7831488753
 31
0.0
  0
LINE
  5
519
330
1F
100
AcDbEntity
  8
Visible (ANSI)
100
AcDbLine
 10
3459.655503814977
 20
2625.993315670072
 30
0.0
 11
3460.354105999274
 21
2622.41351300315
 31
0.0
  0
LINE
  5
51A
330
1F
100
AcDbEntity
  8
Visible (ANSI)
100
AcDbLine
 10
3468.559683611021
 20
2580.366194402592
 30
0.0
 11
3543.611461780631
 21
2195.7831488753
 31
0.0
  0
LINE
  5
51B
330
1F
100
AcDbEntity
  8
Dimension (ANSI)
100
AcDbLine
 10
3545.112252601652
 20
2195.783257810708
 30
0.0
 11
3543.614359944072
 21
2195.783257824576
 31
0.0
  0
ELLIPSE
  5
51C
330
1F
100
AcDbEntity
  8
Visible (ANSI)
100
AcDbEllipse
 10
5809.074940927097
 20
2351.938752594924
 30
0.0
 11
17.56684715700917
 21
-0.0000000000000055
 31
0.0
210
0.0
220
0.0
230
1.0
 40
0.9961946980917366
 41
4.712388980384688
 42
7.853981633974482
  0
LINE
  5
51D
330
1F
100
AcDbEntity
  8
Visible (ANSI)
100
AcDbLine
 10
5809.074940927097
 20
2334.438752594924
 30
0.0
 11
5797.43018799492
 21
2334.438752594962
 31
0.0
  0
LINE
  5
51E
330
1F
100
AcDbEntity
  8
Visible (ANSI)
100
AcDbLine
 10
5809.074940927097
 20
2369.438752594924
 30
0.0
 11
5808.88527505156
 21
2369.438752594926
 31
0.0
  0
SPLINE
  5
51F
330
1F
100
AcDbEntity
  8
Visible (ANSI)
100
AcDbSpline
210
0.0
220
0.0
230
1.0
 70
     8
 71
     3
 72
    10
 73
     6
 74
     0
 42
0.000000001
 43
0.0000000001
 40
-1.555749757702731
 40
-1.555749757702731
 40
-1.555749757702731
 40
-1.555749757702731
 40
0.0
 40
0.0
 40
0.0044816803505946
 40
0.0044816803505946
 40
0.0044816803505946
 40
0.0044816803505946
 10
5404.829732094353
 20
2313.165567491671
 30
0.0
 10
5399.654015773122
 20
2313.660432279323
 30
0.0
 10
5394.481302090133
 20
2314.168567984367
 30
0.0
 10
5389.319223714943
 20
2314.713779187641
 30
0.0
 10
5389.304394161336
 20
2314.715345813605
 30
0.0
 10
5389.289566611754
 20
2314.716912579095
 30
0.0
  0
SPLINE
  5
520
330
1F
100
AcDbEntity
  8
Visible (ANSI)
100
AcDbSpline
210
0.0
220
0.0
230
1.0
 70
     8
 71
     3
 72
    10
 73
     6
 74
     0
 42
0.000000001
 43
0.0000000001
 40
-1.564307760457789
 40
-1.564307760457789
 40
-1.564307760457789
 40
-1.564307760457789
 40
-1.559814515353246
 40
-1.559814515353246
 40
0.0
 40
0.0
 40
0.0
 40
0.0
 10
5756.637195123229
 20
2314.716912579095
 30
0.0
 10
5756.622368206852
 20
2314.715345880513
 30
0.0
 10
5756.607537387214
 20
2314.713779120806
 30
0.0
 10
5751.445513728941
 20
2314.168573696399
 30
0.0
 10
5746.272800052493
 20
2313.660437451081
 30
0.0
 10
5741.097029640631
 20
2313.165567491671
 30
0.0
  0
ELLIPSE
  5
521
330
1F
100
AcDbEntity
  8
Visible (ANSI)
100
AcDbEllipse
 10
5572.963380867493
 20
4071.114479946471
 30
0.0
 11
-1766.237492177724
 21
-0.000000004052092
 31
0.0
210
0.0
220
0.0
230
1.0
 40
0.9998476951563887
 41
1.475458853279311
 42
1.666133800305891
  0
SPLINE
  5
522
330
1F
100
AcDbEntity
  8
Visible (ANSI)
100
AcDbSpline
210
0.0
220
0.0
230
1.0
 70
     8
 71
     3
 72
    16
 73
    12
 74
     0
 42
0.000000001
 43
0.0000000001
 40
4.604385979632753
 40
4.604385979632753
 40
4.604385979632753
 40
4.604385979632753
 40
4.605490266953464
 40
4.605490266953464
 40
4.606594554274174
 40
4.606594554274174
 40
4.607698841594887
 40
4.607698841594887
 40
4.608803128915596
 40
4.608803128915596
 40
4.609907416236306
 40
4.609907416236306
 40
4.609907416236306
 40
4.609907416236306
 10
5382.573885450616
 20
2315.430448241052
 30
0.0
 10
5383.220245876622
 20
2315.360377344814
 30
0.0
 10
5383.866644997528
 20
2315.290663278092
 30
0.0
 10
5385.159519840896
 20
2315.151948888686
 30
0.0
 10
5385.805995563356
 20
2315.082948566002
 30
0.0
 10
5387.099022821488
 20
2314.945661748819
 30
0.0
 10
5387.745574357163
 20
2314.877375254317
 30
0.0
 10
5389.038752453287
 20
2314.741516176766
 30
0.0
 10
5389.685379013737
 20
2314.673943593714
 30
0.0
 10
5390.978706370894
 20
2314.539512421465
 30
0.0
 10
5391.625407167598
 20
2314.472653832266
 30
0.0
 10
5392.272144688122
 20
2314.406152280759
 30
0.0
  0
SPLINE
  5
523
330
1F
100
AcDbEntity
  8
Visible (ANSI)
100
AcDbSpline
210
0.0
220
0.0
230
1.0
 70
     8
 71
     3
 72
    16
 73
    12
 74
     0
 42
0.000000001
 43
0.0000000001
 40
4.81487054453312
 40
4.81487054453312
 40
4.81487054453312
 40
4.81487054453312
 40
4.815974831853822
 40
4.815974831853822
 40
4.817079119174523
 40
4.817079119174523
 40
4.818183406495224
 40
4.818183406495224
 40
4.819287693815925
 40
4.819287693815925
 40
4.820391981136626
 40
4.820391981136626
 40
4.820391981136626
 40
4.820391981136626
 10
5753.654617046946
 20
2314.406152280768
 30
0.0
 10
5754.301354567466
 20
2314.472653832276
 30
0.0
 10
5754.948055364167
 20
2314.539512421474
 30
0.0
 10
5756.241382721309
 20
2314.673943593722
 30
0.0
 10
5756.888009281756
 20
2314.741516176772
 30
0.0
 10
5758.18118737787
 20
2314.877375254322
 30
0.0
 10
5758.827738913536
 20
2314.945661748823
 30
0.0
 10
5760.120766171658
 20
2315.082948566007
 30
0.0
 10
5760.767241894113
 20
2315.15194888869
 30
0.0
 10
5762.060116737466
 20
2315.290663278092
 30
0.0
 10
5762.706515858366
 20
2315.360377344814
 30
0.0
 10
5763.352876284367
 20
2315.430448241052
 30
0.0
  0
SPLINE
  5
524
330
1F
100
AcDbEntity
  8
Visible (ANSI)
100
AcDbSpline
210
0.0
220
0.0
230
1.0
 70
     8
 71
     3
 72
    16
 73
    12
 74
     0
 42
0.000000001
 43
0.0000000001
 40
4.820391981136626
 40
4.820391981136626
 40
4.820391981136626
 40
4.820391981136626
 40
5.086358048353724
 40
5.086358048353724
 40
5.352324115570822
 40
5.352324115570822
 40
5.618290182787921
 40
5.618290182787921
 40
5.884256250005019
 40
5.884256250005019
 40
6.150222317222119
 40
6.150222317222119
 40
6.150222317222119
 40
6.150222317222119
 10
5763.352876284367
 20
2315.43044824105
 30
0.0
 10
5767.7596862927
 20
2315.908183440182
 30
0.0
 10
5772.102230478575
 20
2316.975250063386
 30
0.0
 10
5780.354871402703
 20
2320.213393431286
 30
0.0
 10
5784.264282774244
 20
2322.384202210684
 30
0.0
 10
5791.37564974415
 20
2327.677403302731
 30
0.0
 10
5794.577013818986
 20
2330.799356891374
 30
0.0
 10
5800.046984785343
 20
2337.775489027837
 30
0.0
 10
5802.315135834309
 20
2341.629088279633
 30
0.0
 10
5805.758953365408
 20
2349.797620750589
 30
0.0
 10
5806.93433238661
 20
2354.111874546468
 30
0.0
 10
5807.522026180037
 20
2358.505107686782
 30
0.0
  0
SPLINE
  5
525
330
1F
100
AcDbEntity
  8
Visible (ANSI)
100
AcDbSpline
210
0.0
220
0.0
230
1.0
 70
     8
 71
     3
 72
    16
 73
    12
 74
     0
 42
0.000000001
 43
0.0000000001
 40
6.15022231722211
 40
6.15022231722211
 40
6.15022231722211
 40
6.15022231722211
 40
6.176814915213599
 40
6.176814915213599
 40
6.203407513205088
 40
6.203407513205088
 40
6.230000111196577
 40
6.230000111196577
 40
6.256592709188066
 40
6.256592709188066
 40
6.283185307179554
 40
6.283185307179554
 40
6.283185307179554
 40
6.283185307179554
 10
5807.522026180037
 20
2358.505107686782
 30
0.0
 10
5808.246470903234
 20
2363.920605692492
 30
0.0
 10
5808.898894346043
 20
2369.34573532757
 30
0.0
 10
5810.059237327847
 20
2380.211421741053
 30
0.0
 10
5810.567156857164
 20
2385.651978428887
 30
0.0
 10
5811.43813283138
 20
2396.544671741565
 30
0.0
 10
5811.801189269014
 20
2401.996808275614
 30
0.0
 10
5812.382182319948
 20
2412.908805884863
 30
0.0
 10
5812.600118928407
 20
2418.368666869108
 30
0.0
 10
5812.890718203387
 20
2429.292252519948
 30
0.0
 10
5812.963380867488
 20
2434.755977095492
 30
0.0
 10
5812.963380867488
 20
2440.21970171658
 30
0.0
  0
SPLINE
  5
526
330
1F
100
AcDbEntity
  8
Visible (ANSI)
100
AcDbSpline
210
0.0
220
0.0
230
1.0
 70
     8
 71
     3
 72
    16
 73
    12
 74
     0
 42
0.000000001
 43
0.0000000001
 40
3.141592653589762
 40
3.141592653589762
 40
3.141592653589762
 40
3.141592653589762
 40
3.168185251581263
 40
3.168185251581263
 40
3.194777849572765
 40
3.194777849572765
 40
3.221370447564268
 40
3.221370447564268
 40
3.247963045555769
 40
3.247963045555769
 40
3.274555643547271
 40
3.274555643547271
 40
3.274555643547271
 40
3.274555643547271
 10
5332.963380867496
 20
2440.21970171662
 30
0.0
 10
5332.963380867496
 20
2434.755977095531
 30
0.0
 10
5333.036043531595
 20
2429.292252519985
 30
0.0
 10
5333.326642806576
 20
2418.368666869137
 30
0.0
 10
5333.544579415033
 20
2412.908805884892
 30
0.0
 10
5334.125572465968
 20
2401.996808275635
 30
0.0
 10
5334.488628903604
 20
2396.544671741585
 30
0.0
 10
5335.359604877818
 20
2385.651978428899
 30
0.0
 10
5335.867524407136
 20
2380.211421741064
 30
0.0
 10
5337.027867388941
 20
2369.345735327575
 30
0.0
 10
5337.680290831752
 20
2363.920605692496
 30
0.0
 10
5338.404735554946
 20
2358.505107686782
 30
0.0
  0
SPLINE
  5
527
330
1F
100
AcDbEntity
  8
Visible (ANSI)
100
AcDbSpline
210
0.0
220
0.0
230
1.0
 70
     8
 71
     3
 72
    16
 73
    12
 74
     0
 42
0.000000001
 43
0.0000000001
 40
3.274555643547271
 40
3.274555643547271
 40
3.274555643547271
 40
3.274555643547271
 40
3.540521710764368
 40
3.540521710764368
 40
3.806487777981463
 40
3.806487777981463
 40
4.072453845198561
 40
4.072453845198561
 40
4.338419912415656
 40
4.338419912415656
 40
4.604385979632753
 40
4.604385979632753
 40
4.604385979632753
 40
4.604385979632753
 10
5338.404735554946
 20
2358.505107686782
 30
0.0
 10
5338.992429348371
 20
2354.111874546468
 30
0.0
 10
5340.167808369574
 20
2349.797620750591
 30
0.0
 10
5343.611625900672
 20
2341.629088279633
 30
0.0
 10
5345.87977694964
 20
2337.775489027839
 30
0.0
 10
5351.349747915998
 20
2330.799356891375
 30
0.0
 10
5354.551111990833
 20
2327.677403302731
 30
0.0
 10
5361.662478960742
 20
2322.384202210685
 30
0.0
 10
5365.571890332279
 20
2320.213393431286
 30
0.0
 10
5373.824531256409
 20
2316.975250063386
 30
0.0
 10
5378.167075442281
 20
2315.908183440182
 30
0.0
 10
5382.573885450616
 20
2315.430448241052
 30
0.0
  0
SPLINE
  5
528
330
1F
100
AcDbEntity
  8
Visible (ANSI)
100
AcDbSpline
210
0.0
220
0.0
230
1.0
 70
     8
 71
     3
 72
    16
 73
    12
 74
     0
 42
0.000000001
 43
0.0000000001
 40
6.283185307179554
 40
6.283185307179554
 40
6.283185307179554
 40
6.283185307179554
 40
6.348566370711396
 40
6.348566370711396
 40
6.413947434243238
 40
6.413947434243238
 40
6.479328497775082
 40
6.479328497775082
 40
6.544709561306923
 40
6.544709561306923
 40
6.610090624838766
 40
6.610090624838766
 40
6.610090624838766
 40
6.610090624838766
 10
5812.963380867488
 20
2440.254606529454
 30
0.0
 10
5812.963380867488
 20
2453.687823046552
 30
0.0
 10
5812.524018587463
 20
2467.121035472808
 30
0.0
 10
5810.768446481816
 20
2493.930065362225
 30
0.0
 10
5809.452237190979
 20
2507.305874661208
 30
0.0
 10
5805.948595152659
 20
2533.942940441733
 30
0.0
 10
5803.761163472453
 20
2547.204188811526
 30
0.0
 10
5798.524423776722
 20
2573.555464445786
 30
0.0
 10
5795.475117356389
 20
2586.645483685634
 30
0.0
 10
5788.527658376945
 20
2612.598364520144
 30
0.0
 10
5784.629507934102
 20
2625.461218211642
 30
0.0
 10
5780.315263207318
 20
2638.183010210205
 30
0.0
  0
SPLINE
  5
529
330
1F
100
AcDbEntity
  8
Visible (ANSI)
100
AcDbSpline
210
0.0
220
0.0
230
1.0
 70
     8
 71
     3
 72
    16
 73
    12
 74
     0
 42
0.000000001
 43
0.0000000001
 40
0.3269053176591799
 40
0.3269053176591799
 40
0.3269053176591799
 40
0.3269053176591799
 40
0.5432547544682534
 40
0.5432547544682534
 40
0.7596041912773268
 40
0.7596041912773268
 40
0.9759536280863999
 40
0.9759536280863999
 40
1.192303064895472
 40
1.192303064895472
 40
1.408652501704545
 40
1.408652501704545
 40
1.408652501704545
 40
1.408652501704545
 10
5780.315263207318
 20
2638.183010210205
 30
0.0
 10
5779.157323806226
 20
2641.597527730775
 30
0.0
 10
5777.628578379102
 20
2644.886172517367
 30
0.0
 10
5773.900561958484
 20
2651.058850006359
 30
0.0
 10
5771.701427261505
 20
2653.942657843169
 30
0.0
 10
5766.735150426565
 20
2659.171181510235
 30
0.0
 10
5763.968189586691
 20
2661.515707152847
 30
0.0
 10
5757.995248999494
 20
2665.556336783877
 30
0.0
 10
5754.789486968408
 20
2667.252294017937
 30
0.0
 10
5748.088382286389
 20
2669.916694086449
 30
0.0
 10
5744.59328358273
 20
2670.885040274201
 30
0.0
 10
5741.034855476567
 20
2671.467038872123
 30
0.0
  0
SPLINE
  5
52A
330
1F
100
AcDbEntity
  8
Visible (ANSI)
100
AcDbSpline
210
0.0
220
0.0
230
1.0
 70
     8
 71
     3
 72
    16
 73
    12
 74
     0
 42
0.000000001
 43
0.0000000001
 40
1.408652501704546
 40
1.408652501704546
 40
1.408652501704546
 40
1.408652501704546
 40
1.473510031740685
 40
1.473510031740685
 40
1.538367561776823
 40
1.538367561776823
 40
1.60322509181296
 40
1.60322509181296
 40
1.668082621849099
 40
1.668082621849099
 40
1.732940151885236
 40
1.732940151885236
 40
1.732940151885236
 40
1.732940151885236
 10
5741.034855476567
 20
2671.467038872123
 30
0.0
 10
5718.822055720397
 20
2675.100052643464
 30
0.0
 10
5696.491390139797
 20
2678.012588869384
 30
0.0
 10
5651.688201256765
 20
2682.384462689296
 30
0.0
 10
5629.215691163508
 20
2683.843798994565
 30
0.0
 10
5584.223309846775
 20
2685.303135730011
 30
0.0
 10
5561.70345188821
 20
2685.303135730011
 30
0.0
 10
5516.711070571474
 20
2683.843798994567
 30
0.0
 10
5494.238560478217
 20
2682.384462689296
 30
0.0
 10
5449.435371595185
 20
2678.012588869386
 30
0.0
 10
5427.104706014587
 20
2675.100052643466
 30
0.0
 10
5404.891906258415
 20
2671.467038872124
 30
0.0
  0
SPLINE
  5
52B
330
1F
100
AcDbEntity
  8
Visible (ANSI)
100
AcDbSpline
210
0.0
220
0.0
230
1.0
 70
     8
 71
     3
 72
    16
 73
    12
 74
     0
 42
0.000000001
 43
0.0000000001
 40
1.732940151885238
 40
1.732940151885238
 40
1.732940151885238
 40
1.732940151885238
 40
1.949289588694314
 40
1.949289588694314
 40
2.165639025503391
 40
2.165639025503391
 40
2.381988462312468
 40
2.381988462312468
 40
2.598337899121546
 40
2.598337899121546
 40
2.814687335930623
 40
2.814687335930623
 40
2.814687335930623
 40
2.814687335930623
 10
5404.891906258415
 20
2671.467038872124
 30
0.0
 10
5401.333478152253
 20
2670.885040274201
 30
0.0
 10
5397.838379448597
 20
2669.916694086451
 30
0.0
 10
5391.137274766578
 20
2667.252294017939
 30
0.0
 10
5387.931512735489
 20
2665.556336783879
 30
0.0
 10
5381.958572148293
 20
2661.515707152847
 30
0.0
 10
5379.191611308417
 20
2659.171181510237
 30
0.0
 10
5374.225334473479
 20
2653.942657843171
 30
0.0
 10
5372.026199776497
 20
2651.058850006359
 30
0.0
 10
5368.298183355879
 20
2644.886172517369
 30
0.0
 10
5366.769437928756
 20
2641.597527730775
 30
0.0
 10
5365.611498527665
 20
2638.183010210205
 30
0.0
  0
SPLINE
  5
52C
330
1F
100
AcDbEntity
  8
Visible (ANSI)
100
AcDbSpline
210
0.0
220
0.0
230
1.0
 70
     8
 71
     3
 72
    16
 73
    12
 74
     0
 42
0.000000001
 43
0.0000000001
 40
2.814687335930623
 40
2.814687335930623
 40
2.814687335930623
 40
2.814687335930623
 40
2.88006839946245
 40
2.88006839946245
 40
2.945449462994277
 40
2.945449462994277
 40
3.010830526526106
 40
3.010830526526106
 40
3.076211590057933
 40
3.076211590057933
 40
3.141592653589762
 40
3.141592653589762
 40
3.141592653589762
 40
3.141592653589762
 10
5365.611498527665
 20
2638.183010210205
 30
0.0
 10
5361.297253800882
 20
2625.461218211646
 30
0.0
 10
5357.399103358039
 20
2612.598364520149
 30
0.0
 10
5350.451644378598
 20
2586.645483685645
 30
0.0
 10
5347.402337958265
 20
2573.555464445799
 30
0.0
 10
5342.165598262535
 20
2547.204188811544
 30
0.0
 10
5339.978166582328
 20
2533.942940441755
 30
0.0
 10
5336.474524544009
 20
2507.305874661235
 30
0.0
 10
5335.15831525317
 20
2493.930065362258
 30
0.0
 10
5333.402743147523
 20
2467.121035472845
 30
0.0
 10
5332.963380867496
 20
2453.68782304659
 30
0.0
 10
5332.963380867496
 20
2440.254606529496
 30
0.0
  0
LINE
  5
52D
330
1F
100
AcDbEntity
  8
Visible (ANSI)
100
AcDbLine
 10
5332.963380867496
 20
2440.219701716618
 30
0.0
 11
5332.963380867496
 21
2440.254606529494
 31
0.0
  0
LINE
  5
52E
330
1F
100
AcDbEntity
  8
Visible (ANSI)
100
AcDbLine
 10
5812.963380867488
 20
2440.219701716582
 30
0.0
 11
5812.963380867488
 21
2440.254606529457
 31
0.0
  0
SPLINE
  5
52F
330
1F
100
AcDbEntity
  8
Visible (ANSI)
100
AcDbSpline
210
0.0
220
0.0
230
1.0
 70
     8
 71
     3
 72
     8
 73
     4
 74
     0
 42
0.000000001
 43
0.0000000001
 40
38.06357824768357
 40
38.06357824768357
 40
38.06357824768357
 40
38.06357824768357
 40
38.90470562579312
 40
38.90470562579312
 40
38.90470562579312
 40
38.90470562579312
 10
5322.963380867502
 20
2740.500943593978
 30
0.0
 10
5322.963380867502
 20
2739.96596136064
 30
0.0
 10
5323.053088049699
 20
2739.457606567843
 30
0.0
 10
5323.236029047013
 20
2738.979510703741
 30
0.0
  0
SPLINE
  5
530
330
1F
100
AcDbEntity
  8
Visible (ANSI)
100
AcDbSpline
210
0.0
220
0.0
230
1.0
 70
     8
 71
     3
 72
    22
 73
    18
 74
     0
 42
0.000000001
 43
0.0000000001
 40
19.16569688846577
 40
19.16569688846577
 40
19.16569688846577
 40
19.16569688846577
 40
21.53539096285203
 40
21.53539096285203
 40
23.90508503723829
 40
23.90508503723829
 40
26.27477911162456
 40
26.27477911162456
 40
28.64447318601083
 40
28.64447318601083
 40
30.99924945142901
 40
30.99924945142901
 40
33.35402571684719
 40
33.35402571684719
 40
35.70880198226537
 40
35.70880198226537
 40
38.06357824768357
 40
38.06357824768357
 40
38.06357824768357
 40
38.06357824768357
 10
5443.89951362595
 20
2797.224032235825
 30
0.0
 10
5436.131022234966
 20
2795.820466529241
 30
0.0
 10
5428.119281154759
 20
2794.097684537055
 30
0.0
 10
5412.239814783792
 20
2790.080152449173
 30
0.0
 10
5404.371945431112
 20
2787.785798155197
 30
0.0
 10
5389.341959474609
 20
2782.811402965779
 30
0.0
 10
5382.166916589638
 20
2780.128054419449
 30
0.0
 10
5368.950196355314
 20
2774.634336398318
 30
0.0
 10
5362.908496615941
 20
2771.825245397349
 30
0.0
 10
5352.286038529708
 20
2766.397619842823
 30
0.0
 10
5347.339333742832
 20
2763.594489381274
 30
0.0
 10
5338.647528458441
 20
2758.082581465575
 30
0.0
 10
5334.901399526564
 20
2755.375035506482
 30
0.0
 10
5328.896965232383
 20
2750.319237868504
 30
0.0
 10
5326.633524839166
 20
2747.967814491147
 30
0.0
 10
5323.666458005777
 20
2743.807311017092
 30
0.0
 10
5322.963380867502
 20
2741.998651905782
 30
0.0
 10
5322.963380867502
 20
2740.500943593978
 30
0.0
  0
SPLINE
  5
531
330
1F
100
AcDbEntity
  8
Visible (ANSI)
100
AcDbSpline
210
0.0
220
0.0
230
1.0
 70
     8
 71
     3
 72
    22
 73
    18
 74
     0
 42
0.000000001
 43
0.0000000001
 40
38.06357824768358
 40
38.06357824768358
 40
38.06357824768358
 40
38.06357824768358
 40
40.41835451310176
 40
40.41835451310176
 40
42.77313077851993
 40
42.77313077851993
 40
45.12790704393812
 40
45.12790704393812
 40
47.48268330935629
 40
47.48268330935629
 40
49.85237738374257
 40
49.85237738374257
 40
52.22207145812884
 40
52.22207145812884
 40
54.59176553251509
 40
54.59176553251509
 40
56.96145960690135
 40
56.96145960690135
 40
56.96145960690135
 40
56.96145960690135
 10
5822.96338086749
 20
2740.500943593978
 30
0.0
 10
5822.96338086749
 20
2741.998651905782
 30
0.0
 10
5822.260303729217
 20
2743.807311017092
 30
0.0
 10
5819.293236895827
 20
2747.967814491147
 30
0.0
 10
5817.029796502612
 20
2750.319237868504
 30
0.0
 10
5811.025362208432
 20
2755.375035506482
 30
0.0
 10
5807.279233276553
 20
2758.082581465575
 30
0.0
 10
5798.587427992163
 20
2763.594489381274
 30
0.0
 10
5793.640723205286
 20
2766.397619842823
 30
0.0
 10
5783.018265119054
 20
2771.825245397349
 30
0.0
 10
5776.976565379682
 20
2774.634336398318
 30
0.0
 10
5763.759845145356
 20
2780.128054419449
 30
0.0
 10
5756.584802260388
 20
2782.811402965779
 30
0.0
 10
5741.554816303882
 20
2787.785798155197
 30
0.0
 10
5733.686946951202
 20
2790.080152449173
 30
0.0
 10
5717.807480580235
 20
2794.097684537055
 30
0.0
 10
5709.795739500028
 20
2795.820466529241
 30
0.0
 10
5702.027248109045
 20
2797.224032235825
 30
0.0
  0
SPLINE
  5
532
330
1F
100
AcDbEntity
  8
Visible (ANSI)
100
AcDbSpline
210
0.0
220
0.0
230
1.0
 70
     8
 71
     3
 72
     8
 73
     4
 74
     0
 42
0.000000001
 43
0.0000000001
 40
37.2224508695743
 40
37.2224508695743
 40
37.2224508695743
 40
37.2224508695743
 40
38.06357824768358
 40
38.06357824768358
 40
38.06357824768358
 40
38.06357824768358
 10
5822.690732687981
 20
2738.979510703743
 30
0.0
 10
5822.873673685295
 20
2739.457606567843
 30
0.0
 10
5822.96338086749
 20
2739.96596136064
 30
0.0
 10
5822.96338086749
 20
2740.500943593978
 30
0.0
  0
SPLINE
  5
533
330
1F
100
AcDbEntity
  8
Visible (ANSI)
100
AcDbSpline
210
0.0
220
0.0
230
1.0
 70
     8
 71
     3
 72
    22
 73
    18
 74
     0
 42
0.000000001
 43
0.0000000001
 40
38.07396630184849
 40
38.07396630184849
 40
38.07396630184849
 40
38.07396630184849
 40
40.42875456571709
 40
40.42875456571709
 40
42.78354282958568
 40
42.78354282958568
 40
45.13833109345429
 40
45.13833109345429
 40
47.4931193573229
 40
47.4931193573229
 40
49.86320051809136
 40
49.86320051809136
 40
52.23328167885982
 40
52.23328167885982
 40
54.60336283962829
 40
54.60336283962829
 40
56.97344400039675
 40
56.97344400039675
 40
56.97344400039675
 40
56.97344400039675
 10
5325.997271462622
 20
2732.546494212238
 30
0.0
 10
5325.997271462622
 20
2734.044210155418
 30
0.0
 10
5326.700350161932
 20
2735.852894558653
 30
0.0
 10
5329.667485984282
 20
2740.013300933372
 30
0.0
 10
5331.930994870199
 20
2742.364599295405
 30
0.0
 10
5337.935825084169
 20
2747.419446909022
 30
0.0
 10
5341.68228636118
 20
2750.126156806649
 30
0.0
 10
5350.37526373778
 20
2755.634954160138
 30
0.0
 10
5355.322814042473
 20
2758.435793445308
 30
0.0
 10
5365.94846703049
 20
2763.857308993071
 30
0.0
 10
5371.992712408717
 20
2766.662326922598
 30
0.0
 10
5385.215542958902
 20
2772.144383422639
 30
0.0
 10
5392.394154348604
 20
2774.820126977169
 30
0.0
 10
5407.432002135806
 20
2779.775250866027
 30
0.0
 10
5415.304191158019
 20
2782.05791720229
 30
0.0
 10
5431.192549225165
 20
2786.048376570141
 30
0.0
 10
5439.20886112247
 20
2787.755770552621
 30
0.0
 10
5446.981731873989
 20
2789.142874307141
 30
0.0
  0
SPLINE
  5
534
330
1F
100
AcDbEntity
  8
Visible (ANSI)
100
AcDbSpline
210
0.0
220
0.0
230
1.0
 70
     8
 71
     3
 72
    22
 73
    18
 74
     0
 42
0.000000001
 43
0.0000000001
 40
19.1744886033002
 40
19.1744886033002
 40
19.1744886033002
 40
19.1744886033002
 40
21.54456976406867
 40
21.54456976406867
 40
23.91465092483713
 40
23.91465092483713
 40
26.28473208560559
 40
26.28473208560559
 40
28.65481324637406
 40
28.65481324637406
 40
31.00960151024267
 40
31.00960151024267
 40
33.36438977411127
 40
33.36438977411127
 40
35.71917803797989
 40
35.71917803797989
 40
38.07396630184849
 40
38.07396630184849
 40
38.07396630184849
 40
38.07396630184849
 10
5446.981731873988
 20
2741.440625462936
 30
0.0
 10
5439.208861122468
 20
2740.053521708416
 30
0.0
 10
5431.192549225161
 20
2738.627487942116
 30
0.0
 10
5415.304191158017
 20
2735.832576991195
 30
0.0
 10
5407.432002135803
 20
2734.46396476316
 30
0.0
 10
5392.394154348604
 20
2731.936227436063
 30
0.0
 10
5385.2155429589
 20
2730.775910413044
 30
0.0
 10
5371.992712408715
 20
2728.805205057052
 30
0.0
 10
5365.948467030488
 20
2727.996321899098
 30
0.0
 10
5355.322814042473
 20
2726.821866886345
 30
0.0
 10
5350.375263737778
 20
2726.41291077126
 30
0.0
 10
5341.682286361177
 20
2726.113284875839
 30
0.0
 10
5337.935825084167
 20
2726.223710647772
 30
0.0
 10
5331.930994870199
 20
2727.045485418616
 30
0.0
 10
5329.66748598428
 20
2727.758363118608
 30
0.0
 10
5326.700350161929
 20
2729.759772576306
 30
0.0
 10
5325.997271462622
 20
2731.048778269058
 30
0.0
 10
5325.997271462622
 20
2732.546494212238
 30
0.0
  0
SPLINE
  5
535
330
1F
100
AcDbEntity
  8
Visible (ANSI)
100
AcDbSpline
210
0.0
220
0.0
230
1.0
 70
     8
 71
     3
 72
    22
 73
    18
 74
     0
 42
0.000000001
 43
0.0000000001
 40
38.0739663018485
 40
38.0739663018485
 40
38.0739663018485
 40
38.0739663018485
 40
40.42875456571709
 40
40.42875456571709
 40
42.78354282958571
 40
42.78354282958571
 40
45.13833109345433
 40
45.13833109345433
 40
47.49311935732293
 40
47.49311935732293
 40
49.86320051809139
 40
49.86320051809139
 40
52.23328167885985
 40
52.23328167885985
 40
54.60336283962831
 40
54.60336283962831
 40
56.97344400039678
 40
56.97344400039678
 40
56.97344400039678
 40
56.97344400039678
 10
5819.929490272372
 20
2732.546494212238
 30
0.0
 10
5819.929490272372
 20
2731.048778269058
 30
0.0
 10
5819.226411573063
 20
2729.759772576306
 30
0.0
 10
5816.259275750712
 20
2727.758363118608
 30
0.0
 10
5813.995766864793
 20
2727.045485418616
 30
0.0
 10
5807.990936650824
 20
2726.223710647772
 30
0.0
 10
5804.244475373814
 20
2726.113284875839
 30
0.0
 10
5795.551497997214
 20
2726.41291077126
 30
0.0
 10
5790.60394769252
 20
2726.821866886345
 30
0.0
 10
5779.978294704502
 20
2727.996321899098
 30
0.0
 10
5773.934049326275
 20
2728.805205057052
 30
0.0
 10
5760.711218776091
 20
2730.775910413044
 30
0.0
 10
5753.532607386389
 20
2731.936227436063
 30
0.0
 10
5738.494759599188
 20
2734.46396476316
 30
0.0
 10
5730.622570576974
 20
2735.832576991195
 30
0.0
 10
5714.73421250983
 20
2738.627487942116
 30
0.0
 10
5706.717900612523
 20
2740.053521708416
 30
0.0
 10
5698.945029861003
 20
2741.440625462936
 30
0.0
  0
SPLINE
  5
536
330
1F
100
AcDbEntity
  8
Visible (ANSI)
100
AcDbSpline
210
0.0
220
0.0
230
1.0
 70
     8
 71
     3
 72
    22
 73
    18
 74
     0
 42
0.000000001
 43
0.0000000001
 40
19.1744886033002
 40
19.1744886033002
 40
19.1744886033002
 40
19.1744886033002
 40
21.54456976406867
 40
21.54456976406867
 40
23.91465092483713
 40
23.91465092483713
 40
26.2847320856056
 40
26.2847320856056
 40
28.65481324637406
 40
28.65481324637406
 40
31.00960151024267
 40
31.00960151024267
 40
33.36438977411127
 40
33.36438977411127
 40
35.71917803797989
 40
35.71917803797989
 40
38.07396630184849
 40
38.07396630184849
 40
38.07396630184849
 40
38.07396630184849
 10
5698.945029861004
 20
2789.142874307141
 30
0.0
 10
5706.717900612523
 20
2787.755770552621
 30
0.0
 10
5714.73421250983
 20
2786.048376570141
 30
0.0
 10
5730.622570576976
 20
2782.05791720229
 30
0.0
 10
5738.494759599189
 20
2779.775250866027
 30
0.0
 10
5753.53260738639
 20
2774.820126977169
 30
0.0
 10
5760.711218776094
 20
2772.144383422639
 30
0.0
 10
5773.934049326278
 20
2766.662326922598
 30
0.0
 10
5779.978294704505
 20
2763.857308993071
 30
0.0
 10
5790.603947692521
 20
2758.435793445308
 30
0.0
 10
5795.551497997214
 20
2755.634954160138
 30
0.0
 10
5804.244475373814
 20
2750.126156806649
 30
0.0
 10
5807.990936650825
 20
2747.419446909022
 30
0.0
 10
5813.995766864793
 20
2742.364599295405
 30
0.0
 10
5816.259275750712
 20
2740.013300933372
 30
0.0
 10
5819.226411573063
 20
2735.852894558653
 30
0.0
 10
5819.929490272372
 20
2734.044210155418
 30
0.0
 10
5819.929490272372
 20
2732.546494212238
 30
0.0
  0
LINE
  5
537
330
1F
100
AcDbEntity
  8
Visible (ANSI)
100
AcDbLine
 10
5323.234351845658
 20
2738.978640084619
 30
0.0
 11
5326.268242693617
 21
2731.024190039971
 31
0.0
  0
LINE
  5
538
330
1F
100
AcDbEntity
  8
Visible (ANSI)
100
AcDbLine
 10
5819.658519041375
 20
2731.024190039973
 30
0.0
 11
5822.692409889334
 21
2738.978640084621
 31
0.0
  0
ELLIPSE
  5
539
330
1F
100
AcDbEntity
  8
Visible (ANSI)
100
AcDbEllipse
 10
5572.963380867498
 20
2108.885997936303
 30
0.0
 11
-712.9999999999804
 21
0.0000000000281108
 31
0.0
210
0.0
220
0.0
230
1.0
 40
0.9816271834475854
 41
4.530370332221547
 42
4.894407628547909
  0
ELLIPSE
  5
53A
330
1F
100
AcDbEntity
  8
Visible (ANSI)
100
AcDbEllipse
 10
5572.963380867498
 20
2108.885997936297
 30
0.0
 11
704.347344022707
 21
-0.0000000000291545
 31
0.0
210
0.0
220
0.0
230
1.0
 40
0.9816271834475855
 41
1.390965676310364
 42
1.750626977279511
  0
ELLIPSE
  5
53B
330
1F
100
AcDbEntity
  8
Visible (ANSI)
100
AcDbEllipse
 10
5572.963380867495
 20
2061.18374909209
 30
0.0
 11
704.347344022707
 21
-0.0000000000291545
 31
0.0
210
0.0
220
0.0
230
1.0
 40
0.9816271834475855
 41
1.390965676310364
 42
1.750626977279511
  0
ELLIPSE
  5
53C
330
1F
100
AcDbEntity
  8
Visible (ANSI)
100
AcDbEllipse
 10
5393.350216895743
 20
2772.272857264529
 30
0.0
 11
17.34581260091504
 21
1.290685065528812
 31
0.0
210
0.0
220
0.0
230
1.0
 40
0.9694938031429002
 41
2.677823900911664
 42
2.719740237003849
  0
SPLINE
  5
53D
330
1F
100
AcDbEntity
  8
Visible (ANSI)
100
AcDbSpline
210
0.0
220
0.0
230
1.0
 70
     8
 71
     3
 72
    14
 73
    10
 74
     0
 42
0.000000001
 43
0.0000000001
 40
-13.83255528092017
 40
-13.83255528092017
 40
-13.83255528092017
 40
-13.83255528092017
 40
-13.67402386473383
 40
-13.67402386473383
 40
-12.98802558651922
 40
-12.98802558651922
 40
-12.2901895013417
 40
-12.2901895013417
 40
-11.87338337196164
 40
-11.87338337196164
 40
-11.87338337196164
 40
-11.87338337196164
 10
5426.191625125497
 20
2793.553382240991
 30
0.0
 10
5426.09263583548
 20
2794.014900054603
 30
0.0
 10
5425.995779279758
 20
2794.466474458901
 30
0.0
 10
5425.49287211334
 20
2796.811179192377
 30
0.0
 10
5425.138851664862
 20
2798.461729953843
 30
0.0
 10
5424.572664361943
 20
2801.101468714758
 30
0.0
 10
5424.368411599052
 20
2802.053758830998
 30
0.0
 10
5424.188861961425
 20
2802.890877740369
 30
0.0
 10
5424.155167346615
 20
2803.047974015634
 30
0.0
 10
5424.155167002751
 20
2803.04797759015
 30
0.0
  0
SPLINE
  5
53E
330
1F
100
AcDbEntity
  8
Visible (ANSI)
100
AcDbSpline
210
0.0
220
0.0
230
1.0
 70
     8
 71
     3
 72
    14
 73
    10
 74
     0
 42
0.000000001
 43
0.0000000001
 40
0.4863246089226624
 40
0.4863246089226624
 40
0.4863246089226624
 40
0.4863246089226624
 40
0.7898753292266001
 40
0.7898753292266001
 40
1.477725659844089
 40
1.477725659844089
 40
2.149275851487798
 40
2.149275851487798
 40
2.431793237418798
 40
2.431793237418798
 40
2.431793237418798
 40
2.431793237418798
 10
5572.960350211127
 20
2818.374794424512
 30
0.0
 10
5572.960349955238
 20
2818.37479420518
 30
0.0
 10
5572.960350225137
 20
2818.289119835709
 30
0.0
 10
5572.960352819964
 20
2817.731662577062
 30
0.0
 10
5572.960357290804
 20
2816.913361862973
 30
0.0
 10
5572.96037097046
 20
2814.524318311367
 30
0.0
 10
5572.960379947773
 20
2812.992258936889
 30
0.0
 10
5572.960395218498
 20
2810.425319097721
 30
0.0
 10
5572.960400016786
 20
2809.622823184396
 30
0.0
 10
5572.960405042086
 20
2808.78618226953
 30
0.0
  0
SPLINE
  5
53F
330
1F
100
AcDbEntity
  8
Visible (ANSI)
100
AcDbSpline
210
0.0
220
0.0
230
1.0
 70
     8
 71
     3
 72
    10
 73
     6
 74
     0
 42
0.000000001
 43
0.0000000001
 40
0.0
 40
0.0
 40
0.0
 40
0.0
 40
8.214553323329159
 40
8.214553323329159
 40
14.97391005119116
 40
14.97391005119116
 40
14.97391005119116
 40
14.97391005119116
 10
5424.155165604163
 20
2803.047984110785
 30
0.0
 10
5451.036005160908
 20
2808.261991022739
 30
0.0
 10
5478.203721776504
 20
2812.16778789906
 30
0.0
 10
5527.896462116101
 20
2816.852067044203
 30
0.0
 10
5550.431271251731
 20
2818.066438912456
 30
0.0
 10
5572.960350211127
 20
2818.374794518975
 30
0.0
  0
LINE
  5
540
330
1F
100
AcDbEntity
  8
Visible (ANSI)
100
AcDbLine
 10
5423.122437928298
 20
2802.804661983448
 30
0.0
 11
5424.155165604163
 21
2803.047984110785
 31
0.0
  0
SPLINE
  5
541
330
1F
100
AcDbEntity
  8
Visible (ANSI)
100
AcDbSpline
210
0.0
220
0.0
230
1.0
 70
     8
 71
     3
 72
    18
 73
    14
 74
     0
 42
0.000000001
 43
0.0000000001
 40
0.008508694811704
 40
0.008508694811704
 40
0.008508694811704
 40
0.008508694811704
 40
0.6897980312855517
 40
0.6897980312855517
 40
1.38065611466263
 40
1.38065611466263
 40
2.268881660973568
 40
2.268881660973568
 40
4.059602221399803
 40
4.059602221399803
 40
4.990908102541664
 40
4.990908102541664
 40
6.429448194202712
 40
6.429448194202712
 40
6.429448194202712
 40
6.429448194202712
 10
5377.032794030562
 20
2777.989135293821
 30
0.0
 10
5377.723762004513
 20
2779.945504393371
 30
0.0
 10
5378.733987175923
 20
2781.750383214736
 30
0.0
 10
5381.029789356375
 20
2784.829158026894
 30
0.0
 10
5382.324137026522
 20
2786.126525685031
 30
0.0
 10
5385.291617380235
 20
2788.629517078955
 30
0.0
 10
5386.996298548264
 20
2789.749358306634
 30
0.0
 10
5392.415420823482
 20
2792.862056874057
 30
0.0
 10
5396.592850773206
 20
2794.666188937721
 30
0.0
 10
5403.929534280957
 20
2797.346485124896
 30
0.0
 10
5406.624356437983
 20
2798.246512037304
 30
0.0
 10
5413.760750491809
 20
2800.43867587597
 30
0.0
 10
5418.455102601589
 20
2801.70498586628
 30
0.0
 10
5423.122437928298
 20
2802.804661983448
 30
0.0
  0
ELLIPSE
  5
542
330
1F
100
AcDbEntity
  8
Visible (ANSI)
100
AcDbEllipse
 10
5752.571065862799
 20
2772.275060672133
 30
0.0
 11
-17.34582957735447
 21
1.29044716403575
 31
0.0
210
0.0
220
0.0
230
0.9999999999999998
 40
0.9694938502796103
 41
3.563433656118387
 42
3.605249595371191
  0
SPLINE
  5
543
330
1F
100
AcDbEntity
  8
Visible (ANSI)
100
AcDbSpline
210
0.0
220
0.0
230
1.0
 70
     8
 71
     3
 72
    14
 73
    10
 74
     0
 42
0.000000001
 43
0.0000000001
 40
-13.83260436662572
 40
-13.83260436662572
 40
-13.83260436662572
 40
-13.83260436662572
 40
-13.67402386473383
 40
-13.67402386473383
 40
-12.98802558651922
 40
-12.98802558651922
 40
-12.2901895013417
 40
-12.2901895013417
 40
-11.87338318480527
 40
-11.87338318480527
 40
-11.87338318480527
 40
-11.87338318480527
 10
5719.729279843708
 20
2793.554754058174
 30
0.0
 10
5719.82829555888
 20
2794.01642214445
 30
0.0
 10
5719.925177451393
 20
2794.468141099426
 30
0.0
 10
5720.42808582768
 20
2796.812988281394
 30
0.0
 10
5720.782086824913
 20
2798.463543385758
 30
0.0
 10
5721.348243637938
 20
2801.103289092305
 30
0.0
 10
5721.552485801701
 20
2802.055581714194
 30
0.0
 10
5721.732027030881
 20
2802.892702966734
 30
0.0
 10
5721.76572041878
 20
2803.049799655868
 30
0.0
 10
5721.76572143317
 20
2803.049803089318
 30
0.0
  0
SPLINE
  5
544
330
1F
100
AcDbEntity
  8
Visible (ANSI)
100
AcDbSpline
210
0.0
220
0.0
230
1.0
 70
     8
 71
     3
 72
    10
 73
     6
 74
     0
 42
0.000000001
 43
0.0000000001
 40
0.0
 40
0.0
 40
0.0
 40
0.0
 40
8.214553323324942
 40
8.214553323324942
 40
14.97391005119116
 40
14.97391005119116
 40
14.97391005119116
 40
14.97391005119116
 10
5572.960350211127
 20
2818.374794518974
 30
0.0
 10
5600.339634801143
 20
2818.000390069696
 30
0.0
 10
5627.733129774319
 20
2816.286765694778
 30
0.0
 10
5677.337466852998
 20
2810.744143882596
 30
0.0
 10
5699.64673365503
 20
2807.339891164291
 30
0.0
 10
5721.765722831679
 20
2803.049809609964
 30
0.0
  0
LINE
  5
545
330
1F
100
AcDbEntity
  8
Visible (ANSI)
100
AcDbLine
 10
5722.798453492469
 20
2802.806500151843
 30
0.0
 11
5721.765722831679
 21
2803.049809609964
 31
0.0
  0
SPLINE
  5
546
330
1F
100
AcDbEntity
  8
Visible (ANSI)
100
AcDbSpline
210
0.0
220
0.0
230
1.0
 70
     8
 71
     3
 72
    18
 73
    14
 74
     0
 42
0.000000001
 43
0.0000000001
 40
0.0
 40
0.0
 40
0.0
 40
0.0
 40
1.365691414022037
 40
1.365691414022037
 40
2.718799945052579
 40
2.718799945052579
 40
4.179830419180544
 40
4.179830419180544
 40
5.162908069387806
 40
5.162908069387806
 40
5.77640896690196
 40
5.77640896690196
 40
6.422593995010102
 40
6.422593995010102
 40
6.422593995010102
 40
6.422593995010102
 10
5722.798453492469
 20
2802.806500151843
 30
0.0
 10
5727.229444496739
 20
2801.762566761352
 30
0.0
 10
5731.682459165345
 20
2800.569324804217
 30
0.0
 10
5739.924830613816
 20
2798.070758069682
 30
0.0
 10
5743.810597271781
 20
2796.741260491019
 30
0.0
 10
5751.0030323098
 20
2793.919374704743
 30
0.0
 10
5754.288336573936
 20
2792.425007210944
 30
0.0
 10
5759.221070311326
 20
2789.574179904701
 30
0.0
 10
5761.102002197522
 20
2788.317609204462
 30
0.0
 10
5764.078834978827
 20
2785.64180204327
 30
0.0
 10
5765.21123806612
 20
2784.439635696154
 30
0.0
 10
5767.291553012454
 20
2781.566492703589
 30
0.0
 10
5768.233127442954
 20
2779.846954170178
 30
0.0
 10
5768.888473362526
 20
2777.991383017007
 30
0.0
  0
ELLIPSE
  5
547
330
1F
100
AcDbEntity
  8
Visible (ANSI)
100
AcDbEllipse
 10
5752.570574075724
 20
2772.276137313655
 30
0.0
 11
-17.35346799913954
 21
1.084477461207826
 31
0.0
210
0.0
220
0.0
230
0.9999999999999998
 40
0.9698060523069335
 41
3.551196137802803
 42
3.592138989899268
  0
ELLIPSE
  5
548
330
1F
100
AcDbEntity
  8
Visible (ANSI)
100
AcDbEllipse
 10
5770.857412051721
 20
2732.24180144266
 30
0.0
 11
-9.449383676304515
 21
14.84547225746756
 31
0.0
210
0.0
220
0.0
230
1.0
 40
0.9811316985669108
 41
1.429809379583339
 42
3.859979033392823
  0
ARC
  5
549
330
1F
100
AcDbEntity
  8
Visible (ANSI)
100
AcDbCircle
 10
5809.205532783121
 20
2816.198099545009
 30
0.0
 40
17.49999999999692
100
AcDbArc
 50
335.4508389643248
 51
155.4508389643248
  0
LINE
  5
54A
330
1F
100
AcDbEntity
  8
Visible (ANSI)
100
AcDbLine
 10
5755.108738618225
 20
2725.148792036342
 30
0.0
 11
5751.876565633324
 21
2732.224804797019
 31
0.0
  0
LINE
  5
54B
330
1F
100
AcDbEntity
  8
Visible (ANSI)
100
AcDbLine
 10
5768.962400471126
 20
2777.96112846514
 30
0.0
 11
5768.600241535214
 21
2778.75398245652
 31
0.0
  0
LINE
  5
54C
330
1F
100
AcDbEntity
  8
Visible (ANSI)
100
AcDbLine
 10
5825.123622384233
 20
2808.927307053755
 30
0.0
 11
5803.107830598288
 21
2760.727699279329
 31
0.0
  0
LINE
  5
54D
330
1F
100
AcDbEntity
  8
Visible (ANSI)
100
AcDbLine
 10
5787.768727316208
 20
2727.145497512696
 30
0.0
 11
5786.650018912808
 21
2724.696287110355
 31
0.0
  0
LINE
  5
54E
330
1F
100
AcDbEntity
  8
Visible (ANSI)
100
AcDbLine
 10
5793.287443182009
 20
2823.46889203626
 30
0.0
 11
5771.936076669383
 21
2776.723923635274
 31
0.0
  0
LINE
  5
54F
330
1F
100
AcDbEntity
  8
Visible (ANSI)
100
AcDbLine
 10
5767.748770072048
 20
2715.078674743256
 30
0.0
 11
5725.061414937592
 21
2673.952420842566
 31
0.0
  0
LINE
  5
550
330
1F
100
AcDbEntity
  8
Visible (ANSI)
100
AcDbLine
 10
5750.595437541031
 20
2732.436057914616
 30
0.0
 11
5694.140570351542
 21
2678.045777826954
 31
0.0
  0
LINE
  5
551
330
1F
100
AcDbEntity
  8
Visible (ANSI)
100
AcDbLine
 10
5752.476437726044
 20
2730.911538891134
 30
0.0
 11
5697.224105882986
 21
2677.679816737689
 31
0.0
  0
ELLIPSE
  5
552
330
1F
100
AcDbEntity
  8
Visible (ANSI)
100
AcDbEllipse
 10
5336.852320807891
 20
2351.938752594924
 30
0.0
 11
-17.56684715700882
 21
0.0000000000000118
 31
0.0
210
0.0
220
0.0
230
1.0
 40
0.9961946980917396
 41
4.71238898038469
 42
7.853981633974482
  0
LINE
  5
553
330
1F
100
AcDbEntity
  8
Visible (ANSI)
100
AcDbLine
 10
5348.496573740064
 20
2334.438752594962
 30
0.0
 11
5336.852320807891
 21
2334.438752594924
 31
0.0
  0
LINE
  5
554
330
1F
100
AcDbEntity
  8
Visible (ANSI)
100
AcDbLine
 10
5337.041486683424
 20
2369.438752594926
 30
0.0
 11
5336.852320807891
 21
2369.438752594924
 31
0.0
  0
LINE
  5
555
330
1F
100
AcDbEntity
  8
Visible (ANSI)
100
AcDbLine
 10
5378.178465670786
 20
2715.076599948103
 30
0.0
 11
5420.864344831658
 21
2673.952272898267
 31
0.0
  0
LINE
  5
556
330
1F
100
AcDbEntity
  8
Visible (ANSI)
100
AcDbLine
 10
5395.329892974239
 20
2732.435821291811
 30
0.0
 11
5451.785314285482
 21
2678.045675056564
 31
0.0
  0
LINE
  5
557
330
1F
100
AcDbEntity
  8
Visible (ANSI)
100
AcDbLine
 10
5393.449236394651
 20
2730.910968704188
 30
0.0
 11
5448.701765743121
 21
2677.679709750993
 31
0.0
  0
ELLIPSE
  5
558
330
1F
100
AcDbEntity
  8
Visible (ANSI)
100
AcDbEllipse
 10
5375.06740767645
 20
2732.239243416169
 30
0.0
 11
9.449297126112162
 21
14.84552727801318
 31
0.0
210
0.0
220
0.0
230
1.0
 40
0.9811317272611452
 41
2.423063654425181
 42
4.853377809086066
  0
ARC
  5
559
330
1F
100
AcDbEntity
  8
Visible (ANSI)
100
AcDbCircle
 10
5336.718880867489
 20
2816.195201381705
 30
0.0
 40
17.49999999999715
100
AcDbArc
 50
24.54947804986238
 51
204.5494780498623
  0
LINE
  5
55A
330
1F
100
AcDbEntity
  8
Visible (ANSI)
100
AcDbLine
 10
5394.049288570801
 20
2732.22465554994
 30
0.0
 11
5390.816136567824
 21
2725.146355653191
 31
0.0
  0
LINE
  5
55B
330
1F
100
AcDbEntity
  8
Visible (ANSI)
100
AcDbLine
 10
5377.297580556931
 20
2778.693119601045
 30
0.0
 11
5376.962968896453
 21
2777.960558410096
 31
0.0
  0
LINE
  5
55C
330
1F
100
AcDbEntity
  8
Visible (ANSI)
100
AcDbLine
 10
5359.274842407685
 20
2724.693642047705
 30
0.0
 11
5358.15504855131
 21
2727.145192961363
 31
0.0
  0
LINE
  5
55D
330
1F
100
AcDbEntity
  8
Visible (ANSI)
100
AcDbLine
 10
5342.816335783123
 20
2760.726048122413
 30
0.0
 11
5320.800831495489
 21
2808.924320816704
 31
0.0
  0
LINE
  5
55E
330
1F
100
AcDbEntity
  8
Visible (ANSI)
100
AcDbLine
 10
5373.987869524106
 20
2776.722733237797
 30
0.0
 11
5352.636930239487
 21
2823.466081946705
 31
0.0
  0
TEXT
  5
63A
330
1F
100
AcDbEntity
  8
LINE
100
AcDbText
 10
5405.086602317417
 20
3349.628064107696
 30
0.0
 40
233.9816249415046
  1
53
 41
1.000399999999999
100
AcDbText
  0
TEXT
  5
644
330
1F
100
AcDbEntity
  8
LINE
100
AcDbText
 10
6107.349047829949
 20
2429.642867677132
 30
0.0
 40
233.9816249415046
  1
52
 41
1.000399999999999
100
AcDbText
  0
TEXT
  5
64C
330
1F
100
AcDbEntity
  8
LINE
100
AcDbText
 10
3720.279279004447
 20
2488.50538515774
 30
0.0
 40
233.9816249415046
  1
800
 41
1.000399999999999
100
AcDbText
  0
ENDSEC
  0
SECTION
  2
OBJECTS
  0
DICTIONARY
  5
C
330
0
100
AcDbDictionary
281
     1
  3
ACAD_CIP_PREVIOUS_PRODUCT_INFO
350
1A5
  3
ACAD_COLOR
350
73
  3
ACAD_DETAILVIEWSTYLE
350
1AB
  3
ACAD_FIELDLIST
350
61E
  3
ACAD_GROUP
350
D
  3
ACAD_LAYOUT
350
1A
  3
ACAD_MATERIAL
350
72
  3
ACAD_MLEADERSTYLE
350
D7
  3
ACAD_MLINESTYLE
350
17
  3
ACAD_PLOTSETTINGS
350
19
  3
ACAD_PLOTSTYLENAME
350
E
  3
ACAD_SCALELIST
350
B6
  3
ACAD_SECTIONVIEWSTYLE
350
1A8
  3
ACAD_TABLESTYLE
350
86
  3
ACAD_VISUALSTYLE
350
99
  3
ACDB_RECOMPOSE_DATA
350
671
  3
AcDbVariableDictionary
350
66
  3
AcDsDecomposeData
350
677
  3
AcmDictionary
350
5D9
  3
AMG
350
5AD
  3
AMGSNAPSETTINGS
350
62B
  0
DICTIONARY
  5
18E
330
2
100
AcDbDictionary
280
     1
281
     1
  3
ACAD_LAYERSTATES
360
18F
  0
DICTIONARY
  5
E6
330
10
100
AcDbDictionary
280
     1
281
     1
  0
DICTIONARY
  5
15D
330
1F
100
AcDbDictionary
280
     1
281
     1
  0
XRECORD
  5
1A5
102
{ACAD_REACTORS
330
C
102
}
330
C
100
AcDbXrecord
280
     1
300
AMECH_PP
300
2019
300
AMECH_PP_F_S
  0
DICTIONARY
  5
73
102
{ACAD_REACTORS
330
C
102
}
330
C
100
AcDbDictionary
281
     1
  0
DICTIONARY
  5
1AB
102
{ACAD_REACTORS
330
C
102
}
330
C
100
AcDbDictionary
281
     1
  3
Imperial24
350
1AC
  3
Metric50
350
3D7
  0
FIELDLIST
  5
61E
102
{ACAD_REACTORS
330
C
102
}
330
C
100
AcDbIdSet
 90
        4
330
61C
330
61D
330
61F
330
620
100
AcDbFieldList
  0
DICTIONARY
  5
D
102
{ACAD_REACTORS
330
C
102
}
330
C
100
AcDbDictionary
281
     1
  0
DICTIONARY
  5
1A
102
{ACAD_REACTORS
330
C
102
}
330
C
100
AcDbDictionary
281
     1
  3
Layout1
350
59
  3
Layout2
350
5E
  3
Model
350
22
  0
DICTIONARY
  5
72
102
{ACAD_REACTORS
330
C
102
}
330
C
100
AcDbDictionary
281
     1
  3
ByBlock
350
97
  3
ByLayer
350
96
  3
Global
350
98
  0
DICTIONARY
  5
D7
102
{ACAD_REACTORS
330
C
102
}
330
C
100
AcDbDictionary
281
     1
  3
Annotative
350
E5
  3
Standard
350
D8
  0
DICTIONARY
  5
17
102
{ACAD_REACTORS
330
C
102
}
330
C
100
AcDbDictionary
281
     1
  3
Standard
350
18
  0
DICTIONARY
  5
19
102
{ACAD_REACTORS
330
C
102
}
330
C
100
AcDbDictionary
281
     1
  0
ACDBDICTIONARYWDFLT
  5
E
102
{ACAD_REACTORS
330
C
102
}
330
C
100
AcDbDictionary
281
     1
  3
Normal
350
F
100
AcDbDictionaryWithDefault
340
F
  0
DICTIONARY
  5
B6
102
{ACAD_REACTORS
330
C
102
}
330
C
100
AcDbDictionary
281
     1
  3
A0
350
B7
  3
A1
350
124
  3
A2
350
125
  3
A3
350
126
  3
A4
350
127
  3
A5
350
128
  3
A6
350
129
  3
A7
350
12A
  3
A8
350
12B
  3
A9
350
12C
  3
B0
350
12D
  3
B1
350
12E
  3
B2
350
12F
  3
B3
350
130
  3
B4
350
131
  3
B5
350
132
  3
B6
350
133
  3
B7
350
134
  3
B8
350
135
  3
B9
350
136
  3
C0
350
137
  3
C1
350
138
  3
C2
350
139
  3
C3
350
13A
  3
C4
350
13B
  3
C5
350
13C
  3
C6
350
13D
  3
C7
350
13E
  3
C8
350
13F
  3
C9
350
140
  3
D0
350
141
  3
D1
350
142
  3
D2
350
143
  0
DICTIONARY
  5
1A8
102
{ACAD_REACTORS
330
C
102
}
330
C
100
AcDbDictionary
281
     1
  3
Imperial24
350
1AA
  3
Metric50
350
3D6
  0
DICTIONARY
  5
86
102
{ACAD_REACTORS
330
C
102
}
330
C
100
AcDbDictionary
281
     1
  3
Standard
350
87
  0
DICTIONARY
  5
99
102
{ACAD_REACTORS
330
C
102
}
330
C
100
AcDbDictionary
281
     1
  3
2dWireframe
350
9F
  3
Basic
350
9E
  3
Brighten
350
A5
  3
ColorChange
350
A9
  3
Conceptual
350
A2
  3
Dim
350
A4
  3
EdgeColorOff
350
175
  3
Facepattern
350
A8
  3
Flat
350
9A
  3
FlatWithEdges
350
9B
  3
Gouraud
350
9C
  3
GouraudWithEdges
350
9D
  3
Hidden
350
A1
  3
JitterOff
350
173
  3
Linepattern
350
A7
  3
OverhangOff
350
174
  3
Realistic
350
A3
  3
Shaded
350
182
  3
Shaded with edges
350
181
  3
Shades of Gray
350
17E
  3
Sketchy
350
17F
  3
Thicken
350
A6
  3
Wireframe
350
A0
  3
X-Ray
350
180
  0
XRECORD
  5
671
102
{ACAD_REACTORS
330
C
102
}
330
C
100
AcDbXrecord
280
     1
 90
        1
330
87
  0
DICTIONARY
  5
66
102
{ACAD_REACTORS
330
C
102
}
330
C
100
AcDbDictionary
281
     1
  3
CANNOSCALE
350
F0
  3
CMLEADERSTYLE
350
EF
  3
CTABLESTYLE
350
89
  3
CVIEWDETAILSTYLE
350
1B7
  3
CVIEWSECTIONSTYLE
350
1B8
  3
DIMASSOC
350
67
  3
HIDETEXT
350
6B
  3
LAYEREVAL
350
14D
  3
LAYERNOTIFY
350
14E
  0
DICTIONARY
  5
677
102
{ACAD_REACTORS
330
C
102
}
330
C
100
AcDbDictionary
281
     1
  3
AcDsRecords
350
679
  3
AcDsSchemas
350
678
1001
ACAD
1070
     2
  0
DICTIONARY
  5
5D9
102
{ACAD_REACTORS
330
C
102
}
330
C
100
AcDbDictionary
281
     1
  3
AcmStdDictionary
350
5E0
  0
DICTIONARY
  5
5AD
102
{ACAD_REACTORS
330
C
102
}
330
C
100
AcDbDictionary
281
     1
  0
DICTIONARY
  5
62B
102
{ACAD_REACTORS
330
C
102
}
330
C
100
AcDbDictionary
281
     1
  0
DICTIONARY
  5
18F
102
{ACAD_REACTORS
330
18E
102
}
330
18E
100
AcDbDictionary
281
     1
  0
ACDBDETAILVIEWSTYLE
  5
1AC
102
{ACAD_XDICTIONARY
360
67C
102
}
102
{ACAD_REACTORS
330
1AB
330
60D
102
}
330
1AB
100
AcDbModelDocViewStyle
 70
     0
  3
Imperial24
290
     0
100
AcDbDetailViewStyle
 70
     0
 71
     0
 90
        3
 71
     1
340
11
 62
   256
 40
0.24
340
0
 62
   256
 40
0.24
300

 40
0.36
280
     3
 71
     2
340
16
 90
       25
 62
   256
 71
     3
340
11
 62
   256
 40
0.24
 90
        1
 40
0.75
 90
        1
300
%<\AcVar ViewType \f "%tc1">% %<\AcVar ViewDetailId>%\PSCALE %<\AcVar ViewScale \f "%sn">%
 71
     4
340
16
 90
       25
 62
   256
340
16
 90
       25
 62
   256
280
     0
  0
ACDBDETAILVIEWSTYLE
  5
3D7
102
{ACAD_XDICTIONARY
360
680
102
}
102
{ACAD_REACTORS
330
1AB
330
60E
102
}
330
1AB
100
AcDbModelDocViewStyle
 70
     0
  3
Metric50
290
     0
100
AcDbDetailViewStyle
 70
     0
 71
     0
 90
        3
 71
     1
340
11
 62
   256
 40
5.0
340
0
 62
   256
 40
5.0
300

 40
0.0
280
     1
 71
     2
340
16
 90
       25
 62
   256
 71
     3
340
11
 62
   256
 40
5.0
 90
        0
 40
15.0
 90
        1
300
%<\AcVar ViewDetailId>% (%<\AcVar ViewScale \f "%sn">%)
 71
     4
340
16
 90
       25
 62
   256
340
16
 90
       25
 62
   256
280
     0
  0
LAYOUT
  5
59
102
{ACAD_REACTORS
330
1A
102
}
330
1A
100
AcDbPlotSettings
  1

  2
None
  4

  6

 40
0.0
 41
0.0
 42
0.0
 43
0.0
 44
0.0
 45
0.0
 46
0.0
 47
0.0
 48
0.0
 49
0.0
140
0.0
141
0.0
142
1.0
143
1.0
 70
   688
 72
     0
 73
     0
 74
     5
  7

 75
    16
147
1.0
 76
     0
 77
     2
 78
   300
148
0.0
149
0.0
100
AcDbLayout
  1
Layout1
 70
     1
 71
     1
 10
0.0
 20
0.0
 11
12.0
 21
9.0
 12
0.0
 22
0.0
 32
0.0
 14
0.0
 24
0.0
 34
0.0
 15
0.0
 25
0.0
 35
0.0
146
0.0
 13
0.0
 23
0.0
 33
0.0
 16
1.0
 26
0.0
 36
0.0
 17
0.0
 27
1.0
 37
0.0
 76
     0
330
58
  0
LAYOUT
  5
5E
102
{ACAD_REACTORS
330
1A
102
}
330
1A
100
AcDbPlotSettings
  1

  2
None
  4

  6

 40
0.0
 41
0.0
 42
0.0
 43
0.0
 44
0.0
 45
0.0
 46
0.0
 47
0.0
 48
0.0
 49
0.0
140
0.0
141
0.0
142
1.0
143
1.0
 70
   688
 72
     0
 73
     0
 74
     5
  7

 75
    16
147
1.0
 76
     0
 77
     2
 78
   300
148
0.0
149
0.0
100
AcDbLayout
  1
Layout2
 70
     1
 71
     2
 10
0.0
 20
0.0
 11
12.0
 21
9.0
 12
0.0
 22
0.0
 32
0.0
 14
0.0
 24
0.0
 34
0.0
 15
0.0
 25
0.0
 35
0.0
146
0.0
 13
0.0
 23
0.0
 33
0.0
 16
1.0
 26
0.0
 36
0.0
 17
0.0
 27
1.0
 37
0.0
 76
     0
330
5D
  0
LAYOUT
  5
22
102
{ACAD_XDICTIONARY
360
194
102
}
102
{ACAD_REACTORS
330
1A
102
}
330
1A
100
AcDbPlotSettings
  1

  2
none_device
  4
ANSI_A_(8.50_x_11.00_Inches)
  6

 40
6.349999904632568
 41
19.04999923706055
 42
6.350006103515625
 43
19.04998779296875
 44
215.8999938964844
 45
279.3999938964844
 46
0.0
 47
0.0
 48
0.0
 49
0.0
140
0.0
141
0.0
142
1.0
143
2.584895464708373
 70
 11952
 72
     0
 73
     1
 74
     0
  7

 75
     0
147
0.3868628397755418
 76
     0
 77
     2
 78
   300
148
0.0
149
0.0
100
AcDbLayout
  1
Model
 70
     1
 71
     0
 10
0.0
 20
0.0
 11
12.0
 21
9.0
 12
0.0
 22
0.0
 32
0.0
 14
0.0
 24
0.0
 34
0.0
 15
0.0
 25
0.0
 35
0.0
146
0.0
 13
0.0
 23
0.0
 33
0.0
 16
1.0
 26
0.0
 36
0.0
 17
0.0
 27
1.0
 37
0.0
 76
     0
330
1F
331
94
  0
MATERIAL
  5
97
102
{ACAD_XDICTIONARY
360
188
102
}
102
{ACAD_REACTORS
330
72
102
}
330
72
100
AcDbMaterial
  1
ByBlock
 94
       63
  0
MATERIAL
  5
96
102
{ACAD_XDICTIONARY
360
186
102
}
102
{ACAD_REACTORS
330
72
102
}
330
72
100
AcDbMaterial
  1
ByLayer
 94
       63
  0
MATERIAL
  5
98
102
{ACAD_XDICTIONARY
360
110
102
}
102
{ACAD_REACTORS
330
72
102
}
330
72
100
AcDbMaterial
  1
Global
 43
0.0208000000566244
 43
0.0
 43
0.0
 43
0.0
 43
0.0
 43
0.0208000000566244
 43
0.0
 43
0.0
 43
0.0
 43
0.0
 43
1.0
 43
0.0
 43
0.0
 43
0.0
 43
0.0
 43
1.0
 49
0.0208000000566244
 49
0.0
 49
0.0
 49
0.0
 49
0.0
 49
0.0208000000566244
 49
0.0
 49
0.0
 49
0.0
 49
0.0
 49
1.0
 49
0.0
 49
0.0
 49
0.0
 49
0.0
 49
1.0
142
0.0208000000566244
142
0.0
142
0.0
142
0.0
142
0.0
142
0.0208000000566244
142
0.0
142
0.0
142
0.0
142
0.0
142
1.0
142
0.0
142
0.0
142
0.0
142
0.0
142
1.0
144
0.0208000000566244
144
0.0
144
0.0
144
0.0
144
0.0
144
0.0208000000566244
144
0.0
144
0.0
144
0.0
144
0.0
144
1.0
144
0.0
144
0.0
144
0.0
144
0.0
144
1.0
 94
       63
1001
ACAD
1070
    -1
1070
     3
1070
     0
1000

1071
        0
1070
     0
  0
MLEADERSTYLE
  5
E5
102
{ACAD_REACTORS
330
D7
102
}
330
D7
100
AcDbMLeaderStyle
179
     2
170
     2
171
     1
172
     0
 90
        2
 40
0.0
 41
0.0
173
     1
 91
-1056964608
340
14
 92
       -2
290
     1
 42
0.09
291
     1
 43
0.36
  3
Standard
 44
0.18
300

342
11
174
     1
178
     1
175
     1
176
     0
 93
-1056964608
 45
0.18
292
     0
297
     0
 46
0.18
 94
-1056964608
 47
1.0
 49
1.0
140
1.0
293
     1
141
0.0
294
     1
177
     0
142
1.0
295
     0
296
     1
143
0.125
271
     0
272
     9
273
     9
298
     0
  0
MLEADERSTYLE
  5
D8
102
{ACAD_REACTORS
330
D7
102
}
330
D7
100
AcDbMLeaderStyle
179
     2
170
     2
171
     1
172
     0
 90
        2
 40
0.0
 41
0.0
173
     1
 91
-1056964608
340
14
 92
       -2
290
     1
 42
0.09
291
     1
 43
0.36
  3
Standard
 44
0.18
300

342
11
174
     1
178
     1
175
     1
176
     0
 93
-1056964608
 45
0.18
292
     0
297
     0
 46
0.18
 94
-1056964608
 47
1.0
 49
1.0
140
1.0
293
     1
141
0.0
294
     1
177
     0
142
1.0
295
     0
296
     0
143
0.125
271
     0
272
     9
273
     9
298
     0
  0
MLINESTYLE
  5
18
102
{ACAD_REACTORS
330
17
102
}
330
17
100
AcDbMlineStyle
  2
STANDARD
 70
     0
  3

 62
   256
 51
90.0
 52
90.0
 71
     2
 49
0.5
 62
   256
  6
BYLAYER
 49
-0.5
 62
   256
  6
BYLAYER
  0
ACDBPLACEHOLDER
  5
F
102
{ACAD_REACTORS
330
E
102
}
330
E
  0
SCALE
  5
B7
102
{ACAD_REACTORS
330
B6
102
}
330
B6
100
AcDbScale
 70
     0
300
1:1
140
1.0
141
1.0
290
     1
  0
SCALE
  5
124
102
{ACAD_REACTORS
330
B6
102
}
330
B6
100
AcDbScale
 70
     0
300
1:2
140
1.0
141
2.0
290
     0
  0
SCALE
  5
125
102
{ACAD_REACTORS
330
B6
102
}
330
B6
100
AcDbScale
 70
     0
300
1:4
140
1.0
141
4.0
290
     0
  0
SCALE
  5
126
102
{ACAD_REACTORS
330
B6
102
}
330
B6
100
AcDbScale
 70
     0
300
1:5
140
1.0
141
5.0
290
     0
  0
SCALE
  5
127
102
{ACAD_REACTORS
330
B6
102
}
330
B6
100
AcDbScale
 70
     0
300
1:8
140
1.0
141
8.0
290
     0
  0
SCALE
  5
128
102
{ACAD_REACTORS
330
B6
102
}
330
B6
100
AcDbScale
 70
     0
300
1:10
140
1.0
141
10.0
290
     0
  0
SCALE
  5
129
102
{ACAD_REACTORS
330
B6
102
}
330
B6
100
AcDbScale
 70
     0
300
1:16
140
1.0
141
16.0
290
     0
  0
SCALE
  5
12A
102
{ACAD_REACTORS
330
B6
102
}
330
B6
100
AcDbScale
 70
     0
300
1:20
140
1.0
141
20.0
290
     0
  0
SCALE
  5
12B
102
{ACAD_REACTORS
330
B6
102
}
330
B6
100
AcDbScale
 70
     0
300
1:30
140
1.0
141
30.0
290
     0
  0
SCALE
  5
12C
102
{ACAD_REACTORS
330
B6
102
}
330
B6
100
AcDbScale
 70
     0
300
1:40
140
1.0
141
40.0
290
     0
  0
SCALE
  5
12D
102
{ACAD_REACTORS
330
B6
102
}
330
B6
100
AcDbScale
 70
     0
300
1:50
140
1.0
141
50.0
290
     0
  0
SCALE
  5
12E
102
{ACAD_REACTORS
330
B6
102
}
330
B6
100
AcDbScale
 70
     0
300
1:100
140
1.0
141
100.0
290
     0
  0
SCALE
  5
12F
102
{ACAD_REACTORS
330
B6
102
}
330
B6
100
AcDbScale
 70
     0
300
2:1
140
2.0
141
1.0
290
     0
  0
SCALE
  5
130
102
{ACAD_REACTORS
330
B6
102
}
330
B6
100
AcDbScale
 70
     0
300
4:1
140
4.0
141
1.0
290
     0
  0
SCALE
  5
131
102
{ACAD_REACTORS
330
B6
102
}
330
B6
100
AcDbScale
 70
     0
300
8:1
140
8.0
141
1.0
290
     0
  0
SCALE
  5
132
102
{ACAD_REACTORS
330
B6
102
}
330
B6
100
AcDbScale
 70
     0
300
10:1
140
10.0
141
1.0
290
     0
  0
SCALE
  5
133
102
{ACAD_REACTORS
330
B6
102
}
330
B6
100
AcDbScale
 70
     0
300
100:1
140
100.0
141
1.0
290
     0
  0
SCALE
  5
134
102
{ACAD_REACTORS
330
B6
102
}
330
B6
100
AcDbScale
 70
     0
300
1/128" = 1'-0"
140
0.0078125
141
12.0
290
     0
  0
SCALE
  5
135
102
{ACAD_REACTORS
330
B6
102
}
330
B6
100
AcDbScale
 70
     0
300
1/64" = 1'-0"
140
0.015625
141
12.0
290
     0
  0
SCALE
  5
136
102
{ACAD_REACTORS
330
B6
102
}
330
B6
100
AcDbScale
 70
     0
300
1/32" = 1'-0"
140
0.03125
141
12.0
290
     0
  0
SCALE
  5
137
102
{ACAD_REACTORS
330
B6
102
}
330
B6
100
AcDbScale
 70
     0
300
1/16" = 1'-0"
140
0.0625
141
12.0
290
     0
  0
SCALE
  5
138
102
{ACAD_REACTORS
330
B6
102
}
330
B6
100
AcDbScale
 70
     0
300
3/32" = 1'-0"
140
0.09375
141
12.0
290
     0
  0
SCALE
  5
139
102
{ACAD_REACTORS
330
B6
102
}
330
B6
100
AcDbScale
 70
     0
300
1/8" = 1'-0"
140
0.125
141
12.0
290
     0
  0
SCALE
  5
13A
102
{ACAD_REACTORS
330
B6
102
}
330
B6
100
AcDbScale
 70
     0
300
3/16" = 1'-0"
140
0.1875
141
12.0
290
     0
  0
SCALE
  5
13B
102
{ACAD_REACTORS
330
B6
102
}
330
B6
100
AcDbScale
 70
     0
300
1/4" = 1'-0"
140
0.25
141
12.0
290
     0
  0
SCALE
  5
13C
102
{ACAD_REACTORS
330
B6
102
}
330
B6
100
AcDbScale
 70
     0
300
3/8" = 1'-0"
140
0.375
141
12.0
290
     0
  0
SCALE
  5
13D
102
{ACAD_REACTORS
330
B6
102
}
330
B6
100
AcDbScale
 70
     0
300
1/2" = 1'-0"
140
0.5
141
12.0
290
     0
  0
SCALE
  5
13E
102
{ACAD_REACTORS
330
B6
102
}
330
B6
100
AcDbScale
 70
     0
300
3/4" = 1'-0"
140
0.75
141
12.0
290
     0
  0
SCALE
  5
13F
102
{ACAD_REACTORS
330
B6
102
}
330
B6
100
AcDbScale
 70
     0
300
1" = 1'-0"
140
1.0
141
12.0
290
     0
  0
SCALE
  5
140
102
{ACAD_REACTORS
330
B6
102
}
330
B6
100
AcDbScale
 70
     0
300
1-1/2" = 1'-0"
140
1.5
141
12.0
290
     0
  0
SCALE
  5
141
102
{ACAD_REACTORS
330
B6
102
}
330
B6
100
AcDbScale
 70
     0
300
3" = 1'-0"
140
3.0
141
12.0
290
     0
  0
SCALE
  5
142
102
{ACAD_REACTORS
330
B6
102
}
330
B6
100
AcDbScale
 70
     0
300
6" = 1'-0"
140
6.0
141
12.0
290
     0
  0
SCALE
  5
143
102
{ACAD_REACTORS
330
B6
102
}
330
B6
100
AcDbScale
 70
     0
300
1'-0" = 1'-0"
140
12.0
141
12.0
290
     0
  0
ACDBSECTIONVIEWSTYLE
  5
1AA
102
{ACAD_XDICTIONARY
360
67A
102
}
102
{ACAD_REACTORS
330
1A8
330
60B
102
}
330
1A8
100
AcDbModelDocViewStyle
 70
     0
  3
Imperial24
290
     0
100
AcDbSectionViewStyle
 70
     0
 71
     0
 90
       78
 71
     1
340
11
 62
   256
 40
0.24
340
0
340
0
 62
   256
 40
0.24
300
I, O, Q, S, X, Z
 40
0.48
 90
        3
 40
0.18
 90
        1
 71
     2
340
16
 90
       25
 62
   256
340
16
 90
       50
 62
   256
 40
0.24
 40
0.0
 40
0.24
 71
     3
340
11
 62
   256
 40
0.24
 90
        1
 40
0.75
 90
        1
300
%<\AcVar ViewType \f "%tc1">% %<\AcVar ViewSectionStartId>%-%<\AcVar ViewSectionEndId>%\PSCALE %<\AcVar ViewScale \f "%sn">%
 71
     4
 62
   256
 62
   257
300
ANSI31
 40
1.0
 90
        0
290
     0
290
     0
 90
        6
 40
0.0
 40
1.570796326794896
 40
0.2617993877991494
 40
1.308996938995747
 40
-0.2617993877991494
 40
1.832595714594046
  0
ACDBSECTIONVIEWSTYLE
  5
3D6
102
{ACAD_XDICTIONARY
360
67E
102
}
102
{ACAD_REACTORS
330
1A8
330
60C
102
}
330
1A8
100
AcDbModelDocViewStyle
 70
     0
  3
Metric50
290
     0
100
AcDbSectionViewStyle
 70
     0
 71
     0
 90
      102
 71
     1
340
11
 62
   256
 40
5.0
340
0
340
0
 62
   256
 40
5.0
300
I, O, Q, S, X, Z
 40
10.0
 90
        0
 40
2.5
 90
        0
 71
     2
340
16
 90
       25
 62
   256
340
16
 90
       50
 62
   256
 40
5.0
 40
2.5
 40
5.0
 71
     3
340
11
 62
   256
 40
5.0
 90
        0
 40
15.0
 90
        1
300
%<\AcVar ViewSectionStartId>%-%<\AcVar ViewSectionEndId>% (%<\AcVar ViewScale \f "%sn">%)
 71
     4
 62
   256
 62
   257
300
ANSI31
 40
1.0
 90
        0
290
     0
290
     0
 90
        6
 40
0.0
 40
1.570796326794896
 40
0.2617993877991494
 40
1.308996938995747
 40
-0.2617993877991494
 40
1.832595714594046
  0
TABLESTYLE
  5
87
102
{ACAD_XDICTIONARY
360
104
102
}
102
{ACAD_REACTORS
330
86
102
}
330
86
100
AcDbTableStyle
280
     0
  3
Standard
 70
     0
 71
     0
 40
0.06
 41
0.06
280
     0
281
     0
  7
Standard
140
0.18
170
     2
 62
     0
 63
     7
283
     0
 90
      512
 91
        0
  1

274
    -2
284
     1
 64
     0
275
    -2
285
     1
 65
     0
276
    -2
286
     1
 66
     0
277
    -2
287
     1
 67
     0
278
    -2
288
     1
 68
     0
279
    -2
289
     1
 69
     0
  7
Standard
140
0.25
170
     5
 62
     0
 63
     7
283
     0
 90
      512
 91
        0
  1

274
    -2
284
     1
 64
     0
275
    -2
285
     1
 65
     0
276
    -2
286
     1
 66
     0
277
    -2
287
     1
 67
     0
278
    -2
288
     1
 68
     0
279
    -2
289
     1
 69
     0
  7
Standard
140
0.18
170
     5
 62
     0
 63
     7
283
     0
 90
      512
 91
        0
  1

274
    -2
284
     1
 64
     0
275
    -2
285
     1
 65
     0
276
    -2
286
     1
 66
     0
277
    -2
287
     1
 67
     0
278
    -2
288
     1
 68
     0
279
    -2
289
     1
 69
     0
  0
VISUALSTYLE
  5
9F
102
{ACAD_REACTORS
330
99
102
}
330
99
100
AcDbVisualStyle
  2
2dWireframe
 70
     4
177
     3
291
     0
 70
    58
 90
        0
176
     1
 90
        2
176
     1
 90
        1
176
     1
 90
        0
176
     1
 40
0.6
176
     1
 40
30.0
176
     1
 62
     7
420
 16777215
176
     1
 90
        1
176
     1
 90
        4
176
     1
 62
     7
176
     1
 62
   257
176
     1
 90
        1
176
     1
 90
        1
176
     1
 40
1.0
176
     1
 90
        0
176
     1
 62
   257
176
     1
 40
1.0
176
     1
 90
        1
176
     1
 90
        6
176
     1
 90
        2
176
     1
 62
     7
176
     1
 90
        5
176
     1
 90
        0
176
     1
 90
        0
176
     1
290
     0
176
     1
 90
        1
176
     1
 40
0.0
176
     1
 90
        0
176
     1
290
     1
176
     1
290
     1
176
     1
290
     0
176
     1
290
     0
176
     1
290
     0
176
     1
290
     0
176
     1
290
     0
176
     1
290
     0
176
     1
290
     0
176
     1
 90
       50
176
     1
 40
0.0
176
     1
 40
1.0
176
     1
 90
        0
176
     1
 62
    18
420
        0
176
     1
 90
       50
176
     1
 90
        3
176
     1
 62
     5
420
      255
176
     1
290
     0
176
     1
 90
       50
176
     1
 90
       50
176
     1
 90
       50
176
     1
290
     0
176
     1
 90
       50
176
     1
 62
   256
176
     0
 40
1.0
176
     0
 90
        2
176
     1
  1
strokes_ogs.tif
176
     1
290
     0
176
     1
 40
1.0
176
     1
 40
1.0
176
     1
1001
ACAD
1000
AcDbSavedByObjectVersion
1070
     0
  0
VISUALSTYLE
  5
9E
102
{ACAD_REACTORS
330
99
102
}
330
99
100
AcDbVisualStyle
  2
Basic
 70
     7
177
     3
291
     1
 70
    58
 90
        1
176
     1
 90
        0
176
     1
 90
        1
176
     1
 90
        0
176
     1
 40
0.6
176
     1
 40
30.0
176
     1
 62
     7
420
 16777215
176
     1
 90
        0
176
     1
 90
        4
176
     1
 62
     7
176
     1
 62
   257
176
     1
 90
        1
176
     1
 90
        1
176
     1
 40
1.0
176
     1
 90
        8
176
     1
 62
     7
176
     1
 40
1.0
176
     1
 90
        1
176
     1
 90
        6
176
     1
 90
        2
176
     1
 62
     7
176
     1
 90
        5
176
     1
 90
        0
176
     1
 90
        0
176
     1
290
     0
176
     1
 90
        1
176
     1
 40
0.0
176
     1
 90
        0
176
     1
290
     0
176
     1
290
     1
176
     1
290
     1
176
     1
290
     0
176
     1
290
     0
176
     1
290
     0
176
     1
290
     0
176
     1
290
     0
176
     1
290
     0
176
     1
 90
       50
176
     1
 40
0.0
176
     1
 40
1.0
176
     1
 90
        0
176
     1
 62
    18
420
        0
176
     1
 90
       50
176
     1
 90
        3
176
     1
 62
     5
420
      255
176
     1
290
     0
176
     1
 90
       50
176
     1
 90
       50
176
     1
 90
       50
176
     1
290
     0
176
     1
 90
       50
176
     1
 62
   256
176
     0
 40
1.0
176
     0
 90
        2
176
     1
  1
strokes_ogs.tif
176
     1
290
     0
176
     1
 40
1.0
176
     1
 40
1.0
176
     1
1001
ACAD
1000
AcDbSavedByObjectVersion
1070
     0
  0
VISUALSTYLE
  5
A5
102
{ACAD_REACTORS
330
99
102
}
330
99
100
AcDbVisualStyle
  2
Brighten
 70
    12
177
     3
291
     1
 70
    58
 90
        2
176
     1
 90
        2
176
     1
 90
        1
176
     1
 90
        0
176
     1
 40
0.6
176
     1
 40
30.0
176
     1
 62
     7
420
 16777215
176
     1
 90
        1
176
     1
 90
        4
176
     1
 62
     7
176
     1
 62
   257
176
     1
 90
        1
176
     1
 90
        1
176
     1
 40
1.0
176
     1
 90
        8
176
     1
 62
     7
176
     1
 40
1.0
176
     1
 90
        1
176
     1
 90
        6
176
     1
 90
        2
176
     1
 62
     7
176
     1
 90
        5
176
     1
 90
        0
176
     1
 90
        0
176
     1
290
     0
176
     1
 90
        1
176
     1
 40
50.0
176
     1
 90
        0
176
     1
290
     0
176
     1
290
     1
176
     1
290
     1
176
     1
290
     0
176
     1
290
     0
176
     1
290
     0
176
     1
290
     0
176
     1
290
     0
176
     1
290
     0
176
     1
 90
       50
176
     1
 40
0.0
176
     1
 40
1.0
176
     1
 90
        0
176
     1
 62
    18
420
        0
176
     1
 90
       50
176
     1
 90
        3
176
     1
 62
     5
420
      255
176
     1
290
     0
176
     1
 90
       50
176
     1
 90
       50
176
     1
 90
       50
176
     1
290
     0
176
     1
 90
       50
176
     1
 62
   256
176
     0
 40
1.0
176
     0
 90
        2
176
     1
  1
strokes_ogs.tif
176
     1
290
     0
176
     1
 40
1.0
176
     1
 40
1.0
176
     1
1001
ACAD
1000
AcDbSavedByObjectVersion
1070
     0
  0
VISUALSTYLE
  5
A9
102
{ACAD_REACTORS
330
99
102
}
330
99
100
AcDbVisualStyle
  2
ColorChange
 70
    16
177
     3
291
     1
 70
    58
 90
        2
176
     1
 90
        2
176
     1
 90
        3
176
     1
 90
        0
176
     1
 40
0.6
176
     1
 40
30.0
176
     1
 62
     8
420
  8421504
176
     1
 90
        1
176
     1
 90
        4
176
     1
 62
     7
176
     1
 62
   257
176
     1
 90
        1
176
     1
 90
        1
176
     1
 40
1.0
176
     1
 90
        8
176
     1
 62
     8
420
  8421504
176
     1
 40
1.0
176
     1
 90
        1
176
     1
 90
        6
176
     1
 90
        2
176
     1
 62
     7
176
     1
 90
        5
176
     1
 90
        0
176
     1
 90
        0
176
     1
290
     0
176
     1
 90
        1
176
     1
 40
0.0
176
     1
 90
        0
176
     1
290
     0
176
     1
290
     1
176
     1
290
     1
176
     1
290
     0
176
     1
290
     0
176
     1
290
     0
176
     1
290
     0
176
     1
290
     0
176
     1
290
     0
176
     1
 90
       50
176
     1
 40
0.0
176
     1
 40
1.0
176
     1
 90
        0
176
     1
 62
    18
420
        0
176
     1
 90
       50
176
     1
 90
        3
176
     1
 62
     5
420
      255
176
     1
290
     0
176
     1
 90
       50
176
     1
 90
       50
176
     1
 90
       50
176
     1
290
     0
176
     1
 90
       50
176
     1
 62
   256
176
     0
 40
1.0
176
     0
 90
        2
176
     1
  1
strokes_ogs.tif
176
     1
290
     0
176
     1
 40
1.0
176
     1
 40
1.0
176
     1
1001
ACAD
1000
AcDbSavedByObjectVersion
1070
     0
  0
VISUALSTYLE
  5
A2
102
{ACAD_REACTORS
330
99
102
}
330
99
100
AcDbVisualStyle
  2
Conceptual
 70
     9
177
     3
291
     0
 70
    58
 90
        3
176
     1
 90
        2
176
     1
 90
        1
176
     1
 90
        0
176
     1
 40
0.6
176
     1
 40
30.0
176
     1
 62
     7
420
 16777215
176
     1
 90
        2
176
     1
 90
        2
176
     1
 62
     7
176
     1
 62
   257
176
     1
 90
        1
176
     1
 90
        1
176
     1
 40
40.0
176
     1
 90
        8
176
     1
 62
     7
176
     1
 40
1.0
176
     1
 90
        1
176
     1
 90
        6
176
     1
 90
        2
176
     1
 62
     7
176
     1
 90
        3
176
     1
 90
        0
176
     1
 90
        0
176
     1
290
     0
176
     1
 90
        1
176
     1
 40
0.0
176
     1
 90
        0
176
     1
290
     0
176
     1
290
     1
176
     1
290
     1
176
     1
290
     0
176
     1
290
     0
176
     1
290
     0
176
     1
290
     0
176
     1
290
     0
176
     1
290
     0
176
     1
 90
       50
176
     1
 40
0.0
176
     1
 40
1.0
176
     1
 90
        0
176
     1
 62
    18
420
        0
176
     1
 90
       50
176
     1
 90
        3
176
     1
 62
     5
420
      255
176
     1
290
     0
176
     1
 90
       50
176
     1
 90
       50
176
     1
 90
       50
176
     1
290
     0
176
     1
 90
       50
176
     1
 62
   256
176
     0
 40
1.0
176
     0
 90
        2
176
     1
  1
strokes_ogs.tif
176
     1
290
     0
176
     1
 40
1.0
176
     1
 40
1.0
176
     1
1001
ACAD
1000
AcDbSavedByObjectVersion
1070
     0
  0
VISUALSTYLE
  5
A4
102
{ACAD_REACTORS
330
99
102
}
330
99
100
AcDbVisualStyle
  2
Dim
 70
    11
177
     3
291
     1
 70
    58
 90
        2
176
     1
 90
        2
176
     1
 90
        1
176
     1
 90
        0
176
     1
 40
0.6
176
     1
 40
30.0
176
     1
 62
     7
420
 16777215
176
     1
 90
        1
176
     1
 90
        4
176
     1
 62
     7
176
     1
 62
   257
176
     1
 90
        1
176
     1
 90
        1
176
     1
 40
1.0
176
     1
 90
        8
176
     1
 62
     7
176
     1
 40
1.0
176
     1
 90
        1
176
     1
 90
        6
176
     1
 90
        2
176
     1
 62
     7
176
     1
 90
        5
176
     1
 90
        0
176
     1
 90
        0
176
     1
290
     0
176
     1
 90
        1
176
     1
 40
-50.0
176
     1
 90
        0
176
     1
290
     0
176
     1
290
     1
176
     1
290
     1
176
     1
290
     0
176
     1
290
     0
176
     1
290
     0
176
     1
290
     0
176
     1
290
     0
176
     1
290
     0
176
     1
 90
       50
176
     1
 40
0.0
176
     1
 40
1.0
176
     1
 90
        0
176
     1
 62
    18
420
        0
176
     1
 90
       50
176
     1
 90
        3
176
     1
 62
     5
420
      255
176
     1
290
     0
176
     1
 90
       50
176
     1
 90
       50
176
     1
 90
       50
176
     1
290
     0
176
     1
 90
       50
176
     1
 62
   256
176
     0
 40
1.0
176
     0
 90
        2
176
     1
  1
strokes_ogs.tif
176
     1
290
     0
176
     1
 40
1.0
176
     1
 40
1.0
176
     1
1001
ACAD
1000
AcDbSavedByObjectVersion
1070
     0
  0
VISUALSTYLE
  5
175
102
{ACAD_REACTORS
330
99
102
}
330
99
100
AcDbVisualStyle
  2
EdgeColorOff
 70
    22
177
     3
291
     1
 70
    58
 90
        2
176
     0
 90
        2
176
     0
 90
        0
176
     0
 90
        0
176
     0
 40
0.6
176
     0
 40
30.0
176
     0
 62
     7
420
 16777215
176
     0
 90
        1
176
     0
 90
        4
176
     0
 62
     7
176
     0
 62
   257
176
     0
 90
        1
176
     0
 90
        1
176
     0
 40
1.0
176
     0
 90
        8
176
     2
 62
     7
176
     0
 40
1.0
176
     0
 90
        1
176
     0
 90
        6
176
     0
 90
        2
176
     0
 62
     7
176
     0
 90
        5
176
     0
 90
        0
176
     0
 90
        0
176
     0
290
     0
176
     0
 90
        1
176
     0
 40
0.0
176
     0
 90
        0
176
     0
290
     0
176
     1
290
     1
176
     1
290
     1
176
     1
290
     0
176
     1
290
     0
176
     1
290
     0
176
     1
290
     0
176
     1
290
     0
176
     1
290
     0
176
     1
 90
       50
176
     1
 40
0.0
176
     1
 40
1.0
176
     1
 90
        0
176
     1
 62
    18
420
        0
176
     1
 90
       50
176
     1
 90
        3
176
     1
 62
     5
420
      255
176
     1
290
     0
176
     1
 90
       50
176
     1
 90
       50
176
     1
 90
       50
176
     1
290
     0
176
     1
 90
       50
176
     1
 62
   256
176
     0
 40
1.0
176
     0
 90
        2
176
     1
  1
strokes_ogs.tif
176
     1
290
     0
176
     1
 40
1.0
176
     1
 40
1.0
176
     1
1001
ACAD
1000
AcDbSavedByObjectVersion
1070
     0
  0
VISUALSTYLE
  5
A8
102
{ACAD_REACTORS
330
99
102
}
330
99
100
AcDbVisualStyle
  2
Facepattern
 70
    15
177
     3
291
     1
 70
    58
 90
        2
176
     1
 90
        2
176
     1
 90
        1
176
     1
 90
        0
176
     1
 40
0.6
176
     1
 40
30.0
176
     1
 62
     7
420
 16777215
176
     1
 90
        1
176
     1
 90
        4
176
     1
 62
     7
176
     1
 62
   257
176
     1
 90
        1
176
     1
 90
        1
176
     1
 40
1.0
176
     1
 90
        8
176
     1
 62
     7
176
     1
 40
1.0
176
     1
 90
        1
176
     1
 90
        6
176
     1
 90
        2
176
     1
 62
     7
176
     1
 90
        5
176
     1
 90
        0
176
     1
 90
        0
176
     1
290
     0
176
     1
 90
        1
176
     1
 40
0.0
176
     1
 90
        0
176
     1
290
     0
176
     1
290
     1
176
     1
290
     1
176
     1
290
     0
176
     1
290
     0
176
     1
290
     0
176
     1
290
     0
176
     1
290
     0
176
     1
290
     0
176
     1
 90
       50
176
     1
 40
0.0
176
     1
 40
1.0
176
     1
 90
        0
176
     1
 62
    18
420
        0
176
     1
 90
       50
176
     1
 90
        3
176
     1
 62
     5
420
      255
176
     1
290
     0
176
     1
 90
       50
176
     1
 90
       50
176
     1
 90
       50
176
     1
290
     0
176
     1
 90
       50
176
     1
 62
   256
176
     0
 40
1.0
176
     0
 90
        2
176
     1
  1
strokes_ogs.tif
176
     1
290
     0
176
     1
 40
1.0
176
     1
 40
1.0
176
     1
1001
ACAD
1000
AcDbSavedByObjectVersion
1070
     0
  0
VISUALSTYLE
  5
9A
102
{ACAD_REACTORS
330
99
102
}
330
99
100
AcDbVisualStyle
  2
Flat
 70
     0
177
     3
291
     1
 70
    58
 90
        2
176
     1
 90
        1
176
     1
 90
        1
176
     1
 90
        2
176
     1
 40
0.6
176
     1
 40
30.0
176
     1
 62
     7
420
 16777215
176
     1
 90
        0
176
     1
 90
        0
176
     1
 62
     7
176
     1
 62
   257
176
     1
 90
        1
176
     1
 90
        1
176
     1
 40
1.0
176
     1
 90
        8
176
     1
 62
     7
176
     1
 40
1.0
176
     1
 90
        1
176
     1
 90
        6
176
     1
 90
        2
176
     1
 62
     7
176
     1
 90
        5
176
     1
 90
        0
176
     1
 90
        0
176
     1
290
     0
176
     1
 90
       13
176
     1
 40
0.0
176
     1
 90
        0
176
     1
290
     0
176
     1
290
     1
176
     1
290
     1
176
     1
290
     0
176
     1
290
     0
176
     1
290
     0
176
     1
290
     0
176
     1
290
     0
176
     1
290
     0
176
     1
 90
       50
176
     1
 40
0.0
176
     1
 40
1.0
176
     1
 90
        0
176
     1
 62
    18
420
        0
176
     1
 90
       50
176
     1
 90
        3
176
     1
 62
     5
420
      255
176
     1
290
     0
176
     1
 90
       50
176
     1
 90
       50
176
     1
 90
       50
176
     1
290
     0
176
     1
 90
       50
176
     1
 62
   256
176
     0
 40
1.0
176
     0
 90
        2
176
     1
  1
strokes_ogs.tif
176
     1
290
     0
176
     1
 40
1.0
176
     1
 40
1.0
176
     1
1001
ACAD
1000
AcDbSavedByObjectVersion
1070
     0
  0
VISUALSTYLE
  5
9B
102
{ACAD_REACTORS
330
99
102
}
330
99
100
AcDbVisualStyle
  2
FlatWithEdges
 70
     1
177
     3
291
     1
 70
    58
 90
        2
176
     1
 90
        1
176
     1
 90
        1
176
     1
 90
        2
176
     1
 40
0.6
176
     1
 40
30.0
176
     1
 62
     7
420
 16777215
176
     1
 90
        1
176
     1
 90
        0
176
     1
 62
     7
176
     1
 62
   257
176
     1
 90
        1
176
     1
 90
        1
176
     1
 40
1.0
176
     1
 90
        0
176
     1
 62
   257
176
     1
 40
1.0
176
     1
 90
        1
176
     1
 90
        6
176
     1
 90
        2
176
     1
 62
     7
176
     1
 90
        5
176
     1
 90
        0
176
     1
 90
        0
176
     1
290
     0
176
     1
 90
       13
176
     1
 40
0.0
176
     1
 90
        0
176
     1
290
     0
176
     1
290
     1
176
     1
290
     1
176
     1
290
     0
176
     1
290
     0
176
     1
290
     0
176
     1
290
     0
176
     1
290
     0
176
     1
290
     0
176
     1
 90
       50
176
     1
 40
0.0
176
     1
 40
1.0
176
     1
 90
        0
176
     1
 62
    18
420
        0
176
     1
 90
       50
176
     1
 90
        3
176
     1
 62
     5
420
      255
176
     1
290
     0
176
     1
 90
       50
176
     1
 90
       50
176
     1
 90
       50
176
     1
290
     0
176
     1
 90
       50
176
     1
 62
   256
176
     0
 40
1.0
176
     0
 90
        2
176
     1
  1
strokes_ogs.tif
176
     1
290
     0
176
     1
 40
1.0
176
     1
 40
1.0
176
     1
1001
ACAD
1000
AcDbSavedByObjectVersion
1070
     0
  0
VISUALSTYLE
  5
9C
102
{ACAD_REACTORS
330
99
102
}
330
99
100
AcDbVisualStyle
  2
Gouraud
 70
     2
177
     3
291
     1
 70
    58
 90
        2
176
     1
 90
        2
176
     1
 90
        1
176
     1
 90
        2
176
     1
 40
0.6
176
     1
 40
30.0
176
     1
 62
     7
420
 16777215
176
     1
 90
        0
176
     1
 90
        0
176
     1
 62
     7
176
     1
 62
   257
176
     1
 90
        1
176
     1
 90
        1
176
     1
 40
1.0
176
     1
 90
        0
176
     1
 62
     7
176
     1
 40
1.0
176
     1
 90
        1
176
     1
 90
        6
176
     1
 90
        2
176
     1
 62
     7
176
     1
 90
        5
176
     1
 90
        0
176
     1
 90
        0
176
     1
290
     0
176
     1
 90
       13
176
     1
 40
0.0
176
     1
 90
        0
176
     1
290
     0
176
     1
290
     1
176
     1
290
     1
176
     1
290
     0
176
     1
290
     0
176
     1
290
     0
176
     1
290
     0
176
     1
290
     0
176
     1
290
     0
176
     1
 90
       50
176
     1
 40
0.0
176
     1
 40
1.0
176
     1
 90
        0
176
     1
 62
    18
420
        0
176
     1
 90
       50
176
     1
 90
        3
176
     1
 62
     5
420
      255
176
     1
290
     0
176
     1
 90
       50
176
     1
 90
       50
176
     1
 90
       50
176
     1
290
     0
176
     1
 90
       50
176
     1
 62
   256
176
     0
 40
1.0
176
     0
 90
        2
176
     1
  1
strokes_ogs.tif
176
     1
290
     0
176
     1
 40
1.0
176
     1
 40
1.0
176
     1
1001
ACAD
1000
AcDbSavedByObjectVersion
1070
     0
  0
VISUALSTYLE
  5
9D
102
{ACAD_REACTORS
330
99
102
}
330
99
100
AcDbVisualStyle
  2
GouraudWithEdges
 70
     3
177
     3
291
     1
 70
    58
 90
        2
176
     1
 90
        2
176
     1
 90
        1
176
     1
 90
        2
176
     1
 40
0.6
176
     1
 40
30.0
176
     1
 62
     7
420
 16777215
176
     1
 90
        1
176
     1
 90
        0
176
     1
 62
     7
176
     1
 62
   257
176
     1
 90
        1
176
     1
 90
        1
176
     1
 40
1.0
176
     1
 90
        0
176
     1
 62
   257
176
     1
 40
1.0
176
     1
 90
        1
176
     1
 90
        6
176
     1
 90
        2
176
     1
 62
     7
176
     1
 90
        5
176
     1
 90
        0
176
     1
 90
        0
176
     1
290
     0
176
     1
 90
       13
176
     1
 40
0.0
176
     1
 90
        0
176
     1
290
     0
176
     1
290
     1
176
     1
290
     1
176
     1
290
     0
176
     1
290
     0
176
     1
290
     0
176
     1
290
     0
176
     1
290
     0
176
     1
290
     0
176
     1
 90
       50
176
     1
 40
0.0
176
     1
 40
1.0
176
     1
 90
        0
176
     1
 62
    18
420
        0
176
     1
 90
       50
176
     1
 90
        3
176
     1
 62
     5
420
      255
176
     1
290
     0
176
     1
 90
       50
176
     1
 90
       50
176
     1
 90
       50
176
     1
290
     0
176
     1
 90
       50
176
     1
 62
   256
176
     0
 40
1.0
176
     0
 90
        2
176
     1
  1
strokes_ogs.tif
176
     1
290
     0
176
     1
 40
1.0
176
     1
 40
1.0
176
     1
1001
ACAD
1000
AcDbSavedByObjectVersion
1070
     0
  0
VISUALSTYLE
  5
A1
102
{ACAD_REACTORS
330
99
102
}
330
99
100
AcDbVisualStyle
  2
Hidden
 70
     6
177
     3
291
     0
 70
    58
 90
        1
176
     1
 90
        2
176
     1
 90
        2
176
     1
 90
        0
176
     1
 40
0.6
176
     1
 40
30.0
176
     1
 62
     7
420
 16777215
176
     1
 90
        2
176
     1
 90
        2
176
     1
 62
     7
176
     1
 62
   257
176
     1
 90
        2
176
     1
 90
        1
176
     1
 40
40.0
176
     1
 90
        0
176
     1
 62
   257
176
     1
 40
1.0
176
     1
 90
        1
176
     1
 90
        6
176
     1
 90
        2
176
     1
 62
     7
176
     1
 90
        3
176
     1
 90
        0
176
     1
 90
        0
176
     1
290
     0
176
     1
 90
        1
176
     1
 40
0.0
176
     1
 90
        0
176
     1
290
     0
176
     1
290
     1
176
     1
290
     1
176
     1
290
     0
176
     1
290
     0
176
     1
290
     0
176
     1
290
     0
176
     1
290
     0
176
     1
290
     0
176
     1
 90
       50
176
     1
 40
0.0
176
     1
 40
1.0
176
     1
 90
        0
176
     1
 62
    18
420
        0
176
     1
 90
       50
176
     1
 90
        3
176
     1
 62
     5
420
      255
176
     1
290
     0
176
     1
 90
       50
176
     1
 90
       50
176
     1
 90
       50
176
     1
290
     0
176
     1
 90
       50
176
     1
 62
   256
176
     0
 40
1.0
176
     0
 90
        2
176
     1
  1
strokes_ogs.tif
176
     1
290
     0
176
     1
 40
1.0
176
     1
 40
1.0
176
     1
1001
ACAD
1000
AcDbSavedByObjectVersion
1070
     0
  0
VISUALSTYLE
  5
173
102
{ACAD_REACTORS
330
99
102
}
330
99
100
AcDbVisualStyle
  2
JitterOff
 70
    20
177
     3
291
     1
 70
    58
 90
        2
176
     0
 90
        2
176
     0
 90
        0
176
     0
 90
        0
176
     0
 40
0.6
176
     0
 40
30.0
176
     0
 62
     7
420
 16777215
176
     0
 90
        1
176
     0
 90
        4
176
     0
 62
     7
176
     0
 62
   257
176
     0
 90
        1
176
     0
 90
        1
176
     0
 40
1.0
176
     0
 90
       10
176
     2
 62
     7
176
     0
 40
1.0
176
     0
 90
        1
176
     0
 90
        6
176
     0
 90
        2
176
     0
 62
     7
176
     0
 90
        5
176
     0
 90
        0
176
     0
 90
        0
176
     0
290
     0
176
     0
 90
        1
176
     0
 40
0.0
176
     0
 90
        0
176
     0
290
     0
176
     1
290
     1
176
     1
290
     1
176
     1
290
     0
176
     1
290
     0
176
     1
290
     0
176
     1
290
     0
176
     1
290
     0
176
     1
290
     0
176
     1
 90
       50
176
     1
 40
0.0
176
     1
 40
1.0
176
     1
 90
        0
176
     1
 62
    18
420
        0
176
     1
 90
       50
176
     1
 90
        3
176
     1
 62
     5
420
      255
176
     1
290
     0
176
     1
 90
       50
176
     1
 90
       50
176
     1
 90
       50
176
     1
290
     0
176
     1
 90
       50
176
     1
 62
   256
176
     0
 40
1.0
176
     0
 90
        2
176
     1
  1
strokes_ogs.tif
176
     1
290
     0
176
     1
 40
1.0
176
     1
 40
1.0
176
     1
1001
ACAD
1000
AcDbSavedByObjectVersion
1070
     0
  0
VISUALSTYLE
  5
A7
102
{ACAD_REACTORS
330
99
102
}
330
99
100
AcDbVisualStyle
  2
Linepattern
 70
    14
177
     3
291
     1
 70
    58
 90
        2
176
     1
 90
        2
176
     1
 90
        1
176
     1
 90
        0
176
     1
 40
0.6
176
     1
 40
30.0
176
     1
 62
     7
420
 16777215
176
     1
 90
        1
176
     1
 90
        4
176
     1
 62
     7
176
     1
 62
   257
176
     1
 90
        7
176
     1
 90
        7
176
     1
 40
1.0
176
     1
 90
        8
176
     1
 62
     7
176
     1
 40
1.0
176
     1
 90
        1
176
     1
 90
        6
176
     1
 90
        2
176
     1
 62
     7
176
     1
 90
        5
176
     1
 90
        0
176
     1
 90
        0
176
     1
290
     0
176
     1
 90
        1
176
     1
 40
0.0
176
     1
 90
        0
176
     1
290
     0
176
     1
290
     1
176
     1
290
     1
176
     1
290
     0
176
     1
290
     0
176
     1
290
     0
176
     1
290
     0
176
     1
290
     0
176
     1
290
     0
176
     1
 90
       50
176
     1
 40
0.0
176
     1
 40
1.0
176
     1
 90
        0
176
     1
 62
    18
420
        0
176
     1
 90
       50
176
     1
 90
        3
176
     1
 62
     5
420
      255
176
     1
290
     0
176
     1
 90
       50
176
     1
 90
       50
176
     1
 90
       50
176
     1
290
     0
176
     1
 90
       50
176
     1
 62
   256
176
     0
 40
1.0
176
     0
 90
        2
176
     1
  1
strokes_ogs.tif
176
     1
290
     0
176
     1
 40
1.0
176
     1
 40
1.0
176
     1
1001
ACAD
1000
AcDbSavedByObjectVersion
1070
     0
  0
VISUALSTYLE
  5
174
102
{ACAD_REACTORS
330
99
102
}
330
99
100
AcDbVisualStyle
  2
OverhangOff
 70
    21
177
     3
291
     1
 70
    58
 90
        2
176
     0
 90
        2
176
     0
 90
        0
176
     0
 90
        0
176
     0
 40
0.6
176
     0
 40
30.0
176
     0
 62
     7
420
 16777215
176
     0
 90
        1
176
     0
 90
        4
176
     0
 62
     7
176
     0
 62
   257
176
     0
 90
        1
176
     0
 90
        1
176
     0
 40
1.0
176
     0
 90
        9
176
     2
 62
     7
176
     0
 40
1.0
176
     0
 90
        1
176
     0
 90
        6
176
     0
 90
        2
176
     0
 62
     7
176
     0
 90
        5
176
     0
 90
        0
176
     0
 90
        0
176
     0
290
     0
176
     0
 90
        1
176
     0
 40
0.0
176
     0
 90
        0
176
     0
290
     0
176
     1
290
     1
176
     1
290
     1
176
     1
290
     0
176
     1
290
     0
176
     1
290
     0
176
     1
290
     0
176
     1
290
     0
176
     1
290
     0
176
     1
 90
       50
176
     1
 40
0.0
176
     1
 40
1.0
176
     1
 90
        0
176
     1
 62
    18
420
        0
176
     1
 90
       50
176
     1
 90
        3
176
     1
 62
     5
420
      255
176
     1
290
     0
176
     1
 90
       50
176
     1
 90
       50
176
     1
 90
       50
176
     1
290
     0
176
     1
 90
       50
176
     1
 62
   256
176
     0
 40
1.0
176
     0
 90
        2
176
     1
  1
strokes_ogs.tif
176
     1
290
     0
176
     1
 40
1.0
176
     1
 40
1.0
176
     1
1001
ACAD
1000
AcDbSavedByObjectVersion
1070
     0
  0
VISUALSTYLE
  5
A3
102
{ACAD_REACTORS
330
99
102
}
330
99
100
AcDbVisualStyle
  2
Realistic
 70
     8
177
     3
291
     0
 70
    58
 90
        2
176
     1
 90
        3
176
     1
 90
        0
176
     1
 90
        2
176
     1
 40
0.6
176
     1
 40
30.0
176
     1
 62
     7
420
 16777215
176
     1
 90
        0
176
     1
 90
        0
176
     1
 62
     7
176
     1
 62
   257
176
     1
 90
        1
176
     1
 90
        1
176
     1
 40
1.0
176
     1
 90
        8
176
     1
 62
   257
176
     1
 40
1.0
176
     1
 90
        1
176
     1
 90
        6
176
     1
 90
        2
176
     1
 62
     7
176
     1
 90
        3
176
     1
 90
        0
176
     1
 90
        0
176
     1
290
     0
176
     1
 90
       13
176
     1
 40
0.0
176
     1
 90
        0
176
     1
290
     0
176
     1
290
     1
176
     1
290
     1
176
     1
290
     0
176
     1
290
     0
176
     1
290
     0
176
     1
290
     0
176
     1
290
     0
176
     1
290
     0
176
     1
 90
       50
176
     1
 40
0.0
176
     1
 40
1.0
176
     1
 90
        0
176
     1
 62
    18
420
        0
176
     1
 90
       50
176
     1
 90
        3
176
     1
 62
     5
420
      255
176
     1
290
     0
176
     1
 90
       50
176
     1
 90
       50
176
     1
 90
       50
176
     1
290
     0
176
     1
 90
       50
176
     1
 62
   256
176
     0
 40
1.0
176
     0
 90
        2
176
     1
  1
strokes_ogs.tif
176
     1
290
     0
176
     1
 40
1.0
176
     1
 40
1.0
176
     1
1001
ACAD
1000
AcDbSavedByObjectVersion
1070
     0
  0
VISUALSTYLE
  5
182
102
{ACAD_REACTORS
330
99
102
}
330
99
100
AcDbVisualStyle
  2
Shaded
 70
    27
177
     3
291
     0
 70
    58
 90
        2
176
     1
 90
        2
176
     1
 90
        1
176
     1
 90
        2
176
     1
 40
0.6
176
     1
 40
30.0
176
     1
 62
     7
420
 16777215
176
     1
 90
        0
176
     1
 90
        4
176
     1
 62
     7
176
     1
 62
   257
176
     1
 90
        1
176
     1
 90
        1
176
     1
 40
1.0
176
     1
 90
        8
176
     1
 62
   257
176
     1
 40
1.0
176
     1
 90
        1
176
     1
 90
        6
176
     1
 90
        2
176
     1
 62
     8
420
  7895160
176
     1
 90
        3
176
     1
 90
        0
176
     1
 90
        0
176
     1
290
     0
176
     1
 90
        5
176
     1
 40
0.0
176
     1
 90
        0
176
     1
290
     0
176
     1
290
     1
176
     1
290
     1
176
     1
290
     0
176
     1
290
     0
176
     1
290
     0
176
     1
290
     0
176
     1
290
     0
176
     1
290
     0
176
     1
 90
       50
176
     1
 40
0.0
176
     1
 40
1.0
176
     1
 90
        0
176
     1
 62
    18
420
        0
176
     1
 90
       50
176
     1
 90
        3
176
     1
 62
     5
420
      255
176
     1
290
     0
176
     1
 90
       50
176
     1
 90
       50
176
     1
 90
       50
176
     1
290
     0
176
     1
 90
       50
176
     1
 62
   256
176
     0
 40
1.0
176
     0
 90
        2
176
     1
  1
strokes_ogs.tif
176
     1
290
     0
176
     1
 40
1.0
176
     1
 40
1.0
176
     1
1001
ACAD
1000
AcDbSavedByObjectVersion
1070
     0
  0
VISUALSTYLE
  5
181
102
{ACAD_REACTORS
330
99
102
}
330
99
100
AcDbVisualStyle
  2
Shaded with edges
 70
    26
177
     3
291
     0
 70
    58
 90
        2
176
     1
 90
        2
176
     1
 90
        1
176
     1
 90
        2
176
     1
 40
0.6
176
     1
 40
30.0
176
     1
 62
     7
420
 16777215
176
     1
 90
        1
176
     1
 90
        2
176
     1
 62
     7
176
     1
 62
   257
176
     1
 90
        2
176
     1
 90
        1
176
     1
 40
1.0
176
     1
 90
        8
176
     1
 62
   257
176
     1
 40
1.0
176
     1
 90
        1
176
     1
 90
        6
176
     1
 90
        2
176
     1
 62
     7
176
     1
 90
        3
176
     1
 90
        0
176
     1
 90
        0
176
     1
290
     0
176
     1
 90
        5
176
     1
 40
0.0
176
     1
 90
        0
176
     1
290
     0
176
     1
290
     1
176
     1
290
     1
176
     1
290
     0
176
     1
290
     0
176
     1
290
     0
176
     1
290
     0
176
     1
290
     0
176
     1
290
     0
176
     1
 90
       50
176
     1
 40
0.0
176
     1
 40
1.0
176
     1
 90
        0
176
     1
 62
    18
420
        0
176
     1
 90
       50
176
     1
 90
        3
176
     1
 62
     5
420
      255
176
     1
290
     0
176
     1
 90
       50
176
     1
 90
       50
176
     1
 90
       50
176
     1
290
     0
176
     1
 90
       50
176
     1
 62
   256
176
     0
 40
1.0
176
     0
 90
        2
176
     1
  1
strokes_ogs.tif
176
     1
290
     0
176
     1
 40
1.0
176
     1
 40
1.0
176
     1
1001
ACAD
1000
AcDbSavedByObjectVersion
1070
     0
  0
VISUALSTYLE
  5
17E
102
{ACAD_REACTORS
330
99
102
}
330
99
100
AcDbVisualStyle
  2
Shades of Gray
 70
    23
177
     3
291
     0
 70
    58
 90
        2
176
     1
 90
        2
176
     1
 90
        3
176
     1
 90
        0
176
     1
 40
0.6
176
     1
 40
30.0
176
     1
 62
     7
420
 16777215
176
     1
 90
        2
176
     1
 90
        2
176
     1
 62
     7
176
     1
 62
     7
176
     1
 90
        1
176
     1
 90
        1
176
     1
 40
40.0
176
     1
 90
        8
176
     1
 62
     7
176
     1
 40
1.0
176
     1
 90
        1
176
     1
 90
        6
176
     1
 90
        2
176
     1
 62
     7
176
     1
 90
        3
176
     1
 90
        0
176
     1
 90
        0
176
     1
290
     0
176
     1
 90
        1
176
     1
 40
0.0
176
     1
 90
        0
176
     1
290
     0
176
     1
290
     1
176
     1
290
     1
176
     1
290
     0
176
     1
290
     0
176
     1
290
     0
176
     1
290
     0
176
     1
290
     0
176
     1
290
     0
176
     1
 90
       50
176
     1
 40
0.0
176
     1
 40
1.0
176
     1
 90
        0
176
     1
 62
    18
420
        0
176
     1
 90
       50
176
     1
 90
        3
176
     1
 62
     5
420
      255
176
     1
290
     0
176
     1
 90
       50
176
     1
 90
       50
176
     1
 90
       50
176
     1
290
     0
176
     1
 90
       50
176
     1
 62
   256
176
     0
 40
1.0
176
     0
 90
        2
176
     1
  1
strokes_ogs.tif
176
     1
290
     0
176
     1
 40
1.0
176
     1
 40
1.0
176
     1
1001
ACAD
1000
AcDbSavedByObjectVersion
1070
     0
  0
VISUALSTYLE
  5
17F
102
{ACAD_REACTORS
330
99
102
}
330
99
100
AcDbVisualStyle
  2
Sketchy
 70
    24
177
     3
291
     0
 70
    58
 90
        1
176
     1
 90
        2
176
     1
 90
        2
176
     1
 90
        0
176
     1
 40
0.6
176
     1
 40
30.0
176
     1
 62
     7
420
 16777215
176
     1
 90
        2
176
     1
 90
        2
176
     1
 62
     7
176
     1
 62
     7
176
     1
 90
        1
176
     1
 90
        1
176
     1
 40
40.0
176
     1
 90
       11
176
     1
 62
     7
176
     1
 40
1.0
176
     1
 90
        1
176
     1
 90
        6
176
     1
 90
        2
176
     1
 62
     7
176
     1
 90
        6
176
     1
 90
        0
176
     1
 90
        0
176
     1
290
     0
176
     1
 90
        1
176
     1
 40
0.0
176
     1
 90
        0
176
     1
290
     0
176
     1
290
     1
176
     1
290
     1
176
     1
290
     0
176
     1
290
     0
176
     1
290
     0
176
     1
290
     0
176
     1
290
     0
176
     1
290
     0
176
     1
 90
       50
176
     1
 40
0.0
176
     1
 40
1.0
176
     1
 90
        0
176
     1
 62
    18
420
        0
176
     1
 90
       50
176
     1
 90
        3
176
     1
 62
     5
420
      255
176
     1
290
     0
176
     1
 90
       50
176
     1
 90
       50
176
     1
 90
       50
176
     1
290
     0
176
     1
 90
       50
176
     1
 62
   256
176
     0
 40
1.0
176
     0
 90
        2
176
     1
  1
strokes_ogs.tif
176
     1
290
     0
176
     1
 40
1.0
176
     1
 40
1.0
176
     1
1001
ACAD
1000
AcDbSavedByObjectVersion
1070
     0
  0
VISUALSTYLE
  5
A6
102
{ACAD_REACTORS
330
99
102
}
330
99
100
AcDbVisualStyle
  2
Thicken
 70
    13
177
     3
291
     1
 70
    58
 90
        2
176
     1
 90
        2
176
     1
 90
        1
176
     1
 90
        0
176
     1
 40
0.6
176
     1
 40
30.0
176
     1
 62
     7
420
 16777215
176
     1
 90
        1
176
     1
 90
        4
176
     1
 62
     7
176
     1
 62
   257
176
     1
 90
        1
176
     1
 90
        1
176
     1
 40
1.0
176
     1
 90
       12
176
     1
 62
     7
176
     1
 40
1.0
176
     1
 90
        1
176
     1
 90
        6
176
     1
 90
        2
176
     1
 62
     7
176
     1
 90
        5
176
     1
 90
        0
176
     1
 90
        0
176
     1
290
     0
176
     1
 90
        1
176
     1
 40
0.0
176
     1
 90
        0
176
     1
290
     0
176
     1
290
     1
176
     1
290
     1
176
     1
290
     0
176
     1
290
     0
176
     1
290
     0
176
     1
290
     0
176
     1
290
     0
176
     1
290
     0
176
     1
 90
       50
176
     1
 40
0.0
176
     1
 40
1.0
176
     1
 90
        0
176
     1
 62
    18
420
        0
176
     1
 90
       50
176
     1
 90
        3
176
     1
 62
     5
420
      255
176
     1
290
     0
176
     1
 90
       50
176
     1
 90
       50
176
     1
 90
       50
176
     1
290
     0
176
     1
 90
       50
176
     1
 62
   256
176
     0
 40
1.0
176
     0
 90
        2
176
     1
  1
strokes_ogs.tif
176
     1
290
     0
176
     1
 40
1.0
176
     1
 40
1.0
176
     1
1001
ACAD
1000
AcDbSavedByObjectVersion
1070
     0
  0
VISUALSTYLE
  5
A0
102
{ACAD_REACTORS
330
99
102
}
330
99
100
AcDbVisualStyle
  2
Wireframe
 70
     5
177
     3
291
     0
 70
    58
 90
        0
176
     1
 90
        2
176
     1
 90
        0
176
     1
 90
        0
176
     1
 40
0.6
176
     1
 40
30.0
176
     1
 62
     7
420
 16777215
176
     1
 90
        1
176
     1
 90
        4
176
     1
 62
     7
176
     1
 62
   257
176
     1
 90
        1
176
     1
 90
        1
176
     1
 40
1.0
176
     1
 90
        0
176
     1
 62
   257
176
     1
 40
1.0
176
     1
 90
        1
176
     1
 90
        6
176
     1
 90
        2
176
     1
 62
     7
176
     1
 90
        3
176
     1
 90
        0
176
     1
 90
        0
176
     1
290
     0
176
     1
 90
        1
176
     1
 40
0.0
176
     1
 90
        0
176
     1
290
     0
176
     1
290
     1
176
     1
290
     1
176
     1
290
     0
176
     1
290
     0
176
     1
290
     0
176
     1
290
     0
176
     1
290
     0
176
     1
290
     0
176
     1
 90
       50
176
     1
 40
0.0
176
     1
 40
1.0
176
     1
 90
        0
176
     1
 62
    18
420
        0
176
     1
 90
       50
176
     1
 90
        3
176
     1
 62
     5
420
      255
176
     1
290
     0
176
     1
 90
       50
176
     1
 90
       50
176
     1
 90
       50
176
     1
290
     0
176
     1
 90
       50
176
     1
 62
   256
176
     0
 40
1.0
176
     0
 90
        2
176
     1
  1
strokes_ogs.tif
176
     1
290
     0
176
     1
 40
1.0
176
     1
 40
1.0
176
     1
1001
ACAD
1000
AcDbSavedByObjectVersion
1070
     0
  0
VISUALSTYLE
  5
180
102
{ACAD_REACTORS
330
99
102
}
330
99
100
AcDbVisualStyle
  2
X-Ray
 70
    25
177
     3
291
     0
 70
    58
 90
        2
176
     1
 90
        2
176
     1
 90
        1
176
     1
 90
        1
176
     1
 40
0.5
176
     1
 40
30.0
176
     1
 62
     7
420
 16777215
176
     1
 90
        1
176
     1
 90
        0
176
     1
 62
     7
176
     1
 62
   257
176
     1
 90
        1
176
     1
 90
        1
176
     1
 40
1.0
176
     1
 90
        8
176
     1
 62
     7
176
     1
 40
1.0
176
     1
 90
        1
176
     1
 90
        6
176
     1
 90
        2
176
     1
 62
     7
176
     1
 90
        3
176
     1
 90
        0
176
     1
 90
        0
176
     1
290
     0
176
     1
 90
       13
176
     1
 40
0.0
176
     1
 90
        0
176
     1
290
     0
176
     1
290
     1
176
     1
290
     1
176
     1
290
     0
176
     1
290
     0
176
     1
290
     0
176
     1
290
     0
176
     1
290
     0
176
     1
290
     0
176
     1
 90
       50
176
     1
 40
0.0
176
     1
 40
1.0
176
     1
 90
        0
176
     1
 62
    18
420
        0
176
     1
 90
       50
176
     1
 90
        3
176
     1
 62
     5
420
      255
176
     1
290
     0
176
     1
 90
       50
176
     1
 90
       50
176
     1
 90
       50
176
     1
290
     0
176
     1
 90
       50
176
     1
 62
   256
176
     0
 40
1.0
176
     0
 90
        2
176
     1
  1
strokes_ogs.tif
176
     1
290
     0
176
     1
 40
1.0
176
     1
 40
1.0
176
     1
1001
ACAD
1000
AcDbSavedByObjectVersion
1070
     0
  0
DICTIONARYVAR
  5
F0
102
{ACAD_REACTORS
330
66
102
}
330
66
100
DictionaryVariables
280
     0
  1
1:1
  0
DICTIONARYVAR
  5
EF
102
{ACAD_REACTORS
330
66
102
}
330
66
100
DictionaryVariables
280
     0
  1
STANDARD
  0
DICTIONARYVAR
  5
89
102
{ACAD_REACTORS
330
66
102
}
330
66
100
DictionaryVariables
280
     0
  1
STANDARD
  0
DICTIONARYVAR
  5
1B7
102
{ACAD_REACTORS
330
66
102
}
330
66
100
DictionaryVariables
280
     0
  1
Metric50
  0
DICTIONARYVAR
  5
1B8
102
{ACAD_REACTORS
330
66
102
}
330
66
100
DictionaryVariables
280
     0
  1
Metric50
  0
DICTIONARYVAR
  5
67
102
{ACAD_REACTORS
330
66
102
}
330
66
100
DictionaryVariables
280
     0
  1
2
  0
DICTIONARYVAR
  5
6B
102
{ACAD_REACTORS
330
66
102
}
330
66
100
DictionaryVariables
280
     0
  1
1
  0
DICTIONARYVAR
  5
14D
102
{ACAD_REACTORS
330
66
102
}
330
66
100
DictionaryVariables
280
     0
  1
0
  0
DICTIONARYVAR
  5
14E
102
{ACAD_REACTORS
330
66
102
}
330
66
100
DictionaryVariables
280
     0
  1
0
  0
DICTIONARY
  5
679
102
{ACAD_REACTORS
330
677
102
}
330
677
100
AcDbDictionary
281
     1
  0
DICTIONARY
  5
678
102
{ACAD_REACTORS
330
677
102
}
330
677
100
AcDbDictionary
281
     1
  3
1734164859424
350
672
  3
1734164859440
350
673
  3
1734164859456
350
674
  3
1734164859472
350
675
  3
1734164859488
350
676
  0
DICTIONARY
  5
5E0
102
{ACAD_REACTORS
330
5D9
102
}
330
5D9
100
AcDbDictionary
281
     1
  0
DICTIONARY
  5
67C
330
1AC
100
AcDbDictionary
280
     1
281
     1
  3
ACAD_XREC_ROUNDTRIP
360
67D
  0
DICTIONARY
  5
680
330
3D7
100
AcDbDictionary
280
     1
281
     1
  3
ACAD_XREC_ROUNDTRIP
360
681
  0
DICTIONARY
  5
194
330
22
100
AcDbDictionary
280
     1
281
     1
  0
DICTIONARY
  5
188
330
97
100
AcDbDictionary
280
     1
281
     1
  3
FBXASSET
360
189
  0
DICTIONARY
  5
186
330
96
100
AcDbDictionary
280
     1
281
     1
  3
FBXASSET
360
187
  0
DICTIONARY
  5
110
330
98
100
AcDbDictionary
280
     1
281
     1
  3
BUMPTILE
360
112
  3
DIFFUSETILE
360
111
  3
FBXASSET
360
18A
  3
OPACITYTILE
360
113
  3
REFLECTIONTILE
360
114
  0
DICTIONARY
  5
67A
330
1AA
100
AcDbDictionary
280
     1
281
     1
  3
ACAD_XREC_ROUNDTRIP
360
67B
  0
DICTIONARY
  5
67E
330
3D6
100
AcDbDictionary
280
     1
281
     1
  3
ACAD_XREC_ROUNDTRIP
360
67F
  0
DICTIONARY
  5
104
330
87
100
AcDbDictionary
280
     1
281
     1
  3
ACAD_ROUNDTRIP_2008_TABLESTYLE_CELLSTYLEMAP
360
670
  0
XRECORD
  5
672
102
{ACAD_REACTORS
330
678
102
}
330
678
100
AcDbXrecord
280
     1
  1
AcDb_Thumbnail_Schema
102
{ATTRRECORD
341
673
  2
AcDbDs::TreatedAsObjectData
280
     1
291
     1
102
ATTRRECORD}
102
{ATTRRECORD
341
674
  2
AcDbDs::Legacy
280
     1
291
     1
102
ATTRRECORD}
  2
AcDbDs::ID
280
    10
 91
        8
102
{ATTRRECORD
341
675
  2
AcDs:Indexable
280
     1
291
     1
102
ATTRRECORD}
102
{ATTRRECORD
341
676
  2
AcDbDs::HandleAttribute
280
     7
282
     1
102
ATTRRECORD}
  2
Thumbnail_Data
280
    15
 91
        0
  0
XRECORD
  5
673
102
{ACAD_REACTORS
330
678
102
}
330
678
100
AcDbXrecord
280
     1
  1
AcDbDs::TreatedAsObjectDataSchema
  2
AcDbDs::TreatedAsObjectData
280
     1
 91
        0
  0
XRECORD
  5
674
102
{ACAD_REACTORS
330
678
102
}
330
678
100
AcDbXrecord
280
     1
  1
AcDbDs::LegacySchema
  2
AcDbDs::Legacy
280
     1
 91
        0
  0
XRECORD
  5
675
102
{ACAD_REACTORS
330
678
102
}
330
678
100
AcDbXrecord
280
     1
  1
AcDbDs::IndexedPropertySchema
  2
AcDs:Indexable
280
     1
 91
        0
  0
XRECORD
  5
676
102
{ACAD_REACTORS
330
678
102
}
330
678
100
AcDbXrecord
280
     1
  1
AcDbDs::HandleAttributeSchema
  2
AcDbDs::HandleAttribute
280
     7
 91
        1
284
     1
  0
XRECORD
  5
67D
102
{ACAD_REACTORS
330
67C
102
}
330
67C
100
AcDbXrecord
280
     1
102
DISPLAYNAME
  1
Imperial24
102
FLAGS
 90
        0
  0
XRECORD
  5
681
102
{ACAD_REACTORS
330
680
102
}
330
680
100
AcDbXrecord
280
     1
102
DISPLAYNAME
  1
Metric50
102
FLAGS
 90
        0
  0
XRECORD
  5
189
102
{ACAD_REACTORS
330
188
102
}
330
188
100
AcDbXrecord
280
     1
 70
     1
 90
429727718
  1
508B35C9-AEE7-456F-BE74-D52651303AC6
310
504B03040A0000080000B670623B3DEE336E79000000790000001B0000006175746F6465736B2D64657369676E2D7061636B6167652E786D6C3C3F786D6C2076657273696F6E3D22312E302220656E636F64696E673D227574662D3822203F3E3C666F726D6174733E3C666F726D61743E687474703A2F2F736368656D612E
310
6175746F6465736B2E636F6D2F64657369676E2D7061636B6167652F323030393C2F666F726D61743E3C2F666F726D6174733E504B0304140006080800B670623BD486FD9CA0000000F4000000130000005B436F6E74656E745F54797065735D2E786D6C7D8EC10E82300C865F65E91D8A1E8C310C0EEA1BF002731658846E
310
D98AC1B77784ABF1D8FE5FBFBF75BBCE937A534CCEB38643598122B6FEE978D0B0485F9C41B54DDD7D022595594E1A469170414C76A4D9A4D207E29CF43ECE46F218070CC6BECC4078ACAA135ACF422C856C0E68EA1BF5669944DDD7BCDE7B1F8E415D77AECB980613C2E4AC91FC167A2B244592486606FC29C8FD7F045B9A
310
EF7053A7E60B504B0304140006080800B670623B28ED286BEB0000007C01000008000000636F72652E786D6C8D90416EC3201045AF82665B6183218D6D61A254764FD00B204C5C94182C03558F5F9C3852BBEB6A467FFE9B197D71FA9E6FE8CBACC17AD7012D0820E3B41FAD9B3A48F1826B40272956EFE32F1B20A766D3C1
310
268314D3EAD3B24BDABB685CCCAAF3A3D94515828980F42D371D04FD696655A814B3235C8B45E9AB9A4C419F5D8653B2237A1CB163DE672FD6AC209BF3C08E0D1B30EB19C3FC9D72FCC6EB231EFA33EDE96BDD341517E5064B11EDFCBCAF57A3A2194156843498524CAA0FCA5B7268F9E185D42D21A2DCEC7FA0B48CFF8492
310
759155FBBB0F2C80A4F991FB408A72CB22977B50B96EB9C91F504B0304140006080800B670623B55019EA25F0000007C00000007000000636E782E786D6C4DCB3B0E80201045D1AD90E915ED2CF8AC45050C11660C8261F98AB1B07AC9C97D42D718D865D3E909258CFD00CCE24AC6E326A164D74DC0B4128928FF32603847
310
2BA13128B1252AC747C6BAB984FC68F0B87FE8960A5C09FE86CFB69FBA01504B0304140006080800B670623B7BC41AC871010000D40300000C0000006662782F636F72652E786D6CC553ED6E8320147D15C2DF4501B56B6D90A64BBB27D80B50A5CE54C120983EFEAE1F4DD7A56BBA5FF3879273EEE59E7310BE393735EA95
310
ED2AA333CC428A91D2B9292A5D66D8BB63B0C26823B835C67D2BC348CB46657880B1E0A535BE9DA1DC68A7B403549B42CDA0EC3AE530CA6B5864B8CB3F552343E91D5474A7B095F949962A6421D0502778E72C0840D390E18DC5F170E664C205F7BE2A66B62A605A75AC94C522DDEEE3651AEF837817C741F2CE92E02D592D
310
83FD6ECB76EC7595A651C2C9D02CB8AB9A8BBADC2AE954814544691A3016D0E883256BBA58278B17BA5A53CAC9507ED3E4DBE2C9265F691747B3DCA9ADC382819091F8E1162272A8933DE82182932144F88C09DF060D8140C84E1EEA8B8F1340BDCA9DB1093085F157AA97B557309586747CD0EF0B4EA64E983A6E0EAEEFCE
310
889E9EF17847386AA94B30211D2C0FDE0D3AF9A4610EAD5536E8DD1969631B593F67E381C33F5157F17725E5A636F6BF1491F980C8FC7B90E13E8A2F504B0304140006080800B670623B70102A487D0000009D0000000B0000006662782F636E782E786D6C4DCCD10A83201886E15B91FFDC95A5C30335ACCDFB886521330D
310
A76397BF1A1DECE883878F57749FD5A3B74D2F17830472A901D9F088930B8B849267CC01754AA418F3DF0D5018572BE160506249B16C274D761E8BCFBB7A179E27F65CB39A0F14D396184C9921B81F34C3ACA1B4B99ABB6E6F062A25AA5F69DF23ACBE504B0304140006080800B670623B3610CA3329010000120200003100
310
00006662782F42384135303843342D343331462D343546312D424341352D3532343432364645413344462F636F72652E786D6C8D515B6EC32010BC0AE22B55850D0E446E848992B43E412FE000495162B07854397EA176A4F62F3F2C9A9D991D58BEBB8F37F0AD7D30CE76905418026DA553C65E3A98E219B510EC04F7CEC5
310
3F3408EC30EA0E16180A7EF12E4D0B249D8DDAC68C5AA7F4020E21E80881BCE54B0783FCD2E3500D296646B856D320AFC34557A4CAEDCC133C449F0380794839A138B47B86DB2345744D7A44594FD0E1B867883594369BFE63BF7EEF793D0B054FC9A8456E548E63CE46FB674D8A58F068C6477CE9F510B582A2C1F80D1182
310
70F349E816B32D65AFB8DD62CCEB42FF274A937A52948C8DEB66893BCB021484D7734370E5D2E9F608A3EF93F3119479ABA0E50B14B8C298119A43CCC4FCFCECB8A18B6388CEE7EF5D5D4F994BD86CBBA182D76543B9FCAE2FD7B24DF103504B0304140006080800B670623B1B8617914E0100003303000030000000666278
310
2F42384135303843342D343331462D343546312D424341352D3532343432364645413344462F636E782E786D6CD593C16EC32010447F0571AD6CE3D489D20813A9877E410FBD62D82434182CC055F3F75D1292E692438FBD206B7698593D61BEFD1E2DF982108D773D6D6B460938E5B571FB9ECE6957AD29D90A1EBC4F7736
310
4A9C1CA1A759A682EF839FA72269D8C9D92654AD71C72206887E0E0A22CAF926B15E498B01E0AA19451807D01A34B919F16B070157417138917400F2F6FA41FCF0092A45DEE414C19BDC21783E4BD39D891265658C3D8DEA00A3ACE59CBC8678ACB54CB26EEB6BD7839D7E9348BE70AD9C8321B9BCA7F9A4A26C542347DEE0
310
50F09802D22BA6749A800A394DD62899107273365E3C82CFC6A55557BC06C10774B7ABE7AEC3B0F34CF06446280E154026D0542C187BA9DAB6628BF7B6DBB0E5A65B3EB1F58631DE64BBE083F7B65CC218087E22CABB042E51D1F2268F1FE12B3EA24D40D63E9CFE00120194D60B9D5BC67FE6D39CDF37E20AF817881F504B
310
0304140006080800B670623BBFEF2E3B690500003C100000340000006662782F42384135303843342D343331462D343546312D424341352D3532343432364645413344462F6F626A656374732E786D6CAD575D739B3814FD2B0CFB0C98D84E931D4227B6938EA793B6534F3BFB90198F0099B001899144EAECAFDF231018B0
310
D37A3FFC609090EEE7B94757C1FB7D915B2F54C88CB31BDB7727B64559CC938CA53776A576CE956DBD0F03C1B9EA2DB32D460A7A63EB693B0C52C1ABD24C257447AA5C8D66EF177F5832A68CDA569C13296F6C193FD182B8A4523CA1F2D94D88226EBADBBBBEDB2C1C8A4D05299F46424B222853B014F30C52ACC6287F389C
310
D85E1878FA7B18E87FB36AFAF62AAFF667A83F635211161F291B8999FAB3D5DDC5FCDA99CF6653677679E13B8BFBC5CAF1DF4D27CBCBE5F2FAF6EE1A8AA51290642C117467871F101B91C581D77CEA2C36869F3229E68CD1B8F61F1ED6361B89092D294B90C78C4A68EB793D190E7D1D9BDEE7A91E1B95FDE9F3BCEAEFE809
310
6A6D6F9F7D4B79F4275C90E7A04248AA51D5C4C738DAE06F72885AC4796EBE65D22A88A22223B995679120E2D50EB1542F098381188D4EA111AE3DB043FF20AF6F2B4AE3D7D83D65E5AECA730D4D3BAC91BD05FEA992B565D95F549CD6069B90AB2A63EACA38A45E4B6A87D781574F86817E4C2FCCC72690D62E2729520E37
310
9BAF234797BAF6D62B3BFC781FED37BA1E4F2B2F052FA9501A3E80569BB8F6A9A364D4FA67654E6F803383981F82F21591FF84F23D9882BC896C3FDBCF8C162508933B2E0AE4C69DD43F6BD2BE38DDDBF10BF86CB4FA784D37F3AF16075E67EC9030DECA1FC0A55373F5DFF3378C591FA9BDF485C10B0A8C8BA909E5262639
310
A8E72163488806A595734C81CB77D1DE0ED7604A303B76913CEC0272F412782FF88EFF4636D8AA56DF7B322474C4B767303F625997056C7B032C473C592B36CEBD15F3F9FF5233B7ABCDC74D257624A60F8658567497B14CE1EC3C80B76FD02011038F9EE9EB0F2E12387A9C844D3F09855125116D1D731DF8B43D2CF4E0A0
310
79A020C6BE946BCE0B7EA1E1219331CD73C228AF5A2DDD31A4B1DA918CE91350854D40A71723140BFA92E94E62B0626016CEFA5864A50E5977E8753CEDBEE1CBB7F52780D20E17AF0BA0F5F9B02A3AD07DCC732EB6D1EBB661421BE0C39E21BABF0FE16D22EA6929407C8DE596724C88B749B6DB5512BC7B228ADFD7CB7EA6
310
3A22397E690BA8D5D8D4E40CEC8CDA23C2C0B7D5898640101CEC9C6D331CE328CB93CAFBBAC70A642DF70DF95155945B52F08AA973C23469FD69ADEF84F7BB18F983A8F8C90E37F5D35980B2139A1C523540813E824EF83448CF7C72B598CE97D7CEEDDDDD3B6736BFBC771677EF66CE6A7E7139F7A793E9EDF2B2B3A8B624
310
0CDA13AA5F8388264EC4A0129909F3B7F5A16CEDF08128E97D680ACA4B9BE7B7B58BB638F0B00700EF36AE8B32A705658A68F83EE897FC2B41573190D1CCAF0B92D233A47CFEB019D9809933F67DD1A5467F8CF69AD9A5AE859342D45355448C64F968A371DC2D596ADC6E43D93D1B466F877A64E2893E54F23C4B40388995
310
525E5005DA3983ED45412510D3EFCA13737B3863F74BD30F2A12E5B4B5E489A025CE25500DB855B11ACE5BBFA185D35DD48D8DC3CE7DC69F2944DB42AA6F6CF09BCA622ADD08C7A36E7C6AE18000BAB08E040135C2D21C9D75B3A91B77BB746C403F38018DFE6EC939DD92F16B40BC05294B9CDA035AAD6D330AE27FE4786B
310
8E45145EA34A75BE1C263A676A35A8ACC6297337400BF16C54EF515F3F77CB77EB3583889C754FFA29081AA98E2222ADEF05DA3E63D2EDEA8B8756C05A7FB6CABC4A91CBF325398202CC952E70A008A830324BA200D5E5EF8F5F04C75DB4B0EE3340E071C98B823333B83577596BF3849B69F2085AA0FAFA212F26BEFF5877
310
FDE622B28D88A42E49E43326DA82D31E8CB006401E1DA726059ECEC168F97A6599036306A135688F9AD2E61A6EA178F4CD51974A9F2CCB9F36FE5EBD14601068D9C3BF01504B0304140006080000B670623B000000000000000000000000350000006662782F42384135303843342D343331462D343546312D424341352D35
310
32343432364645413344462F76657274696365732E62696E504B0304140006080800B670623BF270F1330600000004000000360000006662782F42384135303843342D343331462D343546312D424341352D3532343432364645413344462F747269616E676C65732E62696E636660600000504B0304140006080000B67062
310
3B000000000000000000000000370000006662782F42384135303843342D343331462D343546312D424341352D3532343432364645413344462F617474726962757465732E62696E504B0304140006080800B670623B08DA0BD19000000041010000360000006662782F42384135303843342D343331462D343546312D4243
310
41352D3532343432364645413344462F6469726563746F72792E786D6C858F410AC3201045AF22B36F53E9A60B35CBEEBAE80D244E44489C6234F4F835464A48035D0DF398FF9F8AF63D0E6CC63039F212F8F9020C7D47C6792B21C5FE7403D62A1188E2E60C98D7234A5830286103A55745067B9D86B8A3CF9C7F90C11DE6
310
07FB144396D7B6A82D282E9A152AD114D5EF2CB866EEE831B8EEA07A7BB5A8D7D61A2BAAEB7FD5F70921FF497D00504B0304140006080800B670623B3B4606F3FE000000A00100003B0000006662782F42384135303843342D343331462D343546312D424341352D3532343432364645413344462F7265736F75726365732F
310
636F72652E786D6C8D504B6E833010BD0A9A6D65B08134808CA354A427E8052C332156828DFCA97AFC9A40A576D7CDCCE87D344F8F9FBEE647F689CE6B6B7A6039850C8DB2A336530F315C4903D94970676DF82583CCC8197B5861107C72362E3BA4AC096842428D1D7107A5F71820538F74F4E0D50D6799CB1892C2DFF345
310
AABB9C306779A2934E701F5C0A906D4FD609C2A1B7D129F4BCD858C163D4E3AED163FAA9AF1A1D88F67CA98E6D35906AA82A52BFB39ABCD5CD915C86331BD86BD3B665CD8BD52C78D0F34F46E550061C419494B6843142CB0F5677F4D0D58717DA7494F26295FF31C565FCA7296A13AA728FBBD93C0896823C09C18BB5AFB4
310
9E65A6BD762BBE01504B010214000A0000080000B670623B3DEE336E79000000790000001B00000000000000000000000000000000006175746F6465736B2D64657369676E2D7061636B6167652E786D6C504B01021400140006080800B670623BD486FD9CA0000000F40000001300000000000000000000000000B2000000
310
5B436F6E74656E745F54797065735D2E786D6C504B01021400140006080800B670623B28ED286BEB0000007C010000080000000000000000000000000083010000636F72652E786D6C504B01021400140006080800B670623B55019EA25F0000007C000000070000000000000000000000000094020000636E782E786D6C50
310
4B01021400140006080800B670623B7BC41AC871010000D40300000C00000000000000000000000000180300006662782F636F72652E786D6C504B01021400140006080800B670623B70102A487D0000009D0000000B00000000000000000000000000B30400006662782F636E782E786D6C504B01021400140006080800B6
310
70623B3610CA3329010000120200003100000000000000000000000000590500006662782F42384135303843342D343331462D343546312D424341352D3532343432364645413344462F636F72652E786D6C504B01021400140006080800B670623B1B8617914E010000330300003000000000000000000000000000D10600
310
006662782F42384135303843342D343331462D343546312D424341352D3532343432364645413344462F636E782E786D6C504B01021400140006080800B670623BBFEF2E3B690500003C10000034000000000000000000000000006D0800006662782F42384135303843342D343331462D343546312D424341352D35323434
310
32364645413344462F6F626A656374732E786D6C504B01021400140006080000B670623B0000000000000000000000003500000000000000000000000000280E00006662782F42384135303843342D343331462D343546312D424341352D3532343432364645413344462F76657274696365732E62696E504B010214001400
310
06080800B670623BF270F133060000000400000036000000000000000000000000007B0E00006662782F42384135303843342D343331462D343546312D424341352D3532343432364645413344462F747269616E676C65732E62696E504B01021400140006080000B670623B00000000000000000000000037000000000000
310
00000000000000D50E00006662782F42384135303843342D343331462D343546312D424341352D3532343432364645413344462F617474726962757465732E62696E504B01021400140006080800B670623B08DA0BD1900000004101000036000000000000000000000000002A0F00006662782F42384135303843342D3433
310
31462D343546312D424341352D3532343432364645413344462F6469726563746F72792E786D6C504B01021400140006080800B670623B3B4606F3FE000000A00100003B000000000000000000000000000E1000006662782F42384135303843342D343331462D343546312D424341352D3532343432364645413344462F72
310
65736F75726365732F636F72652E786D6C504B0506000000000E000E0080040000651100000000
  0
XRECORD
  5
187
102
{ACAD_REACTORS
330
186
102
}
330
186
100
AcDbXrecord
280
     1
 70
     1
 90
429727718
  1
887D55A9-D0DD-414E-B741-A7DCD4DA2B4C
310
504B03040A0000080000B670623B3DEE336E79000000790000001B0000006175746F6465736B2D64657369676E2D7061636B6167652E786D6C3C3F786D6C2076657273696F6E3D22312E302220656E636F64696E673D227574662D3822203F3E3C666F726D6174733E3C666F726D61743E687474703A2F2F736368656D612E
310
6175746F6465736B2E636F6D2F64657369676E2D7061636B6167652F323030393C2F666F726D61743E3C2F666F726D6174733E504B0304140006080800B670623BD486FD9CA0000000F4000000130000005B436F6E74656E745F54797065735D2E786D6C7D8EC10E82300C865F65E91D8A1E8C310C0EEA1BF002731658846E
310
D98AC1B77784ABF1D8FE5FBFBF75BBCE937A534CCEB38643598122B6FEE978D0B0485F9C41B54DDD7D022595594E1A469170414C76A4D9A4D207E29CF43ECE46F218070CC6BECC4078ACAA135ACF422C856C0E68EA1BF5669944DDD7BCDE7B1F8E415D77AECB980613C2E4AC91FC167A2B244592486606FC29C8FD7F045B9A
310
EF7053A7E60B504B0304140006080800B670623BBC1638F5EC0000007C01000008000000636F72652E786D6C8D90416EC3201045AF82665B61836BE2D8C24471DB9CA01740401C94182C03558F5F9C3852BBEB6A467FFE9B197D7EF89E6EE8CB2CC17AD7032D0820E394D7D68D3DA478C67B4007C117EFE32F1B202727D3C3
310
2A83E0E3E2D3BC49CABB685CCCAAF3DA6CA20CC14440EA969B1E82BA98491632C5EC08D76296EA2A4753D06797E194AC468F2356E77DF66CCD02825543D50CACC62D39ED70FDC68EB8FD68F6F8787A6784342D1DDA1D2F5758F068A7E77DB518198D065111D2624A31A93E69DD11D6D5EC85EC3B4278B9DAFF4069D6FF8492
310
75F1B5DADE7D600104CD8FDC0782976B16B9DC83CA75CD4DFC00504B0304140006080800B670623B55019EA25F0000007C00000007000000636E782E786D6C4DCB3B0E80201045D1AD90E915ED2CF8AC45050C11660C8261F98AB1B07AC9C97D42D718D865D3E909258CFD00CCE24AC6E326A164D74DC0B4128928FF326038
310
472BA13128B1252AC747C6BAB984FC68F0B87FE8960A5C09FE86CFB69FBA01504B0304140006080800B670623B3586FFB671010000D40300000C0000006662782F636F72652E786D6CC553ED6E8320147D15C2DF4541A76D6D90A6DDD627D80B50A4CE54C120983EFEAE1F4DD7A55BBA5FF3879273EEE59E7310B6393735EA
310
95ED2AA3731C851423A5A5292A5DE6D8BB63B0C268C39935C67D29C3488B46E578803167A535BE9D2169B453DA01AA4DA16650749D7218C91A1639EEE4876A4428BC838AEE14B6429E44A9C228041AEA38EB9C0501681A32BC313F1ECE8C4C3867DE57C5CC56054CAB8E95B298A7F12E5EEED224C8E87E11242FE936C8DE96
310
AB60BB7F4D295D66D12E5B30323473E6AAE6A24E5A259C2A308F29CD82280A68FC1E256B9AAE93F489AED694323294DF34F9B678B0C957DA3DC7B3DCA9ADC33C022123F1CD2D44E450277AD04338234388F01913BE0D1A0281909D38D4171F27807A259DB1093085F157AA17B557309586747CD0CF0B46A64E983A6E0EAEEF
310
CE881F9EF1FB8E70D44297604238581EBC1B74B249C31C5AAB6CD0BB33D2C636A27ECCC62F0EFF445DC5DF95244D6DEC7F2922F30191F9F720C37DE49F504B0304140006080800B670623B4220A0FF7D0000009D0000000B0000006662782F636E782E786D6C4DCCD10A83201886E15B91FFDCE542CB0335D0EC3E6259C84A
310
C3E9D8E5AF46073BFAE0E1E315DD675BD1DBA5978F41C2FD4600B9F088930F8B849267CC01754AA418F3DF0D50183727E164506249B1EC174D6E1ECB9A0F5D7D785E68DB8151CD286E5A5363CA6B8A39E90D36D40E96B086F55A43A544F52B1D7B86D517504B0304140006080800B670623B2FA3FEDE290100001202000031
310
0000006662782F45374635344235342D363743322D343832342D383044432D4334454645303536354442422F636F72652E786D6C8D515B6EC32010BC0AE22B55850D2E386E848994D7097A0117488A1283C5A3CAF10BB523B57FF961D1ECCCECC0F2ED7DBC816FED8371B687A4C210682B9D32F6D2C314CFA883602BB8772E
310
FEA141608751F7B0C050F08B77695A20E96CD43666D43AA5177008414708E42D5F7A18E4971E876A483133C2B59A06791D2EBA22556E679EE021FA1C00CC43CA09C5717D6274C7286AD7FB06D1AEA1A8C3873DDAD3E3E98859CB0EBB1DAF67A1E02919B5C88DCA71CCD968FFAC49110B1ECDF8882FBD1EA256503418BF2342
310
106E3E08DD60B6A1EC15771B8C795DE8FF4469524F8A92B1F1AD59E2CEB20005E1F5DC105CB9F4797B84D1F7C9F908CABC55D0F2050A5C61CC1AD2F27A26E6E767C7962E8E213A9FBF7775FDCC5CC266DB960A5E970DE5F2BBBE5CCB36C50F504B0304140006080800B670623B1B8617914E01000033030000300000006662
310
782F45374635344235342D363743322D343832342D383044432D4334454645303536354442422F636E782E786D6CD593C16EC32010447F0571AD6CE3D489D20813A9877E410FBD62D82434182CC055F3F75D1292E692438FBD206B7698593D61BEFD1E2DF982108D773D6D6B460938E5B571FB9ECE6957AD29D90A1EBC4F77
310
364A9C1CA1A759A682EF839FA72269D8C9D92654AD71C72206887E0E0A22CAF926B15E498B01E0AA19451807D01A34B919F16B070157417138917400F2F6FA41FCF0092A45DEE414C19BDC21783E4BD39D891265658C3D8DEA00A3ACE59CBC8678ACB54CB26EEB6BD7839D7E9348BE70AD9C8321B9BCA7F9A4A26C542347DE
310
E050F09802D22BA6749A800A394DD62899107273365E3C82CFC6A55557BC06C10774B7ABE7AEC3B0F34CF06446280E154026D0542C187BA9DAB6628BF7B6DBB0E5A65B3EB1F58631DE64BBE083F7B65CC218087E22CABB042E51D1F2268F1FE12B3EA24D40D63E9CFE00120194D60B9D5BC67FE6D39CDF37E20AF817881F50
310
4B0304140006080800B670623B29652116630500003C100000340000006662782F45374635344235342D363743322D343832342D383044432D4334454645303536354442422F6F626A656374732E786D6CAD575D739B3814FD2B0CFB0C989834C90EA1639B24E3E9A6EDD4D3CE3E64C623834CD8006224913AFDF57B040203
310
B65BEF871F0C12D2FD3CF7E8CA7FBFCB33E3957291B2E2D674ED8969D02262715A24B76625B7D6B569BC0F7CCE98EC2D338D82E4F4D654D366E0279C55A59E8AE99654991CCDDECFFF3444440B6A1A514684B83545F44C7362934AB2988A173B2692D8C97667BB76B3702836E1A47C1E092D09A78584A5982F20C5688C7287
310
C389E904BEA3BE07BEFAD7ABA6A75739B53F43FD69212429A20365233153D70BEF2E2E6FAC4BCF9B5ADEBB0BD79ADFCF43CBBD9A4E16EF168B9BD9DD0D140BC921495BC2E9D60C1E101B9E46BED37CEA2CD6861F3329624541A3DA7F7858DBAC25C6B4A4458C3CA654405BCFEBC970E8AAD8F43E4FD558ABEC4F9FE7557F47
310
4F506B7BFBEC5BCA367FC105710E2AB8A00A554D7CB4A30DFE26FBA86D18CBF4B75418399194A72433B274C3097F33032C554B027F2046A1932B842B0FCCC0DDCBEBDB8AD2F835768F59B9ADB24C41D30C6A64AF817F2A456D59FA83F2E3DA60137255A585BCD60EC9B7929AC18DEFD49381AF1ED30BFDB109A4B1CD488294
310
C3CDE6EBC8D185AABD6568061FEE37BB95AAC7E3CA4BCE4ACAA5820FA0D526AE7DAA2869B5EE5999531BE0CC20E6FBA07C41E43FA27CF7A6206F3CDD793B4F6B919C1462CB788EDCD893FA674CDA17AB7B3B7C019F8D561FAEE966FED562DFE98C1D12C6A9FC015C2A35D7FF3D7FC398F591DA4B5FE0BFA2C0189FEA50AE22
310
92817A1ED3020951A03432862970F976B33383259812CC8E5D240BBA801CBCF8CE2BBEE3BF910DB6AAD5F79E05123AE2DB33981FB1ACCB02B69D00CB014FD68AB573A7627EF9BFD4CC2C5C7D58557C4B22FAA88925A4DBB44825CECE3D78FB060D1231F0E885BE7D673C86A3874958F593906B5502D1563157814FDAC3420D
310
F69A070A22EC4B98E23CFF171A1E5311D12C23056555ABA53B8614563B92D17D02AAB009E8F46284624E5F53D5490C560CCCC2591FF1B45421EB0EBD8EA7ED13BE7C5D7E0428CD60FEF60779EB13E6664FF711CB185F6FDED60D139A001FF60CD1FD6D086F1D51474901E26B2CB794A343BC8ED3EDB612E0DD2351FCB65CF4
310
33D511C9E14B5B40ADC6A6263DB0336A8F700DDF56271A024E70B0B3629DE21847591E55DED73D56206AB927E46FAABC5C939C55853C274C93D69FD6FA4E78BF8B11DF898C9ECD60553FAD39283BA6F18984AA23E8884F83F45C5F5F859797B31B2B9C84A1E5B9DE9D35BFF25C6B76152E422F9C5DCC3D847F5801ED09D5AF
310
41441327A25FF15487F9EB725FB666F048A4701E9A827292E6F97569A32DF61DEC01C0BB8DCBBCCC684E0B49147C1FD54BF685A0AB18C868E6973949E819523E3DAC463660E68C7D9F55A9D1EFA3BD7A76A16AE1A810F95CE59B82A4D968A376DC2E8B44BBDD86B27B368CDE0ED548C7137DA860591A83706223A12CA712B4
310
7306DBF39C0A20A6DF95C7FAF670C6EED7A61F946493D1D6926782963813403548A78AE470DEF80D2D9CEAA26E4D1C76F60BFE74219A06527D6B82DF641A51616F703CAAC6A7160E08A00BEB4810A0274592A1B36E3675E36E978A0DE80727A0D6DF2D39A75BD27E0D8837276589537B40ABB56D5A41F48F1C6FCD3188C4EB
310
A6929D2FFB89CE995A4D00AE813BDD032DC48B56BD437DFDDC2DD7AED70C2272D63DE9A72068A45A92F0A4BE17A8A06B9366E16707AD80B1FC649459952097E74BB23805982B55E0401150A165964402AA8BDF9F3E7386BB686EDCA780C0D382E5392BF460A6EFB2C6EA1937D3F809B440D5F5435C4C5CF7A9EEFAF54564BD
310
2182DA24162F98680B4E7930C21A0079709CEAEB99A372305ABE0C0D7D6078105A83F6A0296DAEE1068A47DD1C55A9F4C9B2FC69E3EFD44B81028E963DF81B504B0304140006080000B670623B000000000000000000000000350000006662782F45374635344235342D363743322D343832342D383044432D433445464530
310
3536354442422F76657274696365732E62696E504B0304140006080800B670623BF270F1330600000004000000360000006662782F45374635344235342D363743322D343832342D383044432D4334454645303536354442422F747269616E676C65732E62696E636660600000504B0304140006080000B670623B00000000
310
0000000000000000370000006662782F45374635344235342D363743322D343832342D383044432D4334454645303536354442422F617474726962757465732E62696E504B0304140006080800B670623B08DA0BD19000000041010000360000006662782F45374635344235342D363743322D343832342D383044432D4334
310
454645303536354442422F6469726563746F72792E786D6C858F410AC3201045AF22B36F53E9A60B35CBEEBAE80D244E44489C6234F4F835464A48035D0DF398FF9F8AF63D0E6CC63039F212F8F9020C7D47C6792B21C5FE7403D62A1188E2E60C98D7234A5830286103A55745067B9D86B8A3CF9C7F90C11DE607FB144396
310
D7B6A82D282E9A152AD114D5EF2CB866EEE831B8EEA07A7BB5A8D7D61A2BAAEB7FD5F70921FF497D00504B0304140006080800B670623B6378F24DFF000000A00100003B0000006662782F45374635344235342D363743322D343832342D383044432D4334454645303536354442422F7265736F75726365732F636F72652E
310
786D6C8D504B6E833010BD0A9A6D65B0094E42641C85B639412F6099496225D8C89FAAC7AF09546A77DDCC8CDE47F3F4C4F16B7C149FE88371B603565228D06A37187BED20C50BD9437194C23B177FC9A0B06AC40E6618A4B87A97A615D2CE46B431A3D60DB8822A048C50E8473E3A08FA86A32A558A5911EEE5A4F45D5DB1
310
6465A6B34E8A107D0E502C4FE609D26370C96B0CA25A58295232C3AA3143FE692E063D485EF7F5AEE71BD2D2F39634AFFC44DAF7DD9E9CCE6F9CD25DCBFA762BAAD92C4534E34F46ED51451C40D694B6843142EB0FD61C283F34FC85EE0F948A6A96FF31A569F8A729191B37F51A77B105902C0779125254735F793DCBCC7B
310
EE567E03504B010214000A0000080000B670623B3DEE336E79000000790000001B00000000000000000000000000000000006175746F6465736B2D64657369676E2D7061636B6167652E786D6C504B01021400140006080800B670623BD486FD9CA0000000F40000001300000000000000000000000000B20000005B436F6E
310
74656E745F54797065735D2E786D6C504B01021400140006080800B670623BBC1638F5EC0000007C010000080000000000000000000000000083010000636F72652E786D6C504B01021400140006080800B670623B55019EA25F0000007C000000070000000000000000000000000095020000636E782E786D6C504B010214
310
00140006080800B670623B3586FFB671010000D40300000C00000000000000000000000000190300006662782F636F72652E786D6C504B01021400140006080800B670623B4220A0FF7D0000009D0000000B00000000000000000000000000B40400006662782F636E782E786D6C504B01021400140006080800B670623B2F
310
A3FEDE290100001202000031000000000000000000000000005A0500006662782F45374635344235342D363743322D343832342D383044432D4334454645303536354442422F636F72652E786D6C504B01021400140006080800B670623B1B8617914E010000330300003000000000000000000000000000D2060000666278
310
2F45374635344235342D363743322D343832342D383044432D4334454645303536354442422F636E782E786D6C504B01021400140006080800B670623B29652116630500003C10000034000000000000000000000000006E0800006662782F45374635344235342D363743322D343832342D383044432D4334454645303536
310
354442422F6F626A656374732E786D6C504B01021400140006080000B670623B0000000000000000000000003500000000000000000000000000230E00006662782F45374635344235342D363743322D343832342D383044432D4334454645303536354442422F76657274696365732E62696E504B01021400140006080800
310
B670623BF270F13306000000040000003600000000000000000000000000760E00006662782F45374635344235342D363743322D343832342D383044432D4334454645303536354442422F747269616E676C65732E62696E504B01021400140006080000B670623B0000000000000000000000003700000000000000000000
310
000000D00E00006662782F45374635344235342D363743322D343832342D383044432D4334454645303536354442422F617474726962757465732E62696E504B01021400140006080800B670623B08DA0BD190000000410100003600000000000000000000000000250F00006662782F45374635344235342D363743322D34
310
3832342D383044432D4334454645303536354442422F6469726563746F72792E786D6C504B01021400140006080800B670623B6378F24DFF000000A00100003B00000000000000000000000000091000006662782F45374635344235342D363743322D343832342D383044432D4334454645303536354442422F7265736F75
310
726365732F636F72652E786D6C504B0506000000000E000E0080040000611100000000
  0
XRECORD
  5
112
102
{ACAD_REACTORS
330
110
102
}
330
110
100
AcDbXrecord
280
     1
270
     1
271
     1
  0
XRECORD
  5
111
102
{ACAD_REACTORS
330
110
102
}
330
110
100
AcDbXrecord
280
     1
270
     1
271
     1
  0
XRECORD
  5
18A
102
{ACAD_REACTORS
330
110
102
}
330
110
100
AcDbXrecord
280
     1
 70
     0
 90
1778669749
  1
9BF507EE-FAF7-4A99-A33D-4EE51894BC40
310
504B03040A0000080000B670623B3DEE336E79000000790000001B0000006175746F6465736B2D64657369676E2D7061636B6167652E786D6C3C3F786D6C2076657273696F6E3D22312E302220656E636F64696E673D227574662D3822203F3E3C666F726D6174733E3C666F726D61743E687474703A2F2F736368656D612E
310
6175746F6465736B2E636F6D2F64657369676E2D7061636B6167652F323030393C2F666F726D61743E3C2F666F726D6174733E504B0304140006080800B670623BD486FD9CA0000000F4000000130000005B436F6E74656E745F54797065735D2E786D6C7D8EC10E82300C865F65E91D8A1E8C310C0EEA1BF002731658846E
310
D98AC1B77784ABF1D8FE5FBFBF75BBCE937A534CCEB38643598122B6FEE978D0B0485F9C41B54DDD7D022595594E1A469170414C76A4D9A4D207E29CF43ECE46F218070CC6BECC4078ACAA135ACF422C856C0E68EA1BF5669944DDD7BCDE7B1F8E415D77AECB980613C2E4AC91FC167A2B244592486606FC29C8FD7F045B9A
310
EF7053A7E60B504B0304140006080800B670623BCA089DFFEC0000007C01000008000000636F72652E786D6C8D90416E83301045AF62CDB632D8402020E32882F604BD80653BC44AB011B6AB1EBF262152BBEB6A467FFE9B197D76FA9EEFE84BAFDE38DB03CD08206DA553C64E3DC470C1474027CE56E7C22F1B202B66DDC3
310
260367D3EAE2B24BD2D9A06D48AA754AEFA2F05E0740F29E9A1EBCBCEA59642286E4F0B76C11F226269DD15797E0188D42CF2346A57DE662F40ABCAEC77628C6120F654571D50C04B7F5B9C1E3997CD4F550BE3745C3F20DE62C98F9755FAE5A04AD801784B498524C8A4F5A75E4D055873772EC0861F966FF03C545FD138A
310
C686B2D8DF7D621E384D8F3C069CE55B16A93C824A75CB8DFF00504B0304140006080800B670623B55019EA25F0000007C00000007000000636E782E786D6C4DCB3B0E80201045D1AD90E915ED2CF8AC45050C11660C8261F98AB1B07AC9C97D42D718D865D3E909258CFD00CCE24AC6E326A164D74DC0B4128928FF326038
310
472BA13128B1252AC747C6BAB984FC68F0B87FE8960A5C09FE86CFB69FBA01504B0304140006080800B670623B68FC0B7272010000D40300000C0000006662782F636F72652E786D6CC5535B6E833010BC8AE5DF0A6C1E8124328E22D29EA01770C0A128602363A31CBFCB234A53A555FA553EC09AD9F5CE8C31DB5DDA060D
310
D2F4B556190E7C8A9154852E6B5565D8D993B7C668C799D1DA7E29C3488956667884316795D1AE5BA0422B2B950554E9522EA0E87B69312A1A5864B82F3E642B7CE12C54F467BF13C55954D20F7CA0A18EB3DE1A1080E621E31BF3D3F1C2C88C73E65C5D2E6C5DC2B4FA544B8379921C36797888BC3C8A032F4E73EA6D927D
310
EA1DF6F42D49F2E8350D5346C666CE6CDD5ED515460A2B4BCC434A375E1078347C0FE22D5D6DE3D50B5D6F2965642CBF6B725DF96493AB958DC245EEDCD6631E809089F8E61622B2A81703E8219C913144F84C09DF070D8140C8561C9BAB8F3340832CAC363130A576376A108D933095FA747AD0CF0B46E64E983A6D0EAE1F
310
CE089F9EF1FB8E70D44255604258581E9D1D75B259C3125A278D37D80B52DAB4A279CEC62F0EFF44DDC43F9454E8469BFF5244960322CBEF41C6FBC83F01504B0304140006080800B670623B0F71DDB67E0000009D0000000B0000006662782F636E782E786D6C4DCCD10A83201886E15B91FFDCA54DB73F502386BB8F5816
310
32D3703976F9ABD1C18E3E78F87855FB990379BBFCF2296AE02706C4C5471A7C9C349475A408A4352AA7B4FEDD80C47E761A7606A3A69CCA72D0E0C6BE8475D3E0E3F3409428EA6B27A84079A782899AA2EC1A7AE3ECCC2FD858CB2D544655BFD2B67BD87C01504B0304140006080800B670623BE134B4FB28010000120200
310
00310000006662782F38353834323741342D343835462D343034322D383541392D4331303331363839454531452F636F72652E786D6C8D515B6EC32010BC0AE22B55850D0EA424C24451959EA0172086A42831583CAA1CBF503B52FB971F16CDCECC0EACD8DFC71BF836215AEF7A481A0C817183D7D65D7A98D3197108F652
310
04EFD31F1A044E8DA6871586525C82CFD3020DDE25E352419DD76601558C264130DCCAA58771F832A36A544E8511AFCDA486ABBA988634A55D7852C4144A00300FA927949C71DABD1D28A29C7D208A6987383B6CD13BC16BB2E1DBE3911C453B0BA5C8D9EA456E758963CFD684674DAA588A64C747FC2118958C86B2C3788B
310
0841B8FB247487D98EB257CC77188BB6D2FF89F2A49F1465EBD2BA5BE2CEB2082511EDDC9042FB7CBA3DC298FBE4430275DE2A9AE1054ADC60CC08E3A29D89E5F9C5714317C7987C28DFBBBA9E0A97B0D97643A568EB864AF95D5FA9759BF207504B0304140006080800B670623B1B8617914E010000330300003000000066
310
62782F38353834323741342D343835462D343034322D383541392D4331303331363839454531452F636E782E786D6CD593C16EC32010447F0571AD6CE3D489D20813A9877E410FBD62D82434182CC055F3F75D1292E692438FBD206B7698593D61BEFD1E2DF982108D773D6D6B460938E5B571FB9ECE6957AD29D90A1EBC4F
310
77364A9C1CA1A759A682EF839FA72269D8C9D92654AD71C72206887E0E0A22CAF926B15E498B01E0AA19451807D01A34B919F16B070157417138917400F2F6FA41FCF0092A45DEE414C19BDC21783E4BD39D891265658C3D8DEA00A3ACE59CBC8678ACB54CB26EEB6BD7839D7E9348BE70AD9C8321B9BCA7F9A4A26C542347
310
DEE050F09802D22BA6749A800A394DD62899107273365E3C82CFC6A55557BC06C10774B7ABE7AEC3B0F34CF06446280E154026D0542C187BA9DAB6628BF7B6DBB0E5A65B3EB1F58631DE64BBE083F7B65CC218087E22CABB042E51D1F2268F1FE12B3EA24D40D63E9CFE00120194D60B9D5BC67FE6D39CDF37E20AF817881F
310
504B0304140006080800B670623B5933D422630500003B100000340000006662782F38353834323741342D343835462D343034322D383541392D4331303331363839454531452F6F626A656374732E786D6CAD575B6FA33814FE2B887D0642934E9B156594264D158D3A534DD4D13E548A0C38942D60649B4EBABF7E3F8321
310
40924EF6928780CDF1B97EE762EFF32E4B8D37CA45C2F21BD3B547A641F39045491EDF98A5DC5AD7A6F1D9F73863B243661A39C9E88DA9B64DDF8B392B0BBD15D12D295339D85DDEFE618890E6D434C2940871638AF08566C426A5641115AF764424B1E3EDCE76ED9AB0CF36E6A47819302D08A7B984A6D8CFC1C5A89572FB
310
CB91E9F89EA3BEFB9EFAD754E3D3544E654F5F7E920B49F2F040D880CDD89D2CEE2E2EA7D6E56432B6269F2E5CEB7679BBB0DCABF168FE693E9FCEEEA6102C240727AD09A75BD3BF876F78127A4EFDA9D5582B7E4CA590E5390D2BFB6161A5B3E618D182E611E2985001691DAB47FDA5AB7CD3F93C566B2DB2BB7D9E55DD13
310
1D468DEECDB3AB290BFE8409E21C54704115AA6AFF68436BFC8DF65E0B184BF5B74418199194272435D224E084BF9B3E481589EFF5D828747285706581E9BB7B7E5D5D911ABFC6EE312DB7659A2A689A7E85EC0DF04FA5A8344BFEA2FCB834E8845895492EAFB541F2BDA0A63FF59C6AD3F7D4637CA13FD68E34B629891172
310
98597F1D183A57B9B75A98FE9765B05BAB7C3C2EBCE0ACA05C2AF8005A4DE09AA7F29216EB9E15397500C6F47CBE77CA7778FE2BD277AF0AE2C693DD6437D1522427B9D8329E2136F6A8FA19A3E6C56ADF0E5F50CF06D48734EDCEBF22F69C56D97EC138153F804B85E6FABFC7AFEFB32E523BE1F3BD372418E363EDCA7548
310
52949E8724474014288D94610BB57C1BEC4C7F854A89CA8E5324F55B871CBC78CE1BBEE3BFE68D6A5589EF3C730474506FCFA8FCF0659516D0ED04580EEA6425581B77CAE797FF4BCECC16EB2FEB926F49481F746159D06D922712BD730FDEAE42BD40F42C7AA5EF3F198F60E86110D6DD20645A9480B795CF95E3E3A659A8
310
C55E724F408873315335CFFB8584874484344D494E59D94869DB90C26A5B64F49C802CAC1D3ABE18A098D3B7444D123D8A9E5AE8F5214F0AE5B2B6E9B575DA3E61CBD3EA2B4009FA940524DD1305FB6A1FB294F14DF0BEA90BA109ECE1481FDC3FFAE8D60E75141700BE82725371B4873751B2DD960265F788137FACE6DD40
310
B575E4F0A5C99F46629D92131467A41EE11ABD8D4CCC039CA0AFB37C93A08B232B8F0AEFCA1E0A1015DF13FC83322B362463652ECF71D3A8B1A7D1BE65DE1D62C44F22C317D35F574FEB16153BA2D13E543D10A80E74C4A65E78A6B7CBCBD1D5DD9DB59C2DAFACC96C3AB566E3F1C29ADCDD5DBAD7D3C9ED7C822ED74F80A6
310
41755310DE4443F44A9E68373FADF6596BFA0F440AE7BECE2727AE9F4F2B1B53B1E7E00CF0DD1E5C65454A339A4BA2D0FBA05ED2EF0443458F47BDBFCA484CCFE0F2ED7E3DD0013B679C7B5499467F0ECEEADDB9CA85A34CE44B99053949D2C1416DB85DE4B136BB7165FBAC0B7AB3542BED4F8CA182A549847A1319316519
310
95A83A67147B9E5101C47487F2485F1ECE38FD568F839204296D3479219888530154036E6528FBFBC66F98E0D4107563A2D7D9AFF8D389681A08F58D89F22693900A3B407754734FC51C10C010D6D640809EE4718AC1BA3ED4AEDB53CA37283F68805A7E4B72CEB0A4EDEAD5DD8C14059A76AFAA56BA6901E13F32BC51C720
310
12AF41295B5BF61BAD3195181FB506E6B40F4C10AF5AF40EF9F5B159AE5DD1F43C72D635E94310D45C2D49785C5D0B94D3B54AB3C5A38349C0587D338AB48C11CBF339599C02CCA54A70A008A8D03C0B2201D5F9EFCF8F9CE12A9A19CB0410789EB32C63B95ECCF455D658BFE0621A3DA32C5075FB101723D77DAE867E7D0F
310
D90444509B44E2151B4DC2290B065803200FBAA9BE9D392A0603F2D5C2D00D6302A615680F66D2FA166E2079D4C551A54AB758161FCEFD4E450A14704CECFEDF504B0304140006080000B670623B000000000000000000000000350000006662782F38353834323741342D343835462D343034322D383541392D4331303331
310
363839454531452F76657274696365732E62696E504B0304140006080800B670623BF270F1330600000004000000360000006662782F38353834323741342D343835462D343034322D383541392D4331303331363839454531452F747269616E676C65732E62696E636660600000504B0304140006080000B670623B000000
310
000000000000000000370000006662782F38353834323741342D343835462D343034322D383541392D4331303331363839454531452F617474726962757465732E62696E504B0304140006080800B670623B08DA0BD19000000041010000360000006662782F38353834323741342D343835462D343034322D383541392D43
310
31303331363839454531452F6469726563746F72792E786D6C858F410AC3201045AF22B36F53E9A60B35CBEEBAE80D244E44489C6234F4F835464A48035D0DF398FF9F8AF63D0E6CC63039F212F8F9020C7D47C6792B21C5FE7403D62A1188E2E60C98D7234A5830286103A55745067B9D86B8A3CF9C7F90C11DE607FB1443
310
96D7B6A82D282E9A152AD114D5EF2CB866EEE831B8EEA07A7BB5A8D7D61A2BAAEB7FD5F70921FF497D00504B0304140006080800B670623BD9A3B367FE000000A00100003B0000006662782F38353834323741342D343835462D343034322D383541392D4331303331363839454531452F7265736F75726365732F636F7265
310
2E786D6C8D504B6E833010BD0A9A6D65B01D0201194711694FD00B586642AD043BF2A7EAF16B122AB5BB6E6646EFA3797AE2F8B5DC8A4FF4C1383B002B291468B59B8C9D0748F1420E501CA5F0CEC55F3228AC5A708015062966EFD27D83B4B3116DCCA875136EA00A012314FA968F0182FEC045952AC5AC08D7F2AEF455CD
310
58B232D3592745883E07289E4FD609D26370C96B0CA27AB252A464A64D63A6FCD35C0C7A904D73EE467EE664DCD58CD4ED4849D79C5A723ED1B7A61977AF2D6F45B59AA58866F9C9A83DAA8813484E6947182394BFB3BAA7FBBEDEBFD0434FA9A856F91F53BA4FFF342563E38E6F719FB60092E5200F428A6AED2BAF479979
310
AFDDCA6F504B010214000A0000080000B670623B3DEE336E79000000790000001B00000000000000000000000000000000006175746F6465736B2D64657369676E2D7061636B6167652E786D6C504B01021400140006080800B670623BD486FD9CA0000000F40000001300000000000000000000000000B20000005B436F6E
310
74656E745F54797065735D2E786D6C504B01021400140006080800B670623BCA089DFFEC0000007C010000080000000000000000000000000083010000636F72652E786D6C504B01021400140006080800B670623B55019EA25F0000007C000000070000000000000000000000000095020000636E782E786D6C504B010214
310
00140006080800B670623B68FC0B7272010000D40300000C00000000000000000000000000190300006662782F636F72652E786D6C504B01021400140006080800B670623B0F71DDB67E0000009D0000000B00000000000000000000000000B50400006662782F636E782E786D6C504B01021400140006080800B670623BE1
310
34B4FB280100001202000031000000000000000000000000005C0500006662782F38353834323741342D343835462D343034322D383541392D4331303331363839454531452F636F72652E786D6C504B01021400140006080800B670623B1B8617914E010000330300003000000000000000000000000000D3060000666278
310
2F38353834323741342D343835462D343034322D383541392D4331303331363839454531452F636E782E786D6C504B01021400140006080800B670623B5933D422630500003B10000034000000000000000000000000006F0800006662782F38353834323741342D343835462D343034322D383541392D4331303331363839
310
454531452F6F626A656374732E786D6C504B01021400140006080000B670623B0000000000000000000000003500000000000000000000000000240E00006662782F38353834323741342D343835462D343034322D383541392D4331303331363839454531452F76657274696365732E62696E504B01021400140006080800
310
B670623BF270F13306000000040000003600000000000000000000000000770E00006662782F38353834323741342D343835462D343034322D383541392D4331303331363839454531452F747269616E676C65732E62696E504B01021400140006080000B670623B0000000000000000000000003700000000000000000000
310
000000D10E00006662782F38353834323741342D343835462D343034322D383541392D4331303331363839454531452F617474726962757465732E62696E504B01021400140006080800B670623B08DA0BD190000000410100003600000000000000000000000000260F00006662782F38353834323741342D343835462D34
310
3034322D383541392D4331303331363839454531452F6469726563746F72792E786D6C504B01021400140006080800B670623BD9A3B367FE000000A00100003B000000000000000000000000000A1000006662782F38353834323741342D343835462D343034322D383541392D4331303331363839454531452F7265736F75
310
726365732F636F72652E786D6C504B0506000000000E000E0080040000611100000000
  0
XRECORD
  5
113
102
{ACAD_REACTORS
330
110
102
}
330
110
100
AcDbXrecord
280
     1
270
     1
271
     1
  0
XRECORD
  5
114
102
{ACAD_REACTORS
330
110
102
}
330
110
100
AcDbXrecord
280
     1
270
     1
271
     1
  0
XRECORD
  5
67B
102
{ACAD_REACTORS
330
67A
102
}
330
67A
100
AcDbXrecord
280
     1
102
DISPLAYNAME
  1
Imperial24
102
FLAGS
 90
        0
  0
XRECORD
  5
67F
102
{ACAD_REACTORS
330
67E
102
}
330
67E
100
AcDbXrecord
280
     1
102
DISPLAYNAME
  1
Metric50
102
FLAGS
 90
        0
  0
CELLSTYLEMAP
  5
670
102
{ACAD_REACTORS
330
104
102
}
330
104
100
AcDbCellStyleMap
 90
        3
300
CELLSTYLE
  1
TABLEFORMAT_BEGIN
 90
        5
170
     1
 91
        0
 92
    32768
 62
   257
 93
        1
300
CONTENTFORMAT
  1
CONTENTFORMAT_BEGIN
 90
        0
 91
        0
 92
      512
 93
        0
300

 40
0.0
140
1.0
 94
        5
 62
     0
340
11
144
0.25
309
CONTENTFORMAT_END
171
     1
301
MARGIN
  1
CELLMARGIN_BEGIN
 40
0.06
 40
0.06
 40
0.06
 40
0.06
 40
0.18
 40
0.18
309
CELLMARGIN_END
 94
        6
 95
        1
302
GRIDFORMAT
  1
GRIDFORMAT_BEGIN
 90
        0
 91
        1
 62
     0
 92
       -2
340
0
 93
        0
 40
0.045
309
GRIDFORMAT_END
 95
        2
302
GRIDFORMAT
  1
GRIDFORMAT_BEGIN
 90
        0
 91
        1
 62
     0
 92
       -2
340
0
 93
        0
 40
0.045
309
GRIDFORMAT_END
 95
        4
302
GRIDFORMAT
  1
GRIDFORMAT_BEGIN
 90
        0
 91
        1
 62
     0
 92
       -2
340
0
 93
        0
 40
0.045
309
GRIDFORMAT_END
 95
        8
302
GRIDFORMAT
  1
GRIDFORMAT_BEGIN
 90
        0
 91
        1
 62
     0
 92
       -2
340
0
 93
        0
 40
0.045
309
GRIDFORMAT_END
 95
       16
302
GRIDFORMAT
  1
GRIDFORMAT_BEGIN
 90
        0
 91
        1
 62
     0
 92
       -2
340
0
 93
        0
 40
0.045
309
GRIDFORMAT_END
 95
       32
302
GRIDFORMAT
  1
GRIDFORMAT_BEGIN
 90
        0
 91
        1
 62
     0
 92
       -2
340
0
 93
        0
 40
0.045
309
GRIDFORMAT_END
309
TABLEFORMAT_END
  1
CELLSTYLE_BEGIN
 90
        1
 91
        1
300
_TITLE
309
CELLSTYLE_END
300
CELLSTYLE
  1
TABLEFORMAT_BEGIN
 90
        5
170
     1
 91
        0
 92
        0
 62
   257
 93
        1
300
CONTENTFORMAT
  1
CONTENTFORMAT_BEGIN
 90
        0
 91
        0
 92
      512
 93
        0
300

 40
0.0
140
1.0
 94
        5
 62
     0
340
11
144
0.18
309
CONTENTFORMAT_END
171
     1
301
MARGIN
  1
CELLMARGIN_BEGIN
 40
0.06
 40
0.06
 40
0.06
 40
0.06
 40
0.18
 40
0.18
309
CELLMARGIN_END
 94
        6
 95
        1
302
GRIDFORMAT
  1
GRIDFORMAT_BEGIN
 90
        0
 91
        1
 62
     0
 92
       -2
340
0
 93
        0
 40
0.045
309
GRIDFORMAT_END
 95
        2
302
GRIDFORMAT
  1
GRIDFORMAT_BEGIN
 90
        0
 91
        1
 62
     0
 92
       -2
340
0
 93
        0
 40
0.045
309
GRIDFORMAT_END
 95
        4
302
GRIDFORMAT
  1
GRIDFORMAT_BEGIN
 90
        0
 91
        1
 62
     0
 92
       -2
340
0
 93
        0
 40
0.045
309
GRIDFORMAT_END
 95
        8
302
GRIDFORMAT
  1
GRIDFORMAT_BEGIN
 90
        0
 91
        1
 62
     0
 92
       -2
340
0
 93
        0
 40
0.045
309
GRIDFORMAT_END
 95
       16
302
GRIDFORMAT
  1
GRIDFORMAT_BEGIN
 90
        0
 91
        1
 62
     0
 92
       -2
340
0
 93
        0
 40
0.045
309
GRIDFORMAT_END
 95
       32
302
GRIDFORMAT
  1
GRIDFORMAT_BEGIN
 90
        0
 91
        1
 62
     0
 92
       -2
340
0
 93
        0
 40
0.045
309
GRIDFORMAT_END
309
TABLEFORMAT_END
  1
CELLSTYLE_BEGIN
 90
        2
 91
        1
300
_HEADER
309
CELLSTYLE_END
300
CELLSTYLE
  1
TABLEFORMAT_BEGIN
 90
        5
170
     1
 91
        0
 92
        0
 62
   257
 93
        1
300
CONTENTFORMAT
  1
CONTENTFORMAT_BEGIN
 90
        0
 91
        0
 92
      512
 93
        0
300

 40
0.0
140
1.0
 94
        2
 62
     0
340
11
144
0.18
309
CONTENTFORMAT_END
171
     1
301
MARGIN
  1
CELLMARGIN_BEGIN
 40
0.06
 40
0.06
 40
0.06
 40
0.06
 40
0.18
 40
0.18
309
CELLMARGIN_END
 94
        6
 95
        1
302
GRIDFORMAT
  1
GRIDFORMAT_BEGIN
 90
        0
 91
        1
 62
     0
 92
       -2
340
0
 93
        0
 40
0.045
309
GRIDFORMAT_END
 95
        2
302
GRIDFORMAT
  1
GRIDFORMAT_BEGIN
 90
        0
 91
        1
 62
     0
 92
       -2
340
0
 93
        0
 40
0.045
309
GRIDFORMAT_END
 95
        4
302
GRIDFORMAT
  1
GRIDFORMAT_BEGIN
 90
        0
 91
        1
 62
     0
 92
       -2
340
0
 93
        0
 40
0.045
309
GRIDFORMAT_END
 95
        8
302
GRIDFORMAT
  1
GRIDFORMAT_BEGIN
 90
        0
 91
        1
 62
     0
 92
       -2
340
0
 93
        0
 40
0.045
309
GRIDFORMAT_END
 95
       16
302
GRIDFORMAT
  1
GRIDFORMAT_BEGIN
 90
        0
 91
        1
 62
     0
 92
       -2
340
0
 93
        0
 40
0.045
309
GRIDFORMAT_END
 95
       32
302
GRIDFORMAT
  1
GRIDFORMAT_BEGIN
 90
        0
 91
        1
 62
     0
 92
       -2
340
0
 93
        0
 40
0.045
309
GRIDFORMAT_END
309
TABLEFORMAT_END
  1
CELLSTYLE_BEGIN
 90
        3
 91
        2
300
_DATA
309
CELLSTYLE_END
  0
ENDSEC
  0
SECTION
  2
ACDSDATA
 70
     2
 71
     8
  0
ACDSSCHEMA
 90
        0
  1
AcDb_Thumbnail_Schema
  2
AcDbDs::ID
280
    10
 91
        8
  2
Thumbnail_Data
280
    15
 91
        0
101
ACDSRECORD
 95
        0
 90
        1
  2
AcDbDs::TreatedAsObjectData
280
     1
291
     1
101
ACDSRECORD
 95
        0
 90
        2
  2
AcDbDs::Legacy
280
     1
291
     1
101
ACDSRECORD
  1
AcDbDs::ID
 90
        3
  2
AcDs:Indexable
280
     1
291
     1
101
ACDSRECORD
  1
AcDbDs::ID
 90
        4
  2
AcDbDs::HandleAttribute
280
     7
282
     1
  0
ACDSSCHEMA
 90
        1
  1
AcDbDs::TreatedAsObjectDataSchema
  2
AcDbDs::TreatedAsObjectData
280
     1
 91
        0
  0
ACDSSCHEMA
 90
        2
  1
AcDbDs::LegacySchema
  2
AcDbDs::Legacy
280
     1
 91
        0
  0
ACDSSCHEMA
 90
        3
  1
AcDbDs::IndexedPropertySchema
  2
AcDs:Indexable
280
     1
 91
        0
  0
ACDSSCHEMA
 90
        4
  1
AcDbDs::HandleAttributeSchema
  2
AcDbDs::HandleAttribute
280
     7
 91
        1
284
     1
  0
ACDSRECORD
 90
        0
  2
AcDbDs::ID
280
    10
320
22
  2
Thumbnail_Data
280
    15
 94
      993
310
89504E470D0A1A0A0000000D49484452000001000000006F08030000003479EE6F00000300504C5445212830FFFFFF2128300000000000000000000000000000000000000000000000000000330000660000990000CC0000FF0033000033330033660033990033CC0033FF0066000066330066660066990066CC0066FF0099
310
000099330099660099990099CC0099FF00CC0000CC3300CC6600CC9900CCCC00CCFF00FF0000FF3300FF6600FF9900FFCC00FFFF3300003300333300663300993300CC3300FF3333003333333333663333993333CC3333FF3366003366333366663366993366CC3366FF3399003399333399663399993399CC3399FF33CC00
310
33CC3333CC6633CC9933CCCC33CCFF33FF0033FF3333FF6633FF9933FFCC33FFFF6600006600336600666600996600CC6600FF6633006633336633666633996633CC6633FF6666006666336666666666996666CC6666FF6699006699336699666699996699CC6699FF66CC0066CC3366CC6666CC9966CCCC66CCFF66FF0066
310
FF3366FF6666FF9966FFCC66FFFF9900009900339900669900999900CC9900FF9933009933339933669933999933CC9933FF9966009966339966669966999966CC9966FF9999009999339999669999999999CC9999FF99CC0099CC3399CC6699CC9999CCCC99CCFF99FF0099FF3399FF6699FF9999FFCC99FFFFCC0000CC00
310
33CC0066CC0099CC00CCCC00FFCC3300CC3333CC3366CC3399CC33CCCC33FFCC6600CC6633CC6666CC6699CC66CCCC66FFCC9900CC9933CC9966CC9999CC99CCCC99FFCCCC00CCCC33CCCC66CCCC99CCCCCCCCCCFFCCFF00CCFF33CCFF66CCFF99CCFFCCCCFFFFFF0000FF0033FF0066FF0099FF00CCFF00FFFF3300FF3333
310
FF3366FF3399FF33CCFF33FFFF6600FF6633FF6666FF6699FF66CCFF66FFFF9900FF9933FF9966FF9999FF99CCFF99FFFFCC00FFCC33FFCC66FFCC99FFCCCCFFCCFFFFFF00FFFF33FFFF66FFFF99FFFFCCFFFFFF0000000D0D0D1A1A1A2828283535354343435050505D5D5D6B6B6B787878868686939393A1A1A1AEAEAEBB
310
BBBBC9C9C9D6D6D6E4E4E4F1F1F1FFFFFF0000000000000000000000000000000000000000000000000000000000002E4550F10000009C4944415478DAEDD7CB0A8520144051FFFF7F9D1764E56350500479D682A03B3C9BBC6A4A0000000000C023B922800040C4FF00010400DC05821E0905881E00EC029F501AE01FBB80
310
0002702B9B0002C0CC3B43FD335C8076EA8001DA4F600C30FB81619DAD5B02C3A2983DC0315E79ED07CEDB336B8632DEFEF9070D90CFF59F05B8D828E305C05931F86D4800F7610000000000000000000078CD0263628872E05B719B0000000049454E44AE426082
  0
ENDSEC
  0
EOF
