  0
SECTION
  2
HEADER
  9
$ACADVER
  1
AC1032
  9
$ACADMAINTVER
 90
        4
  9
$DWGCODEPAGE
  3
ANSI_1252
  9
$LASTSAVEDBY
  1
jesse.cowley
  9
$REQUIREDVERSIONS
160
                 0
  9
$INSBASE
 10
0.0
 20
0.0
 30
0.0
  9
$EXTMIN
 10
-0.0000000000000595
 20
-6488.385895668304
 30
0.0
  9
$EXTMAX
 10
10179.94973980342
 20
2004.724142526164
 30
0.0
  9
$LIMMIN
 10
0.0
 20
0.0
  9
$LIMMAX
 10
12.0
 20
9.0
  9
$ORTHOMODE
 70
     0
  9
$REGENMODE
 70
     1
  9
$FILLMODE
 70
     1
  9
$QTEXTMODE
 70
     0
  9
$MIRRTEXT
 70
     1
  9
$LTSCALE
 40
1.0
  9
$ATTMODE
 70
     1
  9
$TEXTSIZE
 40
0.2
  9
$TRACEWID
 40
0.05
  9
$TEXTSTYLE
  7
Standard
  9
$CLAYER
  8
0
  9
$CELTYPE
  6
ByLayer
  9
$CECOLOR
 62
   256
  9
$CELTSCALE
 40
1.0
  9
$DISPSILH
 70
     0
  9
$DIMSCALE
 40
1.0
  9
$DIMASZ
 40
0.18
  9
$DIMEXO
 40
0.0625
  9
$DIMDLI
 40
0.38
  9
$DIMRND
 40
0.0
  9
$DIMDLE
 40
0.0
  9
$DIMEXE
 40
0.18
  9
$DIMTP
 40
0.0
  9
$DIMTM
 40
0.0
  9
$DIMTXT
 40
0.18
  9
$DIMCEN
 40
0.09
  9
$DIMTSZ
 40
0.0
  9
$DIMTOL
 70
     0
  9
$DIMLIM
 70
     0
  9
$DIMTIH
 70
     1
  9
$DIMTOH
 70
     1
  9
$DIMSE1
 70
     0
  9
$DIMSE2
 70
     0
  9
$DIMTAD
 70
     0
  9
$DIMZIN
 70
     0
  9
$DIMBLK
  1

  9
$DIMASO
 70
     1
  9
$DIMSHO
 70
     1
  9
$DIMPOST
  1

  9
$DIMAPOST
  1

  9
$DIMALT
 70
     0
  9
$DIMALTD
 70
     2
  9
$DIMALTF
 40
25.4
  9
$DIMLFAC
 40
1.0
  9
$DIMTOFL
 70
     0
  9
$DIMTVP
 40
0.0
  9
$DIMTIX
 70
     0
  9
$DIMSOXD
 70
     0
  9
$DIMSAH
 70
     0
  9
$DIMBLK1
  1

  9
$DIMBLK2
  1

  9
$DIMSTYLE
  2
Standard
  9
$DIMCLRD
 70
     0
  9
$DIMCLRE
 70
     0
  9
$DIMCLRT
 70
     0
  9
$DIMTFAC
 40
1.0
  9
$DIMGAP
 40
0.09
  9
$DIMJUST
 70
     0
  9
$DIMSD1
 70
     0
  9
$DIMSD2
 70
     0
  9
$DIMTOLJ
 70
     1
  9
$DIMTZIN
 70
     0
  9
$DIMALTZ
 70
     0
  9
$DIMALTTZ
 70
     0
  9
$DIMUPT
 70
     0
  9
$DIMDEC
 70
     4
  9
$DIMTDEC
 70
     4
  9
$DIMALTU
 70
     2
  9
$DIMALTTD
 70
     2
  9
$DIMTXSTY
  7
Standard
  9
$DIMAUNIT
 70
     0
  9
$DIMADEC
 70
     0
  9
$DIMALTRND
 40
0.0
  9
$DIMAZIN
 70
     0
  9
$DIMDSEP
 70
    46
  9
$DIMATFIT
 70
     3
  9
$DIMFRAC
 70
     0
  9
$DIMLDRBLK
  1

  9
$DIMLUNIT
 70
     2
  9
$DIMLWD
 70
    -2
  9
$DIMLWE
 70
    -2
  9
$DIMTMOVE
 70
     0
  9
$DIMFXL
 40
1.0
  9
$DIMFXLON
 70
     0
  9
$DIMJOGANG
 40
0.7853981633974483
  9
$DIMTFILL
 70
     0
  9
$DIMTFILLCLR
 70
     0
  9
$DIMARCSYM
 70
     0
  9
$DIMLTYPE
  6

  9
$DIMLTEX1
  6

  9
$DIMLTEX2
  6

  9
$DIMTXTDIRECTION
 70
     0
  9
$LUNITS
 70
     2
  9
$LUPREC
 70
     4
  9
$SKETCHINC
 40
0.1
  9
$FILLETRAD
 40
0.0
  9
$AUNITS
 70
     0
  9
$AUPREC
 70
     0
  9
$MENU
  1
.
  9
$ELEVATION
 40
0.0
  9
$PELEVATION
 40
0.0
  9
$THICKNESS
 40
0.0
  9
$LIMCHECK
 70
     0
  9
$CHAMFERA
 40
0.5
  9
$CHAMFERB
 40
0.5
  9
$CHAMFERC
 40
1.0
  9
$CHAMFERD
 40
0.0
  9
$SKPOLY
 70
     0
  9
$TDCREATE
 40
2456463.587245370
  9
$TDUCREATE
 40
2456463.170579294
  9
$TDUPDATE
 40
2458442.445879630
  9
$TDUUPDATE
 40
2458441.987546296
  9
$TDINDWG
 40
0.0993469676
  9
$TDUSRTIMER
 40
0.0993469676
  9
$USRTIMER
 70
     1
  9
$ANGBASE
 50
0.0
  9
$ANGDIR
 70
     0
  9
$PDMODE
 70
     0
  9
$PDSIZE
 40
0.0
  9
$PLINEWID
 40
0.0
  9
$SPLFRAME
 70
     0
  9
$SPLINETYPE
 70
     6
  9
$SPLINESEGS
 70
     8
  9
$HANDSEED
  5
5C5
  9
$SURFTAB1
 70
     6
  9
$SURFTAB2
 70
     6
  9
$SURFTYPE
 70
     6
  9
$SURFU
 70
     6
  9
$SURFV
 70
     6
  9
$UCSBASE
  2

  9
$UCSNAME
  2

  9
$UCSORG
 10
0.0
 20
0.0
 30
0.0
  9
$UCSXDIR
 10
1.0
 20
0.0
 30
0.0
  9
$UCSYDIR
 10
0.0
 20
1.0
 30
0.0
  9
$UCSORTHOREF
  2

  9
$UCSORTHOVIEW
 70
     0
  9
$UCSORGTOP
 10
0.0
 20
0.0
 30
0.0
  9
$UCSORGBOTTOM
 10
0.0
 20
0.0
 30
0.0
  9
$UCSORGLEFT
 10
0.0
 20
0.0
 30
0.0
  9
$UCSORGRIGHT
 10
0.0
 20
0.0
 30
0.0
  9
$UCSORGFRONT
 10
0.0
 20
0.0
 30
0.0
  9
$UCSORGBACK
 10
0.0
 20
0.0
 30
0.0
  9
$PUCSBASE
  2

  9
$PUCSNAME
  2

  9
$PUCSORG
 10
0.0
 20
0.0
 30
0.0
  9
$PUCSXDIR
 10
1.0
 20
0.0
 30
0.0
  9
$PUCSYDIR
 10
0.0
 20
1.0
 30
0.0
  9
$PUCSORTHOREF
  2

  9
$PUCSORTHOVIEW
 70
     0
  9
$PUCSORGTOP
 10
0.0
 20
0.0
 30
0.0
  9
$PUCSORGBOTTOM
 10
0.0
 20
0.0
 30
0.0
  9
$PUCSORGLEFT
 10
0.0
 20
0.0
 30
0.0
  9
$PUCSORGRIGHT
 10
0.0
 20
0.0
 30
0.0
  9
$PUCSORGFRONT
 10
0.0
 20
0.0
 30
0.0
  9
$PUCSORGBACK
 10
0.0
 20
0.0
 30
0.0
  9
$USERI1
 70
     0
  9
$USERI2
 70
     0
  9
$USERI3
 70
     0
  9
$USERI4
 70
     0
  9
$USERI5
 70
     0
  9
$USERR1
 40
0.0
  9
$USERR2
 40
0.0
  9
$USERR3
 40
0.0
  9
$USERR4
 40
0.0
  9
$USERR5
 40
0.0
  9
$WORLDVIEW
 70
     1
  9
$SHADEDGE
 70
     3
  9
$SHADEDIF
 70
    70
  9
$TILEMODE
 70
     1
  9
$MAXACTVP
 70
    64
  9
$PINSBASE
 10
0.0
 20
0.0
 30
0.0
  9
$PLIMCHECK
 70
     0
  9
$PEXTMIN
 10
1.000000000000000E+20
 20
1.000000000000000E+20
 30
1.000000000000000E+20
  9
$PEXTMAX
 10
-1.000000000000000E+20
 20
-1.000000000000000E+20
 30
-1.000000000000000E+20
  9
$PLIMMIN
 10
0.0
 20
0.0
  9
$PLIMMAX
 10
12.0
 20
9.0
  9
$UNITMODE
 70
     0
  9
$VISRETAIN
 70
     1
  9
$PLINEGEN
 70
     0
  9
$PSLTSCALE
 70
     1
  9
$TREEDEPTH
 70
  3020
  9
$CMLSTYLE
  2
Standard
  9
$CMLJUST
 70
     0
  9
$CMLSCALE
 40
1.0
  9
$PROXYGRAPHICS
 70
     1
  9
$MEASUREMENT
 70
     0
  9
$CELWEIGHT
370
    -1
  9
$ENDCAPS
280
     0
  9
$JOINSTYLE
280
     0
  9
$LWDISPLAY
290
     1
  9
$INSUNITS
 70
     1
  9
$HYPERLINKBASE
  1

  9
$STYLESHEET
  1

  9
$XEDIT
290
     1
  9
$CEPSNTYPE
380
     0
  9
$PSTYLEMODE
290
     1
  9
$FINGERPRINTGUID
  2
{757E19B0-6438-4409-8534-FBCCA631BC4D}
  9
$VERSIONGUID
  2
{BCD83A2C-585D-074B-A6C8-F56828E183E9}
  9
$EXTNAMES
290
     1
  9
$PSVPSCALE
 40
0.0
  9
$OLESTARTUP
290
     0
  9
$SORTENTS
280
   127
  9
$INDEXCTL
280
     0
  9
$HIDETEXT
280
     1
  9
$XCLIPFRAME
280
     0
  9
$HALOGAP
280
     0
  9
$OBSCOLOR
 70
   257
  9
$OBSLTYPE
280
     0
  9
$INTERSECTIONDISPLAY
280
     0
  9
$INTERSECTIONCOLOR
 70
   257
  9
$DIMASSOC
280
     2
  9
$PROJECTNAME
  1

  9
$CAMERADISPLAY
290
     0
  9
$LENSLENGTH
 40
50.0
  9
$CAMERAHEIGHT
 40
0.0
  9
$STEPSPERSEC
 40
2.0
  9
$STEPSIZE
 40
6.0
  9
$3DDWFPREC
 40
2.0
  9
$PSOLWIDTH
 40
0.25
  9
$PSOLHEIGHT
 40
4.0
  9
$LOFTANG1
 40
1.570796326794896
  9
$LOFTANG2
 40
1.570796326794896
  9
$LOFTMAG1
 40
0.0
  9
$LOFTMAG2
 40
0.0
  9
$LOFTPARAM
 70
     7
  9
$LOFTNORMALS
280
     1
  9
$LATITUDE
 40
37.795
  9
$LONGITUDE
 40
-122.394
  9
$NORTHDIRECTION
 40
0.0
  9
$TIMEZONE
 70
 -8000
  9
$LIGHTGLYPHDISPLAY
280
     1
  9
$TILEMODELIGHTSYNCH
280
     1
  9
$CMATERIAL
347
21D
  9
$SOLIDHIST
280
     1
  9
$SHOWHIST
280
     1
  9
$DWFFRAME
280
     2
  9
$DGNFRAME
280
     0
  9
$REALWORLDSCALE
290
     1
  9
$INTERFERECOLOR
 62
     1
  9
$INTERFEREOBJVS
345
33
  9
$INTERFEREVPVS
346
30
  9
$CSHADOW
280
     0
  9
$SHADOWPLANELOCATION
 40
0.0
  0
ENDSEC
  0
SECTION
  2
CLASSES
  0
CLASS
  1
ACDBDICTIONARYWDFLT
  2
AcDbDictionaryWithDefault
  3
ObjectDBX Classes
 90
        0
 91
        1
280
     0
281
     0
  0
CLASS
  1
VISUALSTYLE
  2
AcDbVisualStyle
  3
ObjectDBX Classes
 90
     4095
 91
       26
280
     0
281
     0
  0
CLASS
  1
MATERIAL
  2
AcDbMaterial
  3
ObjectDBX Classes
 90
     1153
 91
        3
280
     0
281
     0
  0
CLASS
  1
TABLESTYLE
  2
AcDbTableStyle
  3
ObjectDBX Classes
 90
     4095
 91
        1
280
     0
281
     0
  0
CLASS
  1
SCALE
  2
AcDbScale
  3
ObjectDBX Classes
 90
     1153
 91
       33
280
     0
281
     0
  0
CLASS
  1
MLEADERSTYLE
  2
AcDbMLeaderStyle
  3
ACDB_MLEADERSTYLE_CLASS
 90
     4095
 91
        1
280
     0
281
     0
  0
CLASS
  1
ACME_DOCUMENT
  2
AcMeDbDoc
  3
AcMeServices
 90
     1024
 91
        0
280
     0
281
     0
  0
CLASS
  1
AMGSETTINGSOBJ
  2
AmgSettingsObj
  3
"AcadM|Product Description: AutoCAD Mechanical|Company: Autodesk, Inc."
 90
     1024
 91
        2
280
     0
281
     0
  0
CLASS
  1
ACMESCOPE
  2
AcMeScope
  3
AcMeServices
 90
     1024
 91
        1
280
     0
281
     0
  0
CLASS
  1
ACMECOMMANDHISTORY
  2
AcMeCommandHistory
  3
AcMeServices
 90
     1024
 91
        1
280
     0
281
     0
  0
CLASS
  1
ACIMSYSVARMAN
  2
AcImSysVarManager
  3
AcMeServices
 90
     1024
 91
        5
280
     0
281
     0
  0
CLASS
  1
ACIMINTSYSVAR
  2
AcImIntSysVar
  3
AcMeServices
 90
     1024
 91
       27
280
     0
281
     0
  0
CLASS
  1
ACMEDRAWINGMAN
  2
AcMeDrawingMan
  3
AcMeServices
 90
     1024
 91
        1
280
     0
281
     0
  0
CLASS
  1
ACMEVIEW
  2
AcMeView
  3
AcMeServices
 90
     1024
 91
        1
280
     0
281
     0
  0
CLASS
  1
ACDBENTITYCACHE
  2
AcMeEntityCache
  3
AcMeServices
 90
     1024
 91
        0
280
     0
281
     0
  0
CLASS
  1
ACMESTATEMGR
  2
AcMeStateMgr
  3
AcMeServices
 90
     1024
 91
        1
280
     0
281
     0
  0
CLASS
  1
ACGREFMASTER
  2
AcGrefMaster
  3
AcAttribServices
 90
     1024
 91
        1
280
     0
281
     0
  0
CLASS
  1
AM_DRAWING_MGR
  2
AcDmDwgMgr
  3
AcMechDwgViewMgmt
 90
     1024
 91
        1
280
     0
281
     0
  0
CLASS
  1
AM_DWG_DOCUMENT
  2
AcDmDwgDocument
  3
AcMechDwgViewMgmt
 90
     1024
 91
        1
280
     0
281
     0
  0
CLASS
  1
AM_DWG_SHEET
  2
AcDmSheet
  3
AcMechDwgViewMgmt
 90
     1024
 91
        2
280
     0
281
     0
  0
CLASS
  1
AM_VIEWDIMPARMAP
  2
AcDmViewDimParMap
  3
AcMechDwgViewMgmt
 90
     1024
 91
        2
280
     0
281
     0
  0
CLASS
  1
AMDTINTERNALREACTOR
  2
AmdtInternalReactor
  3
AcMeServices
 90
     1024
 91
        0
280
     0
281
     0
  0
CLASS
  1
ACIMREALSYSVAR
  2
AcImRealSysVar
  3
AcMeServices
 90
     1024
 91
        1
280
     0
281
     0
  0
CLASS
  1
AM_DWGMGR_NAME
  2
AcDmDwgMgrName
  3
AcMechDwgViewMgmt
 90
     1024
 91
        1
280
     0
281
     0
  0
CLASS
  1
ACME_DATABASE
  2
AcMeDbDatabase
  3
AcMeServices
 90
     1024
 91
        0
280
     0
281
     0
  0
CLASS
  1
ACRFINSADJUSTERMGR
  2
AcRfInsAdjusterMgr
  3
AcMeServices
 90
     1024
 91
        0
280
     0
281
     0
  0
CLASS
  1
ACGREFACADMASTER
  2
AcGrefacadMaster
  3
AcGrefServices
 90
     1024
 91
        1
280
     0
281
     0
  0
CLASS
  1
AMDTMENUSTATEMGR
  2
AmdtMenuStateMgr
  3
McadcomServices
 90
     1024
 91
        0
280
     0
281
     0
  0
CLASS
  1
AMDTMCOMMENUSTATE
  2
AmdtMcomMenuState
  3
McadcomServices
 90
     1024
 91
        0
280
     0
281
     0
  0
CLASS
  1
AMIMASTER
  2
AmiMaster
  3
AmiServices
 90
     1024
 91
        1
280
     0
281
     0
  0
CLASS
  1
MAPIAMMOUDLE
  2
MApiAmModule
  3
MApiAmServices
 90
     1024
 91
        1
280
     0
281
     0
  0
CLASS
  1
ACIMSTRSYSVAR
  2
AcImStrSysVar
  3
AcMeServices
 90
     1024
 91
        5
280
     0
281
     0
  0
CLASS
  1
AMDTADMENUSTATE
  2
AmdtAdMenuState
  3
DesignerServices
 90
     1024
 91
        0
280
     0
281
     0
  0
CLASS
  1
ADAPPL
  2
AcAdAppl
  3
DesignerServices
 90
     1024
 91
        1
280
     0
281
     0
  0
CLASS
  1
DEPMGR
  2
AcAdDepMgr
  3
DesignerServices
 90
     1024
 91
        1
280
     0
281
     0
  0
CLASS
  1
PARAMMGR
  2
AcAdParamMgr
  3
DesignerServices
 90
     1024
 91
        1
280
     0
281
     0
  0
CLASS
  1
PARAMSCOPE
  2
AcAdParamScope
  3
DesignerServices
 90
     1024
 91
        1
280
     0
281
     0
  0
CLASS
  1
NAMEDAPPL
  2
AcAdNamedAppl
  3
DesignerServices
 90
     1024
 91
        1
280
     0
281
     0
  0
CLASS
  1
AMDTDMMENUSTATE
  2
AmdtDmMenuState
  3
AcMechDwgViewMgmt
 90
     1024
 91
        0
280
     0
281
     0
  0
CLASS
  1
AMDTAMMENUSTATE
  2
AmdtAmMenuState
  3
DesignerAssemblies
 90
     1024
 91
        0
280
     0
281
     0
  0
CLASS
  1
ACAMPROJECT
  2
AcAmProject
  3
DesignerAssemblies
 90
     1024
 91
        1
280
     0
281
     0
  0
CLASS
  1
ACAMGRCOMPDEF
  2
AcAmGrCompDef
  3
DesignerAssemblies
 90
     1024
 91
        1
280
     0
281
     0
  0
CLASS
  1
ACAMCOMPDEF
  2
AcAmCompDef
  3
DesignerAssemblies
 90
     1024
 91
        1
280
     0
281
     0
  0
CLASS
  1
ACAMCOMPDEFMGR
  2
AcAmCompDefMgr
  3
DesignerAssemblies
 90
     1024
 91
        1
280
     0
281
     0
  0
CLASS
  1
AMCONTEXTMGR
  2
AcAmContextMgr
  3
DesignerAssemblies
 90
     1024
 91
        1
280
     0
281
     0
  0
CLASS
  1
ACAMCONTEXTMODELER
  2
AcAmContextModeler
  3
DesignerAssemblies
 90
     1024
 91
        1
280
     0
281
     0
  0
CLASS
  1
ACMDATADICTIONARY
  2
AcmDataDictionary
  3
"AcmSymBB|Product Description: AutoCAD Mechanical|Company: Autodesk, Inc."
 90
     1024
 91
        1
280
     0
281
     0
  0
CLASS
  1
CATALOGSTATE
  2
AcAmCatalogState
  3
DesignerAssemblies
 90
     1024
 91
        1
280
     0
281
     0
  0
CLASS
  1
ACAMGRCOMPDEFSET
  2
AcAmGrCompDefSet
  3
DesignerAssemblies
 90
     1024
 91
        0
280
     0
281
     0
  0
CLASS
  1
AMDTBROWSERDBTAB
  2
AmdtBrowserDbTab
  3
McadcomServices
 90
     1024
 91
        0
280
     0
281
     0
  0
CLASS
  1
CBROWSERAPPOBJECT
  2
CBrowserAppObject
  3
McadcomServices
 90
     1024
 91
        0
280
     0
281
     0
  0
CLASS
  1
DM_PLACEHOLDER
  2
AcDmSelsetPlaceholder
  3
AcMechDwgViewMgmt
 90
     1024
 91
        0
280
     0
281
     0
  0
CLASS
  1
EXACXREFPANELOBJECT
  2
ExAcXREFPanelObject
  3
EXAC_ESW
 90
     1025
 91
        1
280
     0
281
     0
  0
CLASS
  1
NPOCOLLECTION
  2
AcDbImpNonPersistentObjectsCollection
  3
ObjectDBX Classes
 90
     1153
 91
        1
280
     0
281
     0
  0
CLASS
  1
ACMSTANDARDANSI
  2
AcmStandardANSI
  3
"Amdt_StdImp|Product Description: AutoCAD Mechanical|Company: Autodesk, Inc."
 90
     1024
 91
        1
280
     0
281
     0
  0
CLASS
  1
ACMSURFSTANDARDANSI
  2
AcmSurfTextStdANSI
  3
"Amdt_StdImp|Product Description: AutoCAD Mechanical|Company: Autodesk, Inc."
 90
     1024
 91
        1
280
     0
281
     0
  0
CLASS
  1
ACMFCFSTANDARDANSI
  2
AcmFCFStdANSI
  3
"Amdt_StdImp|Product Description: AutoCAD Mechanical|Company: Autodesk, Inc."
 90
     1024
 91
        1
280
     0
281
     0
  0
CLASS
  1
ACMWELDSTANDARDANSI
  2
AcmWeldingStdANSI
  3
"Amdt_StdImp|Product Description: AutoCAD Mechanical|Company: Autodesk, Inc."
 90
     1024
 91
        1
280
     0
281
     0
  0
CLASS
  1
ACMIDSTANDARDANSI
  2
AcmIdStdANSI
  3
"Amdt_StdImp|Product Description: AutoCAD Mechanical|Company: Autodesk, Inc."
 90
     1024
 91
        1
280
     0
281
     0
  0
CLASS
  1
ACMDATUMSTANDARDANSI
  2
AcmDatumStdANSI
  3
"Amdt_StdImp|Product Description: AutoCAD Mechanical|Company: Autodesk, Inc."
 90
     1024
 91
        1
280
     0
281
     0
  0
CLASS
  1
ACMBOMSTANDARDANSI
  2
AcmBOMStdANSI
  3
"Amdt_StdImp|Product Description: AutoCAD Mechanical|Company: Autodesk, Inc."
 90
     1024
 91
        1
280
     0
281
     0
  0
CLASS
  1
ACMDETAILSTANDARDANSI
  2
AmdtDetailSymStdANSI
  3
"Amdt_StdImp|Product Description: AutoCAD Mechanical|Company: Autodesk, Inc."
 90
     1024
 91
        1
280
     0
281
     0
  0
CLASS
  1
ACMSECTIONSTANDARDANSI
  2
AmdtSectionSymStdANSI
  3
"Amdt_StdImp|Product Description: AutoCAD Mechanical|Company: Autodesk, Inc."
 90
     1024
 91
        1
280
     0
281
     0
  0
CLASS
  1
ACMCENTERLINESTANDARDANSI
  2
AmdtCenterLineStdANSI
  3
"Amdt_StdImp|Product Description: AutoCAD Mechanical|Company: Autodesk, Inc."
 90
     1024
 91
        1
280
     0
281
     0
  0
CLASS
  1
ACMTHREADLINESTANDARDANSI
  2
AmdtThreadLineStdANSI
  3
"Amdt_StdImp|Product Description: AutoCAD Mechanical|Company: Autodesk, Inc."
 90
     1024
 91
        1
280
     0
281
     0
  0
CLASS
  1
ACMNOTESTANDARDANSI
  2
AmdtNoteStdANSI
  3
"Amdt_StdImp|Product Description: AutoCAD Mechanical|Company: Autodesk, Inc."
 90
     1024
 91
        1
280
     0
281
     0
  0
CLASS
  1
ACMTAPERSTANDARDANSI
  2
AcmTaperStdANSI
  3
"Amdt_StdImp|Product Description: AutoCAD Mechanical|Company: Autodesk, Inc."
 90
     1024
 91
        1
280
     0
281
     0
  0
CLASS
  1
ACMANOOTATIONVIEWSTANDARDANSI
  2
AmdtAnViewStdANSI
  3
"Amdt_StdImp|Product Description: AutoCAD Mechanical|Company: Autodesk, Inc."
 90
     1024
 91
        1
280
     0
281
     0
  0
CLASS
  1
ACAMGLAYSTD
  2
AcAmgLayStd
  3
"AmgLay|Product Description: AutoCAD Mechanical|Company: Autodesk, Inc."
 90
     1024
 91
        1
280
     0
281
     0
  0
CLASS
  1
ACAMGDIMSTD
  2
AcAmgDimStd
  3
"AmgDim|Product Description: AutoCAD Mechanical|Company: Autodesk, Inc."
 90
     1024
 91
        1
280
     0
281
     0
  0
CLASS
  1
AMGOBJPROPCFG
  2
AmgObjPropCfg
  3
"AmgLay|Product Description: AutoCAD Mechanical|Company: Autodesk, Inc."
 90
     1025
 91
        1
280
     0
281
     0
  0
CLASS
  1
ACAMGHOLECHARTSTDANSI
  2
AcAmgHoleChartStdANSI
  3
AmgDim|Product Description: AutoCAD Mechanical|Company: Autodesk, Inc.
 90
     1024
 91
        1
280
     0
281
     0
  0
CLASS
  1
ACAMGTITLESTD
  2
AcAmgTitleStd
  3
"AmgTitle|Product Description: AutoCAD Mechanical|Company: Autodesk, Inc."
 90
     4095
 91
        1
280
     0
281
     0
  0
CLASS
  1
AMDTNOTETEMPLATEDB
  2
AmdtNoteTemplateDB
  3
AcmSymBB|Product Description: AutoCAD Mechanical|Company: Autodesk, Inc.
 90
     1024
 91
        6
280
     0
281
     0
  0
CLASS
  1
CAMSSTRUCTBTNSTATE
  2
StructBtnState
  3
DesignerAssemblies
 90
     1024
 91
        1
280
     0
281
     0
  0
CLASS
  1
DICTIONARYVAR
  2
AcDbDictionaryVar
  3
ObjectDBX Classes
 90
        0
 91
        9
280
     0
281
     0
  0
CLASS
  1
SORTENTSTABLE
  2
AcDbSortentsTable
  3
ObjectDBX Classes
 90
        0
 91
        1
280
     0
281
     0
  0
CLASS
  1
ACDBSECTIONVIEWSTYLE
  2
AcDbSectionViewStyle
  3
ObjectDBX Classes
 90
     1025
 91
        1
280
     0
281
     0
  0
CLASS
  1
ACDBDETAILVIEWSTYLE
  2
AcDbDetailViewStyle
  3
ObjectDBX Classes
 90
     1025
 91
        1
280
     0
281
     0
  0
CLASS
  1
CELLSTYLEMAP
  2
AcDbCellStyleMap
  3
ObjectDBX Classes
 90
     1152
 91
        1
280
     0
281
     0
  0
ENDSEC
  0
SECTION
  2
TABLES
  0
TABLE
  2
VPORT
  5
8
330
0
100
AcDbSymbolTable
 70
     1
  0
VPORT
  5
29
330
8
100
AcDbSymbolTableRecord
100
AcDbViewportTableRecord
  2
*Active
 70
     0
 10
0.0
 20
0.0
 11
1.0
 21
1.0
 12
13658.4308332858
 22
-4911.902794390764
 13
0.0
 23
0.0
 14
0.5
 24
0.5
 15
0.5
 25
0.5
 16
0.0
 26
0.0
 36
1.0
 17
148.4999796178229
 27
-105.0008259828643
 37
0.0
 40
22024.67031232544
 41
2.292712066905615
 42
50.0
 43
0.0
 44
0.0
 50
0.0
 51
0.0
 71
     0
 72
   100
 73
     1
 74
     3
 75
     0
 76
     0
 77
     0
 78
     0
281
     0
 65
     1
110
0.0
120
0.0
130
0.0
111
1.0
121
0.0
131
0.0
112
0.0
122
1.0
132
0.0
 79
     0
146
0.0
348
2F
 60
     3
 61
     5
292
     1
282
     1
141
0.0
142
0.0
 63
   250
421
  3355443
1001
ACAD_NAV_VCDISPLAY
1070
     3
  0
ENDTAB
  0
TABLE
  2
LTYPE
  5
5
330
0
100
AcDbSymbolTable
 70
    16
  0
LTYPE
  5
14
330
5
100
AcDbSymbolTableRecord
100
AcDbLinetypeTableRecord
  2
ByBlock
 70
     0
  3

 72
    65
 73
     0
 40
0.0
  0
LTYPE
  5
15
330
5
100
AcDbSymbolTableRecord
100
AcDbLinetypeTableRecord
  2
ByLayer
 70
     0
  3

 72
    65
 73
     0
 40
0.0
  0
LTYPE
  5
16
330
5
100
AcDbSymbolTableRecord
100
AcDbLinetypeTableRecord
  2
Continuous
 70
     0
  3
Solid line
 72
    65
 73
     0
 40
0.0
  0
LTYPE
  5
294
330
5
100
AcDbSymbolTableRecord
100
AcDbLinetypeTableRecord
  2
HIDDEN
 70
     0
  3
Hidden __ __ __ __ __ __ __ __ __ __ __ __ __ _
 72
    65
 73
     2
 40
0.375
 49
0.25
 74
     0
 49
-0.125
 74
     0
  0
LTYPE
  5
295
330
5
100
AcDbSymbolTableRecord
100
AcDbLinetypeTableRecord
  2
PHANTOM2
 70
     0
  3
Phantom (.5x) ___ _ _ ___ _ _ ___ _ _ ___ _ _
 72
    65
 73
     6
 40
1.25
 49
0.625
 74
     0
 49
-0.125
 74
     0
 49
0.125
 74
     0
 49
-0.125
 74
     0
 49
0.125
 74
     0
 49
-0.125
 74
     0
  0
LTYPE
  5
296
330
5
100
AcDbSymbolTableRecord
100
AcDbLinetypeTableRecord
  2
CENTER
 70
     0
  3
Center ____ _ ____ _ ____ _ ____ _ ____ _ ____
 72
    65
 73
     4
 40
2.0
 49
1.25
 74
     0
 49
-0.25
 74
     0
 49
0.25
 74
     0
 49
-0.25
 74
     0
  0
LTYPE
  5
2DD
330
5
100
AcDbSymbolTableRecord
100
AcDbLinetypeTableRecord
  2
AM_ISO02W050
 70
     0
  3
__ __ __ __ __ __ __ __ __ __ __ __ __ __ __
 72
    65
 73
     2
 40
7.5
 49
6.0
 74
     0
 49
-1.5
 74
     0
  0
LTYPE
  5
2DE
330
5
100
AcDbSymbolTableRecord
100
AcDbLinetypeTableRecord
  2
AM_ISO08W050
 70
     0
  3
____ . ____ . ____ . ____ . ____ . ____ . ____
 72
    65
 73
     4
 40
18.0
 49
12.0
 74
     0
 49
-1.5
 74
     0
 49
3.0
 74
     0
 49
-1.5
 74
     0
  0
LTYPE
  5
2DF
330
5
100
AcDbSymbolTableRecord
100
AcDbLinetypeTableRecord
  2
AM_ISO09W050
 70
     0
  3
_____ . . _____ . . _____ . . ____ .. ____
 72
    65
 73
     6
 40
22.5
 49
12.0
 74
     0
 49
-1.5
 74
     0
 49
3.0
 74
     0
 49
-1.5
 74
     0
 49
3.0
 74
     0
 49
-1.5
 74
     0
  0
LTYPE
  5
2E0
330
5
100
AcDbSymbolTableRecord
100
AcDbLinetypeTableRecord
  2
Amconstr
 70
     0
  3
_______________________
 72
    65
 73
     2
 40
9999.0
 49
9999.0
 74
     0
 49
0.0
 74
     0
  0
LTYPE
  5
2E1
330
5
100
AcDbSymbolTableRecord
100
AcDbLinetypeTableRecord
  2
AM_ISO08W050x2
 70
     0
  3
__ . __ . __ . __ . __ . __
 72
    65
 73
     4
 40
9.0
 49
6.0
 74
     0
 49
-0.75
 74
     0
 49
1.5
 74
     0
 49
-0.75
 74
     0
  0
LTYPE
  5
2E2
330
5
100
AcDbSymbolTableRecord
100
AcDbLinetypeTableRecord
  2
AM_ISO02W050x2
 70
     0
  3
 _ _ _ _ _ _ _ _ _ _ _ _
 72
    65
 73
     2
 40
3.75
 49
3.0
 74
     0
 49
-0.75
 74
     0
  0
LTYPE
  5
2E5
330
5
100
AcDbSymbolTableRecord
100
AcDbLinetypeTableRecord
  2
Amzigzag
 70
     0
  3
/\/-/\/-/\/-/\/-/\/-/\/
 72
    65
 73
     2
 40
11.0001
 49
0.0001
 74
     4
 75
   136
340
2E4
 46
0.04
 50
0.0
 44
0.0
 45
0.0
 49
-11.0
 74
     0
  0
LTYPE
  5
2E6
330
5
100
AcDbSymbolTableRecord
100
AcDbLinetypeTableRecord
  2
CENTER2
 70
     0
  3
Center (.5x) ___ _ ___ _ ___ _ ___ _ ___ _ ___
 72
    65
 73
     4
 40
1.125
 49
0.75
 74
     0
 49
-0.125
 74
     0
 49
0.125
 74
     0
 49
-0.125
 74
     0
  0
LTYPE
  5
2E7
330
5
100
AcDbSymbolTableRecord
100
AcDbLinetypeTableRecord
  2
HIDDEN2
 70
     0
  3
Hidden (.5x) _ _ _ _ _ _ _ _ _ _ _ _ _ _ _ _ _
 72
    65
 73
     2
 40
0.1875
 49
0.125
 74
     0
 49
-0.0625
 74
     0
  0
LTYPE
  5
2E8
330
5
100
AcDbSymbolTableRecord
100
AcDbLinetypeTableRecord
  2
Amzigzag2
 70
     0
  3
/\/-/\/-/\/-/\/-/\/-/\/
 72
    65
 73
     2
 40
0.4401
 49
0.0001
 74
     4
 75
   136
340
2E4
 46
0.0016
 50
0.0
 44
0.0
 45
0.0
 49
-0.4400000000000001
 74
     0
  0
LTYPE
  5
2F6
330
5
100
AcDbSymbolTableRecord
100
AcDbLinetypeTableRecord
  2
ACANSTGB
 70
     0
  3
__ . . __ . .
 72
    65
 73
     6
 40
0.35433070866
 49
0.15748031496
 74
     0
 49
-0.03937007874
 74
     0
 49
0.03937007874
 74
     0
 49
-0.03937007874
 74
     0
 49
0.03937007874
 74
     0
 49
-0.03937007874
 74
     0
  0
LTYPE
  5
2F7
330
5
100
AcDbSymbolTableRecord
100
AcDbLinetypeTableRecord
  2
ACANSTGL
 70
     0
  3
_ _ _ _ _
 72
    65
 73
     2
 40
0.11811023622
 49
0.07874015748
 74
     0
 49
-0.03937007874
 74
     0
  0
ENDTAB
  0
TABLE
  2
LAYER
  5
2
102
{ACAD_XDICTIONARY
360
306
102
}
330
0
100
AcDbSymbolTable
 70
     5
  0
LAYER
  5
10
102
{ACAD_XDICTIONARY
360
2FE
102
}
330
2
100
AcDbSymbolTableRecord
100
AcDbLayerTableRecord
  2
0
 70
     0
 62
     7
  6
Continuous
370
    -3
390
F
347
22D
348
0
  0
LAYER
  5
3B
102
{ACAD_XDICTIONARY
360
300
102
}
330
2
100
AcDbSymbolTableRecord
100
AcDbLayerTableRecord
  2
Text
 70
     0
 62
     7
  6
Continuous
370
    -3
390
F
347
22D
348
0
  0
LAYER
  5
4BC
330
2
100
AcDbSymbolTableRecord
100
AcDbLayerTableRecord
  2
Furniture
 70
     0
 62
     7
  6
Continuous
370
    -3
390
F
347
22D
348
0
1001
AcAecLayerStandard
1000

1000

  0
LAYER
  5
4BE
330
2
100
AcDbSymbolTableRecord
100
AcDbLayerTableRecord
  2
Dimensions
 70
     0
 62
     7
  6
Continuous
370
    -3
390
F
347
22D
348
0
1001
AcAecLayerStandard
1000

1000

  0
LAYER
  5
4EE
330
2
100
AcDbSymbolTableRecord
100
AcDbLayerTableRecord
  2
Dims
 70
     0
 62
     7
  6
Continuous
370
    -3
390
F
347
22D
348
0
1001
AcAecLayerStandard
1000

1000

  0
ENDTAB
  0
TABLE
  2
STYLE
  5
3
330
0
100
AcDbSymbolTable
 70
     4
  0
STYLE
  5
11
330
3
100
AcDbSymbolTableRecord
100
AcDbTextStyleTableRecord
  2
Standard
 70
     0
 40
0.0
 41
1.000099999999999
 50
0.0
 71
     0
 42
0.2
  3
apercu_regular-webfont.ttf
  4

1001
ACAD
1000
Apercu
1071
        2
  0
STYLE
  5
2E4
330
3
100
AcDbSymbolTableRecord
100
AcDbTextStyleTableRecord
  2

 70
     1
 40
0.0
 41
1.0
 50
0.0
 71
     0
 42
0.2
  3
genltshp.shx
  4

  0
STYLE
  5
2F4
330
3
100
AcDbSymbolTableRecord
100
AcDbTextStyleTableRecord
  2
ACANSTS
 70
     0
 40
1.0
 41
1.0
 50
0.0
 71
     0
 42
0.2
  3
romans.shx
  4

  0
STYLE
  5
2F5
330
3
100
AcDbSymbolTableRecord
100
AcDbTextStyleTableRecord
  2
ACANSGDT
 70
     0
 40
0.0
 41
1.0
 50
0.0
 71
     0
 42
0.2
  3
amgdt.shx
  4

  0
ENDTAB
  0
TABLE
  2
VIEW
  5
6
330
0
100
AcDbSymbolTable
 70
     1
  0
ENDTAB
  0
TABLE
  2
UCS
  5
7
330
0
100
AcDbSymbolTable
 70
     0
  0
ENDTAB
  0
TABLE
  2
APPID
  5
9
330
0
100
AcDbSymbolTable
 70
    14
  0
APPID
  5
12
330
9
100
AcDbSymbolTableRecord
100
AcDbRegAppTableRecord
  2
ACAD
 70
     0
  0
APPID
  5
267
330
9
100
AcDbSymbolTableRecord
100
AcDbRegAppTableRecord
  2
MCAD_NO_VIS
 70
     0
  0
APPID
  5
268
330
9
100
AcDbSymbolTableRecord
100
AcDbRegAppTableRecord
  2
ACAD_TEMP_GRAPHIC
 70
     0
  0
APPID
  5
298
330
9
100
AcDbSymbolTableRecord
100
AcDbRegAppTableRecord
  2
AD_DRAW
 70
     0
  0
APPID
  5
29B
330
9
100
AcDbSymbolTableRecord
100
AcDbRegAppTableRecord
  2
ACATTRIBSERVICES
 70
     0
  0
APPID
  5
2BB
330
9
100
AcDbSymbolTableRecord
100
AcDbRegAppTableRecord
  2
DESIGNERASSEMBLIES
 70
     0
  0
APPID
  5
2C1
330
9
100
AcDbSymbolTableRecord
100
AcDbRegAppTableRecord
  2
ACADM_DIM_EDIT
 70
     0
  0
APPID
  5
2C2
330
9
100
AcDbSymbolTableRecord
100
AcDbRegAppTableRecord
  2
AMDT_DM_ADJ
 70
     0
  0
APPID
  5
2DA
330
9
100
AcDbSymbolTableRecord
100
AcDbRegAppTableRecord
  2
ACAD_DSTYLE_DIMJAG
 70
     0
  0
APPID
  5
2DB
330
9
100
AcDbSymbolTableRecord
100
AcDbRegAppTableRecord
  2
ACAD_DSTYLE_DIMBREAK
 70
     0
  0
APPID
  5
32B
330
9
100
AcDbSymbolTableRecord
100
AcDbRegAppTableRecord
  2
ACAD_EXEMPT_FROM_CAD_STANDARDS
 70
     0
  0
APPID
  5
4BD
330
9
100
AcDbSymbolTableRecord
100
AcDbRegAppTableRecord
  2
AcAecLayerStandard
 70
     0
  0
APPID
  5
4E0
330
9
100
AcDbSymbolTableRecord
100
AcDbRegAppTableRecord
  2
AcadAnnoPO
 70
     0
  0
APPID
  5
4EF
330
9
100
AcDbSymbolTableRecord
100
AcDbRegAppTableRecord
  2
ACAD_NAV_VCDISPLAY
 70
     0
  0
ENDTAB
  0
TABLE
  2
DIMSTYLE
  5
A
330
0
100
AcDbSymbolTable
 70
     7
100
AcDbDimStyleTable
 71
     1
340
27
  0
DIMSTYLE
105
27
330
A
100
AcDbSymbolTableRecord
100
AcDbDimStyleTableRecord
  2
Standard
 70
     0
340
11
  0
DIMSTYLE
105
2D9
102
{ACAD_REACTORS
330
2C9
102
}
330
A
100
AcDbSymbolTableRecord
100
AcDbDimStyleTableRecord
  2
AM_ANSI
 70
     0
  4
mm
 41
0.12
 42
0.05
 43
0.5
 44
0.1
 47
0.1
 48
0.1
 78
     7
 79
     2
 90
     1
140
0.12
141
0.0
146
0.71
147
0.06
176
   256
177
   256
178
   140
274
     4
284
     7
340
11
345
14
346
14
347
14
371
    -1
372
    -1
1001
ACAD_DSTYLE_DIMJAG
1070
   388
1040
1.5
1001
ACAD_DSTYLE_DIMBREAK
1070
   391
1040
0.125
  0
DIMSTYLE
105
2E9
330
A
100
AcDbSymbolTableRecord
100
AcDbDimStyleTableRecord
  2
AM_ANSI$3
 70
     0
  4
mm
 41
0.12
 42
0.05
 43
0.5
 44
0.1
 47
0.1
 48
0.1
 78
     7
 79
     2
 90
     1
140
0.12
141
0.0
146
0.71
147
0.06
176
   256
177
   256
178
   140
274
     4
284
     7
288
     1
289
     0
340
11
345
14
346
14
347
14
371
    -1
372
    -1
1001
ACAD_DSTYLE_DIMBREAK
1070
   391
1040
0.125
1001
ACAD_DSTYLE_DIMJAG
1070
   388
1040
1.5
  0
DIMSTYLE
105
2EA
330
A
100
AcDbSymbolTableRecord
100
AcDbDimStyleTableRecord
  2
AM_ANSI$4
 70
     0
  4
mm
 41
0.12
 42
0.05
 43
0.5
 44
0.1
 47
0.1
 48
0.1
 78
     7
 79
     2
 90
     1
140
0.12
141
0.0
146
0.71
147
0.06
176
   256
177
   256
178
   140
274
     4
284
     7
288
     1
289
     0
340
11
345
14
346
14
347
14
371
    -1
372
    -1
1001
ACAD_DSTYLE_DIMBREAK
1070
   391
1040
0.125
1001
ACAD_DSTYLE_DIMJAG
1070
   388
1040
1.5
  0
DIMSTYLE
105
2EB
330
A
100
AcDbSymbolTableRecord
100
AcDbDimStyleTableRecord
  2
AM_ANSI$7
 70
     0
  4
mm
 41
0.12
 42
0.05
 43
0.5
 44
0.1
 47
0.1
 48
0.1
 78
     7
 79
     2
 90
     1
140
0.12
141
0.0
146
0.71
147
0.06
176
   256
177
   256
178
   140
274
     4
284
     7
340
11
345
14
346
14
347
14
371
    -1
372
    -1
1001
ACAD_DSTYLE_DIMBREAK
1070
   391
1040
0.125
1001
ACAD_DSTYLE_DIMJAG
1070
   388
1040
1.5
  0
DIMSTYLE
105
2EC
330
A
100
AcDbSymbolTableRecord
100
AcDbDimStyleTableRecord
  2
AM_ANSI$SF
 70
     0
  4
mm
 41
0.12
 42
0.05
 43
0.5
 44
0.1
 47
0.1
 48
0.1
 75
     1
 76
     1
 78
     7
 79
     2
 90
     1
140
0.12
141
0.0
146
0.71
147
0.06
176
   256
177
   256
178
   140
274
     4
284
     7
340
11
345
14
346
14
347
14
371
    -1
372
    -1
1001
ACAD_DSTYLE_DIMBREAK
1070
   391
1040
0.125
1001
ACAD_DSTYLE_DIMJAG
1070
   388
1040
1.5
  0
DIMSTYLE
105
2F1
330
A
100
AcDbSymbolTableRecord
100
AcDbDimStyleTableRecord
  2
AM_ANSI$SH
 70
     0
  4
mm
 41
0.12
 42
0.05
 43
0.5
 44
0.1
 47
0.1
 48
0.1
 75
     1
 76
     1
 78
     7
 79
     2
 90
     1
140
0.12
141
0.0
146
0.71
147
0.06
173
     1
176
   256
177
   256
178
   140
274
     4
284
     7
340
11
343
2ED
345
14
346
14
347
14
371
    -1
372
    -1
1001
ACAD_DSTYLE_DIMBREAK
1070
   391
1040
0.125
1001
ACAD_DSTYLE_DIMJAG
1070
   388
1040
1.5
  0
ENDTAB
  0
TABLE
  2
BLOCK_RECORD
  5
1
330
0
100
AcDbSymbolTable
 70
    33
  0
BLOCK_RECORD
  5
1F
102
{ACAD_XDICTIONARY
360
354
102
}
330
1
100
AcDbSymbolTableRecord
100
AcDbBlockTableRecord
  2
*Model_Space
340
22
 70
     0
280
     1
281
     0
  0
BLOCK_RECORD
  5
1B
330
1
100
AcDbSymbolTableRecord
100
AcDbBlockTableRecord
  2
*Paper_Space
340
1E
 70
     0
280
     1
281
     0
  0
BLOCK_RECORD
  5
23
330
1
100
AcDbSymbolTableRecord
100
AcDbBlockTableRecord
  2
*Paper_Space0
340
26
 70
     0
280
     1
281
     0
  0
BLOCK_RECORD
  5
3C
330
1
100
AcDbSymbolTableRecord
100
AcDbBlockTableRecord
  2
block 2
340
0
102
{BLKREFS
331
3D
102
}
 70
     0
280
     1
281
     0
  0
BLOCK_RECORD
  5
40
330
1
100
AcDbSymbolTableRecord
100
AcDbBlockTableRecord
  2
block 3
340
0
102
{BLKREFS
331
41
102
}
 70
     0
280
     1
281
     0
  0
BLOCK_RECORD
  5
44
330
1
100
AcDbSymbolTableRecord
100
AcDbBlockTableRecord
  2
block 4
340
0
102
{BLKREFS
331
45
102
}
 70
     0
280
     1
281
     0
  0
BLOCK_RECORD
  5
48
330
1
100
AcDbSymbolTableRecord
100
AcDbBlockTableRecord
  2
block 5
340
0
102
{BLKREFS
331
49
102
}
 70
     0
280
     1
281
     0
  0
BLOCK_RECORD
  5
4C
330
1
100
AcDbSymbolTableRecord
100
AcDbBlockTableRecord
  2
block 6
340
0
102
{BLKREFS
331
4D
102
}
 70
     0
280
     1
281
     0
  0
BLOCK_RECORD
  5
5E
330
1
100
AcDbSymbolTableRecord
100
AcDbBlockTableRecord
  2
block 7
340
0
 70
     0
280
     1
281
     0
  0
BLOCK_RECORD
  5
78
330
1
100
AcDbSymbolTableRecord
100
AcDbBlockTableRecord
  2
block 8
340
0
 70
     0
280
     1
281
     0
  0
BLOCK_RECORD
  5
8D
330
1
100
AcDbSymbolTableRecord
100
AcDbBlockTableRecord
  2
block 9
340
0
102
{BLKREFS
331
8E
102
}
 70
     0
280
     1
281
     0
  0
BLOCK_RECORD
  5
A2
330
1
100
AcDbSymbolTableRecord
100
AcDbBlockTableRecord
  2
block 10
340
0
 70
     0
280
     1
281
     0
  0
BLOCK_RECORD
  5
B7
330
1
100
AcDbSymbolTableRecord
100
AcDbBlockTableRecord
  2
block 11
340
0
102
{BLKREFS
331
B8
102
}
 70
     0
280
     1
281
     0
  0
BLOCK_RECORD
  5
CC
330
1
100
AcDbSymbolTableRecord
100
AcDbBlockTableRecord
  2
block 12
340
0
 70
     0
280
     1
281
     0
  0
BLOCK_RECORD
  5
DA
330
1
100
AcDbSymbolTableRecord
100
AcDbBlockTableRecord
  2
block 13
340
0
 70
     0
280
     1
281
     0
  0
BLOCK_RECORD
  5
EE
330
1
100
AcDbSymbolTableRecord
100
AcDbBlockTableRecord
  2
block 14
340
0
 70
     0
280
     1
281
     0
  0
BLOCK_RECORD
  5
102
330
1
100
AcDbSymbolTableRecord
100
AcDbBlockTableRecord
  2
block 15
340
0
 70
     0
280
     1
281
     0
  0
BLOCK_RECORD
  5
11C
330
1
100
AcDbSymbolTableRecord
100
AcDbBlockTableRecord
  2
block 16
340
0
 70
     0
280
     1
281
     0
  0
BLOCK_RECORD
  5
120
330
1
100
AcDbSymbolTableRecord
100
AcDbBlockTableRecord
  2
block 17
340
0
102
{BLKREFS
331
121
102
}
 70
     0
280
     1
281
     0
  0
BLOCK_RECORD
  5
13C
330
1
100
AcDbSymbolTableRecord
100
AcDbBlockTableRecord
  2
block 18
340
0
 70
     0
280
     1
281
     0
  0
BLOCK_RECORD
  5
14D
330
1
100
AcDbSymbolTableRecord
100
AcDbBlockTableRecord
  2
block 19
340
0
 70
     0
280
     1
281
     0
  0
BLOCK_RECORD
  5
15F
330
1
100
AcDbSymbolTableRecord
100
AcDbBlockTableRecord
  2
block 20
340
0
 70
     0
280
     1
281
     0
  0
BLOCK_RECORD
  5
171
330
1
100
AcDbSymbolTableRecord
100
AcDbBlockTableRecord
  2
block 21
340
0
 70
     0
280
     1
281
     0
  0
BLOCK_RECORD
  5
189
330
1
100
AcDbSymbolTableRecord
100
AcDbBlockTableRecord
  2
block 22
340
0
102
{BLKREFS
331
18A
102
}
 70
     0
280
     1
281
     0
  0
BLOCK_RECORD
  5
18D
330
1
100
AcDbSymbolTableRecord
100
AcDbBlockTableRecord
  2
block 23
340
0
102
{BLKREFS
331
18E
102
}
 70
     0
280
     1
281
     0
  0
BLOCK_RECORD
  5
191
330
1
100
AcDbSymbolTableRecord
100
AcDbBlockTableRecord
  2
block 24
340
0
102
{BLKREFS
331
192
102
}
 70
     0
280
     1
281
     0
  0
BLOCK_RECORD
  5
195
330
1
100
AcDbSymbolTableRecord
100
AcDbBlockTableRecord
  2
block 25
340
0
102
{BLKREFS
331
196
102
}
 70
     0
280
     1
281
     0
  0
BLOCK_RECORD
  5
199
330
1
100
AcDbSymbolTableRecord
100
AcDbBlockTableRecord
  2
block 26
340
0
102
{BLKREFS
331
19A
102
}
 70
     0
280
     1
281
     0
  0
BLOCK_RECORD
  5
1A7
330
1
100
AcDbSymbolTableRecord
100
AcDbBlockTableRecord
  2
block 27
340
0
 70
     0
280
     1
281
     0
  0
BLOCK_RECORD
  5
1B4
330
1
100
AcDbSymbolTableRecord
100
AcDbBlockTableRecord
  2
block 28
340
0
 70
     0
280
     1
281
     0
  0
BLOCK_RECORD
  5
1BB
330
1
100
AcDbSymbolTableRecord
100
AcDbBlockTableRecord
  2
block 29
340
0
102
{BLKREFS
331
1BC
102
}
 70
     0
280
     1
281
     0
  0
BLOCK_RECORD
  5
1D4
330
1
100
AcDbSymbolTableRecord
100
AcDbBlockTableRecord
  2
block 30
340
0
 70
     0
280
     1
281
     0
  0
BLOCK_RECORD
  5
1DA
330
1
100
AcDbSymbolTableRecord
100
AcDbBlockTableRecord
  2
block 31
340
0
102
{BLKREFS
331
1DB
102
}
 70
     0
280
     1
281
     0
  0
BLOCK_RECORD
  5
2B3
330
1
100
AcDbSymbolTableRecord
100
AcDbBlockTableRecord
  2
*U31
340
0
 70
     0
280
     1
281
     0
  0
BLOCK_RECORD
  5
2ED
330
1
100
AcDbSymbolTableRecord
100
AcDbBlockTableRecord
  2
GENAXEH
340
0
 70
     0
280
     1
281
     0
  0
ENDTAB
  0
ENDSEC
  0
SECTION
  2
BLOCKS
  0
BLOCK
  5
20
330
1F
100
AcDbEntity
  8
0
100
AcDbBlockBegin
  2
*Model_Space
 70
     0
 10
0.0
 20
0.0
 30
0.0
  3
*Model_Space
  1

  0
ENDBLK
  5
21
330
1F
100
AcDbEntity
  8
0
100
AcDbBlockEnd
  0
BLOCK
  5
1C
330
1B
100
AcDbEntity
 67
     1
  8
0
100
AcDbBlockBegin
  2
*Paper_Space
 70
     0
 10
0.0
 20
0.0
 30
0.0
  3
*Paper_Space
  1

  0
ENDBLK
  5
1D
330
1B
100
AcDbEntity
 67
     1
  8
0
100
AcDbBlockEnd
  0
BLOCK
  5
24
330
23
100
AcDbEntity
 67
     1
  8
0
100
AcDbBlockBegin
  2
*Paper_Space0
 70
     0
 10
0.0
 20
0.0
 30
0.0
  3
*Paper_Space0
  1

  0
ENDBLK
  5
25
330
23
100
AcDbEntity
 67
     1
  8
0
100
AcDbBlockEnd
  0
BLOCK
  5
3E
330
3C
100
AcDbEntity
  8
0
100
AcDbBlockBegin
  2
block 2
 70
     0
 10
0.0
 20
0.0
 30
0.0
  3
block 2
  1

  0
ENDBLK
  5
3F
330
3C
100
AcDbEntity
  8
0
100
AcDbBlockEnd
  0
BLOCK
  5
42
330
40
100
AcDbEntity
  8
0
100
AcDbBlockBegin
  2
block 3
 70
     0
 10
0.0
 20
0.0
 30
0.0
  3
block 3
  1

  0
ENDBLK
  5
43
330
40
100
AcDbEntity
  8
0
100
AcDbBlockEnd
  0
BLOCK
  5
46
330
44
100
AcDbEntity
  8
0
100
AcDbBlockBegin
  2
block 4
 70
     0
 10
0.0
 20
0.0
 30
0.0
  3
block 4
  1

  0
INSERT
  5
49
330
44
100
AcDbEntity
  8
Text
100
AcDbBlockReference
  2
block 5
 10
0.0
 20
0.0
 30
0.0
  0
INSERT
  5
4D
330
44
100
AcDbEntity
  8
Text
100
AcDbBlockReference
  2
block 6
 10
0.0
 20
0.0
 30
0.0
  0
ENDBLK
  5
47
330
44
100
AcDbEntity
  8
0
100
AcDbBlockEnd
  0
BLOCK
  5
4A
330
48
100
AcDbEntity
  8
0
100
AcDbBlockBegin
  2
block 5
 70
     0
 10
0.0
 20
0.0
 30
0.0
  3
block 5
  1

  0
ENDBLK
  5
4B
330
48
100
AcDbEntity
  8
0
100
AcDbBlockEnd
  0
BLOCK
  5
4E
330
4C
100
AcDbEntity
  8
0
100
AcDbBlockBegin
  2
block 6
 70
     0
 10
0.0
 20
0.0
 30
0.0
  3
block 6
  1

  0
ENDBLK
  5
4F
330
4C
100
AcDbEntity
  8
0
100
AcDbBlockEnd
  0
BLOCK
  5
60
330
5E
100
AcDbEntity
  8
0
100
AcDbBlockBegin
  2
block 7
 70
     0
 10
0.0
 20
0.0
 30
0.0
  3
block 7
  1

  0
SPLINE
  5
62
330
5E
100
AcDbEntity
  8
Text
 62
   250
370
     9
100
AcDbSpline
210
0.0
220
0.0
230
1.0
 70
     8
 71
     3
 72
    26
 73
    22
 74
     0
 42
0.000000001
 43
0.0000000001
 40
0.0
 40
0.0
 40
0.0
 40
0.0
 40
1.0
 40
1.0
 40
1.0
 40
2.0
 40
2.0
 40
2.0
 40
3.0
 40
3.0
 40
3.0
 40
4.0
 40
4.0
 40
4.0
 40
5.0
 40
5.0
 40
5.0
 40
6.0
 40
6.0
 40
6.0
 40
7.0
 40
7.0
 40
7.0
 40
7.0
 10
113.387221922608
 20
-81.07532685690131
 30
0.0
 10
112.3499036719993
 20
-81.07532685690131
 30
0.0
 10
111.8965291061404
 20
-81.08462861471149
 30
0.0
 10
109.7616034339311
 20
-81.11218937859348
 30
0.0
 10
109.7616034339311
 20
-81.11218937859348
 30
0.0
 10
109.0667276745562
 20
-88.7938910368293
 30
0.0
 10
109.0667276745562
 20
-88.7938910368293
 30
0.0
 10
109.0667276745562
 20
-88.7938910368293
 30
0.0
 10
109.0222859427965
 20
-89.22280542474291
 30
0.0
 10
108.7497788899132
 20
-89.22797306797079
 30
0.0
 10
108.3901109212531
 20
-89.23486325894129
 30
0.0
 10
108.3901109212531
 20
-88.79320201773225
 30
0.0
 10
108.3901109212531
 20
-88.79320201773225
 30
0.0
 10
108.3901109212531
 20
-88.79320201773225
 30
0.0
 10
108.8669121364117
 20
-80.33859318738064
 30
0.0
 10
108.8669121364117
 20
-80.33859318738064
 30
0.0
 10
108.8669121364117
 20
-80.33859318738064
 30
0.0
 10
108.8689791937029
 20
-79.87987872351962
 30
0.0
 10
109.5190687117695
 20
-79.84163816363334
 30
0.0
 10
110.1391858991145
 20
-79.80425887761838
 30
0.0
 10
113.5102118314315
 20
-79.80425887761838
 30
0.0
 10
113.5102118314315
 20
-79.80425887761838
 30
0.0
  0
POLYLINE
  5
63
330
5E
100
AcDbEntity
  8
Text
 62
   255
370
    35
100
AcDb2dPolyline
 66
     1
 10
0.0
 20
0.0
 30
0.0
  0
VERTEX
  5
64
330
63
100
AcDbEntity
  8
Text
 62
   255
370
    35
100
AcDbVertex
100
AcDb2dVertex
 10
108.8252264810402
 20
-89.05227319822305
 30
0.0
  0
VERTEX
  5
1FB
330
63
100
AcDbEntity
  8
0
100
AcDbVertex
100
AcDb2dVertex
 10
108.8252264810402
 20
-89.05227319822305
 30
0.0
  0
SEQEND
  5
65
330
63
100
AcDbEntity
  8
Text
370
    35
  0
SPLINE
  5
66
330
5E
100
AcDbEntity
  8
Text
 62
   250
370
     9
100
AcDbSpline
210
0.0
220
0.0
230
1.0
 70
     8
 71
     3
 72
     8
 73
     4
 74
     0
 42
0.000000001
 43
0.0000000001
 40
0.0
 40
0.0
 40
0.0
 40
0.0
 40
1.0
 40
1.0
 40
1.0
 40
1.0
 10
108.8961954480363
 20
-89.17302379498105
 30
0.0
 10
108.8961954480363
 20
-89.17302379498105
 30
0.0
 10
112.0550034984619
 20
-89.23486325894129
 30
0.0
 10
113.5181355510475
 20
-89.23486325894129
 30
0.0
  0
POLYLINE
  5
67
330
5E
100
AcDbEntity
  8
Text
 62
   250
370
     9
100
AcDb2dPolyline
 66
     1
 10
0.0
 20
0.0
 30
0.0
  0
VERTEX
  5
68
330
67
100
AcDbEntity
  8
Text
 62
   250
370
     9
100
AcDbVertex
100
AcDb2dVertex
 10
113.1205715320497
 20
-79.80425887761838
 30
0.0
  0
VERTEX
  5
1FC
330
67
100
AcDbEntity
  8
0
100
AcDbVertex
100
AcDb2dVertex
 10
113.1205715320497
 20
-79.80425887761838
 30
0.0
  0
SEQEND
  5
69
330
67
100
AcDbEntity
  8
Text
370
     9
  0
POLYLINE
  5
6A
330
5E
100
AcDbEntity
  8
Text
 62
   250
370
     9
100
AcDb2dPolyline
 66
     1
 10
0.0
 20
0.0
 30
0.0
  0
VERTEX
  5
6B
330
6A
100
AcDbEntity
  8
Text
 62
   250
370
     9
100
AcDbVertex
100
AcDb2dVertex
 10
113.1126478124336
 20
-89.23486325894129
 30
0.0
  0
VERTEX
  5
1FD
330
6A
100
AcDbEntity
  8
0
100
AcDbVertex
100
AcDb2dVertex
 10
113.1126478124336
 20
-89.23486325894129
 30
0.0
  0
SEQEND
  5
6C
330
6A
100
AcDbEntity
  8
Text
370
     9
  0
SPLINE
  5
6D
330
5E
100
AcDbEntity
  8
Text
 62
   250
370
     9
100
AcDbSpline
210
0.0
220
0.0
230
1.0
 70
     8
 71
     3
 72
    26
 73
    22
 74
     0
 42
0.000000001
 43
0.0000000001
 40
0.0
 40
0.0
 40
0.0
 40
0.0
 40
1.0
 40
1.0
 40
1.0
 40
2.0
 40
2.0
 40
2.0
 40
3.0
 40
3.0
 40
3.0
 40
4.0
 40
4.0
 40
4.0
 40
5.0
 40
5.0
 40
5.0
 40
6.0
 40
6.0
 40
6.0
 40
7.0
 40
7.0
 40
7.0
 40
7.0
 10
113.3355454903293
 20
-81.07532685690131
 30
0.0
 10
114.3732082504866
 20
-81.07532685690131
 30
0.0
 10
114.8262383067969
 20
-81.08462861471149
 30
0.0
 10
116.9613362337805
 20
-81.11218937859348
 30
0.0
 10
116.9613362337805
 20
-81.11218937859348
 30
0.0
 10
117.6558674836069
 20
-88.7938910368293
 30
0.0
 10
117.6558674836069
 20
-88.7938910368293
 30
0.0
 10
117.6558674836069
 20
-88.7938910368293
 30
0.0
 10
117.7006537249151
 20
-89.22280542474291
 30
0.0
 10
117.9735052873469
 20
-89.22797306797079
 30
0.0
 10
118.3324842369099
 20
-89.23486325894129
 30
0.0
 10
118.3324842369099
 20
-88.79320201773225
 30
0.0
 10
118.3324842369099
 20
-88.79320201773225
 30
0.0
 10
118.3324842369099
 20
-88.79320201773225
 30
0.0
 10
117.8556830217513
 20
-80.33859318738064
 30
0.0
 10
117.8556830217513
 20
-80.33859318738064
 30
0.0
 10
117.8556830217513
 20
-80.33859318738064
 30
0.0
 10
117.8536159644602
 20
-79.87987872351962
 30
0.0
 10
117.2038709559421
 20
-79.84163816363334
 30
0.0
 10
116.5835815138228
 20
-79.80425887761838
 30
0.0
 10
113.2122110719574
 20
-79.80425887761838
 30
0.0
 10
113.2122110719574
 20
-79.80425887761838
 30
0.0
  0
POLYLINE
  5
6E
330
5E
100
AcDbEntity
  8
Text
 62
   255
370
    35
100
AcDb2dPolyline
 66
     1
 10
0.0
 20
0.0
 30
0.0
  0
VERTEX
  5
6F
330
6E
100
AcDbEntity
  8
Text
 62
   255
370
    35
100
AcDbVertex
100
AcDb2dVertex
 10
117.8977131866714
 20
-89.05227319822305
 30
0.0
  0
VERTEX
  5
1FE
330
6E
100
AcDbEntity
  8
0
100
AcDbVertex
100
AcDb2dVertex
 10
117.8977131866714
 20
-89.05227319822305
 30
0.0
  0
SEQEND
  5
70
330
6E
100
AcDbEntity
  8
Text
370
    35
  0
SPLINE
  5
71
330
5E
100
AcDbEntity
  8
Text
 62
   250
370
     9
100
AcDbSpline
210
0.0
220
0.0
230
1.0
 70
     8
 71
     3
 72
     8
 73
     4
 74
     0
 42
0.000000001
 43
0.0000000001
 40
0.0
 40
0.0
 40
0.0
 40
0.0
 40
1.0
 40
1.0
 40
1.0
 40
1.0
 10
117.8267442196752
 20
-89.17302379498105
 30
0.0
 10
117.8267442196752
 20
-89.17302379498105
 30
0.0
 10
114.6677639144754
 20
-89.23486325894129
 30
0.0
 10
113.2046318618898
 20
-89.23486325894129
 30
0.0
  0
POLYLINE
  5
72
330
5E
100
AcDbEntity
  8
Text
 62
   250
370
     9
100
AcDb2dPolyline
 66
     1
 10
0.0
 20
0.0
 30
0.0
  0
VERTEX
  5
73
330
72
100
AcDbEntity
  8
Text
 62
   250
370
     9
100
AcDbVertex
100
AcDb2dVertex
 10
113.6021958808876
 20
-79.80425887761838
 30
0.0
  0
VERTEX
  5
1FF
330
72
100
AcDbEntity
  8
0
100
AcDbVertex
100
AcDb2dVertex
 10
113.6021958808876
 20
-79.80425887761838
 30
0.0
  0
SEQEND
  5
74
330
72
100
AcDbEntity
  8
Text
370
     9
  0
POLYLINE
  5
75
330
5E
100
AcDbEntity
  8
Text
 62
   250
370
     9
100
AcDb2dPolyline
 66
     1
 10
0.0
 20
0.0
 30
0.0
  0
VERTEX
  5
76
330
75
100
AcDbEntity
  8
Text
 62
   250
370
     9
100
AcDbVertex
100
AcDb2dVertex
 10
113.6101196005037
 20
-89.23486325894129
 30
0.0
  0
VERTEX
  5
200
330
75
100
AcDbEntity
  8
0
100
AcDbVertex
100
AcDb2dVertex
 10
113.6101196005037
 20
-89.23486325894129
 30
0.0
  0
SEQEND
  5
77
330
75
100
AcDbEntity
  8
Text
370
     9
  0
ENDBLK
  5
61
330
5E
100
AcDbEntity
  8
0
100
AcDbBlockEnd
  0
BLOCK
  5
7A
330
78
100
AcDbEntity
  8
0
100
AcDbBlockBegin
  2
block 8
 70
     0
 10
0.0
 20
0.0
 30
0.0
  3
block 8
  1

  0
SPLINE
  5
7C
330
78
100
AcDbEntity
  8
Text
 62
   250
370
     9
100
AcDbSpline
210
0.0
220
0.0
230
1.0
 70
     8
 71
     3
 72
    26
 73
    22
 74
     0
 42
0.000000001
 43
0.0000000001
 40
0.0
 40
0.0
 40
0.0
 40
0.0
 40
1.0
 40
1.0
 40
1.0
 40
2.0
 40
2.0
 40
2.0
 40
3.0
 40
3.0
 40
3.0
 40
4.0
 40
4.0
 40
4.0
 40
5.0
 40
5.0
 40
5.0
 40
6.0
 40
6.0
 40
6.0
 40
7.0
 40
7.0
 40
7.0
 40
7.0
 10
113.6301011543181
 20
-131.6098822370628
 30
0.0
 10
112.5087225738693
 20
-131.6098822370628
 30
0.0
 10
111.7855970315154
 20
-131.5812879445352
 30
0.0
 10
109.4725599227186
 20
-131.5516601233621
 30
0.0
 10
109.4725599227186
 20
-131.5516601233621
 30
0.0
 10
108.7628702527572
 20
-139.7489203209655
 30
0.0
 10
108.7628702527572
 20
-139.7489203209655
 30
0.0
 10
108.7628702527572
 20
-139.7489203209655
 30
0.0
 10
108.7511569281073
 20
-140.1795572566218
 30
0.0
 10
108.4566012641185
 20
-140.1850694093982
 30
0.0
 10
108.0679944933823
 20
-140.1919596003686
 30
0.0
 10
108.0679944933823
 20
-139.727560728957
 30
0.0
 10
108.0679944933823
 20
-139.727560728957
 30
0.0
 10
108.0679944933823
 20
-139.727560728957
 30
0.0
 10
108.5837252875242
 20
-130.833702224236
 30
0.0
 10
108.5837252875242
 20
-130.833702224236
 30
0.0
 10
108.5837252875242
 20
-130.833702224236
 30
0.0
 10
108.5857923448153
 20
-130.351388856301
 30
0.0
 10
109.2879028047093
 20
-130.3107367295751
 30
0.0
 10
109.9576293670418
 20
-130.2714626410432
 30
0.0
 10
113.599784314048
 20
-130.2714626410432
 30
0.0
 10
113.599784314048
 20
-130.2714626410432
 30
0.0
  0
POLYLINE
  5
7D
330
78
100
AcDbEntity
  8
Text
 62
   255
370
    35
100
AcDb2dPolyline
 66
     1
 10
0.0
 20
0.0
 30
0.0
  0
VERTEX
  5
7E
330
7D
100
AcDbEntity
  8
Text
 62
   255
370
    35
100
AcDbVertex
100
AcDb2dVertex
 10
108.5385945366674
 20
-140.0004122913887
 30
0.0
  0
VERTEX
  5
201
330
7D
100
AcDbEntity
  8
0
100
AcDbVertex
100
AcDb2dVertex
 10
108.5385945366674
 20
-140.0004122913887
 30
0.0
  0
SEQEND
  5
7F
330
7D
100
AcDbEntity
  8
Text
370
    35
  0
SPLINE
  5
80
330
78
100
AcDbEntity
  8
Text
 62
   250
370
     9
100
AcDbSpline
210
0.0
220
0.0
230
1.0
 70
     8
 71
     3
 72
     8
 73
     4
 74
     0
 42
0.000000001
 43
0.0000000001
 40
0.0
 40
0.0
 40
0.0
 40
0.0
 40
1.0
 40
1.0
 40
1.0
 40
1.0
 10
108.61507565644
 20
-140.1275363147945
 30
0.0
 10
108.61507565644
 20
-140.1275363147945
 30
0.0
 10
112.0274427345799
 20
-140.1919596003686
 30
0.0
 10
113.6080525432126
 20
-140.1919596003686
 30
0.0
  0
POLYLINE
  5
81
330
78
100
AcDbEntity
  8
Text
 62
   250
370
     9
100
AcDb2dPolyline
 66
     1
 10
0.0
 20
0.0
 30
0.0
  0
VERTEX
  5
82
330
81
100
AcDbEntity
  8
Text
 62
   250
370
     9
100
AcDbVertex
100
AcDb2dVertex
 10
113.1784491362019
 20
-130.2714626410432
 30
0.0
  0
VERTEX
  5
202
330
81
100
AcDbEntity
  8
0
100
AcDbVertex
100
AcDb2dVertex
 10
113.1784491362019
 20
-130.2714626410432
 30
0.0
  0
SEQEND
  5
83
330
81
100
AcDbEntity
  8
Text
370
     9
  0
POLYLINE
  5
84
330
78
100
AcDbEntity
  8
Text
 62
   250
370
     9
100
AcDb2dPolyline
 66
     1
 10
0.0
 20
0.0
 30
0.0
  0
VERTEX
  5
85
330
84
100
AcDbEntity
  8
Text
 62
   250
370
     9
100
AcDbVertex
100
AcDb2dVertex
 10
113.1701809070373
 20
-140.1919596003686
 30
0.0
  0
VERTEX
  5
203
330
84
100
AcDbEntity
  8
0
100
AcDbVertex
100
AcDb2dVertex
 10
113.1701809070373
 20
-140.1919596003686
 30
0.0
  0
SEQEND
  5
86
330
84
100
AcDbEntity
  8
Text
370
     9
  0
POLYLINE
  5
87
330
78
100
AcDbEntity
  8
Text
 62
   250
370
     9
100
AcDb2dPolyline
 66
     1
 10
0.0
 20
0.0
 30
0.0
  0
VERTEX
  5
88
330
87
100
AcDbEntity
  8
Text
 62
   250
370
     9
100
AcDbVertex
100
AcDb2dVertex
 10
113.6990030640232
 20
-130.2714626410432
 30
0.0
  0
VERTEX
  5
204
330
87
100
AcDbEntity
  8
0
100
AcDbVertex
100
AcDb2dVertex
 10
113.6990030640232
 20
-130.2714626410432
 30
0.0
  0
SEQEND
  5
89
330
87
100
AcDbEntity
  8
Text
370
     9
  0
POLYLINE
  5
8A
330
78
100
AcDbEntity
  8
Text
 62
   250
370
     9
100
AcDb2dPolyline
 66
     1
 10
0.0
 20
0.0
 30
0.0
  0
VERTEX
  5
8B
330
8A
100
AcDbEntity
  8
Text
 62
   250
370
     9
100
AcDbVertex
100
AcDb2dVertex
 10
113.7072712931878
 20
-140.1919596003686
 30
0.0
  0
VERTEX
  5
205
330
8A
100
AcDbEntity
  8
0
100
AcDbVertex
100
AcDb2dVertex
 10
113.7072712931878
 20
-140.1919596003686
 30
0.0
  0
SEQEND
  5
8C
330
8A
100
AcDbEntity
  8
Text
370
     9
  0
INSERT
  5
8E
330
78
100
AcDbEntity
  8
Text
100
AcDbBlockReference
  2
block 9
 10
0.0
 20
0.0
 30
0.0
  0
POLYLINE
  5
96
330
78
100
AcDbEntity
  8
Text
 62
   250
370
     9
100
AcDb2dPolyline
 66
     1
 10
0.0
 20
0.0
 30
0.0
  0
VERTEX
  5
97
330
96
100
AcDbEntity
  8
Text
 62
   250
370
     9
100
AcDbVertex
100
AcDb2dVertex
 10
113.8957180162309
 20
-130.2714626410432
 30
0.0
  0
VERTEX
  5
206
330
96
100
AcDbEntity
  8
0
100
AcDbVertex
100
AcDb2dVertex
 10
113.8957180162309
 20
-130.2714626410432
 30
0.0
  0
SEQEND
  5
98
330
96
100
AcDbEntity
  8
Text
370
     9
  0
POLYLINE
  5
99
330
78
100
AcDbEntity
  8
Text
 62
   250
370
     9
100
AcDb2dPolyline
 66
     1
 10
0.0
 20
0.0
 30
0.0
  0
VERTEX
  5
9A
330
99
100
AcDbEntity
  8
Text
 62
   250
370
     9
100
AcDbVertex
100
AcDb2dVertex
 10
113.9039862453955
 20
-140.1919596003686
 30
0.0
  0
VERTEX
  5
207
330
99
100
AcDbEntity
  8
0
100
AcDbVertex
100
AcDb2dVertex
 10
113.9039862453955
 20
-140.1919596003686
 30
0.0
  0
SEQEND
  5
9B
330
99
100
AcDbEntity
  8
Text
370
     9
  0
POLYLINE
  5
9C
330
78
100
AcDbEntity
  8
Text
 62
   250
370
     9
100
AcDb2dPolyline
 66
     1
 10
0.0
 20
0.0
 30
0.0
  0
VERTEX
  5
9D
330
9C
100
AcDbEntity
  8
Text
 62
   250
370
     9
100
AcDbVertex
100
AcDb2dVertex
 10
113.3751640884097
 20
-130.2714626410432
 30
0.0
  0
VERTEX
  5
208
330
9C
100
AcDbEntity
  8
0
100
AcDbVertex
100
AcDb2dVertex
 10
113.3751640884097
 20
-130.2714626410432
 30
0.0
  0
SEQEND
  5
9E
330
9C
100
AcDbEntity
  8
Text
370
     9
  0
POLYLINE
  5
9F
330
78
100
AcDbEntity
  8
Text
 62
   250
370
     9
100
AcDb2dPolyline
 66
     1
 10
0.0
 20
0.0
 30
0.0
  0
VERTEX
  5
A0
330
9F
100
AcDbEntity
  8
Text
 62
   250
370
     9
100
AcDbVertex
100
AcDb2dVertex
 10
113.3665513496965
 20
-140.1919596003686
 30
0.0
  0
VERTEX
  5
209
330
9F
100
AcDbEntity
  8
0
100
AcDbVertex
100
AcDb2dVertex
 10
113.3665513496965
 20
-140.1919596003686
 30
0.0
  0
SEQEND
  5
A1
330
9F
100
AcDbEntity
  8
Text
370
     9
  0
ENDBLK
  5
7B
330
78
100
AcDbEntity
  8
0
100
AcDbBlockEnd
  0
BLOCK
  5
8F
330
8D
100
AcDbEntity
  8
0
100
AcDbBlockBegin
  2
block 9
 70
     0
 10
0.0
 20
0.0
 30
0.0
  3
block 9
  1

  0
SPLINE
  5
91
330
8D
100
AcDbEntity
  8
Text
 62
   250
370
     9
100
AcDbSpline
210
0.0
220
0.0
230
1.0
 70
     8
 71
     3
 72
    26
 73
    22
 74
     0
 42
0.000000001
 43
0.0000000001
 40
0.0
 40
0.0
 40
0.0
 40
0.0
 40
1.0
 40
1.0
 40
1.0
 40
2.0
 40
2.0
 40
2.0
 40
3.0
 40
3.0
 40
3.0
 40
4.0
 40
4.0
 40
4.0
 40
5.0
 40
5.0
 40
5.0
 40
6.0
 40
6.0
 40
6.0
 40
7.0
 40
7.0
 40
7.0
 40
7.0
 10
113.0926662586192
 20
-131.6098822370628
 30
0.0
 10
114.214044839068
 20
-131.6098822370628
 30
0.0
 10
114.9371703814219
 20
-131.5812879445352
 30
0.0
 10
117.2500352354444
 20
-131.5516601233621
 30
0.0
 10
117.2500352354444
 20
-131.5516601233621
 30
0.0
 10
117.9604139245029
 20
-139.7489203209655
 30
0.0
 10
117.9604139245029
 20
-139.7489203209655
 30
0.0
 10
117.9604139245029
 20
-139.7489203209655
 30
0.0
 10
117.9721272491528
 20
-140.1795572566218
 30
0.0
 10
118.2663384035931
 20
-140.1850694093982
 30
0.0
 10
118.6549451743293
 20
-140.1919596003686
 30
0.0
 10
118.6549451743293
 20
-139.727560728957
 30
0.0
 10
118.6549451743293
 20
-139.727560728957
 30
0.0
 10
118.6549451743293
 20
-139.727560728957
 30
0.0
 10
118.1395588897359
 20
-130.833702224236
 30
0.0
 10
118.1395588897359
 20
-130.833702224236
 30
0.0
 10
118.1395588897359
 20
-130.833702224236
 30
0.0
 10
118.1374918324448
 20
-130.351388856301
 30
0.0
 10
117.4346923534538
 20
-130.3107367295751
 30
0.0
 10
116.7651380458955
 20
-130.2714626410432
 30
0.0
 10
113.1229830988894
 20
-130.2714626410432
 30
0.0
 10
113.1229830988894
 20
-130.2714626410432
 30
0.0
  0
POLYLINE
  5
92
330
8D
100
AcDbEntity
  8
Text
 62
   255
370
    35
100
AcDb2dPolyline
 66
     1
 10
0.0
 20
0.0
 30
0.0
  0
VERTEX
  5
93
330
92
100
AcDbEntity
  8
Text
 62
   255
370
    35
100
AcDbVertex
100
AcDb2dVertex
 10
118.1843451310442
 20
-140.0004122913887
 30
0.0
  0
VERTEX
  5
20A
330
92
100
AcDbEntity
  8
0
100
AcDbVertex
100
AcDb2dVertex
 10
118.1843451310442
 20
-140.0004122913887
 30
0.0
  0
SEQEND
  5
94
330
92
100
AcDbEntity
  8
Text
370
    35
  0
SPLINE
  5
95
330
8D
100
AcDbEntity
  8
Text
 62
   250
370
     9
100
AcDbSpline
210
0.0
220
0.0
230
1.0
 70
     8
 71
     3
 72
     8
 73
     4
 74
     0
 42
0.000000001
 43
0.0000000001
 40
0.0
 40
0.0
 40
0.0
 40
0.0
 40
1.0
 40
1.0
 40
1.0
 40
1.0
 10
118.1078640112716
 20
-140.1275363147945
 30
0.0
 10
118.1078640112716
 20
-140.1275363147945
 30
0.0
 10
114.6953246783574
 20
-140.1919596003686
 30
0.0
 10
113.1150593792733
 20
-140.1919596003686
 30
0.0
  0
ENDBLK
  5
90
330
8D
100
AcDbEntity
  8
0
100
AcDbBlockEnd
  0
BLOCK
  5
A4
330
A2
100
AcDbEntity
  8
0
100
AcDbBlockBegin
  2
block 10
 70
     0
 10
0.0
 20
0.0
 30
0.0
  3
block 10
  1

  0
SPLINE
  5
A6
330
A2
100
AcDbEntity
  8
Text
 62
   250
370
     9
100
AcDbSpline
210
0.0
220
0.0
230
1.0
 70
     8
 71
     3
 72
    26
 73
    22
 74
     0
 42
0.000000001
 43
0.0000000001
 40
0.0
 40
0.0
 40
0.0
 40
0.0
 40
1.0
 40
1.0
 40
1.0
 40
2.0
 40
2.0
 40
2.0
 40
3.0
 40
3.0
 40
3.0
 40
4.0
 40
4.0
 40
4.0
 40
5.0
 40
5.0
 40
5.0
 40
6.0
 40
6.0
 40
6.0
 40
7.0
 40
7.0
 40
7.0
 40
7.0
 10
113.6301011543181
 20
-105.7137884935368
 30
0.0
 10
112.5087225738693
 20
-105.7137884935368
 30
0.0
 10
111.7855970315154
 20
-105.6851942010092
 30
0.0
 10
109.4725599227186
 20
-105.6552218702876
 30
0.0
 10
109.4725599227186
 20
-105.6552218702876
 30
0.0
 10
108.7628702527572
 20
-113.8521375583425
 30
0.0
 10
108.7628702527572
 20
-113.8521375583425
 30
0.0
 10
108.7628702527572
 20
-113.8521375583425
 30
0.0
 10
108.7511569281073
 20
-114.2831190035473
 30
0.0
 10
108.4566012641185
 20
-114.2882866467751
 30
0.0
 10
108.0679944933823
 20
-114.2955213472942
 30
0.0
 10
108.0679944933823
 20
-113.830777966334
 30
0.0
 10
108.0679944933823
 20
-113.830777966334
 30
0.0
 10
108.0679944933823
 20
-113.830777966334
 30
0.0
 10
108.5837252875242
 20
-104.9374362259358
 30
0.0
 10
108.5837252875242
 20
-104.9374362259358
 30
0.0
 10
108.5837252875242
 20
-104.9374362259358
 30
0.0
 10
108.5857923448153
 20
-104.4549506032265
 30
0.0
 10
109.2879028047093
 20
-104.4142984765006
 30
0.0
 10
109.9576293670418
 20
-104.3753688975173
 30
0.0
 10
113.599784314048
 20
-104.3753688975173
 30
0.0
 10
113.599784314048
 20
-104.3753688975173
 30
0.0
  0
POLYLINE
  5
A7
330
A2
100
AcDbEntity
  8
Text
 62
   255
370
    35
100
AcDb2dPolyline
 66
     1
 10
0.0
 20
0.0
 30
0.0
  0
VERTEX
  5
A8
330
A7
100
AcDbEntity
  8
Text
 62
   255
370
    35
100
AcDbVertex
100
AcDb2dVertex
 10
108.5385945366674
 20
-114.1039740383143
 30
0.0
  0
VERTEX
  5
20B
330
A7
100
AcDbEntity
  8
0
100
AcDbVertex
100
AcDb2dVertex
 10
108.5385945366674
 20
-114.1039740383143
 30
0.0
  0
SEQEND
  5
A9
330
A7
100
AcDbEntity
  8
Text
370
    35
  0
SPLINE
  5
AA
330
A2
100
AcDbEntity
  8
Text
 62
   250
370
     9
100
AcDbSpline
210
0.0
220
0.0
230
1.0
 70
     8
 71
     3
 72
     8
 73
     4
 74
     0
 42
0.000000001
 43
0.0000000001
 40
0.0
 40
0.0
 40
0.0
 40
0.0
 40
1.0
 40
1.0
 40
1.0
 40
1.0
 10
108.61507565644
 20
-114.2307535521714
 30
0.0
 10
108.61507565644
 20
-114.2307535521714
 30
0.0
 10
112.0274427345799
 20
-114.2955213472942
 30
0.0
 10
113.6080525432126
 20
-114.2955213472942
 30
0.0
  0
POLYLINE
  5
AB
330
A2
100
AcDbEntity
  8
Text
 62
   250
370
     9
100
AcDb2dPolyline
 66
     1
 10
0.0
 20
0.0
 30
0.0
  0
VERTEX
  5
AC
330
AB
100
AcDbEntity
  8
Text
 62
   250
370
     9
100
AcDbVertex
100
AcDb2dVertex
 10
113.1784491362019
 20
-104.3753688975173
 30
0.0
  0
VERTEX
  5
20C
330
AB
100
AcDbEntity
  8
0
100
AcDbVertex
100
AcDb2dVertex
 10
113.1784491362019
 20
-104.3753688975173
 30
0.0
  0
SEQEND
  5
AD
330
AB
100
AcDbEntity
  8
Text
370
     9
  0
POLYLINE
  5
AE
330
A2
100
AcDbEntity
  8
Text
 62
   250
370
     9
100
AcDb2dPolyline
 66
     1
 10
0.0
 20
0.0
 30
0.0
  0
VERTEX
  5
AF
330
AE
100
AcDbEntity
  8
Text
 62
   250
370
     9
100
AcDbVertex
100
AcDb2dVertex
 10
113.1701809070373
 20
-114.2955213472942
 30
0.0
  0
VERTEX
  5
20D
330
AE
100
AcDbEntity
  8
0
100
AcDbVertex
100
AcDb2dVertex
 10
113.1701809070373
 20
-114.2955213472942
 30
0.0
  0
SEQEND
  5
B0
330
AE
100
AcDbEntity
  8
Text
370
     9
  0
POLYLINE
  5
B1
330
A2
100
AcDbEntity
  8
Text
 62
   250
370
     9
100
AcDb2dPolyline
 66
     1
 10
0.0
 20
0.0
 30
0.0
  0
VERTEX
  5
B2
330
B1
100
AcDbEntity
  8
Text
 62
   250
370
     9
100
AcDbVertex
100
AcDb2dVertex
 10
113.6990030640232
 20
-104.3753688975173
 30
0.0
  0
VERTEX
  5
20E
330
B1
100
AcDbEntity
  8
0
100
AcDbVertex
100
AcDb2dVertex
 10
113.6990030640232
 20
-104.3753688975173
 30
0.0
  0
SEQEND
  5
B3
330
B1
100
AcDbEntity
  8
Text
370
     9
  0
POLYLINE
  5
B4
330
A2
100
AcDbEntity
  8
Text
 62
   250
370
     9
100
AcDb2dPolyline
 66
     1
 10
0.0
 20
0.0
 30
0.0
  0
VERTEX
  5
B5
330
B4
100
AcDbEntity
  8
Text
 62
   250
370
     9
100
AcDbVertex
100
AcDb2dVertex
 10
113.7072712931878
 20
-114.2955213472942
 30
0.0
  0
VERTEX
  5
20F
330
B4
100
AcDbEntity
  8
0
100
AcDbVertex
100
AcDb2dVertex
 10
113.7072712931878
 20
-114.2955213472942
 30
0.0
  0
SEQEND
  5
B6
330
B4
100
AcDbEntity
  8
Text
370
     9
  0
INSERT
  5
B8
330
A2
100
AcDbEntity
  8
Text
100
AcDbBlockReference
  2
block 11
 10
0.0
 20
0.0
 30
0.0
  0
POLYLINE
  5
C0
330
A2
100
AcDbEntity
  8
Text
 62
   250
370
     9
100
AcDb2dPolyline
 66
     1
 10
0.0
 20
0.0
 30
0.0
  0
VERTEX
  5
C1
330
C0
100
AcDbEntity
  8
Text
 62
   250
370
     9
100
AcDbVertex
100
AcDb2dVertex
 10
113.8957180162309
 20
-104.3753688975173
 30
0.0
  0
VERTEX
  5
210
330
C0
100
AcDbEntity
  8
0
100
AcDbVertex
100
AcDb2dVertex
 10
113.8957180162309
 20
-104.3753688975173
 30
0.0
  0
SEQEND
  5
C2
330
C0
100
AcDbEntity
  8
Text
370
     9
  0
POLYLINE
  5
C3
330
A2
100
AcDbEntity
  8
Text
 62
   250
370
     9
100
AcDb2dPolyline
 66
     1
 10
0.0
 20
0.0
 30
0.0
  0
VERTEX
  5
C4
330
C3
100
AcDbEntity
  8
Text
 62
   250
370
     9
100
AcDbVertex
100
AcDb2dVertex
 10
113.9039862453955
 20
-114.2955213472942
 30
0.0
  0
VERTEX
  5
211
330
C3
100
AcDbEntity
  8
0
100
AcDbVertex
100
AcDb2dVertex
 10
113.9039862453955
 20
-114.2955213472942
 30
0.0
  0
SEQEND
  5
C5
330
C3
100
AcDbEntity
  8
Text
370
     9
  0
POLYLINE
  5
C6
330
A2
100
AcDbEntity
  8
Text
 62
   250
370
     9
100
AcDb2dPolyline
 66
     1
 10
0.0
 20
0.0
 30
0.0
  0
VERTEX
  5
C7
330
C6
100
AcDbEntity
  8
Text
 62
   250
370
     9
100
AcDbVertex
100
AcDb2dVertex
 10
113.3751640884097
 20
-104.3753688975173
 30
0.0
  0
VERTEX
  5
212
330
C6
100
AcDbEntity
  8
0
100
AcDbVertex
100
AcDb2dVertex
 10
113.3751640884097
 20
-104.3753688975173
 30
0.0
  0
SEQEND
  5
C8
330
C6
100
AcDbEntity
  8
Text
370
     9
  0
POLYLINE
  5
C9
330
A2
100
AcDbEntity
  8
Text
 62
   250
370
     9
100
AcDb2dPolyline
 66
     1
 10
0.0
 20
0.0
 30
0.0
  0
VERTEX
  5
CA
330
C9
100
AcDbEntity
  8
Text
 62
   250
370
     9
100
AcDbVertex
100
AcDb2dVertex
 10
113.3665513496965
 20
-114.2955213472942
 30
0.0
  0
VERTEX
  5
213
330
C9
100
AcDbEntity
  8
0
100
AcDbVertex
100
AcDb2dVertex
 10
113.3665513496965
 20
-114.2955213472942
 30
0.0
  0
SEQEND
  5
CB
330
C9
100
AcDbEntity
  8
Text
370
     9
  0
ENDBLK
  5
A5
330
A2
100
AcDbEntity
  8
0
100
AcDbBlockEnd
  0
BLOCK
  5
B9
330
B7
100
AcDbEntity
  8
0
100
AcDbBlockBegin
  2
block 11
 70
     0
 10
0.0
 20
0.0
 30
0.0
  3
block 11
  1

  0
SPLINE
  5
BB
330
B7
100
AcDbEntity
  8
Text
 62
   250
370
     9
100
AcDbSpline
210
0.0
220
0.0
230
1.0
 70
     8
 71
     3
 72
    26
 73
    22
 74
     0
 42
0.000000001
 43
0.0000000001
 40
0.0
 40
0.0
 40
0.0
 40
0.0
 40
1.0
 40
1.0
 40
1.0
 40
2.0
 40
2.0
 40
2.0
 40
3.0
 40
3.0
 40
3.0
 40
4.0
 40
4.0
 40
4.0
 40
5.0
 40
5.0
 40
5.0
 40
6.0
 40
6.0
 40
6.0
 40
7.0
 40
7.0
 40
7.0
 40
7.0
 10
113.0926662586192
 20
-105.7137884935368
 30
0.0
 10
114.214044839068
 20
-105.7137884935368
 30
0.0
 10
114.9371703814219
 20
-105.6851942010092
 30
0.0
 10
117.2500352354444
 20
-105.6552218702876
 30
0.0
 10
117.2500352354444
 20
-105.6552218702876
 30
0.0
 10
117.9604139245029
 20
-113.8521375583425
 30
0.0
 10
117.9604139245029
 20
-113.8521375583425
 30
0.0
 10
117.9604139245029
 20
-113.8521375583425
 30
0.0
 10
117.9721272491528
 20
-114.2831190035473
 30
0.0
 10
118.2663384035931
 20
-114.2882866467751
 30
0.0
 10
118.6549451743293
 20
-114.2955213472942
 30
0.0
 10
118.6549451743293
 20
-113.830777966334
 30
0.0
 10
118.6549451743293
 20
-113.830777966334
 30
0.0
 10
118.6549451743293
 20
-113.830777966334
 30
0.0
 10
118.1395588897359
 20
-104.9374362259358
 30
0.0
 10
118.1395588897359
 20
-104.9374362259358
 30
0.0
 10
118.1395588897359
 20
-104.9374362259358
 30
0.0
 10
118.1374918324448
 20
-104.4549506032265
 30
0.0
 10
117.4346923534538
 20
-104.4142984765006
 30
0.0
 10
116.7651380458955
 20
-104.3753688975173
 30
0.0
 10
113.1229830988894
 20
-104.3753688975173
 30
0.0
 10
113.1229830988894
 20
-104.3753688975173
 30
0.0
  0
POLYLINE
  5
BC
330
B7
100
AcDbEntity
  8
Text
 62
   255
370
    35
100
AcDb2dPolyline
 66
     1
 10
0.0
 20
0.0
 30
0.0
  0
VERTEX
  5
BD
330
BC
100
AcDbEntity
  8
Text
 62
   255
370
    35
100
AcDbVertex
100
AcDb2dVertex
 10
118.1843451310442
 20
-114.1039740383143
 30
0.0
  0
VERTEX
  5
214
330
BC
100
AcDbEntity
  8
0
100
AcDbVertex
100
AcDb2dVertex
 10
118.1843451310442
 20
-114.1039740383143
 30
0.0
  0
SEQEND
  5
BE
330
BC
100
AcDbEntity
  8
Text
370
    35
  0
SPLINE
  5
BF
330
B7
100
AcDbEntity
  8
Text
 62
   250
370
     9
100
AcDbSpline
210
0.0
220
0.0
230
1.0
 70
     8
 71
     3
 72
     8
 73
     4
 74
     0
 42
0.000000001
 43
0.0000000001
 40
0.0
 40
0.0
 40
0.0
 40
0.0
 40
1.0
 40
1.0
 40
1.0
 40
1.0
 10
118.1078640112716
 20
-114.2307535521714
 30
0.0
 10
118.1078640112716
 20
-114.2307535521714
 30
0.0
 10
114.6953246783574
 20
-114.2955213472942
 30
0.0
 10
113.1150593792733
 20
-114.2955213472942
 30
0.0
  0
ENDBLK
  5
BA
330
B7
100
AcDbEntity
  8
0
100
AcDbBlockEnd
  0
BLOCK
  5
CE
330
CC
100
AcDbEntity
  8
0
100
AcDbBlockBegin
  2
block 12
 70
     0
 10
0.0
 20
0.0
 30
0.0
  3
block 12
  1

  0
SPLINE
  5
D0
330
CC
100
AcDbEntity
  8
Text
 62
   250
370
     9
100
AcDbSpline
210
0.0
220
0.0
230
1.0
 70
     8
 71
     3
 72
    20
 73
    16
 74
     0
 42
0.000000001
 43
0.0000000001
 40
0.0
 40
0.0
 40
0.0
 40
0.0
 40
1.0
 40
1.0
 40
1.0
 40
2.0
 40
2.0
 40
2.0
 40
3.0
 40
3.0
 40
3.0
 40
4.0
 40
4.0
 40
4.0
 40
5.0
 40
5.0
 40
5.0
 40
5.0
 10
113.7189846178376
 20
-53.71317272962727
 30
0.0
 10
113.7189846178376
 20
-53.71317272962727
 30
0.0
 10
110.6063408469144
 20
-53.70232067884873
 30
0.0
 10
109.9862236595694
 20
-53.73969996486369
 30
0.0
 10
109.3361341415028
 20
-53.77811277952422
 30
0.0
 10
109.2314032387512
 20
-54.32192110187092
 30
0.0
 10
109.2314032387512
 20
-54.32192110187092
 30
0.0
 10
109.2314032387512
 20
-54.32192110187092
 30
0.0
 10
108.7583916286264
 20
-62.70211586974114
 30
0.0
 10
108.7583916286264
 20
-62.70211586974114
 30
0.0
 10
108.7583916286264
 20
-62.70211586974114
 30
0.0
 10
108.7583916286264
 20
-63.14412162049869
 30
0.0
 10
109.1180595972864
 20
-63.13688691997967
 30
0.0
 10
109.1180595972864
 20
-63.13688691997967
 30
0.0
 10
113.2725002429492
 20
-63.19579805277744
 30
0.0
 10
113.7482679294622
 20
-63.19579805277744
 30
0.0
  0
POLYLINE
  5
D1
330
CC
100
AcDbEntity
  8
Text
 62
   255
370
    35
100
AcDb2dPolyline
 66
     1
 10
0.0
 20
0.0
 30
0.0
  0
VERTEX
  5
D2
330
D1
100
AcDbEntity
  8
Text
 62
   255
370
    35
100
AcDbVertex
100
AcDb2dVertex
 10
109.1938516979619
 20
-62.96170381455471
 30
0.0
  0
VERTEX
  5
215
330
D1
100
AcDbEntity
  8
0
100
AcDbVertex
100
AcDb2dVertex
 10
109.1938516979619
 20
-62.96170381455471
 30
0.0
  0
SEQEND
  5
D3
330
D1
100
AcDbEntity
  8
Text
370
    35
  0
SPLINE
  5
D4
330
CC
100
AcDbEntity
  8
Text
 62
   250
370
     9
100
AcDbSpline
210
0.0
220
0.0
230
1.0
 70
     8
 71
     3
 72
    11
 73
     7
 74
     0
 42
0.000000001
 43
0.0000000001
 40
0.0
 40
0.0
 40
0.0
 40
0.0
 40
1.0
 40
1.0
 40
1.0
 40
2.0
 40
2.0
 40
2.0
 40
2.0
 10
109.2603420408273
 20
-54.23045381673753
 30
0.0
 10
109.2475951875318
 20
-54.5203586018213
 30
0.0
 10
109.649982340209
 20
-54.76013724759469
 30
0.0
 10
110.015506971194
 20
-54.7968275145126
 30
0.0
 10
110.015506971194
 20
-54.7968275145126
 30
0.0
 10
111.8820597051024
 20
-54.92136771630438
 30
0.0
 10
113.7482679294622
 20
-54.92877467159767
 30
0.0
  0
SPLINE
  5
D5
330
CC
100
AcDbEntity
  8
Text
 62
   250
370
     9
100
AcDbSpline
210
0.0
220
0.0
230
1.0
 70
     8
 71
     3
 72
    20
 73
    16
 74
     0
 42
0.000000001
 43
0.0000000001
 40
0.0
 40
0.0
 40
0.0
 40
0.0
 40
1.0
 40
1.0
 40
1.0
 40
2.0
 40
2.0
 40
2.0
 40
3.0
 40
3.0
 40
3.0
 40
4.0
 40
4.0
 40
4.0
 40
5.0
 40
5.0
 40
5.0
 40
5.0
 10
113.0037827950997
 20
-53.71317272962727
 30
0.0
 10
113.0037827950997
 20
-53.71317272962727
 30
0.0
 10
116.116426566023
 20
-53.70232067884873
 30
0.0
 10
116.7365437533679
 20
-53.73969996486369
 30
0.0
 10
117.3864610166603
 20
-53.77811277952422
 30
0.0
 10
117.491880938509
 20
-54.32192110187092
 30
0.0
 10
117.491880938509
 20
-54.32192110187092
 30
0.0
 10
117.491880938509
 20
-54.32192110187092
 30
0.0
 10
117.9645480390852
 20
-62.70211586974114
 30
0.0
 10
117.9645480390852
 20
-62.70211586974114
 30
0.0
 10
117.9645480390852
 20
-62.70211586974114
 30
0.0
 10
117.9645480390852
 20
-63.14412162049869
 30
0.0
 10
117.6048800704251
 20
-63.13688691997967
 30
0.0
 10
117.6048800704251
 20
-63.13688691997967
 30
0.0
 10
113.4502671699881
 20
-63.19579805277744
 30
0.0
 10
112.9744994834751
 20
-63.19579805277744
 30
0.0
  0
POLYLINE
  5
D6
330
CC
100
AcDbEntity
  8
Text
 62
   255
370
    35
100
AcDb2dPolyline
 66
     1
 10
0.0
 20
0.0
 30
0.0
  0
VERTEX
  5
D7
330
D6
100
AcDbEntity
  8
Text
 62
   255
370
    35
100
AcDbVertex
100
AcDb2dVertex
 10
117.5290879697497
 20
-62.96170381455471
 30
0.0
  0
VERTEX
  5
216
330
D6
100
AcDbEntity
  8
0
100
AcDbVertex
100
AcDb2dVertex
 10
117.5290879697497
 20
-62.96170381455471
 30
0.0
  0
SEQEND
  5
D8
330
D6
100
AcDbEntity
  8
Text
370
    35
  0
SPLINE
  5
D9
330
CC
100
AcDbEntity
  8
Text
 62
   250
370
     9
100
AcDbSpline
210
0.0
220
0.0
230
1.0
 70
     8
 71
     3
 72
    11
 73
     7
 74
     0
 42
0.000000001
 43
0.0000000001
 40
0.0
 40
0.0
 40
0.0
 40
0.0
 40
1.0
 40
1.0
 40
1.0
 40
2.0
 40
2.0
 40
2.0
 40
2.0
 10
117.4622531173358
 20
-54.23045381673753
 30
0.0
 10
117.4753444801797
 20
-54.5203586018213
 30
0.0
 10
117.0729573275026
 20
-54.76013724759469
 30
0.0
 10
116.7072604417433
 20
-54.7968275145126
 30
0.0
 10
116.7072604417433
 20
-54.7968275145126
 30
0.0
 10
114.8410522173835
 20
-54.92136771630438
 30
0.0
 10
112.9744994834751
 20
-54.92877467159767
 30
0.0
  0
ENDBLK
  5
CF
330
CC
100
AcDbEntity
  8
0
100
AcDbBlockEnd
  0
BLOCK
  5
DC
330
DA
100
AcDbEntity
  8
0
100
AcDbBlockBegin
  2
block 13
 70
     0
 10
0.0
 20
0.0
 30
0.0
  3
block 13
  1

  0
POLYLINE
  5
DE
330
DA
100
AcDbEntity
  8
Text
 62
   250
370
     9
100
AcDb2dPolyline
 66
     1
 10
0.0
 20
0.0
 30
0.0
  0
VERTEX
  5
DF
330
DE
100
AcDbEntity
  8
Text
 62
   250
370
     9
100
AcDbVertex
100
AcDb2dVertex
 10
160.8628770214162
 20
-56.9162502570383
 30
0.0
  0
VERTEX
  5
E0
330
DE
100
AcDbEntity
  8
Text
 62
   250
370
     9
100
AcDbVertex
100
AcDb2dVertex
 10
160.7595241568587
 20
-63.19579805277744
 30
0.0
  0
VERTEX
  5
E1
330
DE
100
AcDbEntity
  8
Text
 62
   250
370
     9
100
AcDbVertex
100
AcDb2dVertex
 10
160.3805636534812
 20
-63.19579805277744
 30
0.0
  0
VERTEX
  5
E2
330
DE
100
AcDbEntity
  8
Text
 62
   250
370
     9
100
AcDbVertex
100
AcDb2dVertex
 10
160.266875502468
 20
-56.91607800226403
 30
0.0
  0
SEQEND
  5
E3
330
DE
100
AcDbEntity
  8
Text
370
     9
  0
SPLINE
  5
E4
330
DA
100
AcDbEntity
  8
Text
 62
   250
370
     9
100
AcDbSpline
210
0.0
220
0.0
230
1.0
 70
     8
 71
     3
 72
    20
 73
    16
 74
     0
 42
0.000000001
 43
0.0000000001
 40
0.0
 40
0.0
 40
0.0
 40
0.0
 40
1.0
 40
1.0
 40
1.0
 40
2.0
 40
2.0
 40
2.0
 40
3.0
 40
3.0
 40
3.0
 40
4.0
 40
4.0
 40
4.0
 40
5.0
 40
5.0
 40
5.0
 40
5.0
 10
156.3532470312242
 20
-56.91659476658682
 30
0.0
 10
156.3532470312242
 20
-56.91659476658682
 30
0.0
 10
160.7574570995675
 20
-56.91659476658682
 30
0.0
 10
160.7574570995675
 20
-56.91659476658682
 30
0.0
 10
160.7574570995675
 20
-56.91659476658682
 30
0.0
 10
160.9862114397881
 20
-56.91504447361847
 30
0.0
 10
160.9862114397881
 20
-56.6880126811405
 30
0.0
 10
160.9862114397881
 20
-56.46098088866253
 30
0.0
 10
160.9862114397881
 20
-55.7593871930914
 30
0.0
 10
160.9862114397881
 20
-55.7593871930914
 30
0.0
 10
160.9862114397881
 20
-55.7593871930914
 30
0.0
 10
160.9793212488177
 20
-55.08500975185374
 30
0.0
 10
160.3185519347467
 20
-55.09189994282425
 30
0.0
 10
159.7783609626596
 20
-55.0981011146977
 30
0.0
 10
156.3532470312242
 20
-55.09189994282425
 30
0.0
 10
156.3532470312242
 20
-55.09189994282425
 30
0.0
  0
SPLINE
  5
E5
330
DA
100
AcDbEntity
  8
Text
 62
   250
370
     9
100
AcDbSpline
210
0.0
220
0.0
230
1.0
 70
     8
 71
     3
 72
    17
 73
    13
 74
     0
 42
0.000000001
 43
0.0000000001
 40
0.0
 40
0.0
 40
0.0
 40
0.0
 40
1.0
 40
1.0
 40
1.0
 40
2.0
 40
2.0
 40
2.0
 40
3.0
 40
3.0
 40
3.0
 40
4.0
 40
4.0
 40
4.0
 40
4.0
 10
160.8277370474667
 20
-55.32289359511025
 30
0.0
 10
160.8277370474667
 20
-55.32289359511025
 30
0.0
 10
160.8277370474667
 20
-49.80230033477165
 30
0.0
 10
160.8277370474667
 20
-49.80230033477165
 30
0.0
 10
160.8277370474667
 20
-49.80230033477165
 30
0.0
 10
160.8222248946903
 20
-49.4810451807721
 30
0.0
 10
160.8663221169015
 20
-49.43401962739844
 30
0.0
 10
160.9138644345979
 20
-49.38268770466822
 30
0.0
 10
160.4225938184013
 20
-49.46950411089652
 30
0.0
 10
160.4225938184013
 20
-49.46950411089652
 30
0.0
 10
160.4225938184013
 20
-49.46950411089652
 30
0.0
 10
156.2581623958313
 20
-49.46950411089652
 30
0.0
 10
156.2581623958313
 20
-49.46950411089652
 30
0.0
  0
POLYLINE
  5
E6
330
DA
100
AcDbEntity
  8
Text
 62
   250
370
     9
100
AcDb2dPolyline
 66
     1
 10
0.0
 20
0.0
 30
0.0
  0
VERTEX
  5
E7
330
E6
100
AcDbEntity
  8
Text
 62
   250
370
     9
100
AcDbVertex
100
AcDb2dVertex
 10
151.9848659559274
 20
-56.9162502570383
 30
0.0
  0
VERTEX
  5
E8
330
E6
100
AcDbEntity
  8
Text
 62
   250
370
     9
100
AcDbVertex
100
AcDb2dVertex
 10
152.0882188204849
 20
-63.19579805277744
 30
0.0
  0
VERTEX
  5
E9
330
E6
100
AcDbEntity
  8
Text
 62
   250
370
     9
100
AcDbVertex
100
AcDb2dVertex
 10
152.4671793238623
 20
-63.19579805277744
 30
0.0
  0
VERTEX
  5
EA
330
E6
100
AcDbEntity
  8
Text
 62
   250
370
     9
100
AcDbVertex
100
AcDb2dVertex
 10
152.5808674748756
 20
-56.91607800226403
 30
0.0
  0
SEQEND
  5
EB
330
E6
100
AcDbEntity
  8
Text
370
     9
  0
SPLINE
  5
EC
330
DA
100
AcDbEntity
  8
Text
 62
   250
370
     9
100
AcDbSpline
210
0.0
220
0.0
230
1.0
 70
     8
 71
     3
 72
    20
 73
    16
 74
     0
 42
0.000000001
 43
0.0000000001
 40
0.0
 40
0.0
 40
0.0
 40
0.0
 40
1.0
 40
1.0
 40
1.0
 40
2.0
 40
2.0
 40
2.0
 40
3.0
 40
3.0
 40
3.0
 40
4.0
 40
4.0
 40
4.0
 40
5.0
 40
5.0
 40
5.0
 40
5.0
 10
156.4944959461194
 20
-56.91659476658682
 30
0.0
 10
156.4944959461194
 20
-56.91659476658682
 30
0.0
 10
152.090285877776
 20
-56.91659476658682
 30
0.0
 10
152.090285877776
 20
-56.91659476658682
 30
0.0
 10
152.090285877776
 20
-56.91659476658682
 30
0.0
 10
151.8622205566525
 20
-56.91504447361847
 30
0.0
 10
151.8622205566525
 20
-56.6880126811405
 30
0.0
 10
151.8622205566525
 20
-56.46098088866253
 30
0.0
 10
151.8622205566525
 20
-55.7593871930914
 30
0.0
 10
151.8622205566525
 20
-55.7593871930914
 30
0.0
 10
151.8622205566525
 20
-55.7593871930914
 30
0.0
 10
151.869110747623
 20
-55.08500975185374
 30
0.0
 10
152.5285020234998
 20
-55.09189994282425
 30
0.0
 10
153.069382014684
 20
-55.0981011146977
 30
0.0
 10
156.4944959461194
 20
-55.09189994282425
 30
0.0
 10
156.4944959461194
 20
-55.09189994282425
 30
0.0
  0
SPLINE
  5
ED
330
DA
100
AcDbEntity
  8
Text
 62
   250
370
     9
100
AcDbSpline
210
0.0
220
0.0
230
1.0
 70
     8
 71
     3
 72
    17
 73
    13
 74
     0
 42
0.000000001
 43
0.0000000001
 40
0.0
 40
0.0
 40
0.0
 40
0.0
 40
1.0
 40
1.0
 40
1.0
 40
2.0
 40
2.0
 40
2.0
 40
3.0
 40
3.0
 40
3.0
 40
4.0
 40
4.0
 40
4.0
 40
4.0
 10
152.020694948974
 20
-55.32289359511025
 30
0.0
 10
152.020694948974
 20
-55.32289359511025
 30
0.0
 10
152.020694948974
 20
-49.80230033477165
 30
0.0
 10
152.020694948974
 20
-49.80230033477165
 30
0.0
 10
152.020694948974
 20
-49.80230033477165
 30
0.0
 10
152.0255180826533
 20
-49.4810451807721
 30
0.0
 10
151.9821098795392
 20
-49.43401962739844
 30
0.0
 10
151.9345675618427
 20
-49.38268770466822
 30
0.0
 10
152.4251491589423
 20
-49.46950411089652
 30
0.0
 10
152.4251491589423
 20
-49.46950411089652
 30
0.0
 10
152.4251491589423
 20
-49.46950411089652
 30
0.0
 10
156.5902696006094
 20
-49.46950411089652
 30
0.0
 10
156.5902696006094
 20
-49.46950411089652
 30
0.0
  0
ENDBLK
  5
DD
330
DA
100
AcDbEntity
  8
0
100
AcDbBlockEnd
  0
BLOCK
  5
F0
330
EE
100
AcDbEntity
  8
0
100
AcDbBlockBegin
  2
block 14
 70
     0
 10
0.0
 20
0.0
 30
0.0
  3
block 14
  1

  0
POLYLINE
  5
F2
330
EE
100
AcDbEntity
  8
Text
 62
   250
370
     9
100
AcDb2dPolyline
 66
     1
 10
0.0
 20
0.0
 30
0.0
  0
VERTEX
  5
F3
330
F2
100
AcDbEntity
  8
Text
 62
   250
370
     9
100
AcDbVertex
100
AcDb2dVertex
 10
151.3537244630296
 20
-133.9125840594038
 30
0.0
  0
VERTEX
  5
F4
330
F2
100
AcDbEntity
  8
Text
 62
   250
370
     9
100
AcDbVertex
100
AcDb2dVertex
 10
151.4570773275871
 20
-140.1919596003686
 30
0.0
  0
VERTEX
  5
F5
330
F2
100
AcDbEntity
  8
Text
 62
   250
370
     9
100
AcDbVertex
100
AcDb2dVertex
 10
151.8360378309646
 20
-140.1919596003686
 30
0.0
  0
VERTEX
  5
F6
330
F2
100
AcDbEntity
  8
Text
 62
   250
370
     9
100
AcDbVertex
100
AcDb2dVertex
 10
151.9497259819778
 20
-133.9125840594038
 30
0.0
  0
SEQEND
  5
F7
330
F2
100
AcDbEntity
  8
Text
370
     9
  0
SPLINE
  5
F8
330
EE
100
AcDbEntity
  8
Text
 62
   250
370
     9
100
AcDbSpline
210
0.0
220
0.0
230
1.0
 70
     8
 71
     3
 72
    35
 73
    31
 74
     0
 42
0.000000001
 43
0.0000000001
 40
0.0
 40
0.0
 40
0.0
 40
0.0
 40
1.0
 40
1.0
 40
1.0
 40
2.0
 40
2.0
 40
2.0
 40
3.0
 40
3.0
 40
3.0
 40
4.0
 40
4.0
 40
4.0
 40
5.0
 40
5.0
 40
5.0
 40
6.0
 40
6.0
 40
6.0
 40
7.0
 40
7.0
 40
7.0
 40
8.0
 40
8.0
 40
8.0
 40
9.0
 40
9.0
 40
9.0
 40
10.0
 40
10.0
 40
10.0
 40
10.0
 10
156.4538438193935
 20
-133.9129285689523
 30
0.0
 10
156.4538438193935
 20
-133.9129285689523
 30
0.0
 10
151.4770588814015
 20
-133.9129285689523
 30
0.0
 10
151.4770588814015
 20
-133.9129285689523
 30
0.0
 10
151.4770588814015
 20
-133.9129285689523
 30
0.0
 10
151.1552869630792
 20
-133.9535806956783
 30
0.0
 10
151.1552869630792
 20
-133.6845187382802
 30
0.0
 10
151.1552869630792
 20
-133.6845187382802
 30
0.0
 10
151.0629584040745
 20
-132.5548719286668
 30
0.0
 10
151.0932752443447
 20
-131.1609862953347
 30
0.0
 10
151.1146348363533
 20
-130.151228808608
 30
0.0
 10
151.2965358779745
 20
-129.2503363392152
 30
0.0
 10
151.345456233865
 20
-129.0381184573238
 30
0.0
 10
151.428138525511
 20
-128.6822400936975
 30
0.0
 10
151.5776556695709
 20
-128.7135904626133
 30
0.0
 10
151.5776556695709
 20
-128.7135904626133
 30
0.0
 10
151.5776556695709
 20
-128.7135904626133
 30
0.0
 10
151.7478433865422
 20
-128.7032551761575
 30
0.0
 10
151.8064100097914
 20
-129.1187336916786
 30
0.0
 10
151.8601534993613
 20
-129.4976941950561
 30
0.0
 10
151.938701676425
 20
-131.0459201061274
 30
0.0
 10
151.9490369628808
 20
-131.2157633135502
 30
0.0
 10
151.9607502875306
 20
-131.3918076928465
 30
0.0
 10
151.9745306694716
 20
-132.3392089512902
 30
0.0
 10
151.9745306694716
 20
-132.3392089512902
 30
0.0
 10
151.9745306694716
 20
-132.3392089512902
 30
0.0
 10
151.9717745930834
 20
-132.1490396805044
 30
0.0
 10
152.2019069714981
 20
-132.1380153749516
 30
0.0
 10
152.4327283690098
 20
-132.1269910693988
 30
0.0
 10
156.033542170193
 20
-132.0391411345249
 30
0.0
 10
156.4724473350138
 20
-132.0501654400777
 30
0.0
  0
SPLINE
  5
F9
330
EE
100
AcDbEntity
  8
Text
 62
   250
370
     9
100
AcDbSpline
210
0.0
220
0.0
230
1.0
 70
     8
 71
     3
 72
    14
 73
    10
 74
     0
 42
0.000000001
 43
0.0000000001
 40
0.0
 40
0.0
 40
0.0
 40
0.0
 40
1.0
 40
1.0
 40
1.0
 40
2.0
 40
2.0
 40
2.0
 40
3.0
 40
3.0
 40
3.0
 40
3.0
 10
151.2917127442951
 20
-129.3013237523969
 30
0.0
 10
151.2917127442951
 20
-129.3013237523969
 30
0.0
 10
151.2703531522866
 20
-126.8832112313
 30
0.0
 10
151.2579508085396
 20
-126.4563639006776
 30
0.0
 10
151.2579508085396
 20
-126.4563639006776
 30
0.0
 10
151.3502793675443
 20
-126.4608425248084
 30
0.0
 10
151.6134846626175
 20
-126.475656435395
 30
0.0
 10
151.8773789767876
 20
-126.4897813268845
 30
0.0
 10
156.4834716405666
 20
-126.4911593650786
 30
0.0
 10
156.4834716405666
 20
-126.4911593650786
 30
0.0
  0
POLYLINE
  5
FA
330
EE
100
AcDbEntity
  8
Text
 62
   250
370
     9
100
AcDb2dPolyline
 66
     1
 10
0.0
 20
0.0
 30
0.0
  0
VERTEX
  5
FB
330
FA
100
AcDbEntity
  8
Text
 62
   250
370
     9
100
AcDbVertex
100
AcDb2dVertex
 10
161.494018514314
 20
-133.9125840594038
 30
0.0
  0
VERTEX
  5
FC
330
FA
100
AcDbEntity
  8
Text
 62
   250
370
     9
100
AcDbVertex
100
AcDb2dVertex
 10
161.3906656497565
 20
-140.1919596003686
 30
0.0
  0
VERTEX
  5
FD
330
FA
100
AcDbEntity
  8
Text
 62
   250
370
     9
100
AcDbVertex
100
AcDb2dVertex
 10
161.0110161272819
 20
-140.1919596003686
 30
0.0
  0
VERTEX
  5
FE
330
FA
100
AcDbEntity
  8
Text
 62
   250
370
     9
100
AcDbVertex
100
AcDb2dVertex
 10
160.8980169953658
 20
-133.9125840594038
 30
0.0
  0
SEQEND
  5
FF
330
FA
100
AcDbEntity
  8
Text
370
     9
  0
SPLINE
  5
100
330
EE
100
AcDbEntity
  8
Text
 62
   250
370
     9
100
AcDbSpline
210
0.0
220
0.0
230
1.0
 70
     8
 71
     3
 72
    35
 73
    31
 74
     0
 42
0.000000001
 43
0.0000000001
 40
0.0
 40
0.0
 40
0.0
 40
0.0
 40
1.0
 40
1.0
 40
1.0
 40
2.0
 40
2.0
 40
2.0
 40
3.0
 40
3.0
 40
3.0
 40
4.0
 40
4.0
 40
4.0
 40
5.0
 40
5.0
 40
5.0
 40
6.0
 40
6.0
 40
6.0
 40
7.0
 40
7.0
 40
7.0
 40
8.0
 40
8.0
 40
8.0
 40
9.0
 40
9.0
 40
9.0
 40
10.0
 40
10.0
 40
10.0
 40
10.0
 10
156.3938991579501
 20
-133.9129285689523
 30
0.0
 10
156.3938991579501
 20
-133.9129285689523
 30
0.0
 10
161.3713731150391
 20
-133.9129285689523
 30
0.0
 10
161.3713731150391
 20
-133.9129285689523
 30
0.0
 10
161.3713731150391
 20
-133.9129285689523
 30
0.0
 10
161.6931450333614
 20
-133.9535806956783
 30
0.0
 10
161.6931450333614
 20
-133.6845187382802
 30
0.0
 10
161.6931450333614
 20
-133.6845187382802
 30
0.0
 10
161.7847845732691
 20
-132.5548719286668
 30
0.0
 10
161.7551567520959
 20
-131.1609862953347
 30
0.0
 10
161.7331081409903
 20
-130.151228808608
 30
0.0
 10
161.5512070993691
 20
-129.2503363392152
 30
0.0
 10
161.5022867434786
 20
-129.0381184573238
 30
0.0
 10
161.4202934709297
 20
-128.6822400936975
 30
0.0
 10
161.2700873077727
 20
-128.7135904626133
 30
0.0
 10
161.2700873077727
 20
-128.7135904626133
 30
0.0
 10
161.2700873077727
 20
-128.7135904626133
 30
0.0
 10
161.0998995908014
 20
-128.7032551761575
 30
0.0
 10
161.0413329675521
 20
-129.1187336916786
 30
0.0
 10
160.9882784970793
 20
-129.4976941950561
 30
0.0
 10
160.9090413009186
 20
-131.0459201061274
 30
0.0
 10
160.8987060144628
 20
-131.2157633135502
 30
0.0
 10
160.88768170891
 20
-131.3918076928465
 30
0.0
 10
160.873212307872
 20
-132.3392089512902
 30
0.0
 10
160.873212307872
 20
-132.3392089512902
 30
0.0
 10
160.873212307872
 20
-132.3392089512902
 30
0.0
 10
160.8766574033572
 20
-132.1490396805044
 30
0.0
 10
160.6458360058455
 20
-132.1380153749516
 30
0.0
 10
160.4157036274308
 20
-132.1269910693988
 30
0.0
 10
156.8148898262476
 20
-132.0391411345249
 30
0.0
 10
156.3752956423298
 20
-132.0501654400777
 30
0.0
  0
SPLINE
  5
101
330
EE
100
AcDbEntity
  8
Text
 62
   250
370
     9
100
AcDbSpline
210
0.0
220
0.0
230
1.0
 70
     8
 71
     3
 72
    14
 73
    10
 74
     0
 42
0.000000001
 43
0.0000000001
 40
0.0
 40
0.0
 40
0.0
 40
0.0
 40
1.0
 40
1.0
 40
1.0
 40
2.0
 40
2.0
 40
2.0
 40
3.0
 40
3.0
 40
3.0
 40
3.0
 10
161.5718776722806
 20
-129.386073101334
 30
0.0
 10
161.5718776722806
 20
-129.386073101334
 30
0.0
 10
161.5829019778334
 20
-126.8649522252282
 30
0.0
 10
161.5918592260951
 20
-126.4584309579687
 30
0.0
 10
161.5918592260951
 20
-126.4584309579687
 30
0.0
 10
161.4747259795966
 20
-126.4577419388716
 30
0.0
 10
161.2115206845235
 20
-126.4622205630025
 30
0.0
 10
160.9455593130622
 20
-126.4666991871333
 30
0.0
 10
156.364271336777
 20
-126.4911593650786
 30
0.0
 10
156.364271336777
 20
-126.4911593650786
 30
0.0
  0
ENDBLK
  5
F1
330
EE
100
AcDbEntity
  8
0
100
AcDbBlockEnd
  0
BLOCK
  5
104
330
102
100
AcDbEntity
  8
0
100
AcDbBlockBegin
  2
block 15
 70
     0
 10
0.0
 20
0.0
 30
0.0
  3
block 15
  1

  0
POLYLINE
  5
106
330
102
100
AcDbEntity
  8
Text
 62
   250
370
     9
100
AcDb2dPolyline
 66
     1
 10
0.0
 20
0.0
 30
0.0
  0
VERTEX
  5
107
330
106
100
AcDbEntity
  8
Text
 62
   250
370
     9
100
AcDbVertex
100
AcDb2dVertex
 10
151.3923095324644
 20
-108.0158012967808
 30
0.0
  0
VERTEX
  5
108
330
106
100
AcDbEntity
  8
Text
 62
   250
370
     9
100
AcDbVertex
100
AcDb2dVertex
 10
151.4956623970219
 20
-114.2955213472942
 30
0.0
  0
VERTEX
  5
109
330
106
100
AcDbEntity
  8
Text
 62
   250
370
     9
100
AcDbVertex
100
AcDb2dVertex
 10
151.8746229003994
 20
-114.2955213472942
 30
0.0
  0
VERTEX
  5
10A
330
106
100
AcDbEntity
  8
Text
 62
   250
370
     9
100
AcDbVertex
100
AcDb2dVertex
 10
151.9883110514126
 20
-108.0158012967808
 30
0.0
  0
SEQEND
  5
10B
330
106
100
AcDbEntity
  8
Text
370
     9
  0
SPLINE
  5
10C
330
102
100
AcDbEntity
  8
Text
 62
   250
370
     9
100
AcDbSpline
210
0.0
220
0.0
230
1.0
 70
     8
 71
     3
 72
    35
 73
    31
 74
     0
 42
0.000000001
 43
0.0000000001
 40
0.0
 40
0.0
 40
0.0
 40
0.0
 40
1.0
 40
1.0
 40
1.0
 40
2.0
 40
2.0
 40
2.0
 40
3.0
 40
3.0
 40
3.0
 40
4.0
 40
4.0
 40
4.0
 40
5.0
 40
5.0
 40
5.0
 40
6.0
 40
6.0
 40
6.0
 40
7.0
 40
7.0
 40
7.0
 40
8.0
 40
8.0
 40
8.0
 40
9.0
 40
9.0
 40
9.0
 40
10.0
 40
10.0
 40
10.0
 40
10.0
 10
156.4924288888283
 20
-108.0161458063293
 30
0.0
 10
156.4924288888283
 20
-108.0161458063293
 30
0.0
 10
151.5156439508363
 20
-108.0161458063293
 30
0.0
 10
151.5156439508363
 20
-108.0161458063293
 30
0.0
 10
151.5156439508363
 20
-108.0161458063293
 30
0.0
 10
151.193872032514
 20
-108.0567979330552
 30
0.0
 10
151.193872032514
 20
-107.7873914661087
 30
0.0
 10
151.193872032514
 20
-107.7873914661087
 30
0.0
 10
151.1015434735093
 20
-106.6584336755923
 30
0.0
 10
151.1318603137795
 20
-105.264375787486
 30
0.0
 10
151.1532199057881
 20
-104.254446045985
 30
0.0
 10
151.2035182998727
 20
-102.0768011897586
 30
0.0
 10
151.2524386557633
 20
-101.8647555626414
 30
0.0
 10
151.3351209474093
 20
-101.5087049442409
 30
0.0
 10
151.5549180393682
 20
-101.5224853261819
 30
0.0
 10
151.5549180393682
 20
-101.5224853261819
 30
0.0
 10
151.5549180393682
 20
-101.5224853261819
 30
0.0
 10
151.8084770670826
 20
-101.5037095557872
 30
0.0
 10
151.8670436903318
 20
-101.9197048356312
 30
0.0
 10
151.9200981608047
 20
-102.2988375937829
 30
0.0
 10
151.9772867458598
 20
-105.1494818530529
 30
0.0
 10
151.9876220323156
 20
-105.3191528057014
 30
0.0
 10
151.9993353569654
 20
-105.4946804206749
 30
0.0
 10
152.0131157389064
 20
-106.4424261886671
 30
0.0
 10
152.0131157389064
 20
-106.4424261886671
 30
0.0
 10
152.0131157389064
 20
-106.4424261886671
 30
0.0
 10
152.0103596625182
 20
-106.2522569178814
 30
0.0
 10
152.2404920409329
 20
-106.2412326123286
 30
0.0
 10
152.4713134384446
 20
-106.2302083067758
 30
0.0
 10
155.0882079690405
 20
-106.1533826774547
 30
0.0
 10
156.5110324044486
 20
-106.1533826774547
 30
0.0
  0
POLYLINE
  5
10D
330
102
100
AcDbEntity
  8
Text
 62
   250
370
     9
100
AcDb2dPolyline
 66
     1
 10
0.0
 20
0.0
 30
0.0
  0
VERTEX
  5
10E
330
10D
100
AcDbEntity
  8
Text
 62
   250
370
     9
100
AcDbVertex
100
AcDb2dVertex
 10
156.419392864541
 20
-101.5224853261819
 30
0.0
  0
VERTEX
  5
10F
330
10D
100
AcDbEntity
  8
Text
 62
   250
370
     9
100
AcDbVertex
100
AcDb2dVertex
 10
151.5549180393682
 20
-101.5224853261819
 30
0.0
  0
SEQEND
  5
110
330
10D
100
AcDbEntity
  8
Text
370
     9
  0
POLYLINE
  5
111
330
102
100
AcDbEntity
  8
Text
 62
   250
370
     9
100
AcDb2dPolyline
 66
     1
 10
0.0
 20
0.0
 30
0.0
  0
VERTEX
  5
112
330
111
100
AcDbEntity
  8
Text
 62
   250
370
     9
100
AcDbVertex
100
AcDb2dVertex
 10
161.4547444257821
 20
-108.0158012967808
 30
0.0
  0
VERTEX
  5
113
330
111
100
AcDbEntity
  8
Text
 62
   250
370
     9
100
AcDbVertex
100
AcDb2dVertex
 10
161.3513915612246
 20
-114.2955213472942
 30
0.0
  0
VERTEX
  5
114
330
111
100
AcDbEntity
  8
Text
 62
   250
370
     9
100
AcDbVertex
100
AcDb2dVertex
 10
160.9724310578472
 20
-114.2955213472942
 30
0.0
  0
VERTEX
  5
115
330
111
100
AcDbEntity
  8
Text
 62
   250
370
     9
100
AcDbVertex
100
AcDb2dVertex
 10
160.8587429068339
 20
-108.0158012967808
 30
0.0
  0
SEQEND
  5
116
330
111
100
AcDbEntity
  8
Text
370
     9
  0
SPLINE
  5
117
330
102
100
AcDbEntity
  8
Text
 62
   250
370
     9
100
AcDbSpline
210
0.0
220
0.0
230
1.0
 70
     8
 71
     3
 72
    35
 73
    31
 74
     0
 42
0.000000001
 43
0.0000000001
 40
0.0
 40
0.0
 40
0.0
 40
0.0
 40
1.0
 40
1.0
 40
1.0
 40
2.0
 40
2.0
 40
2.0
 40
3.0
 40
3.0
 40
3.0
 40
4.0
 40
4.0
 40
4.0
 40
5.0
 40
5.0
 40
5.0
 40
6.0
 40
6.0
 40
6.0
 40
7.0
 40
7.0
 40
7.0
 40
8.0
 40
8.0
 40
8.0
 40
9.0
 40
9.0
 40
9.0
 40
10.0
 40
10.0
 40
10.0
 40
10.0
 10
156.3546250694183
 20
-108.0161458063293
 30
0.0
 10
156.3546250694183
 20
-108.0161458063293
 30
0.0
 10
161.3314100074102
 20
-108.0161458063293
 30
0.0
 10
161.3314100074102
 20
-108.0161458063293
 30
0.0
 10
161.3314100074102
 20
-108.0161458063293
 30
0.0
 10
161.6538709448296
 20
-108.0567979330552
 30
0.0
 10
161.6538709448296
 20
-107.7873914661087
 30
0.0
 10
161.6538709448296
 20
-107.7873914661087
 30
0.0
 10
161.7455104847372
 20
-106.6584336755923
 30
0.0
 10
161.7158826635641
 20
-105.264375787486
 30
0.0
 10
161.6938340524585
 20
-104.254446045985
 30
0.0
 10
161.6442246774709
 20
-102.0768011897586
 30
0.0
 10
161.5953043215803
 20
-101.8647555626414
 30
0.0
 10
161.5126220299343
 20
-101.5087049442409
 30
0.0
 10
161.2928249379754
 20
-101.5224853261819
 30
0.0
 10
161.2928249379754
 20
-101.5224853261819
 30
0.0
 10
161.2928249379754
 20
-101.5224853261819
 30
0.0
 10
161.039265910261
 20
-101.5037095557872
 30
0.0
 10
160.9806992870118
 20
-101.9197048356312
 30
0.0
 10
160.9269557974418
 20
-102.2988375937829
 30
0.0
 10
160.8704562314838
 20
-105.1494818530529
 30
0.0
 10
160.8594319259309
 20
-105.3191528057014
 30
0.0
 10
160.8484076203782
 20
-105.4946804206749
 30
0.0
 10
160.833249200243
 20
-106.4424261886671
 30
0.0
 10
160.833249200243
 20
-106.4424261886671
 30
0.0
 10
160.833249200243
 20
-106.4424261886671
 30
0.0
 10
160.8373833148254
 20
-106.2522569178814
 30
0.0
 10
160.6065619173136
 20
-106.2412326123286
 30
0.0
 10
160.3764295388989
 20
-106.2302083067758
 30
0.0
 10
157.7595350083031
 20
-106.1533826774547
 30
0.0
 10
156.3360215537979
 20
-106.1533826774547
 30
0.0
  0
POLYLINE
  5
118
330
102
100
AcDbEntity
  8
Text
 62
   250
370
     9
100
AcDb2dPolyline
 66
     1
 10
0.0
 20
0.0
 30
0.0
  0
VERTEX
  5
119
330
118
100
AcDbEntity
  8
Text
 62
   250
370
     9
100
AcDbVertex
100
AcDb2dVertex
 10
156.4283501128026
 20
-101.5224853261819
 30
0.0
  0
VERTEX
  5
11A
330
118
100
AcDbEntity
  8
Text
 62
   250
370
     9
100
AcDbVertex
100
AcDb2dVertex
 10
161.2928249379754
 20
-101.5224853261819
 30
0.0
  0
SEQEND
  5
11B
330
118
100
AcDbEntity
  8
Text
370
     9
  0
ENDBLK
  5
105
330
102
100
AcDbEntity
  8
0
100
AcDbBlockEnd
  0
BLOCK
  5
11E
330
11C
100
AcDbEntity
  8
0
100
AcDbBlockBegin
  2
block 16
 70
     0
 10
0.0
 20
0.0
 30
0.0
  3
block 16
  1

  0
INSERT
  5
121
330
11C
100
AcDbEntity
  8
Text
100
AcDbBlockReference
  2
block 17
 10
0.0
 20
0.0
 30
0.0
  0
ENDBLK
  5
11F
330
11C
100
AcDbEntity
  8
0
100
AcDbBlockEnd
  0
BLOCK
  5
122
330
120
100
AcDbEntity
  8
0
100
AcDbBlockBegin
  2
block 17
 70
     0
 10
0.0
 20
0.0
 30
0.0
  3
block 17
  1

  0
POLYLINE
  5
124
330
120
100
AcDbEntity
  8
Text
 62
   250
370
     9
100
AcDb2dPolyline
 66
     1
 10
0.0
 20
0.0
 30
0.0
  0
VERTEX
  5
125
330
124
100
AcDbEntity
  8
Text
 62
   250
370
     9
100
AcDbVertex
100
AcDb2dVertex
 10
151.6830755914195
 20
-82.95548771797641
 30
0.0
  0
VERTEX
  5
126
330
124
100
AcDbEntity
  8
Text
 62
   250
370
     9
100
AcDbVertex
100
AcDb2dVertex
 10
151.786428455977
 20
-89.23486325894129
 30
0.0
  0
VERTEX
  5
127
330
124
100
AcDbEntity
  8
Text
 62
   250
370
     9
100
AcDbVertex
100
AcDb2dVertex
 10
152.1653889593545
 20
-89.23486325894129
 30
0.0
  0
VERTEX
  5
128
330
124
100
AcDbEntity
  8
Text
 62
   250
370
     9
100
AcDbVertex
100
AcDb2dVertex
 10
152.2790771103677
 20
-82.95531546320214
 30
0.0
  0
SEQEND
  5
129
330
124
100
AcDbEntity
  8
Text
370
     9
  0
SPLINE
  5
12A
330
120
100
AcDbEntity
  8
Text
 62
   250
370
     9
100
AcDbSpline
210
0.0
220
0.0
230
1.0
 70
     8
 71
     3
 72
    35
 73
    31
 74
     0
 42
0.000000001
 43
0.0000000001
 40
0.0
 40
0.0
 40
0.0
 40
0.0
 40
1.0
 40
1.0
 40
1.0
 40
2.0
 40
2.0
 40
2.0
 40
3.0
 40
3.0
 40
3.0
 40
4.0
 40
4.0
 40
4.0
 40
5.0
 40
5.0
 40
5.0
 40
6.0
 40
6.0
 40
6.0
 40
7.0
 40
7.0
 40
7.0
 40
8.0
 40
8.0
 40
8.0
 40
9.0
 40
9.0
 40
9.0
 40
10.0
 40
10.0
 40
10.0
 40
10.0
 10
156.7831949477834
 20
-82.95583222752494
 30
0.0
 10
156.7831949477834
 20
-82.95583222752494
 30
0.0
 10
151.8064100097914
 20
-82.95583222752494
 30
0.0
 10
151.8064100097914
 20
-82.95583222752494
 30
0.0
 10
151.8064100097914
 20
-82.95583222752494
 30
0.0
 10
151.4846380914691
 20
-82.99648435425089
 30
0.0
 10
151.4846380914691
 20
-82.72742239685287
 30
0.0
 10
151.4846380914691
 20
-82.72742239685287
 30
0.0
 10
151.3923095324644
 20
-81.59777558723945
 30
0.0
 10
151.4226263727346
 20
-80.20388995390737
 30
0.0
 10
151.4439859647431
 20
-79.19413246718064
 30
0.0
 10
151.6258870063643
 20
-78.29341225256206
 30
0.0
 10
151.6748073622549
 20
-78.08136662544495
 30
0.0
 10
151.7574896539009
 20
-77.72548826181862
 30
0.0
 10
151.9070067979607
 20
-77.75649412118588
 30
0.0
 10
151.9070067979607
 20
-77.75649412118588
 30
0.0
 10
151.9070067979607
 20
-77.75649412118588
 30
0.0
 10
152.0771945149321
 20
-77.74598657995587
 30
0.0
 10
152.1357611381813
 20
-78.16163735025125
 30
0.0
 10
152.1895046277512
 20
-78.54077010840301
 30
0.0
 10
152.2680528048149
 20
-80.08882376470003
 30
0.0
 10
152.2783880912707
 20
-80.25883922689709
 30
0.0
 10
152.2901014159205
 20
-80.43436684187058
 30
0.0
 10
152.3038817978615
 20
-81.38211260986281
 30
0.0
 10
152.3038817978615
 20
-81.38211260986281
 30
0.0
 10
152.3038817978615
 20
-81.38211260986281
 30
0.0
 10
152.3011257214733
 20
-81.19194333907701
 30
0.0
 10
152.531258099888
 20
-81.18091903352421
 30
0.0
 10
152.7620794973997
 20
-81.17006698274568
 30
0.0
 10
156.3628932985829
 20
-81.08204479309755
 30
0.0
 10
156.8017984634037
 20
-81.0928968438761
 30
0.0
  0
SPLINE
  5
12B
330
120
100
AcDbEntity
  8
Text
 62
   250
370
     9
100
AcDbSpline
210
0.0
220
0.0
230
1.0
 70
     8
 71
     3
 72
    14
 73
    10
 74
     0
 42
0.000000001
 43
0.0000000001
 40
0.0
 40
0.0
 40
0.0
 40
0.0
 40
1.0
 40
1.0
 40
1.0
 40
2.0
 40
2.0
 40
2.0
 40
3.0
 40
3.0
 40
3.0
 40
3.0
 10
151.6245089681702
 20
-78.32562389534915
 30
0.0
 10
151.6245089681702
 20
-78.32562389534915
 30
0.0
 10
151.607972509841
 20
-75.96469995930744
 30
0.0
 10
151.5859238987355
 20
-75.52545028493809
 30
0.0
 10
151.5859238987355
 20
-75.52545028493809
 30
0.0
 10
151.813989219859
 20
-75.50770804318905
 30
0.0
 10
152.0771945149321
 20
-75.52252195377562
 30
0.0
 10
152.3410888291022
 20
-75.53716360958794
 30
0.0
 10
156.8128227689565
 20
-75.53440753319974
 30
0.0
 10
156.8128227689565
 20
-75.53440753319974
 30
0.0
  0
POLYLINE
  5
12C
330
120
100
AcDbEntity
  8
Text
 62
   250
370
     9
100
AcDb2dPolyline
 66
     1
 10
0.0
 20
0.0
 30
0.0
  0
VERTEX
  5
12D
330
12C
100
AcDbEntity
  8
Text
 62
   250
370
     9
100
AcDbVertex
100
AcDb2dVertex
 10
161.1653564050211
 20
-82.95548771797641
 30
0.0
  0
VERTEX
  5
12E
330
12C
100
AcDbEntity
  8
Text
 62
   250
370
     9
100
AcDbVertex
100
AcDb2dVertex
 10
161.0613145213666
 20
-89.23486325894129
 30
0.0
  0
VERTEX
  5
12F
330
12C
100
AcDbEntity
  8
Text
 62
   250
370
     9
100
AcDbVertex
100
AcDb2dVertex
 10
160.6823540179891
 20
-89.23486325894129
 30
0.0
  0
VERTEX
  5
130
330
12C
100
AcDbEntity
  8
Text
 62
   250
370
     9
100
AcDbVertex
100
AcDb2dVertex
 10
160.5686658669759
 20
-82.95531546320214
 30
0.0
  0
SEQEND
  5
131
330
12C
100
AcDbEntity
  8
Text
370
     9
  0
SPLINE
  5
132
330
120
100
AcDbEntity
  8
Text
 62
   250
370
     9
100
AcDbSpline
210
0.0
220
0.0
230
1.0
 70
     8
 71
     3
 72
    35
 73
    31
 74
     0
 42
0.000000001
 43
0.0000000001
 40
0.0
 40
0.0
 40
0.0
 40
0.0
 40
1.0
 40
1.0
 40
1.0
 40
2.0
 40
2.0
 40
2.0
 40
3.0
 40
3.0
 40
3.0
 40
4.0
 40
4.0
 40
4.0
 40
5.0
 40
5.0
 40
5.0
 40
6.0
 40
6.0
 40
6.0
 40
7.0
 40
7.0
 40
7.0
 40
8.0
 40
8.0
 40
8.0
 40
9.0
 40
9.0
 40
9.0
 40
10.0
 40
10.0
 40
10.0
 40
10.0
 10
156.0645480295602
 20
-82.95583222752494
 30
0.0
 10
156.0645480295602
 20
-82.95583222752494
 30
0.0
 10
161.0413329675521
 20
-82.95583222752494
 30
0.0
 10
161.0413329675521
 20
-82.95583222752494
 30
0.0
 10
161.0413329675521
 20
-82.95583222752494
 30
0.0
 10
161.3637939049715
 20
-82.99648435425089
 30
0.0
 10
161.3637939049715
 20
-82.72742239685287
 30
0.0
 10
161.3637939049715
 20
-82.72742239685287
 30
0.0
 10
161.4554334448792
 20
-81.59777558723945
 30
0.0
 10
161.425805623706
 20
-80.20388995390737
 30
0.0
 10
161.4037570126004
 20
-79.19413246718064
 30
0.0
 10
161.2225449900763
 20
-78.29341225256206
 30
0.0
 10
161.1729356150887
 20
-78.08136662544495
 30
0.0
 10
161.0909423425397
 20
-77.72548826181862
 30
0.0
 10
160.9414251984799
 20
-77.75649412118588
 30
0.0
 10
160.9414251984799
 20
-77.75649412118588
 30
0.0
 10
160.9414251984799
 20
-77.75649412118588
 30
0.0
 10
160.7705484624115
 20
-77.74598657995587
 30
0.0
 10
160.7119818391623
 20
-78.16163735025125
 30
0.0
 10
160.6589273686894
 20
-78.54077010840301
 30
0.0
 10
160.5796901725287
 20
-80.08882376470003
 30
0.0
 10
160.5693548860729
 20
-80.25883922689709
 30
0.0
 10
160.5583305805201
 20
-80.43436684187058
 30
0.0
 10
160.5438611794821
 20
-81.38211260986281
 30
0.0
 10
160.5438611794821
 20
-81.38211260986281
 30
0.0
 10
160.5438611794821
 20
-81.38211260986281
 30
0.0
 10
160.5473062749673
 20
-81.19194333907701
 30
0.0
 10
160.3164848774556
 20
-81.18091903352421
 30
0.0
 10
160.0863524990409
 20
-81.17006698274568
 30
0.0
 10
156.4855386978577
 20
-81.08204479309755
 30
0.0
 10
156.0459445139399
 20
-81.0928968438761
 30
0.0
  0
SPLINE
  5
133
330
120
100
AcDbEntity
  8
Text
 62
   250
370
     9
100
AcDbSpline
210
0.0
220
0.0
230
1.0
 70
     8
 71
     3
 72
    14
 73
    10
 74
     0
 42
0.000000001
 43
0.0000000001
 40
0.0
 40
0.0
 40
0.0
 40
0.0
 40
1.0
 40
1.0
 40
1.0
 40
2.0
 40
2.0
 40
2.0
 40
3.0
 40
3.0
 40
3.0
 40
3.0
 10
161.2404594865996
 20
-78.41554088751417
 30
0.0
 10
161.2404594865996
 20
-78.41554088751417
 30
0.0
 10
161.232880276532
 20
-75.95143634168923
 30
0.0
 10
161.2549288876377
 20
-75.51218666731987
 30
0.0
 10
161.2549288876377
 20
-75.51218666731987
 30
0.0
 10
161.1439968130126
 20
-75.50477971202659
 30
0.0
 10
160.8807915179395
 20
-75.51993813216168
 30
0.0
 10
160.6168972037694
 20
-75.53440753319974
 30
0.0
 10
156.0356092274842
 20
-75.53440753319974
 30
0.0
 10
156.0356092274842
 20
-75.53440753319974
 30
0.0
  0
ENDBLK
  5
123
330
120
100
AcDbEntity
  8
0
100
AcDbBlockEnd
  0
BLOCK
  5
13E
330
13C
100
AcDbEntity
  8
0
100
AcDbBlockBegin
  2
block 18
 70
     0
 10
0.0
 20
0.0
 30
0.0
  3
block 18
  1

  0
SPLINE
  5
140
330
13C
100
AcDbEntity
  8
Text
 62
   250
370
     9
100
AcDbSpline
210
0.0
220
0.0
230
1.0
 70
     9
 71
     3
 72
    50
 73
    46
 74
     0
 42
0.000000001
 43
0.0000000001
 40
0.0
 40
0.0
 40
0.0
 40
0.0
 40
1.0
 40
1.0
 40
1.0
 40
2.0
 40
2.0
 40
2.0
 40
3.0
 40
3.0
 40
3.0
 40
4.0
 40
4.0
 40
4.0
 40
5.0
 40
5.0
 40
5.0
 40
6.0
 40
6.0
 40
6.0
 40
7.0
 40
7.0
 40
7.0
 40
8.0
 40
8.0
 40
8.0
 40
9.0
 40
9.0
 40
9.0
 40
10.0
 40
10.0
 40
10.0
 40
11.0
 40
11.0
 40
11.0
 40
12.0
 40
12.0
 40
12.0
 40
13.0
 40
13.0
 40
13.0
 40
14.0
 40
14.0
 40
14.0
 40
15.0
 40
15.0
 40
15.0
 40
15.0
 10
203.3774223666904
 20
-56.91607800226403
 30
0.0
 10
203.3774223666904
 20
-56.91607800226403
 30
0.0
 10
194.2679008845927
 20
-56.91693927613535
 30
0.0
 10
194.2679008845927
 20
-56.91693927613535
 30
0.0
 10
194.2679008845927
 20
-56.91693927613535
 30
0.0
 10
194.0308783152075
 20
-56.94915091892243
 30
0.0
 10
194.0343234106928
 20
-56.68456758565525
 30
0.0
 10
194.0343234106928
 20
-56.68456758565525
 30
0.0
 10
194.0308783152075
 20
-55.7593871930914
 30
0.0
 10
194.0308783152075
 20
-55.7593871930914
 30
0.0
 10
194.0308783152075
 20
-55.7593871930914
 30
0.0
 10
194.0308783152075
 20
-55.64259845614143
 30
0.0
 10
194.0308783152075
 20
-55.64259845614143
 30
0.0
 10
194.0308783152075
 20
-55.64259845614143
 30
0.0
 10
194.0894449384568
 20
-55.13031275748478
 30
0.0
 10
194.8728596518026
 20
-55.13031275748478
 30
0.0
 10
194.8728596518026
 20
-55.13031275748478
 30
0.0
 10
202.088956655207
 20
-55.13031275748478
 30
0.0
 10
202.088956655207
 20
-55.13031275748478
 30
0.0
 10
202.088956655207
 20
-55.13031275748478
 30
0.0
 10
202.0875786170128
 20
-55.13186305045315
 30
0.0
 10
202.1544134694267
 20
-55.17509899879303
 30
0.0
 10
202.2212483218405
 20
-55.21816269235865
 30
0.0
 10
202.088956655207
 20
-54.95444063296278
 30
0.0
 10
202.088956655207
 20
-54.95444063296278
 30
0.0
 10
202.088956655207
 20
-54.95444063296278
 30
0.0
 10
202.0786213687512
 20
-54.86331785737792
 30
0.0
 10
202.0675970631984
 20
-54.77546792250405
 30
0.0
 10
202.0565727576456
 20
-54.68761798763019
 30
0.0
 10
202.0675970631984
 20
-51.58083087903188
 30
0.0
 10
202.4189968026939
 20
-49.72547470545058
 30
0.0
 10
202.4403563947025
 20
-49.61109753534028
 30
0.0
 10
202.627080570003
 20
-49.49499781748737
 30
0.0
 10
202.8558349102236
 20
-49.50050997026377
 30
0.0
 10
202.8558349102236
 20
-49.50050997026377
 30
0.0
 10
202.9929497105365
 20
-49.49603134613294
 30
0.0
 10
202.9929497105365
 20
-49.49603134613294
 30
0.0
 10
202.9929497105365
 20
-49.49603134613294
 30
0.0
 10
203.4835313076361
 20
-49.49499781748737
 30
0.0
 10
203.482842288539
 20
-49.88911674099995
 30
0.0
 10
203.482153269442
 20
-50.18470593363439
 30
0.0
 10
203.5159152051974
 20
-56.72608098625251
 30
0.0
 10
203.5159152051974
 20
-56.72608098625251
 30
0.0
 10
203.5159152051974
 20
-56.72608098625251
 30
0.0
 10
203.523494415265
 20
-56.91607800226403
 30
0.0
 10
203.3774223666904
 20
-56.91607800226403
 30
0.0
  0
POLYLINE
  5
141
330
13C
100
AcDbEntity
  8
Text
 62
   250
370
     9
100
AcDb2dPolyline
 66
     1
 10
0.0
 20
0.0
 30
0.0
  0
VERTEX
  5
142
330
141
100
AcDbEntity
  8
Text
 62
   250
370
     9
100
AcDbVertex
100
AcDb2dVertex
 10
202.7814208477421
 20
-56.9162502570383
 30
0.0
  0
VERTEX
  5
143
330
141
100
AcDbEntity
  8
Text
 62
   250
370
     9
100
AcDbVertex
100
AcDb2dVertex
 10
202.9226697626374
 20
-63.19579805277744
 30
0.0
  0
VERTEX
  5
144
330
141
100
AcDbEntity
  8
Text
 62
   250
370
     9
100
AcDbVertex
100
AcDb2dVertex
 10
203.3016302660149
 20
-63.19579805277744
 30
0.0
  0
VERTEX
  5
145
330
141
100
AcDbEntity
  8
Text
 62
   250
370
     9
100
AcDbVertex
100
AcDb2dVertex
 10
203.3774223666904
 20
-56.91607800226403
 30
0.0
  0
SEQEND
  5
146
330
141
100
AcDbEntity
  8
Text
370
     9
  0
POLYLINE
  5
147
330
13C
100
AcDbEntity
  8
Text
 62
   250
370
     9
100
AcDb2dPolyline
 66
     1
 10
0.0
 20
0.0
 30
0.0
  0
VERTEX
  5
148
330
147
100
AcDbEntity
  8
Text
 62
   250
370
     9
100
AcDbVertex
100
AcDb2dVertex
 10
194.1700601728117
 20
-56.9162502570383
 30
0.0
  0
VERTEX
  5
149
330
147
100
AcDbEntity
  8
Text
 62
   250
370
     9
100
AcDbVertex
100
AcDb2dVertex
 10
194.3119981068039
 20
-63.19579805277744
 30
0.0
  0
VERTEX
  5
14A
330
147
100
AcDbEntity
  8
Text
 62
   250
370
     9
100
AcDbVertex
100
AcDb2dVertex
 10
194.6909586101814
 20
-63.19579805277744
 30
0.0
  0
VERTEX
  5
14B
330
147
100
AcDbEntity
  8
Text
 62
   250
370
     9
100
AcDbVertex
100
AcDb2dVertex
 10
194.7660616917599
 20
-56.91607800226403
 30
0.0
  0
SEQEND
  5
14C
330
147
100
AcDbEntity
  8
Text
370
     9
  0
ENDBLK
  5
13F
330
13C
100
AcDbEntity
  8
0
100
AcDbBlockEnd
  0
BLOCK
  5
14F
330
14D
100
AcDbEntity
  8
0
100
AcDbBlockBegin
  2
block 19
 70
     0
 10
0.0
 20
0.0
 30
0.0
  3
block 19
  1

  0
SPLINE
  5
151
330
14D
100
AcDbEntity
  8
Text
 62
   250
370
     9
100
AcDbSpline
210
0.0
220
0.0
230
1.0
 70
     8
 71
     3
 72
    32
 73
    28
 74
     0
 42
0.000000001
 43
0.0000000001
 40
0.0
 40
0.0
 40
0.0
 40
0.0
 40
1.0
 40
1.0
 40
1.0
 40
2.0
 40
2.0
 40
2.0
 40
3.0
 40
3.0
 40
3.0
 40
4.0
 40
4.0
 40
4.0
 40
5.0
 40
5.0
 40
5.0
 40
6.0
 40
6.0
 40
6.0
 40
7.0
 40
7.0
 40
7.0
 40
8.0
 40
8.0
 40
8.0
 40
9.0
 40
9.0
 40
9.0
 40
9.0
 10
202.2060899017054
 20
-77.41697996111451
 30
0.0
 10
202.2598333912753
 20
-76.6840358966276
 30
0.0
 10
202.3025525752924
 20
-76.37828367231168
 30
0.0
 10
202.4189968026939
 20
-75.7641954020659
 30
0.0
 10
202.4403563947025
 20
-75.65016274150413
 30
0.0
 10
202.627080570003
 20
-75.53406302365122
 30
0.0
 10
202.8558349102236
 20
-75.53957517642761
 30
0.0
 10
202.8558349102236
 20
-75.53957517642761
 30
0.0
 10
202.9929497105365
 20
-75.53509655229678
 30
0.0
 10
202.9929497105365
 20
-75.53509655229678
 30
0.0
 10
202.9929497105365
 20
-75.53509655229678
 30
0.0
 10
203.4835313076361
 20
-75.53406302365122
 30
0.0
 10
203.482842288539
 20
-75.92852645671232
 30
0.0
 10
203.482153269442
 20
-76.22377113979823
 30
0.0
 10
203.5159152051974
 20
-82.76531844719063
 30
0.0
 10
203.5159152051974
 20
-82.76531844719063
 30
0.0
 10
203.5159152051974
 20
-82.76531844719063
 30
0.0
 10
203.523494415265
 20
-82.95531546320214
 30
0.0
 10
203.3774223666904
 20
-82.95531546320214
 30
0.0
 10
203.3774223666904
 20
-82.95531546320214
 30
0.0
 10
194.2679008845927
 20
-82.95617673707345
 30
0.0
 10
194.2679008845927
 20
-82.95617673707345
 30
0.0
 10
194.2679008845927
 20
-82.95617673707345
 30
0.0
 10
194.0308783152075
 20
-82.98821612508628
 30
0.0
 10
194.0343234106928
 20
-82.72397730136763
 30
0.0
 10
194.0343234106928
 20
-82.72397730136763
 30
0.0
 10
194.0336343915958
 20
-82.51692706270409
 30
0.0
 10
194.0336343915958
 20
-82.51692706270409
 30
0.0
  0
POLYLINE
  5
152
330
14D
100
AcDbEntity
  8
Text
 62
   250
370
     9
100
AcDb2dPolyline
 66
     1
 10
0.0
 20
0.0
 30
0.0
  0
VERTEX
  5
153
330
152
100
AcDbEntity
  8
Text
 62
   250
370
     9
100
AcDbVertex
100
AcDb2dVertex
 10
202.7814208477421
 20
-82.95531546320214
 30
0.0
  0
VERTEX
  5
154
330
152
100
AcDbEntity
  8
Text
 62
   250
370
     9
100
AcDbVertex
100
AcDb2dVertex
 10
202.9226697626374
 20
-89.23486325894129
 30
0.0
  0
VERTEX
  5
155
330
152
100
AcDbEntity
  8
Text
 62
   250
370
     9
100
AcDbVertex
100
AcDb2dVertex
 10
203.3016302660149
 20
-89.23486325894129
 30
0.0
  0
VERTEX
  5
156
330
152
100
AcDbEntity
  8
Text
 62
   250
370
     9
100
AcDbVertex
100
AcDb2dVertex
 10
203.3774223666904
 20
-82.95531546320214
 30
0.0
  0
SEQEND
  5
157
330
152
100
AcDbEntity
  8
Text
370
     9
  0
POLYLINE
  5
158
330
14D
100
AcDbEntity
  8
Text
 62
   250
370
     9
100
AcDb2dPolyline
 66
     1
 10
0.0
 20
0.0
 30
0.0
  0
VERTEX
  5
159
330
158
100
AcDbEntity
  8
Text
 62
   250
370
     9
100
AcDbVertex
100
AcDb2dVertex
 10
194.1700601728117
 20
-82.95531546320214
 30
0.0
  0
VERTEX
  5
15A
330
158
100
AcDbEntity
  8
Text
 62
   250
370
     9
100
AcDbVertex
100
AcDb2dVertex
 10
194.3119981068039
 20
-89.23486325894129
 30
0.0
  0
VERTEX
  5
15B
330
158
100
AcDbEntity
  8
Text
 62
   250
370
     9
100
AcDbVertex
100
AcDb2dVertex
 10
194.6909586101814
 20
-89.23486325894129
 30
0.0
  0
VERTEX
  5
15C
330
158
100
AcDbEntity
  8
Text
 62
   250
370
     9
100
AcDbVertex
100
AcDb2dVertex
 10
194.7660616917599
 20
-82.95531546320214
 30
0.0
  0
SEQEND
  5
15D
330
158
100
AcDbEntity
  8
Text
370
     9
  0
SPLINE
  5
15E
330
14D
100
AcDbEntity
  8
Text
 62
   250
370
     9
100
AcDbSpline
210
0.0
220
0.0
230
1.0
 70
     8
 71
     3
 72
    14
 73
    10
 74
     0
 42
0.000000001
 43
0.0000000001
 40
0.0
 40
0.0
 40
0.0
 40
0.0
 40
1.0
 40
1.0
 40
1.0
 40
2.0
 40
2.0
 40
2.0
 40
3.0
 40
3.0
 40
3.0
 40
3.0
 10
194.0308783152075
 20
-82.72397730136763
 30
0.0
 10
194.0308783152075
 20
-82.72397730136763
 30
0.0
 10
194.0308783152075
 20
-77.86174178826026
 30
0.0
 10
194.0308783152075
 20
-77.86174178826026
 30
0.0
 10
194.0308783152075
 20
-77.86174178826026
 30
0.0
 10
201.8657144677628
 20
-77.86174178826026
 30
0.0
 10
201.8657144677628
 20
-77.86174178826026
 30
0.0
 10
201.8657144677628
 20
-77.86174178826026
 30
0.0
 10
202.2060899017054
 20
-77.83418102437827
 30
0.0
 10
202.2060899017054
 20
-77.41697996111451
 30
0.0
  0
ENDBLK
  5
150
330
14D
100
AcDbEntity
  8
0
100
AcDbBlockEnd
  0
BLOCK
  5
161
330
15F
100
AcDbEntity
  8
0
100
AcDbBlockBegin
  2
block 20
 70
     0
 10
0.0
 20
0.0
 30
0.0
  3
block 20
  1

  0
SPLINE
  5
163
330
15F
100
AcDbEntity
  8
Text
 62
   250
370
     9
100
AcDbSpline
210
0.0
220
0.0
230
1.0
 70
     8
 71
     3
 72
    32
 73
    28
 74
     0
 42
0.000000001
 43
0.0000000001
 40
0.0
 40
0.0
 40
0.0
 40
0.0
 40
1.0
 40
1.0
 40
1.0
 40
2.0
 40
2.0
 40
2.0
 40
3.0
 40
3.0
 40
3.0
 40
4.0
 40
4.0
 40
4.0
 40
5.0
 40
5.0
 40
5.0
 40
6.0
 40
6.0
 40
6.0
 40
7.0
 40
7.0
 40
7.0
 40
8.0
 40
8.0
 40
8.0
 40
9.0
 40
9.0
 40
9.0
 40
9.0
 10
202.904066247017
 20
-128.4235134227552
 30
0.0
 10
202.9578097365869
 20
-127.6907416130426
 30
0.0
 10
203.0053520542834
 20
-127.3352077589648
 30
0.0
 10
203.1217962816849
 20
-126.7216362530418
 30
0.0
 10
203.1431558736934
 20
-126.6072590829315
 30
0.0
 10
203.3298800489939
 20
-126.4908148555301
 30
0.0
 10
203.5586343892145
 20
-126.496671517855
 30
0.0
 10
203.5586343892145
 20
-126.496671517855
 30
0.0
 10
203.6957491895274
 20
-126.4921928937241
 30
0.0
 10
203.6957491895274
 20
-126.4921928937241
 30
0.0
 10
203.6957491895274
 20
-126.4921928937241
 30
0.0
 10
204.186330786627
 20
-126.4908148555301
 30
0.0
 10
204.18564176753
 20
-126.8852782885911
 30
0.0
 10
204.184952748433
 20
-127.1805229716771
 30
0.0
 10
204.2187146841884
 20
-133.7220702790695
 30
0.0
 10
204.2187146841884
 20
-133.7220702790695
 30
0.0
 10
204.2187146841884
 20
-133.7220702790695
 30
0.0
 10
204.2262938942559
 20
-133.9122395498553
 30
0.0
 10
204.0802218456813
 20
-133.9122395498553
 30
0.0
 10
204.0802218456813
 20
-133.9122395498553
 30
0.0
 10
194.2679008845927
 20
-133.9129285689523
 30
0.0
 10
194.2679008845927
 20
-133.9129285689523
 30
0.0
 10
194.2679008845927
 20
-133.9129285689523
 30
0.0
 10
194.0308783152075
 20
-133.9453124665137
 30
0.0
 10
194.0343234106928
 20
-133.6807291332465
 30
0.0
 10
194.0343234106928
 20
-133.6807291332465
 30
0.0
 10
194.0336343915958
 20
-133.4740234041315
 30
0.0
 10
194.0336343915958
 20
-133.4740234041315
 30
0.0
  0
POLYLINE
  5
164
330
15F
100
AcDbEntity
  8
Text
 62
   250
370
     9
100
AcDb2dPolyline
 66
     1
 10
0.0
 20
0.0
 30
0.0
  0
VERTEX
  5
165
330
164
100
AcDbEntity
  8
Text
 62
   250
370
     9
100
AcDbVertex
100
AcDb2dVertex
 10
203.4842203267331
 20
-133.9122395498553
 30
0.0
  0
VERTEX
  5
166
330
164
100
AcDbEntity
  8
Text
 62
   250
370
     9
100
AcDbVertex
100
AcDb2dVertex
 10
203.6254692416284
 20
-140.1919596003686
 30
0.0
  0
VERTEX
  5
167
330
164
100
AcDbEntity
  8
Text
 62
   250
370
     9
100
AcDbVertex
100
AcDb2dVertex
 10
204.0044297450058
 20
-140.1919596003686
 30
0.0
  0
VERTEX
  5
168
330
164
100
AcDbEntity
  8
Text
 62
   250
370
     9
100
AcDbVertex
100
AcDb2dVertex
 10
204.0802218456813
 20
-133.9122395498553
 30
0.0
  0
SEQEND
  5
169
330
164
100
AcDbEntity
  8
Text
370
     9
  0
POLYLINE
  5
16A
330
15F
100
AcDbEntity
  8
Text
 62
   250
370
     9
100
AcDb2dPolyline
 66
     1
 10
0.0
 20
0.0
 30
0.0
  0
VERTEX
  5
16B
330
16A
100
AcDbEntity
  8
Text
 62
   250
370
     9
100
AcDbVertex
100
AcDb2dVertex
 10
194.2272487578668
 20
-133.9122395498553
 30
0.0
  0
VERTEX
  5
16C
330
16A
100
AcDbEntity
  8
Text
 62
   250
370
     9
100
AcDbVertex
100
AcDb2dVertex
 10
194.3691866918591
 20
-140.1919596003686
 30
0.0
  0
VERTEX
  5
16D
330
16A
100
AcDbEntity
  8
Text
 62
   250
370
     9
100
AcDbVertex
100
AcDb2dVertex
 10
194.7481471952366
 20
-140.1919596003686
 30
0.0
  0
VERTEX
  5
16E
330
16A
100
AcDbEntity
  8
Text
 62
   250
370
     9
100
AcDbVertex
100
AcDb2dVertex
 10
194.823250276815
 20
-133.9122395498553
 30
0.0
  0
SEQEND
  5
16F
330
16A
100
AcDbEntity
  8
Text
370
     9
  0
SPLINE
  5
170
330
15F
100
AcDbEntity
  8
Text
 62
   250
370
     9
100
AcDbSpline
210
0.0
220
0.0
230
1.0
 70
     8
 71
     3
 72
    14
 73
    10
 74
     0
 42
0.000000001
 43
0.0000000001
 40
0.0
 40
0.0
 40
0.0
 40
0.0
 40
1.0
 40
1.0
 40
1.0
 40
2.0
 40
2.0
 40
2.0
 40
3.0
 40
3.0
 40
3.0
 40
3.0
 10
194.0308783152075
 20
-133.6807291332465
 30
0.0
 10
194.0308783152075
 20
-133.6807291332465
 30
0.0
 10
194.0308783152075
 20
-128.8190103844619
 30
0.0
 10
194.0308783152075
 20
-128.8190103844619
 30
0.0
 10
194.0308783152075
 20
-128.8190103844619
 30
0.0
 10
202.5526665075215
 20
-128.8190103844619
 30
0.0
 10
202.5526665075215
 20
-128.8190103844619
 30
0.0
 10
202.5526665075215
 20
-128.8190103844619
 30
0.0
 10
202.904066247017
 20
-128.8403699764705
 30
0.0
 10
202.904066247017
 20
-128.4235134227552
 30
0.0
  0
ENDBLK
  5
162
330
15F
100
AcDbEntity
  8
0
100
AcDbBlockEnd
  0
BLOCK
  5
173
330
171
100
AcDbEntity
  8
0
100
AcDbBlockBegin
  2
block 21
 70
     0
 10
0.0
 20
0.0
 30
0.0
  3
block 21
  1

  0
SPLINE
  5
175
330
171
100
AcDbEntity
  8
Text
 62
   250
370
     9
100
AcDbSpline
210
0.0
220
0.0
230
1.0
 70
    11
 71
     3
 72
    32
 73
    28
 74
     0
 42
0.000000001
 43
0.0000000001
 40
0.0
 40
0.0
 40
0.0
 40
0.0
 40
1.0
 40
1.0
 40
1.0
 40
2.0
 40
2.0
 40
2.0
 40
3.0
 40
3.0
 40
3.0
 40
4.0
 40
4.0
 40
4.0
 40
5.0
 40
5.0
 40
5.0
 40
6.0
 40
6.0
 40
6.0
 40
7.0
 40
7.0
 40
7.0
 40
8.0
 40
8.0
 40
8.0
 40
9.0
 40
9.0
 40
9.0
 40
9.0
 10
194.0336343915958
 20
-107.5772406415084
 30
0.0
 10
194.0336343915958
 20
-107.5772406415084
 30
0.0
 10
194.0343234106928
 20
-107.7846353897205
 30
0.0
 10
194.0343234106928
 20
-107.7846353897205
 30
0.0
 10
194.0308783152075
 20
-108.0485297038906
 30
0.0
 10
194.2679008845927
 20
-108.0168348254263
 30
0.0
 10
194.2679008845927
 20
-108.0168348254263
 30
0.0
 10
194.2679008845927
 20
-108.0168348254263
 30
0.0
 10
204.0802218456813
 20
-108.0161458063293
 30
0.0
 10
204.0802218456813
 20
-108.0161458063293
 30
0.0
 10
204.2262938942559
 20
-108.0161458063293
 30
0.0
 10
204.2187146841884
 20
-107.825632025995
 30
0.0
 10
204.2187146841884
 20
-107.825632025995
 30
0.0
 10
204.2187146841884
 20
-107.825632025995
 30
0.0
 10
204.1897758821123
 20
-102.1649956341809
 30
0.0
 10
204.1883978439182
 20
-101.8025715891327
 30
0.0
 10
204.1883978439182
 20
-101.8025715891327
 30
0.0
 10
204.2187146841884
 20
-101.5171454281797
 30
0.0
 10
203.9121011860011
 20
-101.5171454281797
 30
0.0
 10
203.551744198244
 20
-101.5171454281797
 30
0.0
 10
194.2947726293777
 20
-101.5171454281797
 30
0.0
 10
194.2947726293777
 20
-101.5171454281797
 30
0.0
 10
194.2947726293777
 20
-101.5171454281797
 30
0.0
 10
194.0308783152075
 20
-101.5608981408424
 30
0.0
 10
194.0308783152075
 20
-101.7805229780271
 30
0.0
 10
194.0308783152075
 20
-102.0001478152118
 30
0.0
 10
194.0336343915958
 20
-107.5772406415084
 30
0.0
 10
194.0336343915958
 20
-107.5772406415084
 30
0.0
  0
POLYLINE
  5
176
330
171
100
AcDbEntity
  8
Text
 62
   250
370
     9
100
AcDb2dPolyline
 66
     1
 10
0.0
 20
0.0
 30
0.0
  0
VERTEX
  5
177
330
176
100
AcDbEntity
  8
Text
 62
   250
370
     9
100
AcDbVertex
100
AcDb2dVertex
 10
202.8730603876498
 20
-102.9223998766131
 30
0.0
  0
VERTEX
  5
217
330
176
100
AcDbEntity
  8
0
100
AcDbVertex
100
AcDb2dVertex
 10
202.8730603876498
 20
-102.9223998766131
 30
0.0
  0
SEQEND
  5
178
330
176
100
AcDbEntity
  8
Text
370
     9
  0
POLYLINE
  5
179
330
171
100
AcDbEntity
  8
Text
 62
   250
370
     9
100
AcDb2dPolyline
 66
     1
 10
0.0
 20
0.0
 30
0.0
  0
VERTEX
  5
17A
330
179
100
AcDbEntity
  8
Text
 62
   250
370
     9
100
AcDbVertex
100
AcDb2dVertex
 10
203.4842203267331
 20
-108.0161458063293
 30
0.0
  0
VERTEX
  5
17B
330
179
100
AcDbEntity
  8
Text
 62
   250
370
     9
100
AcDbVertex
100
AcDb2dVertex
 10
203.6254692416284
 20
-114.2955213472942
 30
0.0
  0
VERTEX
  5
17C
330
179
100
AcDbEntity
  8
Text
 62
   250
370
     9
100
AcDbVertex
100
AcDb2dVertex
 10
204.0044297450058
 20
-114.2955213472942
 30
0.0
  0
VERTEX
  5
17D
330
179
100
AcDbEntity
  8
Text
 62
   250
370
     9
100
AcDbVertex
100
AcDb2dVertex
 10
204.0802218456813
 20
-108.0161458063293
 30
0.0
  0
SEQEND
  5
17E
330
179
100
AcDbEntity
  8
Text
370
     9
  0
POLYLINE
  5
17F
330
171
100
AcDbEntity
  8
Text
 62
   250
370
     9
100
AcDb2dPolyline
 66
     1
 10
0.0
 20
0.0
 30
0.0
  0
VERTEX
  5
180
330
17F
100
AcDbEntity
  8
Text
 62
   250
370
     9
100
AcDbVertex
100
AcDb2dVertex
 10
194.2272487578668
 20
-108.0161458063293
 30
0.0
  0
VERTEX
  5
181
330
17F
100
AcDbEntity
  8
Text
 62
   250
370
     9
100
AcDbVertex
100
AcDb2dVertex
 10
194.3030408585423
 20
-114.2955213472942
 30
0.0
  0
VERTEX
  5
182
330
17F
100
AcDbEntity
  8
Text
 62
   250
370
     9
100
AcDbVertex
100
AcDb2dVertex
 10
194.6820013619198
 20
-114.2955213472942
 30
0.0
  0
VERTEX
  5
183
330
17F
100
AcDbEntity
  8
Text
 62
   250
370
     9
100
AcDbVertex
100
AcDb2dVertex
 10
194.823250276815
 20
-108.0161458063293
 30
0.0
  0
SEQEND
  5
184
330
17F
100
AcDbEntity
  8
Text
370
     9
  0
ENDBLK
  5
174
330
171
100
AcDbEntity
  8
0
100
AcDbBlockEnd
  0
BLOCK
  5
18B
330
189
100
AcDbEntity
  8
0
100
AcDbBlockBegin
  2
block 22
 70
     0
 10
0.0
 20
0.0
 30
0.0
  3
block 22
  1

  0
ENDBLK
  5
18C
330
189
100
AcDbEntity
  8
0
100
AcDbBlockEnd
  0
BLOCK
  5
18F
330
18D
100
AcDbEntity
  8
0
100
AcDbBlockBegin
  2
block 23
 70
     0
 10
0.0
 20
0.0
 30
0.0
  3
block 23
  1

  0
ENDBLK
  5
190
330
18D
100
AcDbEntity
  8
0
100
AcDbBlockEnd
  0
BLOCK
  5
193
330
191
100
AcDbEntity
  8
0
100
AcDbBlockBegin
  2
block 24
 70
     0
 10
0.0
 20
0.0
 30
0.0
  3
block 24
  1

  0
INSERT
  5
196
330
191
100
AcDbEntity
  8
Text
100
AcDbBlockReference
  2
block 25
 10
0.0
 20
0.0
 30
0.0
  0
INSERT
  5
19A
330
191
100
AcDbEntity
  8
Text
100
AcDbBlockReference
  2
block 26
 10
0.0
 20
0.0
 30
0.0
  0
ENDBLK
  5
194
330
191
100
AcDbEntity
  8
0
100
AcDbBlockEnd
  0
BLOCK
  5
197
330
195
100
AcDbEntity
  8
0
100
AcDbBlockBegin
  2
block 25
 70
     0
 10
0.0
 20
0.0
 30
0.0
  3
block 25
  1

  0
ENDBLK
  5
198
330
195
100
AcDbEntity
  8
0
100
AcDbBlockEnd
  0
BLOCK
  5
19B
330
199
100
AcDbEntity
  8
0
100
AcDbBlockBegin
  2
block 26
 70
     0
 10
0.0
 20
0.0
 30
0.0
  3
block 26
  1

  0
ENDBLK
  5
19C
330
199
100
AcDbEntity
  8
0
100
AcDbBlockEnd
  0
BLOCK
  5
1A9
330
1A7
100
AcDbEntity
  8
0
100
AcDbBlockBegin
  2
block 27
 70
     0
 10
0.0
 20
0.0
 30
0.0
  3
block 27
  1

  0
SPLINE
  5
1AB
330
1A7
100
AcDbEntity
  8
Text
 62
   250
370
     9
100
AcDbSpline
210
0.0
220
0.0
230
1.0
 70
     8
 71
     3
 72
    20
 73
    16
 74
     0
 42
0.000000001
 43
0.0000000001
 40
0.0
 40
0.0
 40
0.0
 40
0.0
 40
1.0
 40
1.0
 40
1.0
 40
2.0
 40
2.0
 40
2.0
 40
3.0
 40
3.0
 40
3.0
 40
4.0
 40
4.0
 40
4.0
 40
5.0
 40
5.0
 40
5.0
 40
5.0
 10
113.686428465502
 20
-165.8537868508977
 30
0.0
 10
113.686428465502
 20
-165.8537868508977
 30
0.0
 10
111.0702229540033
 20
-165.844829602636
 30
0.0
 10
110.5489800070849
 20
-165.8761799715518
 30
0.0
 10
110.0025878631243
 20
-165.9085638691131
 30
0.0
 10
109.9142211639277
 20
-166.3657280400058
 30
0.0
 10
109.9142211639277
 20
-166.3657280400058
 30
0.0
 10
109.9142211639277
 20
-166.3657280400058
 30
0.0
 10
109.4923692217588
 20
-174.1085801431048
 30
0.0
 10
109.4923692217588
 20
-174.1085801431048
 30
0.0
 10
109.4923692217588
 20
-174.1085801431048
 30
0.0
 10
109.4923692217588
 20
-174.4803059459632
 30
0.0
 10
109.7948486053638
 20
-174.4741047740898
 30
0.0
 10
109.7948486053638
 20
-174.4741047740898
 30
0.0
 10
113.286797389213
 20
-174.5237141490774
 30
0.0
 10
113.6866007202762
 20
-174.5237141490774
 30
0.0
  0
POLYLINE
  5
1AC
330
1A7
100
AcDbEntity
  8
Text
 62
   250
370
     9
100
AcDb2dPolyline
 66
     1
 10
0.0
 20
0.0
 30
0.0
  0
VERTEX
  5
1AD
330
1AC
100
AcDbEntity
  8
Text
 62
   250
370
     9
100
AcDbVertex
100
AcDb2dVertex
 10
109.9267957624488
 20
-174.2901366751774
 30
0.0
  0
VERTEX
  5
218
330
1AC
100
AcDbEntity
  8
0
100
AcDbVertex
100
AcDb2dVertex
 10
109.9267957624488
 20
-174.2901366751774
 30
0.0
  0
SEQEND
  5
1AE
330
1AC
100
AcDbEntity
  8
Text
370
     9
  0
SPLINE
  5
1AF
330
1A7
100
AcDbEntity
  8
Text
 62
   250
370
     9
100
AcDbSpline
210
0.0
220
0.0
230
1.0
 70
     8
 71
     3
 72
    11
 73
     7
 74
     0
 42
0.000000001
 43
0.0000000001
 40
0.0
 40
0.0
 40
0.0
 40
0.0
 40
1.0
 40
1.0
 40
1.0
 40
2.0
 40
2.0
 40
2.0
 40
2.0
 10
109.9142211639277
 20
-166.2885579011362
 30
0.0
 10
109.9038858774719
 20
-166.5324706614919
 30
0.0
 10
110.2418497445749
 20
-166.7336642378305
 30
0.0
 10
110.5491522618592
 20
-166.7646700971977
 30
0.0
 10
110.5491522618592
 20
-166.7646700971977
 30
0.0
 10
112.118048745842
 20
-166.7632920590036
 30
0.0
 10
113.6866007202762
 20
-166.7694932308771
 30
0.0
  0
SPLINE
  5
1B0
330
1A7
100
AcDbEntity
  8
Text
 62
   250
370
     9
100
AcDbSpline
210
0.0
220
0.0
230
1.0
 70
    11
 71
     3
 72
    17
 73
    13
 74
     0
 42
0.000000001
 43
0.0000000001
 40
0.0
 40
0.0
 40
0.0
 40
0.0
 40
1.0
 40
1.0
 40
1.0
 40
2.0
 40
2.0
 40
2.0
 40
3.0
 40
3.0
 40
3.0
 40
4.0
 40
4.0
 40
4.0
 40
4.0
 10
109.9803669972445
 20
-166.3057833785624
 30
0.0
 10
109.9803669972445
 20
-166.3388562952208
 30
0.0
 10
109.9481553544574
 20
-166.3657280400058
 30
0.0
 10
109.9088812659255
 20
-166.3657280400058
 30
0.0
 10
109.8692626678452
 20
-166.3657280400058
 30
0.0
 10
109.8373955346066
 20
-166.3388562952208
 30
0.0
 10
109.8373955346066
 20
-166.3057833785624
 30
0.0
 10
109.8373955346066
 20
-166.272710461904
 30
0.0
 10
109.8692626678452
 20
-166.2465277362161
 30
0.0
 10
109.9088812659255
 20
-166.2465277362161
 30
0.0
 10
109.9481553544574
 20
-166.2465277362161
 30
0.0
 10
109.9803669972445
 20
-166.272710461904
 30
0.0
 10
109.9803669972445
 20
-166.3057833785624
 30
0.0
  0
SPLINE
  5
1B1
330
1A7
100
AcDbEntity
  8
Text
 62
   250
370
     9
100
AcDbSpline
210
0.0
220
0.0
230
1.0
 70
     8
 71
     3
 72
    20
 73
    16
 74
     0
 42
0.000000001
 43
0.0000000001
 40
0.0
 40
0.0
 40
0.0
 40
0.0
 40
1.0
 40
1.0
 40
1.0
 40
2.0
 40
2.0
 40
2.0
 40
3.0
 40
3.0
 40
3.0
 40
4.0
 40
4.0
 40
4.0
 40
5.0
 40
5.0
 40
5.0
 40
5.0
 10
113.0609713801549
 20
-165.8537868508977
 30
0.0
 10
113.0609713801549
 20
-165.8537868508977
 30
0.0
 10
115.6770046368793
 20
-165.844829602636
 30
0.0
 10
116.1984198385719
 20
-165.8761799715518
 30
0.0
 10
116.7448119825325
 20
-165.9085638691131
 30
0.0
 10
116.8328341721807
 20
-166.3657280400058
 30
0.0
 10
116.8328341721807
 20
-166.3657280400058
 30
0.0
 10
116.8328341721807
 20
-166.3657280400058
 30
0.0
 10
117.2303981911785
 20
-174.1085801431048
 30
0.0
 10
117.2303981911785
 20
-174.1085801431048
 30
0.0
 10
117.2303981911785
 20
-174.1085801431048
 30
0.0
 10
117.2303981911785
 20
-174.4803059459632
 30
0.0
 10
116.9282633171221
 20
-174.4741047740898
 30
0.0
 10
116.9282633171221
 20
-174.4741047740898
 30
0.0
 10
113.4361422784986
 20
-174.5237141490774
 30
0.0
 10
113.0361666926611
 20
-174.5237141490774
 30
0.0
  0
SPLINE
  5
1B2
330
1A7
100
AcDbEntity
  8
Text
 62
   250
370
     9
100
AcDbSpline
210
0.0
220
0.0
230
1.0
 70
     8
 71
     3
 72
    11
 73
     7
 74
     0
 42
0.000000001
 43
0.0000000001
 40
0.0
 40
0.0
 40
0.0
 40
0.0
 40
1.0
 40
1.0
 40
1.0
 40
2.0
 40
2.0
 40
2.0
 40
2.0
 10
116.8087185037839
 20
-166.2885579011362
 30
0.0
 10
116.8190537902397
 20
-166.5324706614919
 30
0.0
 10
116.4814344326852
 20
-166.7336642378305
 30
0.0
 10
116.1736151510781
 20
-166.7646700971977
 30
0.0
 10
116.1736151510781
 20
-166.7646700971977
 30
0.0
 10
114.6050631766438
 20
-166.7632920590036
 30
0.0
 10
113.0361666926611
 20
-166.7694932308771
 30
0.0
  0
SPLINE
  5
1B3
330
1A7
100
AcDbEntity
  8
Text
 62
   250
370
     9
100
AcDbSpline
210
0.0
220
0.0
230
1.0
 70
     9
 71
     3
 72
    17
 73
    13
 74
     0
 42
0.000000001
 43
0.0000000001
 40
0.0
 40
0.0
 40
0.0
 40
0.0
 40
1.0
 40
1.0
 40
1.0
 40
2.0
 40
2.0
 40
2.0
 40
3.0
 40
3.0
 40
3.0
 40
4.0
 40
4.0
 40
4.0
 40
4.0
 10
116.8193982997882
 20
-166.3657280400058
 30
0.0
 10
116.8193982997882
 20
-166.3932888038878
 30
0.0
 10
116.8464422993474
 20
-166.4160264340904
 30
0.0
 10
116.8795152160058
 20
-166.4160264340904
 30
0.0
 10
116.9127603874384
 20
-166.4160264340904
 30
0.0
 10
116.9396321322234
 20
-166.3932888038878
 30
0.0
 10
116.9396321322234
 20
-166.3657280400058
 30
0.0
 10
116.9396321322234
 20
-166.3378227665752
 30
0.0
 10
116.9127603874384
 20
-166.3154296459211
 30
0.0
 10
116.8795152160058
 20
-166.3154296459211
 30
0.0
 10
116.8464422993474
 20
-166.3154296459211
 30
0.0
 10
116.8193982997882
 20
-166.3378227665752
 30
0.0
 10
116.8193982997882
 20
-166.3657280400058
 30
0.0
  0
ENDBLK
  5
1AA
330
1A7
100
AcDbEntity
  8
0
100
AcDbBlockEnd
  0
BLOCK
  5
1B6
330
1B4
100
AcDbEntity
  8
0
100
AcDbBlockBegin
  2
block 28
 70
     0
 10
0.0
 20
0.0
 30
0.0
  3
block 28
  1

  0
MTEXT
  5
1B8
330
1B4
100
AcDbEntity
  8
Text
 62
   251
100
AcDbMText
 10
204.0850449793607
 20
-166.9052299929959
 30
0.0
 40
1.559277777387958
 41
0.0
 46
0.0
 71
     7
 72
     1
  1
\fApercu|b0|i0|c0|p34;\W1.0004;95
 73
     1
 44
1.0
  0
MTEXT
  5
1B9
330
1B4
100
AcDbEntity
  8
Text
 62
   251
100
AcDbMText
 10
196.9836696556152
 20
-156.3887315147223
 30
0.0
 40
1.559277777387958
 41
0.0
 46
0.0
 71
     7
 72
     1
  1
\fApercu|b0|i0|c0|p34;\W1.0004;49
 73
     1
 44
1.0
  0
MTEXT
  5
1BA
330
1B4
100
AcDbEntity
  8
Text
 62
   251
100
AcDbMText
 10
195.1584580675298
 20
-178.6388807062083
 30
0.0
 40
1.559277777387958
 41
0.0
 46
0.0
 71
     7
 72
     1
  1
\fApercu|b1|i0|c0|p34;\W1.0004;MG44
 73
     1
 44
1.0
  0
INSERT
  5
1BC
330
1B4
100
AcDbEntity
  8
Text
100
AcDbBlockReference
  2
block 29
 10
0.0
 20
0.0
 30
0.0
  0
ENDBLK
  5
1B7
330
1B4
100
AcDbEntity
  8
0
100
AcDbBlockEnd
  0
BLOCK
  5
1BD
330
1BB
100
AcDbEntity
  8
0
100
AcDbBlockBegin
  2
block 29
 70
     0
 10
0.0
 20
0.0
 30
0.0
  3
block 29
  1

  0
SPLINE
  5
1BF
330
1BB
100
AcDbEntity
  8
Text
 62
   250
370
     9
100
AcDbSpline
210
0.0
220
0.0
230
1.0
 70
     9
 71
     3
 72
    50
 73
    46
 74
     0
 42
0.000000001
 43
0.0000000001
 40
0.0
 40
0.0
 40
0.0
 40
0.0
 40
1.0
 40
1.0
 40
1.0
 40
2.0
 40
2.0
 40
2.0
 40
3.0
 40
3.0
 40
3.0
 40
4.0
 40
4.0
 40
4.0
 40
5.0
 40
5.0
 40
5.0
 40
6.0
 40
6.0
 40
6.0
 40
7.0
 40
7.0
 40
7.0
 40
8.0
 40
8.0
 40
8.0
 40
9.0
 40
9.0
 40
9.0
 40
10.0
 40
10.0
 40
10.0
 40
11.0
 40
11.0
 40
11.0
 40
12.0
 40
12.0
 40
12.0
 40
13.0
 40
13.0
 40
13.0
 40
14.0
 40
14.0
 40
14.0
 40
15.0
 40
15.0
 40
15.0
 40
15.0
 10
202.4885877314959
 20
-164.3455240474553
 30
0.0
 10
202.4885877314959
 20
-164.3455240474553
 30
0.0
 10
194.2672118654957
 20
-164.3462130665523
 30
0.0
 10
194.2672118654957
 20
-164.3462130665523
 30
0.0
 10
194.2672118654957
 20
-164.3462130665523
 30
0.0
 10
194.0308783152075
 20
-164.3785969641136
 30
0.0
 10
194.0343234106928
 20
-164.1147026499435
 30
0.0
 10
194.0343234106928
 20
-164.1147026499435
 30
0.0
 10
194.0315673343046
 20
-163.1914170598966
 30
0.0
 10
194.0315673343046
 20
-163.1914170598966
 30
0.0
 10
194.0315673343046
 20
-163.1914170598966
 30
0.0
 10
194.0308783152075
 20
-163.0749728324951
 30
0.0
 10
194.0308783152075
 20
-163.0749728324951
 30
0.0
 10
194.0308783152075
 20
-163.0749728324951
 30
0.0
 10
194.0901339575538
 20
-162.5637206624841
 30
0.0
 10
194.8707925945114
 20
-162.5637206624841
 30
0.0
 10
194.8707925945114
 20
-162.5637206624841
 30
0.0
 10
201.2035671154977
 20
-162.5637206624841
 30
0.0
 10
201.2035671154977
 20
-162.5637206624841
 30
0.0
 10
201.2035671154977
 20
-162.5637206624841
 30
0.0
 10
201.2021890773036
 20
-162.5657877197752
 30
0.0
 10
201.2683349106204
 20
-162.6085069037923
 30
0.0
 10
201.3351697630342
 20
-162.6515705973579
 30
0.0
 10
201.2035671154977
 20
-162.3887098118334
 30
0.0
 10
201.2035671154977
 20
-162.3887098118334
 30
0.0
 10
201.2035671154977
 20
-162.3887098118334
 30
0.0
 10
201.193231829042
 20
-162.2977592910228
 30
0.0
 10
201.1822075234892
 20
-162.2099093561489
 30
0.0
 10
201.1711832179364
 20
-162.122059421275
 30
0.0
 10
201.1822075234892
 20
-159.956472399247
 30
0.0
 10
201.5322292247906
 20
-158.1057671045708
 30
0.0
 10
201.5542778358962
 20
-157.9913899344605
 30
0.0
 10
201.7403129920996
 20
-157.8756347261561
 30
0.0
 10
201.9683783132232
 20
-157.8811468789325
 30
0.0
 10
201.9683783132232
 20
-157.8811468789325
 30
0.0
 10
202.1048040944391
 20
-157.8766682548016
 30
0.0
 10
202.1048040944391
 20
-157.8766682548016
 30
0.0
 10
202.1048040944391
 20
-157.8766682548016
 30
0.0
 10
202.5946966724416
 20
-157.8756347261561
 30
0.0
 10
202.5940076533446
 20
-158.2690646305716
 30
0.0
 10
202.5933186342475
 20
-158.5632757850119
 30
0.0
 10
202.627080570003
 20
-164.1553547766695
 30
0.0
 10
202.627080570003
 20
-164.1553547766695
 30
0.0
 10
202.627080570003
 20
-164.1553547766695
 30
0.0
 10
202.6346597800705
 20
-164.3455240474553
 30
0.0
 10
202.4885877314959
 20
-164.3455240474553
 30
0.0
  0
POLYLINE
  5
1C0
330
1BB
100
AcDbEntity
  8
Text
 62
   250
370
     9
100
AcDb2dPolyline
 66
     1
 10
0.0
 20
0.0
 30
0.0
  0
VERTEX
  5
1C1
330
1C0
100
AcDbEntity
  8
Text
 62
   250
370
     9
100
AcDbVertex
100
AcDb2dVertex
 10
201.8939642507418
 20
-164.3455240474553
 30
0.0
  0
VERTEX
  5
1C2
330
1C0
100
AcDbEntity
  8
Text
 62
   250
370
     9
100
AcDbVertex
100
AcDb2dVertex
 10
202.035213165637
 20
-174.5237141490774
 30
0.0
  0
VERTEX
  5
1C3
330
1C0
100
AcDbEntity
  8
Text
 62
   250
370
     9
100
AcDbVertex
100
AcDb2dVertex
 10
202.4134846499175
 20
-174.5237141490774
 30
0.0
  0
VERTEX
  5
1C4
330
1C0
100
AcDbEntity
  8
Text
 62
   250
370
     9
100
AcDbVertex
100
AcDb2dVertex
 10
202.4885877314959
 20
-164.3455240474553
 30
0.0
  0
SEQEND
  5
1C5
330
1C0
100
AcDbEntity
  8
Text
370
     9
  0
POLYLINE
  5
1C6
330
1BB
100
AcDbEntity
  8
Text
 62
   250
370
     9
100
AcDb2dPolyline
 66
     1
 10
0.0
 20
0.0
 30
0.0
  0
VERTEX
  5
1C7
330
1C6
100
AcDbEntity
  8
Text
 62
   250
370
     9
100
AcDbVertex
100
AcDb2dVertex
 10
194.1693711537146
 20
-164.3455240474553
 30
0.0
  0
VERTEX
  5
1C8
330
1C6
100
AcDbEntity
  8
Text
 62
   250
370
     9
100
AcDbVertex
100
AcDb2dVertex
 10
194.3106200686098
 20
-174.5237141490774
 30
0.0
  0
VERTEX
  5
1C9
330
1C6
100
AcDbEntity
  8
Text
 62
   250
370
     9
100
AcDbVertex
100
AcDb2dVertex
 10
194.6895805719873
 20
-174.5237141490774
 30
0.0
  0
VERTEX
  5
1CA
330
1C6
100
AcDbEntity
  8
Text
 62
   250
370
     9
100
AcDbVertex
100
AcDb2dVertex
 10
194.7639946344687
 20
-164.3455240474553
 30
0.0
  0
SEQEND
  5
1CB
330
1C6
100
AcDbEntity
  8
Text
370
     9
  0
POLYLINE
  5
1CC
330
1BB
100
AcDbEntity
  8
Text
 62
   250
370
     9
100
AcDb2dPolyline
 66
     1
 10
0.0
 20
0.0
 30
0.0
  0
VERTEX
  5
1CD
330
1CC
100
AcDbEntity
  8
Text
 62
   250
370
     9
100
AcDbVertex
100
AcDb2dVertex
 10
201.9993841725904
 20
-172.1211045576642
 30
0.0
  0
VERTEX
  5
1CE
330
1CC
100
AcDbEntity
  8
Text
 62
   250
370
     9
100
AcDbVertex
100
AcDb2dVertex
 10
194.7088731067047
 20
-172.1211045576642
 30
0.0
  0
SEQEND
  5
1CF
330
1CC
100
AcDbEntity
  8
Text
370
     9
  0
POLYLINE
  5
1D0
330
1BB
100
AcDbEntity
  8
Text
 62
   250
370
     9
100
AcDb2dPolyline
 66
     1
 10
0.0
 20
0.0
 30
0.0
  0
VERTEX
  5
1D1
330
1D0
100
AcDbEntity
  8
Text
 62
   250
370
     9
100
AcDbVertex
100
AcDb2dVertex
 10
201.9993841725904
 20
-171.8585882816881
 30
0.0
  0
VERTEX
  5
1D2
330
1D0
100
AcDbEntity
  8
Text
 62
   250
370
     9
100
AcDbVertex
100
AcDb2dVertex
 10
194.7088731067047
 20
-171.8585882816881
 30
0.0
  0
SEQEND
  5
1D3
330
1D0
100
AcDbEntity
  8
Text
370
     9
  0
ENDBLK
  5
1BE
330
1BB
100
AcDbEntity
  8
0
100
AcDbBlockEnd
  0
BLOCK
  5
1D6
330
1D4
100
AcDbEntity
  8
0
100
AcDbBlockBegin
  2
block 30
 70
     0
 10
0.0
 20
0.0
 30
0.0
  3
block 30
  1

  0
MTEXT
  5
1D8
330
1D4
100
AcDbEntity
  8
Text
 62
   251
100
AcDbMText
 10
160.2796223557634
 20
-169.2299804264425
 30
0.0
 40
1.559277777387958
 41
0.0
 46
0.0
 71
     7
 72
     1
  1
\fApercu|b0|i0|c0|p34;\W1.0004;71
 73
     1
 44
1.0
  0
MTEXT
  5
1D9
330
1D4
100
AcDbEntity
  8
Text
 62
   251
100
AcDbMText
 10
153.5616861595262
 20
-156.3887315147223
 30
0.0
 40
1.559277777387958
 41
0.0
 46
0.0
 71
     7
 72
     1
  1
\fApercu|b0|i0|c0|p34;\W1.0004;44
 73
     1
 44
1.0
  0
INSERT
  5
1DB
330
1D4
100
AcDbEntity
  8
Text
100
AcDbBlockReference
  2
block 31
 10
0.0
 20
0.0
 30
0.0
  0
ENDBLK
  5
1D7
330
1D4
100
AcDbEntity
  8
0
100
AcDbBlockEnd
  0
BLOCK
  5
1DC
330
1DA
100
AcDbEntity
  8
0
100
AcDbBlockBegin
  2
block 31
 70
     0
 10
0.0
 20
0.0
 30
0.0
  3
block 31
  1

  0
POLYLINE
  5
1DE
330
1DA
100
AcDbEntity
  8
Text
 62
   250
370
     9
100
AcDb2dPolyline
 66
     1
 10
0.0
 20
0.0
 30
0.0
  0
VERTEX
  5
1DF
330
1DE
100
AcDbEntity
  8
Text
 62
   250
370
     9
100
AcDbVertex
100
AcDb2dVertex
 10
158.6483696434976
 20
-164.3455240474553
 30
0.0
  0
VERTEX
  5
1E0
330
1DE
100
AcDbEntity
  8
Text
 62
   250
370
     9
100
AcDbVertex
100
AcDb2dVertex
 10
158.5450167789401
 20
-174.5237141490774
 30
0.0
  0
VERTEX
  5
1E1
330
1DE
100
AcDbEntity
  8
Text
 62
   250
370
     9
100
AcDbVertex
100
AcDb2dVertex
 10
158.1667452946597
 20
-174.5237141490774
 30
0.0
  0
VERTEX
  5
1E2
330
1DE
100
AcDbEntity
  8
Text
 62
   250
370
     9
100
AcDbVertex
100
AcDb2dVertex
 10
158.0537461627435
 20
-164.3455240474553
 30
0.0
  0
SEQEND
  5
1E3
330
1DE
100
AcDbEntity
  8
Text
370
     9
  0
SPLINE
  5
1E4
330
1DA
100
AcDbEntity
  8
Text
 62
   250
370
     9
100
AcDbSpline
210
0.0
220
0.0
230
1.0
 70
     8
 71
     3
 72
    20
 73
    16
 74
     0
 42
0.000000001
 43
0.0000000001
 40
0.0
 40
0.0
 40
0.0
 40
0.0
 40
1.0
 40
1.0
 40
1.0
 40
2.0
 40
2.0
 40
2.0
 40
3.0
 40
3.0
 40
3.0
 40
4.0
 40
4.0
 40
4.0
 40
5.0
 40
5.0
 40
5.0
 40
5.0
 10
155.5677652605872
 20
-164.3455240474553
 30
0.0
 10
155.5677652605872
 20
-164.3455240474553
 30
0.0
 10
158.542949721649
 20
-164.3455240474553
 30
0.0
 10
158.542949721649
 20
-164.3455240474553
 30
0.0
 10
158.542949721649
 20
-164.3455240474553
 30
0.0
 10
158.7710150427725
 20
-164.3441460092612
 30
0.0
 10
158.7710150427725
 20
-164.1178032358802
 30
0.0
 10
158.7710150427725
 20
-163.8914604624993
 30
0.0
 10
158.7710150427725
 20
-163.1914170598966
 30
0.0
 10
158.7710150427725
 20
-163.1914170598966
 30
0.0
 10
158.7710150427725
 20
-163.1914170598966
 30
0.0
 10
158.763435832705
 20
-162.5185899116273
 30
0.0
 10
158.1054225950222
 20
-162.5258246121463
 30
0.0
 10
157.5659206420321
 20
-162.5316812744712
 30
0.0
 10
155.5677652605872
 20
-162.5258246121463
 30
0.0
 10
155.5677652605872
 20
-162.5258246121463
 30
0.0
  0
SPLINE
  5
1E5
330
1DA
100
AcDbEntity
  8
Text
 62
   250
370
     9
100
AcDbSpline
210
0.0
220
0.0
230
1.0
 70
     8
 71
     3
 72
    17
 73
    13
 74
     0
 42
0.000000001
 43
0.0000000001
 40
0.0
 40
0.0
 40
0.0
 40
0.0
 40
1.0
 40
1.0
 40
1.0
 40
2.0
 40
2.0
 40
2.0
 40
3.0
 40
3.0
 40
3.0
 40
4.0
 40
4.0
 40
4.0
 40
4.0
 10
158.612540650451
 20
-162.755956990561
 30
0.0
 10
158.612540650451
 20
-162.755956990561
 30
0.0
 10
158.612540650451
 20
-158.3172959673651
 30
0.0
 10
158.612540650451
 20
-158.3172959673651
 30
0.0
 10
158.612540650451
 20
-158.3172959673651
 30
0.0
 10
158.6070284976746
 20
-157.9969020872369
 30
0.0
 10
158.6504367007888
 20
-157.9497042790889
 30
0.0
 10
158.6986680375822
 20
-157.8990613754558
 30
0.0
 10
158.2087754595797
 20
-157.985188762587
 30
0.0
 10
158.2087754595797
 20
-157.985188762587
 30
0.0
 10
158.2087754595797
 20
-157.985188762587
 30
0.0
 10
155.4726806251943
 20
-157.985188762587
 30
0.0
 10
155.4726806251943
 20
-157.985188762587
 30
0.0
  0
POLYLINE
  5
1E6
330
1DA
100
AcDbEntity
  8
Text
 62
   250
370
     9
100
AcDb2dPolyline
 66
     1
 10
0.0
 20
0.0
 30
0.0
  0
VERTEX
  5
1E7
330
1E6
100
AcDbEntity
  8
Text
 62
   250
370
     9
100
AcDbVertex
100
AcDb2dVertex
 10
151.2097194717462
 20
-164.3455240474553
 30
0.0
  0
VERTEX
  5
1E8
330
1E6
100
AcDbEntity
  8
Text
 62
   250
370
     9
100
AcDbVertex
100
AcDb2dVertex
 10
151.3130723363037
 20
-174.5237141490774
 30
0.0
  0
VERTEX
  5
1E9
330
1E6
100
AcDbEntity
  8
Text
 62
   250
370
     9
100
AcDbVertex
100
AcDb2dVertex
 10
151.690654801487
 20
-174.5237141490774
 30
0.0
  0
VERTEX
  5
1EA
330
1E6
100
AcDbEntity
  8
Text
 62
   250
370
     9
100
AcDbVertex
100
AcDb2dVertex
 10
151.8043429525003
 20
-164.3455240474553
 30
0.0
  0
SEQEND
  5
1EB
330
1E6
100
AcDbEntity
  8
Text
370
     9
  0
SPLINE
  5
1EC
330
1DA
100
AcDbEntity
  8
Text
 62
   250
370
     9
100
AcDbSpline
210
0.0
220
0.0
230
1.0
 70
     8
 71
     3
 72
    20
 73
    16
 74
     0
 42
0.000000001
 43
0.0000000001
 40
0.0
 40
0.0
 40
0.0
 40
0.0
 40
1.0
 40
1.0
 40
1.0
 40
2.0
 40
2.0
 40
2.0
 40
3.0
 40
3.0
 40
3.0
 40
4.0
 40
4.0
 40
4.0
 40
5.0
 40
5.0
 40
5.0
 40
5.0
 10
155.7083251563854
 20
-164.3455240474553
 30
0.0
 10
155.7083251563854
 20
-164.3455240474553
 30
0.0
 10
151.3144503744978
 20
-164.3455240474553
 30
0.0
 10
151.3144503744978
 20
-164.3455240474553
 30
0.0
 10
151.3144503744978
 20
-164.3455240474553
 30
0.0
 10
151.0870740724713
 20
-164.3441460092612
 30
0.0
 10
151.0870740724713
 20
-164.1178032358802
 30
0.0
 10
151.0870740724713
 20
-163.8914604624993
 30
0.0
 10
151.0870740724713
 20
-163.1914170598966
 30
0.0
 10
151.0870740724713
 20
-163.1914170598966
 30
0.0
 10
151.0870740724713
 20
-163.1914170598966
 30
0.0
 10
151.0946532825388
 20
-162.5185899116273
 30
0.0
 10
151.7526665202215
 20
-162.5258246121463
 30
0.0
 10
152.2914794541146
 20
-162.5316812744712
 30
0.0
 10
155.7083251563854
 20
-162.5258246121463
 30
0.0
 10
155.7083251563854
 20
-162.5258246121463
 30
0.0
  0
SPLINE
  5
1ED
330
1DA
100
AcDbEntity
  8
Text
 62
   250
370
     9
100
AcDbSpline
210
0.0
220
0.0
230
1.0
 70
     8
 71
     3
 72
    17
 73
    13
 74
     0
 42
0.000000001
 43
0.0000000001
 40
0.0
 40
0.0
 40
0.0
 40
0.0
 40
1.0
 40
1.0
 40
1.0
 40
2.0
 40
2.0
 40
2.0
 40
3.0
 40
3.0
 40
3.0
 40
4.0
 40
4.0
 40
4.0
 40
4.0
 10
151.2448594456957
 20
-162.755956990561
 30
0.0
 10
151.2448594456957
 20
-162.755956990561
 30
0.0
 10
151.2448594456957
 20
-158.3172959673651
 30
0.0
 10
151.2448594456957
 20
-158.3172959673651
 30
0.0
 10
151.2448594456957
 20
-158.3172959673651
 30
0.0
 10
151.2503715984721
 20
-157.9969020872369
 30
0.0
 10
151.206963395358
 20
-157.9497042790889
 30
0.0
 10
151.1594210776615
 20
-157.8990613754558
 30
0.0
 10
151.648624636567
 20
-157.985188762587
 30
0.0
 10
151.648624636567
 20
-157.985188762587
 30
0.0
 10
151.648624636567
 20
-157.985188762587
 30
0.0
 10
155.8034097917783
 20
-157.985188762587
 30
0.0
 10
155.8034097917783
 20
-157.985188762587
 30
0.0
  0
POLYLINE
  5
1EE
330
1DA
100
AcDbEntity
  8
Text
 62
   250
370
     9
100
AcDb2dPolyline
 66
     1
 10
0.0
 20
0.0
 30
0.0
  0
VERTEX
  5
1EF
330
1EE
100
AcDbEntity
  8
Text
 62
   250
370
     9
100
AcDbVertex
100
AcDb2dVertex
 10
151.8270805827029
 20
-170.5987168627322
 30
0.0
  0
VERTEX
  5
1F0
330
1EE
100
AcDbEntity
  8
Text
 62
   250
370
     9
100
AcDbVertex
100
AcDb2dVertex
 10
158.0799288884314
 20
-170.5987168627322
 30
0.0
  0
SEQEND
  5
1F1
330
1EE
100
AcDbEntity
  8
Text
370
     9
  0
POLYLINE
  5
1F2
330
1DA
100
AcDbEntity
  8
Text
 62
   250
370
     9
100
AcDb2dPolyline
 66
     1
 10
0.0
 20
0.0
 30
0.0
  0
VERTEX
  5
1F3
330
1F2
100
AcDbEntity
  8
Text
 62
   250
370
     9
100
AcDbVertex
100
AcDb2dVertex
 10
151.8270805827029
 20
-170.3358560772077
 30
0.0
  0
VERTEX
  5
1F4
330
1F2
100
AcDbEntity
  8
Text
 62
   250
370
     9
100
AcDbVertex
100
AcDb2dVertex
 10
158.0799288884314
 20
-170.3358560772077
 30
0.0
  0
SEQEND
  5
1F5
330
1F2
100
AcDbEntity
  8
Text
370
     9
  0
ENDBLK
  5
1DD
330
1DA
100
AcDbEntity
  8
0
100
AcDbBlockEnd
  0
BLOCK
  5
2B4
330
2B3
100
AcDbEntity
  8
0
100
AcDbBlockBegin
  2
*U31
 70
     1
 10
0.0
 20
0.0
 30
0.0
  3
*U31
  1

  0
ENDBLK
  5
2B5
330
2B3
100
AcDbEntity
  8
0
100
AcDbBlockEnd
  0
BLOCK
  5
2EF
330
2ED
100
AcDbEntity
  8
0
100
AcDbBlockBegin
  2
GENAXEH
 70
     0
 10
0.0
 20
0.0
 30
0.0
  3
GENAXEH
  1

  0
LINE
  5
2EE
330
2ED
100
AcDbEntity
  8
0
100
AcDbLine
 10
-1.0
 20
0.0
 30
0.0
 11
1.0
 21
0.0
 31
0.0
  0
ENDBLK
  5
2F0
330
2ED
100
AcDbEntity
  8
0
100
AcDbBlockEnd
  0
ENDSEC
  0
SECTION
  2
ENTITIES
  0
INSERT
  5
3D
330
1F
100
AcDbEntity
  8
Text
100
AcDbBlockReference
  2
block 2
 10
0.0
 20
0.0
 30
0.0
  0
INSERT
  5
41
330
1F
100
AcDbEntity
  8
Text
100
AcDbBlockReference
  2
block 3
 10
0.0
 20
0.0
 30
0.0
  0
INSERT
  5
45
330
1F
100
AcDbEntity
  8
Text
100
AcDbBlockReference
  2
block 4
 10
0.0
 20
0.0
 30
0.0
  0
MTEXT
  5
52
330
1F
100
AcDbEntity
  8
Dimensions
100
AcDbMText
 10
2996.573641112408
 20
-1037.956847298273
 30
0.0
 40
87.13848299374673
 41
0.0
 46
0.0
 71
     7
 72
     1
  1
\fApercu|b0|i0|c0|p34;\W1.0004;54
 73
     1
 44
1.0
  0
MTEXT
  5
53
330
1F
100
AcDbEntity
  8
Dimensions
100
AcDbMText
 10
5437.832188598613
 20
-1074.300369971532
 30
0.0
 40
88.18545138599066
 41
0.0
 46
0.0
 71
     7
 72
     1
  1
\fApercu|b0|i0|c0|p34;\W1.0004;46
 73
     1
 44
1.0
  0
MTEXT
  5
54
330
1F
100
AcDbEntity
  8
Dimensions
100
AcDbMText
 10
5459.030614412553
 20
-2546.266062426995
 30
0.0
 40
88.18545138599066
 41
0.0
 46
0.0
 71
     7
 72
     1
  1
\fApercu|b0|i0|c0|p34;\W1.0004;46
 73
     1
 44
1.0
  0
MTEXT
  5
55
330
1F
100
AcDbEntity
  8
Dimensions
100
AcDbMText
 10
5481.476006450841
 20
-4078.373509964916
 30
0.0
 40
88.18545138599066
 41
0.0
 46
0.0
 71
     7
 72
     1
  1
\fApercu|b0|i0|c0|p34;\W1.0004;46
 73
     1
 44
1.0
  0
MTEXT
  5
57
330
1F
100
AcDbEntity
  8
Dimensions
100
AcDbMText
 10
3027.123042592429
 20
-2512.601488499464
 30
0.0
 40
89.1197592909044
 41
0.0
 46
0.0
 71
     7
 72
     1
  1
\fApercu|b0|i0|c0|p34;\W1.0004;54
 73
     1
 44
1.0
  0
MTEXT
  5
58
330
1F
100
AcDbEntity
  8
Dimensions
100
AcDbMText
 10
3052.665802841977
 20
-4039.279893615012
 30
0.0
 40
91.27127621356621
 41
0.0
 46
0.0
 71
     7
 72
     1
  1
\fApercu|b0|i0|c0|p34;\W1.0004;58
 73
     1
 44
1.0
  0
MTEXT
  5
59
330
1F
100
AcDbEntity
  8
Dimensions
100
AcDbMText
 10
2581.874182931088
 20
-651.0195348317856
 30
0.0
 40
87.13848299374673
 41
0.0
 46
0.0
 71
     7
 72
     1
  1
\fApercu|b0|i0|c0|p34;\W1.0004;52
 73
     1
 44
1.0
  0
MTEXT
  5
5A
330
1F
100
AcDbEntity
  8
Dimensions
100
AcDbMText
 10
2589.004581561632
 20
-2119.347318763636
 30
0.0
 40
89.1197592909044
 41
0.0
 46
0.0
 71
     7
 72
     1
  1
\fApercu|b0|i0|c0|p34;\W1.0004;57
 73
     1
 44
1.0
  0
MTEXT
  5
5B
330
1F
100
AcDbEntity
  8
Dimensions
100
AcDbMText
 10
2594.028688481815
 20
-3618.221439646177
 30
0.0
 40
91.27127621356621
 41
0.0
 46
0.0
 71
     7
 72
     1
  1
\fApercu|b0|i0|c0|p34;\W1.0004;61
 73
     1
 44
1.0
  0
MTEXT
  5
134
330
1F
100
AcDbEntity
  8
Dimensions
100
AcDbMText
 10
7837.248494261209
 20
-915.9843690972948
 30
0.0
 40
88.18545138599066
 41
0.0
 46
0.0
 71
     7
 72
     1
  1
\fApercu|b0|i0|c0|p34;\W1.0004;78
 73
     1
 44
1.0
  0
MTEXT
  5
135
330
1F
100
AcDbEntity
  8
Dimensions
100
AcDbMText
 10
7840.989392934256
 20
-2388.631996206699
 30
0.0
 40
88.18545138599066
 41
0.0
 46
0.0
 71
     7
 72
     1
  1
\fApercu|b0|i0|c0|p34;\W1.0004;78
 73
     1
 44
1.0
  0
MTEXT
  5
136
330
1F
100
AcDbEntity
  8
Dimensions
100
AcDbMText
 10
7879.158249707701
 20
-3921.216798002381
 30
0.0
 40
88.18545138599066
 41
0.0
 46
0.0
 71
     7
 72
     1
  1
\fApercu|b0|i0|c0|p34;\W1.0004;78
 73
     1
 44
1.0
  0
MTEXT
  5
138
330
1F
100
AcDbEntity
  8
Dimensions
100
AcDbMText
 10
6738.206057515502
 20
-406.2674410472164
 30
0.0
 40
88.18545138599066
 41
0.0
 46
0.0
 71
     7
 72
     1
  1
\fApercu|b0|i0|c0|p34;\W1.0004;54
 73
     1
 44
1.0
  0
MTEXT
  5
139
330
1F
100
AcDbEntity
  8
Dimensions
100
AcDbMText
 10
7412.890301037298
 20
-1876.859522271169
 30
0.0
 40
88.18545138599066
 41
0.0
 46
0.0
 71
     7
 72
     1
  1
\fApercu|b0|i0|c0|p34;\W1.0004;54
 73
     1
 44
1.0
  0
MTEXT
  5
13A
330
1F
100
AcDbEntity
  8
Dimensions
100
AcDbMText
 10
7433.523695280829
 20
-3408.655228253003
 30
0.0
 40
88.18545138599066
 41
0.0
 46
0.0
 71
     7
 72
     1
  1
\fApercu|b0|i0|c0|p34;\W1.0004;58
 73
     1
 44
1.0
  0
MTEXT
  5
185
330
1F
100
AcDbEntity
  8
Text
100
AcDbMText
 10
7314.224098535651
 20
-1497.38237120021
 30
0.0
 40
88.18545138599066
 41
0.0
 46
0.0
 71
     7
 72
     1
  1
\fApercu|b1|i0|c0|p34;\W1.0004;MG52
 73
     1
 44
1.0
  0
MTEXT
  5
186
330
1F
100
AcDbEntity
  8
Text
100
AcDbMText
 10
7319.543188836391
 20
-2967.974452424163
 30
0.0
 40
88.18545138599066
 41
0.0
 46
0.0
 71
     7
 72
     1
  1
\fApercu|b1|i0|c0|p34;\W1.0004;MG57
 73
     1
 44
1.0
  0
MTEXT
  5
187
330
1F
100
AcDbEntity
  8
Text
100
AcDbMText
 10
7344.151287920036
 20
-4502.264090854694
 30
0.0
 40
88.18545138599066
 41
0.0
 46
0.0
 71
     7
 72
     1
  1
\fApercu|b1|i0|c0|p34;\W1.0004;MG61
 73
     1
 44
1.0
  0
INSERT
  5
18A
330
1F
100
AcDbEntity
  8
Text
100
AcDbBlockReference
  2
block 22
 10
0.0
 20
0.0
 30
0.0
  0
INSERT
  5
18E
330
1F
100
AcDbEntity
  8
Text
100
AcDbBlockReference
  2
block 23
 10
0.0
 20
0.0
 30
0.0
  0
INSERT
  5
192
330
1F
100
AcDbEntity
  8
Text
100
AcDbBlockReference
  2
block 24
 10
0.0
 20
0.0
 30
0.0
  0
POLYLINE
  5
19D
330
1F
100
AcDbEntity
  8
Text
370
     9
100
AcDb2dPolyline
 66
     1
 10
0.0
 20
0.0
 30
0.0
  0
VERTEX
  5
19E
330
19D
100
AcDbEntity
  8
Text
370
     9
100
AcDbVertex
100
AcDb2dVertex
 10
0.0
 20
0.0
 30
0.0
  0
VERTEX
  5
19F
330
19D
100
AcDbEntity
  8
Text
370
     9
100
AcDbVertex
100
AcDb2dVertex
 10
10179.94973980342
 20
0.0
 30
0.0
  0
SEQEND
  5
1A0
330
19D
100
AcDbEntity
  8
Text
370
     9
  0
MTEXT
  5
1A2
330
1F
100
AcDbEntity
  8
Dimensions
100
AcDbMText
 10
2980.141301860655
 20
-6011.981010879039
 30
0.0
 40
88.56902952395733
 41
0.0
 46
0.0
 71
     7
 72
     1
  1
\fApercu|b0|i0|c0|p34;\W1.0004;49
 73
     1
 44
1.0
  0
MTEXT
  5
1A3
330
1F
100
AcDbEntity
  8
Dimensions
100
AcDbMText
 10
2598.827646489157
 20
-5641.038711216606
 30
0.0
 40
88.56902952395733
 41
0.0
 46
0.0
 71
     7
 72
     1
  1
\fApercu|b0|i0|c0|p34;\W1.0004;44
 73
     1
 44
1.0
  0
POLYLINE
  5
1A4
330
1F
100
AcDbEntity
  8
Furniture
370
    18
100
AcDb2dPolyline
 66
     1
 10
0.0
 20
0.0
 30
0.0
  0
VERTEX
  5
1A5
330
1A4
100
AcDbEntity
  8
Furniture
370
    18
100
AcDbVertex
100
AcDb2dVertex
 10
2997.165980100068
 20
-5816.529877252303
 30
0.0
  0
VERTEX
  5
219
330
1A4
100
AcDbEntity
  8
Furniture
100
AcDbVertex
100
AcDb2dVertex
 10
2997.165980100068
 20
-5816.529877252303
 30
0.0
  0
SEQEND
  5
1A6
330
1A4
100
AcDbEntity
  8
Furniture
370
    18
  0
POLYLINE
  5
1F7
330
1F
100
AcDbEntity
  8
Text
370
     9
100
AcDb2dPolyline
 66
     1
 10
0.0
 20
0.0
 30
0.0
  0
VERTEX
  5
1F8
330
1F7
100
AcDbEntity
  8
Text
370
     9
100
AcDbVertex
100
AcDb2dVertex
 10
0.0000000000000826
 20
-4785.072133767691
 30
0.0
  0
VERTEX
  5
1F9
330
1F7
100
AcDbEntity
  8
Text
370
     9
100
AcDbVertex
100
AcDb2dVertex
 10
10179.94973980342
 20
-4785.072133767691
 30
0.0
  0
SEQEND
  5
1FA
330
1F7
100
AcDbEntity
  8
Text
370
     9
  0
SPLINE
  5
34A
330
1F
100
AcDbEntity
  8
Furniture
370
     9
100
AcDbSpline
210
0.0
220
0.0
230
1.0
 70
     8
 71
     3
 72
    20
 73
    16
 74
     0
 42
0.000000001
 43
0.0000000001
 40
0.0
 40
0.0
 40
0.0
 40
0.0
 40
1.0
 40
1.0
 40
1.0
 40
2.0
 40
2.0
 40
2.0
 40
3.0
 40
3.0
 40
3.0
 40
4.0
 40
4.0
 40
4.0
 40
5.0
 40
5.0
 40
5.0
 40
5.0
 10
2694.948588456969
 20
-5725.731593308767
 30
0.0
 10
2694.948588456969
 20
-5725.731593308767
 30
0.0
 10
2546.344672882138
 20
-5725.222809821152
 30
0.0
 10
2516.737387622101
 20
-5727.003552027805
 30
0.0
 10
2485.701594877608
 20
-5728.843000021488
 30
0.0
 10
2480.682250086332
 20
-5754.810526485511
 30
0.0
 10
2480.682250086332
 20
-5754.810526485511
 30
0.0
 10
2480.682250086332
 20
-5754.810526485511
 30
0.0
 10
2456.72050467925
 20
-6194.614714337016
 30
0.0
 10
2456.72050467925
 20
-6194.614714337016
 30
0.0
 10
2456.72050467925
 20
-6194.614714337016
 30
0.0
 10
2456.72050467925
 20
-6215.729229073026
 30
0.0
 10
2473.901731684084
 20
-6215.376994350831
 30
0.0
 10
2473.901731684084
 20
-6215.376994350831
 30
0.0
 10
2672.249017471084
 20
-6218.194872128388
 30
0.0
 10
2694.958372754808
 20
-6218.194872128388
 30
0.0
  0
POLYLINE
  5
34B
330
1F
100
AcDbEntity
  8
Furniture
370
     9
100
AcDb2dPolyline
 66
     1
 10
0.0
 20
0.0
 30
0.0
  0
VERTEX
  5
34C
330
34B
100
AcDbEntity
  8
Furniture
370
     9
100
AcDbVertex
100
AcDb2dVertex
 10
2481.39650382856
 20
-6204.927364259052
 30
0.0
  0
VERTEX
  5
34D
330
34B
100
AcDbEntity
  8
Furniture
100
AcDbVertex
100
AcDb2dVertex
 10
2481.39650382856
 20
-6204.927364259052
 30
0.0
  0
SEQEND
  5
34E
330
34B
100
AcDbEntity
  8
Furniture
370
     9
  0
SPLINE
  5
34F
330
1F
100
AcDbEntity
  8
Furniture
370
     9
100
AcDbSpline
210
0.0
220
0.0
230
1.0
 70
     8
 71
     3
 72
    11
 73
     7
 74
     0
 42
0.000000001
 43
0.0000000001
 40
0.0
 40
0.0
 40
0.0
 40
0.0
 40
1.0
 40
1.0
 40
1.0
 40
2.0
 40
2.0
 40
2.0
 40
2.0
 10
2480.682250086332
 20
-5750.427161053757
 30
0.0
 10
2480.095192216007
 20
-5764.281726793416
 30
0.0
 10
2499.291984575622
 20
-5775.709786669068
 30
0.0
 10
2516.74717191994
 20
-5777.470960280041
 30
0.0
 10
2516.74717191994
 20
-5777.470960280041
 30
0.0
 10
2605.862556635212
 20
-5777.39268589733
 30
0.0
 10
2694.958372754808
 20
-5777.744920619527
 30
0.0
  0
SPLINE
  5
350
330
1F
100
AcDbEntity
  8
Furniture
370
     9
100
AcDbSpline
210
0.0
220
0.0
230
1.0
 70
    11
 71
     3
 72
    17
 73
    13
 74
     0
 42
0.000000001
 43
0.0000000001
 40
0.0
 40
0.0
 40
0.0
 40
0.0
 40
1.0
 40
1.0
 40
1.0
 40
2.0
 40
2.0
 40
2.0
 40
3.0
 40
3.0
 40
3.0
 40
4.0
 40
4.0
 40
4.0
 40
4.0
 10
2484.439420456409
 20
-5751.405590837628
 30
0.0
 10
2484.439420456409
 20
-5753.284176022667
 30
0.0
 10
2482.609756760564
 20
-5754.810526485511
 30
0.0
 10
2480.37893685333
 20
-5754.810526485511
 30
0.0
 10
2478.12854835042
 20
-5754.810526485511
 30
0.0
 10
2476.318453250252
 20
-5753.284176022667
 30
0.0
 10
2476.318453250252
 20
-5751.405590837628
 30
0.0
 10
2476.318453250252
 20
-5749.52700565259
 30
0.0
 10
2478.12854835042
 20
-5748.039792381102
 30
0.0
 10
2480.37893685333
 20
-5748.039792381102
 30
0.0
 10
2482.609756760564
 20
-5748.039792381102
 30
0.0
 10
2484.439420456409
 20
-5749.52700565259
 30
0.0
 10
2484.439420456409
 20
-5751.405590837628
 30
0.0
  0
SPLINE
  5
351
330
1F
100
AcDbEntity
  8
Furniture
370
     9
100
AcDbSpline
210
0.0
220
0.0
230
1.0
 70
     8
 71
     3
 72
    20
 73
    16
 74
     0
 42
0.000000001
 43
0.0000000001
 40
0.0
 40
0.0
 40
0.0
 40
0.0
 40
1.0
 40
1.0
 40
1.0
 40
2.0
 40
2.0
 40
2.0
 40
3.0
 40
3.0
 40
3.0
 40
4.0
 40
4.0
 40
4.0
 40
5.0
 40
5.0
 40
5.0
 40
5.0
 10
2659.421803004492
 20
-5725.731593308767
 30
0.0
 10
2659.421803004492
 20
-5725.731593308767
 30
0.0
 10
2808.015934281485
 20
-5725.222809821152
 30
0.0
 10
2837.633003839359
 20
-5727.003552027805
 30
0.0
 10
2868.668796583854
 20
-5728.843000021488
 30
0.0
 10
2873.668572779451
 20
-5754.810526485511
 30
0.0
 10
2873.668572779451
 20
-5754.810526485511
 30
0.0
 10
2873.668572779451
 20
-5754.810526485511
 30
0.0
 10
2896.250732191271
 20
-6194.614714337016
 30
0.0
 10
2896.250732191271
 20
-6194.614714337016
 30
0.0
 10
2896.250732191271
 20
-6194.614714337016
 30
0.0
 10
2896.250732191271
 20
-6215.729229073026
 30
0.0
 10
2879.089073782115
 20
-6215.376994350831
 30
0.0
 10
2879.089073782115
 20
-6215.376994350831
 30
0.0
 10
2680.732003697275
 20
-6218.194872128388
 30
0.0
 10
2658.012864115713
 20
-6218.194872128388
 30
0.0
  0
SPLINE
  5
352
330
1F
100
AcDbEntity
  8
Furniture
370
     9
100
AcDbSpline
210
0.0
220
0.0
230
1.0
 70
     8
 71
     3
 72
    11
 73
     7
 74
     0
 42
0.000000001
 43
0.0000000001
 40
0.0
 40
0.0
 40
0.0
 40
0.0
 40
1.0
 40
1.0
 40
1.0
 40
2.0
 40
2.0
 40
2.0
 40
2.0
 10
2872.298771082027
 20
-5750.427161053757
 30
0.0
 10
2872.885828952352
 20
-5764.281726793416
 30
0.0
 10
2853.708605188415
 20
-5775.709786669068
 30
0.0
 10
2836.224064950581
 20
-5777.470960280041
 30
0.0
 10
2836.224064950581
 20
-5777.470960280041
 30
0.0
 10
2747.128248830986
 20
-5777.39268589733
 30
0.0
 10
2658.012864115713
 20
-5777.744920619527
 30
0.0
  0
SPLINE
  5
353
330
1F
100
AcDbEntity
  8
Furniture
370
     9
100
AcDbSpline
210
0.0
220
0.0
230
1.0
 70
     9
 71
     3
 72
    17
 73
    13
 74
     0
 42
0.000000001
 43
0.0000000001
 40
0.0
 40
0.0
 40
0.0
 40
0.0
 40
1.0
 40
1.0
 40
1.0
 40
2.0
 40
2.0
 40
2.0
 40
3.0
 40
3.0
 40
3.0
 40
4.0
 40
4.0
 40
4.0
 40
4.0
 10
2872.905397548029
 20
-5754.810526485511
 30
0.0
 10
2872.905397548029
 20
-5756.376014139711
 30
0.0
 10
2874.441532308711
 20
-5757.667541454424
 30
0.0
 10
2876.320117493751
 20
-5757.667541454424
 30
0.0
 10
2878.208486976629
 20
-5757.667541454424
 30
0.0
 10
2879.734837439472
 20
-5756.376014139711
 30
0.0
 10
2879.734837439472
 20
-5754.810526485511
 30
0.0
 10
2879.734837439472
 20
-5753.225470235634
 30
0.0
 10
2878.208486976629
 20
-5751.953511516598
 30
0.0
 10
2876.320117493751
 20
-5751.953511516598
 30
0.0
 10
2874.441532308711
 20
-5751.953511516598
 30
0.0
 10
2872.905397548029
 20
-5753.225470235634
 30
0.0
 10
2872.905397548029
 20
-5754.810526485511
 30
0.0
  0
MTEXT
  5
356
330
1F
100
AcDbEntity
  8
Dimensions
100
AcDbMText
 10
5364.635661676405
 20
-5919.17097126196
 30
0.0
 40
89.34070963359404
 41
0.0
 46
0.0
 71
     7
 72
     1
  1
\fApercu|b0|i0|c0|p34;\W1.0004;71
 73
     1
 44
1.0
  0
MTEXT
  5
357
330
1F
100
AcDbEntity
  8
Dimensions
100
AcDbMText
 10
4979.723367184244
 20
-5183.416055113199
 30
0.0
 40
89.34070963359404
 41
0.0
 46
0.0
 71
     7
 72
     1
  1
\fApercu|b0|i0|c0|p34;\W1.0004;44
 73
     1
 44
1.0
  0
MTEXT
  5
359
330
1F
100
AcDbEntity
  8
Dimensions
100
AcDbMText
 10
7874.520429961629
 20
-5785.971578275646
 30
0.0
 40
89.34070963359404
 41
0.0
 46
0.0
 71
     7
 72
     1
  1
\fApercu|b0|i0|c0|p34;\W1.0004;95
 73
     1
 44
1.0
  0
MTEXT
  5
35A
330
1F
100
AcDbEntity
  8
Dimensions
100
AcDbMText
 10
7467.638526045377
 20
-5183.416055113199
 30
0.0
 40
89.34070963359404
 41
0.0
 46
0.0
 71
     7
 72
     1
  1
\fApercu|b0|i0|c0|p34;\W1.0004;49
 73
     1
 44
1.0
  0
MTEXT
  5
35B
330
1F
100
AcDbEntity
  8
Text
100
AcDbMText
 10
7363.06081649566
 20
-6458.265313563264
 30
0.0
 40
89.34070963359404
 41
0.0
 46
0.0
 71
     7
 72
     1
  1
\fApercu|b1|i0|c0|p34;\W1.0004;MG44
 73
     1
 44
1.0
  0
SPLINE
  5
35D
330
1F
100
AcDbEntity
  8
Furniture
370
     9
100
AcDbSpline
210
0.0
220
0.0
230
1.0
 70
     8
 71
     3
 72
    32
 73
    28
 74
     0
 42
0.000000001
 43
0.0000000001
 40
0.0
 40
0.0
 40
0.0
 40
0.0
 40
1.0
 40
1.0
 40
1.0
 40
2.0
 40
2.0
 40
2.0
 40
3.0
 40
3.0
 40
3.0
 40
4.0
 40
4.0
 40
4.0
 40
5.0
 40
5.0
 40
5.0
 40
6.0
 40
6.0
 40
6.0
 40
7.0
 40
7.0
 40
7.0
 40
8.0
 40
8.0
 40
8.0
 40
9.0
 40
9.0
 40
9.0
 40
9.0
 10
7722.722440093618
 20
-3603.162475404257
 30
0.0
 10
7725.761920265468
 20
-3561.720332291894
 30
0.0
 10
7728.450691186722
 20
-3541.61300192426
 30
0.0
 10
7735.036231559068
 20
-3506.912269962286
 30
0.0
 10
7736.244230088906
 20
-3500.443632673474
 30
0.0
 10
7746.804475301364
 20
-3493.858092301129
 30
0.0
 10
7759.74174987899
 20
-3494.189317704471
 30
0.0
 10
7759.74174987899
 20
-3494.189317704471
 30
0.0
 10
7767.496321086662
 20
-3493.93602769015
 30
0.0
 10
7767.496321086662
 20
-3493.93602769015
 30
0.0
 10
7767.496321086662
 20
-3493.93602769015
 30
0.0
 10
7795.241319578437
 20
-3493.858092301129
 30
0.0
 10
7795.202351883927
 20
-3516.167097408628
 30
0.0
 10
7795.163384189416
 20
-3532.864754506558
 30
0.0
 10
7797.07280122045
 20
-3902.824046193226
 30
0.0
 10
7797.07280122045
 20
-3902.824046193226
 30
0.0
 10
7797.07280122045
 20
-3902.824046193226
 30
0.0
 10
7797.501445860071
 20
-3913.579129878239
 30
0.0
 10
7789.240294623756
 20
-3913.579129878239
 30
0.0
 10
7789.240294623756
 20
-3913.579129878239
 30
0.0
 10
7234.301357093754
 20
-3913.618097572751
 30
0.0
 10
7234.301357093754
 20
-3913.618097572751
 30
0.0
 10
7234.301357093754
 20
-3913.618097572751
 30
0.0
 10
7220.896470181999
 20
-3915.449579214763
 30
0.0
 10
7221.091308654553
 20
-3900.485984522571
 30
0.0
 10
7221.091308654553
 20
-3900.485984522571
 30
0.0
 10
7221.052340960042
 20
-3888.795676169293
 30
0.0
 10
7221.052340960042
 20
-3888.795676169293
 30
0.0
  0
POLYLINE
  5
35E
330
1F
100
AcDbEntity
  8
Furniture
370
     9
100
AcDb2dPolyline
 66
     1
 10
0.0
 20
0.0
 30
0.0
  0
VERTEX
  5
35F
330
35E
100
AcDbEntity
  8
Furniture
370
     9
100
AcDbVertex
100
AcDb2dVertex
 10
7755.533238871811
 20
-3913.579129878239
 30
0.0
  0
VERTEX
  5
360
330
35E
100
AcDbEntity
  8
Furniture
370
     9
100
AcDbVertex
100
AcDb2dVertex
 10
7763.521616246549
 20
-4268.730697650757
 30
0.0
  0
VERTEX
  5
361
330
35E
100
AcDbEntity
  8
Furniture
370
     9
100
AcDbVertex
100
AcDb2dVertex
 10
7784.953848227555
 20
-4268.730697650757
 30
0.0
  0
VERTEX
  5
362
330
35E
100
AcDbEntity
  8
Furniture
370
     9
100
AcDbVertex
100
AcDb2dVertex
 10
7789.240294623756
 20
-3913.579129878239
 30
0.0
  0
SEQEND
  5
363
330
35E
100
AcDbEntity
  8
Furniture
370
     9
  0
POLYLINE
  5
364
330
1F
100
AcDbEntity
  8
Furniture
370
     9
100
AcDb2dPolyline
 66
     1
 10
0.0
 20
0.0
 30
0.0
  0
VERTEX
  5
365
330
364
100
AcDbEntity
  8
Furniture
370
     9
100
AcDbVertex
100
AcDb2dVertex
 10
7232.002263117611
 20
-3913.579129878239
 30
0.0
  0
VERTEX
  5
366
330
364
100
AcDbEntity
  8
Furniture
370
     9
100
AcDbVertex
100
AcDb2dVertex
 10
7240.02960818686
 20
-4268.730697650757
 30
0.0
  0
VERTEX
  5
367
330
364
100
AcDbEntity
  8
Furniture
370
     9
100
AcDbVertex
100
AcDb2dVertex
 10
7261.461840167865
 20
-4268.730697650757
 30
0.0
  0
VERTEX
  5
368
330
364
100
AcDbEntity
  8
Furniture
370
     9
100
AcDbVertex
100
AcDb2dVertex
 10
7265.709318869557
 20
-3913.579129878239
 30
0.0
  0
SEQEND
  5
369
330
364
100
AcDbEntity
  8
Furniture
370
     9
  0
SPLINE
  5
36A
330
1F
100
AcDbEntity
  8
Furniture
370
     9
100
AcDbSpline
210
0.0
220
0.0
230
1.0
 70
     8
 71
     3
 72
    14
 73
    10
 74
     0
 42
0.000000001
 43
0.0000000001
 40
0.0
 40
0.0
 40
0.0
 40
0.0
 40
1.0
 40
1.0
 40
1.0
 40
2.0
 40
2.0
 40
2.0
 40
3.0
 40
3.0
 40
3.0
 40
3.0
 10
7220.896470181999
 20
-3900.485984522571
 30
0.0
 10
7220.896470181999
 20
-3900.485984522571
 30
0.0
 10
7220.896470181999
 20
-3625.529932053525
 30
0.0
 10
7220.896470181999
 20
-3625.529932053525
 30
0.0
 10
7220.896470181999
 20
-3625.529932053525
 30
0.0
 10
7702.848915893048
 20
-3625.529932053525
 30
0.0
 10
7702.848915893048
 20
-3625.529932053525
 30
0.0
 10
7702.848915893048
 20
-3625.529932053525
 30
0.0
 10
7722.722440093618
 20
-3626.737930583362
 30
0.0
 10
7722.722440093618
 20
-3603.162475404257
 30
0.0
  0
POLYLINE
  5
36B
330
1F
100
AcDbEntity
  8
Furniture
370
     9
100
AcDb2dPolyline
 66
     1
 10
0.0
 20
0.0
 30
0.0
  0
VERTEX
  5
36C
330
36B
100
AcDbEntity
  8
Furniture
370
     9
100
AcDbVertex
100
AcDb2dVertex
 10
4807.276439870173
 20
-3913.598613725496
 30
0.0
  0
VERTEX
  5
36D
330
36B
100
AcDbEntity
  8
Furniture
370
     9
100
AcDbVertex
100
AcDb2dVertex
 10
4813.12159404681
 20
-4268.730697650757
 30
0.0
  0
VERTEX
  5
36E
330
36B
100
AcDbEntity
  8
Furniture
370
     9
100
AcDbVertex
100
AcDb2dVertex
 10
4834.553826027818
 20
-4268.730697650757
 30
0.0
  0
VERTEX
  5
36F
330
36B
100
AcDbEntity
  8
Furniture
370
     9
100
AcDbVertex
100
AcDb2dVertex
 10
4840.983495622118
 20
-3913.598613725496
 30
0.0
  0
SEQEND
  5
370
330
36B
100
AcDbEntity
  8
Furniture
370
     9
  0
SPLINE
  5
371
330
1F
100
AcDbEntity
  8
Furniture
370
     9
100
AcDbSpline
210
0.0
220
0.0
230
1.0
 70
     8
 71
     3
 72
    35
 73
    31
 74
     0
 42
0.000000001
 43
0.0000000001
 40
0.0
 40
0.0
 40
0.0
 40
0.0
 40
1.0
 40
1.0
 40
1.0
 40
2.0
 40
2.0
 40
2.0
 40
3.0
 40
3.0
 40
3.0
 40
4.0
 40
4.0
 40
4.0
 40
5.0
 40
5.0
 40
5.0
 40
6.0
 40
6.0
 40
6.0
 40
7.0
 40
7.0
 40
7.0
 40
8.0
 40
8.0
 40
8.0
 40
9.0
 40
9.0
 40
9.0
 40
10.0
 40
10.0
 40
10.0
 40
10.0
 10
5095.715314639996
 20
-3913.618097572751
 30
0.0
 10
5095.715314639996
 20
-3913.618097572751
 30
0.0
 10
4814.251657187628
 20
-3913.618097572751
 30
0.0
 10
4814.251657187628
 20
-3913.618097572751
 30
0.0
 10
4814.251657187628
 20
-3913.618097572751
 30
0.0
 10
4796.053743851029
 20
-3915.917191548896
 30
0.0
 10
4796.053743851029
 20
-3900.70030684238
 30
0.0
 10
4796.053743851029
 20
-3900.70030684238
 30
0.0
 10
4790.832072786565
 20
-3836.812771691728
 30
0.0
 10
4792.546651345044
 20
-3757.981125696139
 30
0.0
 10
4793.754649874885
 20
-3700.873969390386
 30
0.0
 10
4804.042121225768
 20
-3649.92370881736
 30
0.0
 10
4806.808827536042
 20
-3637.921658907997
 30
0.0
 10
4811.484950877353
 20
-3617.794844693106
 30
0.0
 10
4819.940940586223
 20
-3619.567874793353
 30
0.0
 10
4819.940940586223
 20
-3619.567874793353
 30
0.0
 10
4819.940940586223
 20
-3619.567874793353
 30
0.0
 10
4829.565961130418
 20
-3618.983359375689
 30
0.0
 10
4832.878215163846
 20
-3642.480879165773
 30
0.0
 10
4835.917695335698
 20
-3663.91311114678
 30
0.0
 10
4840.360012509942
 20
-3751.473520712816
 30
0.0
 10
4840.944527927606
 20
-3761.079057409757
 30
0.0
 10
4841.606978734294
 20
-3771.035303357297
 30
0.0
 10
4842.38633262451
 20
-3824.615883309811
 30
0.0
 10
4842.38633262451
 20
-3824.615883309811
 30
0.0
 10
4842.38633262451
 20
-3824.615883309811
 30
0.0
 10
4842.230461846465
 20
-3813.860799624798
 30
0.0
 10
4855.245671813115
 20
-3813.237316512621
 30
0.0
 10
4868.299849474273
 20
-3812.613833400448
 30
0.0
 10
5071.945020988336
 20
-3807.645452350305
 30
0.0
 10
5096.767442391793
 20
-3808.26893546248
 30
0.0
  0
SPLINE
  5
372
330
1F
100
AcDbEntity
  8
Furniture
370
     9
100
AcDbSpline
210
0.0
220
0.0
230
1.0
 70
     8
 71
     3
 72
    14
 73
    10
 74
     0
 42
0.000000001
 43
0.0000000001
 40
0.0
 40
0.0
 40
0.0
 40
0.0
 40
1.0
 40
1.0
 40
1.0
 40
2.0
 40
2.0
 40
2.0
 40
3.0
 40
3.0
 40
3.0
 40
3.0
 10
4803.76934736419
 20
-3652.807318211168
 30
0.0
 10
4803.76934736419
 20
-3652.807318211168
 30
0.0
 10
4802.561348834352
 20
-3516.050194325096
 30
0.0
 10
4801.859930333154
 20
-3491.909707575582
 30
0.0
 10
4801.859930333154
 20
-3491.909707575582
 30
0.0
 10
4807.081601397618
 20
-3492.162997589903
 30
0.0
 10
4821.967260700791
 20
-3493.000803021889
 30
0.0
 10
4836.891887698471
 20
-3493.799640759363
 30
0.0
 10
5097.390925503967
 20
-3493.877576148384
 30
0.0
 10
5097.390925503967
 20
-3493.877576148384
 30
0.0
  0
POLYLINE
  5
373
330
1F
100
AcDbEntity
  8
Furniture
370
     9
100
AcDb2dPolyline
 66
     1
 10
0.0
 20
0.0
 30
0.0
  0
VERTEX
  5
374
330
373
100
AcDbEntity
  8
Furniture
370
     9
100
AcDbVertex
100
AcDb2dVertex
 10
5380.763999987372
 20
-3913.598613725496
 30
0.0
  0
VERTEX
  5
375
330
373
100
AcDbEntity
  8
Furniture
370
     9
100
AcDbVertex
100
AcDb2dVertex
 10
5374.918845810732
 20
-4268.730697650757
 30
0.0
  0
VERTEX
  5
376
330
373
100
AcDbEntity
  8
Furniture
370
     9
100
AcDbVertex
100
AcDb2dVertex
 10
5353.447646135217
 20
-4268.730697650757
 30
0.0
  0
VERTEX
  5
377
330
373
100
AcDbEntity
  8
Furniture
370
     9
100
AcDbVertex
100
AcDb2dVertex
 10
5347.056944235426
 20
-3913.598613725496
 30
0.0
  0
SEQEND
  5
378
330
373
100
AcDbEntity
  8
Furniture
370
     9
  0
SPLINE
  5
379
330
1F
100
AcDbEntity
  8
Furniture
370
     9
100
AcDbSpline
210
0.0
220
0.0
230
1.0
 70
     8
 71
     3
 72
    35
 73
    31
 74
     0
 42
0.000000001
 43
0.0000000001
 40
0.0
 40
0.0
 40
0.0
 40
0.0
 40
1.0
 40
1.0
 40
1.0
 40
2.0
 40
2.0
 40
2.0
 40
3.0
 40
3.0
 40
3.0
 40
4.0
 40
4.0
 40
4.0
 40
5.0
 40
5.0
 40
5.0
 40
6.0
 40
6.0
 40
6.0
 40
7.0
 40
7.0
 40
7.0
 40
8.0
 40
8.0
 40
8.0
 40
9.0
 40
9.0
 40
9.0
 40
10.0
 40
10.0
 40
10.0
 40
10.0
 10
5092.325125217547
 20
-3913.618097572751
 30
0.0
 10
5092.325125217547
 20
-3913.618097572751
 30
0.0
 10
5373.827750364427
 20
-3913.618097572751
 30
0.0
 10
5373.827750364427
 20
-3913.618097572751
 30
0.0
 10
5373.827750364427
 20
-3913.618097572751
 30
0.0
 10
5392.025663701026
 20
-3915.917191548896
 30
0.0
 10
5392.025663701026
 20
-3900.70030684238
 30
0.0
 10
5392.025663701026
 20
-3900.70030684238
 30
0.0
 10
5397.20836707098
 20
-3836.812771691728
 30
0.0
 10
5395.532756207009
 20
-3757.981125696139
 30
0.0
 10
5394.28578998266
 20
-3700.873969390386
 30
0.0
 10
5383.998318631777
 20
-3649.92370881736
 30
0.0
 10
5381.231612321503
 20
-3637.921658907997
 30
0.0
 10
5376.594456674704
 20
-3617.794844693106
 30
0.0
 10
5368.099499271322
 20
-3619.567874793353
 30
0.0
 10
5368.099499271322
 20
-3619.567874793353
 30
0.0
 10
5368.099499271322
 20
-3619.567874793353
 30
0.0
 10
5358.474478727124
 20
-3618.983359375689
 30
0.0
 10
5355.162224693697
 20
-3642.480879165773
 30
0.0
 10
5352.161712216357
 20
-3663.91311114678
 30
0.0
 10
5347.680427347601
 20
-3751.473520712816
 30
0.0
 10
5347.095911929937
 20
-3761.079057409757
 30
0.0
 10
5346.472428817762
 20
-3771.035303357297
 30
0.0
 10
5345.654107233033
 20
-3824.615883309811
 30
0.0
 10
5345.654107233033
 20
-3824.615883309811
 30
0.0
 10
5345.654107233033
 20
-3824.615883309811
 30
0.0
 10
5345.848945705587
 20
-3813.860799624798
 30
0.0
 10
5332.79476804443
 20
-3813.237316512621
 30
0.0
 10
5319.779558077783
 20
-3812.613833400448
 30
0.0
 10
5116.134386563719
 20
-3807.645452350305
 30
0.0
 10
5091.272997465752
 20
-3808.26893546248
 30
0.0
  0
SPLINE
  5
37A
330
1F
100
AcDbEntity
  8
Furniture
370
     9
100
AcDbSpline
210
0.0
220
0.0
230
1.0
 70
     8
 71
     3
 72
    14
 73
    10
 74
     0
 42
0.000000001
 43
0.0000000001
 40
0.0
 40
0.0
 40
0.0
 40
0.0
 40
1.0
 40
1.0
 40
1.0
 40
2.0
 40
2.0
 40
2.0
 40
3.0
 40
3.0
 40
3.0
 40
3.0
 10
5385.167349467105
 20
-3657.600344636011
 30
0.0
 10
5385.167349467105
 20
-3657.600344636011
 30
0.0
 10
5385.79083257928
 20
-3515.017550420556
 30
0.0
 10
5386.297412607922
 20
-3492.026610659115
 30
0.0
 10
5386.297412607922
 20
-3492.026610659115
 30
0.0
 10
5379.672904541065
 20
-3491.987642964603
 30
0.0
 10
5364.787245237894
 20
-3492.240932978925
 30
0.0
 10
5349.74571515668
 20
-3492.494222993246
 30
0.0
 10
5090.649514353578
 20
-3493.877576148384
 30
0.0
 10
5090.649514353578
 20
-3493.877576148384
 30
0.0
  0
SPLINE
  5
37B
330
1F
100
AcDbEntity
  8
Furniture
370
     9
100
AcDbSpline
210
0.0
220
0.0
230
1.0
 70
     8
 71
     3
 72
    26
 73
    22
 74
     0
 42
0.000000001
 43
0.0000000001
 40
0.0
 40
0.0
 40
0.0
 40
0.0
 40
1.0
 40
1.0
 40
1.0
 40
2.0
 40
2.0
 40
2.0
 40
3.0
 40
3.0
 40
3.0
 40
4.0
 40
4.0
 40
4.0
 40
5.0
 40
5.0
 40
5.0
 40
6.0
 40
6.0
 40
6.0
 40
7.0
 40
7.0
 40
7.0
 40
7.0
 10
2673.733359904796
 20
-3785.999520921115
 30
0.0
 10
2608.094218732929
 20
-3785.999520921115
 30
0.0
 10
2565.766551353592
 20
-3784.325773235318
 30
0.0
 10
2430.374479517062
 20
-3782.591528645218
 30
0.0
 10
2430.374479517062
 20
-3782.591528645218
 30
0.0
 10
2388.833271893699
 20
-4262.412642329818
 30
0.0
 10
2388.833271893699
 20
-4262.412642329818
 30
0.0
 10
2388.833271893699
 20
-4262.412642329818
 30
0.0
 10
2388.147640311566
 20
-4287.619685790594
 30
0.0
 10
2370.906022584393
 20
-4287.942335946893
 30
0.0
 10
2348.159186565388
 20
-4288.345648642265
 30
0.0
 10
2348.159186565388
 20
-4261.162372974162
 30
0.0
 10
2348.159186565388
 20
-4261.162372974162
 30
0.0
 10
2348.159186565388
 20
-4261.162372974162
 30
0.0
 10
2378.347141814015
 20
-3740.566345787409
 30
0.0
 10
2378.347141814015
 20
-3740.566345787409
 30
0.0
 10
2378.347141814015
 20
-3740.566345787409
 30
0.0
 10
2378.468135622627
 20
-3712.334457111338
 30
0.0
 10
2419.56569928108
 20
-3709.954912208639
 30
0.0
 10
2458.767693271281
 20
-3707.656029845017
 30
0.0
 10
2671.958784045157
 20
-3707.656029845017
 30
0.0
 10
2671.958784045157
 20
-3707.656029845017
 30
0.0
  0
POLYLINE
  5
37C
330
1F
100
AcDbEntity
  8
Furniture
370
    35
100
AcDb2dPolyline
 66
     1
 10
0.0
 20
0.0
 30
0.0
  0
VERTEX
  5
37D
330
37C
100
AcDbEntity
  8
Furniture
370
    35
100
AcDbVertex
100
AcDb2dVertex
 10
2375.705443659326
 20
-4277.13355571091
 30
0.0
  0
VERTEX
  5
37E
330
37C
100
AcDbEntity
  8
Furniture
100
AcDbVertex
100
AcDb2dVertex
 10
2375.705443659326
 20
-4277.13355571091
 30
0.0
  0
SEQEND
  5
37F
330
37C
100
AcDbEntity
  8
Furniture
370
    35
  0
SPLINE
  5
380
330
1F
100
AcDbEntity
  8
Furniture
370
     9
100
AcDbSpline
210
0.0
220
0.0
230
1.0
 70
     8
 71
     3
 72
     8
 73
     4
 74
     0
 42
0.000000001
 43
0.0000000001
 40
0.0
 40
0.0
 40
0.0
 40
0.0
 40
1.0
 40
1.0
 40
1.0
 40
1.0
 10
2380.18221457796
 20
-4284.574674940532
 30
0.0
 10
2380.18221457796
 20
-4284.574674940532
 30
0.0
 10
2579.922826961164
 20
-4288.345648642265
 30
0.0
 10
2672.442759279604
 20
-4288.345648642265
 30
0.0
  0
POLYLINE
  5
381
330
1F
100
AcDbEntity
  8
Furniture
370
     9
100
AcDb2dPolyline
 66
     1
 10
0.0
 20
0.0
 30
0.0
  0
VERTEX
  5
382
330
381
100
AcDbEntity
  8
Furniture
370
     9
100
AcDbVertex
100
AcDb2dVertex
 10
2647.296212723131
 20
-3707.656029845017
 30
0.0
  0
VERTEX
  5
383
330
381
100
AcDbEntity
  8
Furniture
100
AcDbVertex
100
AcDb2dVertex
 10
2647.296212723131
 20
-3707.656029845017
 30
0.0
  0
SEQEND
  5
384
330
381
100
AcDbEntity
  8
Furniture
370
     9
  0
POLYLINE
  5
385
330
1F
100
AcDbEntity
  8
Furniture
370
     9
100
AcDb2dPolyline
 66
     1
 10
0.0
 20
0.0
 30
0.0
  0
VERTEX
  5
386
330
385
100
AcDbEntity
  8
Furniture
370
     9
100
AcDbVertex
100
AcDb2dVertex
 10
2646.812237488684
 20
-4288.345648642265
 30
0.0
  0
VERTEX
  5
387
330
385
100
AcDbEntity
  8
Furniture
100
AcDbVertex
100
AcDb2dVertex
 10
2646.812237488684
 20
-4288.345648642265
 30
0.0
  0
SEQEND
  5
388
330
385
100
AcDbEntity
  8
Furniture
370
     9
  0
POLYLINE
  5
389
330
1F
100
AcDbEntity
  8
Furniture
370
     9
100
AcDb2dPolyline
 66
     1
 10
0.0
 20
0.0
 30
0.0
  0
VERTEX
  5
38A
330
389
100
AcDbEntity
  8
Furniture
370
     9
100
AcDbVertex
100
AcDb2dVertex
 10
2677.76648685852
 20
-3707.656029845017
 30
0.0
  0
VERTEX
  5
38B
330
389
100
AcDbEntity
  8
Furniture
100
AcDbVertex
100
AcDb2dVertex
 10
2677.76648685852
 20
-3707.656029845017
 30
0.0
  0
SEQEND
  5
38C
330
389
100
AcDbEntity
  8
Furniture
370
     9
  0
POLYLINE
  5
38D
330
1F
100
AcDbEntity
  8
Furniture
370
     9
100
AcDb2dPolyline
 66
     1
 10
0.0
 20
0.0
 30
0.0
  0
VERTEX
  5
38E
330
38D
100
AcDbEntity
  8
Furniture
370
     9
100
AcDbVertex
100
AcDb2dVertex
 10
2678.250462092967
 20
-4288.345648642265
 30
0.0
  0
VERTEX
  5
38F
330
38D
100
AcDbEntity
  8
Furniture
100
AcDbVertex
100
AcDb2dVertex
 10
2678.250462092967
 20
-4288.345648642265
 30
0.0
  0
SEQEND
  5
390
330
38D
100
AcDbEntity
  8
Furniture
370
     9
  0
POLYLINE
  5
392
330
1F
100
AcDbEntity
  8
Furniture
370
     9
100
AcDb2dPolyline
 66
     1
 10
0.0
 20
0.0
 30
0.0
  0
VERTEX
  5
393
330
392
100
AcDbEntity
  8
Furniture
370
     9
100
AcDbVertex
100
AcDb2dVertex
 10
2689.281064311403
 20
-3707.656029845017
 30
0.0
  0
VERTEX
  5
394
330
392
100
AcDbEntity
  8
Furniture
100
AcDbVertex
100
AcDb2dVertex
 10
2689.281064311403
 20
-3707.656029845017
 30
0.0
  0
SEQEND
  5
395
330
392
100
AcDbEntity
  8
Furniture
370
     9
  0
POLYLINE
  5
396
330
1F
100
AcDbEntity
  8
Furniture
370
     9
100
AcDb2dPolyline
 66
     1
 10
0.0
 20
0.0
 30
0.0
  0
VERTEX
  5
397
330
396
100
AcDbEntity
  8
Furniture
370
     9
100
AcDbVertex
100
AcDb2dVertex
 10
2689.76503954585
 20
-4288.345648642265
 30
0.0
  0
VERTEX
  5
398
330
396
100
AcDbEntity
  8
Furniture
100
AcDbVertex
100
AcDb2dVertex
 10
2689.76503954585
 20
-4288.345648642265
 30
0.0
  0
SEQEND
  5
399
330
396
100
AcDbEntity
  8
Furniture
370
     9
  0
POLYLINE
  5
39A
330
1F
100
AcDbEntity
  8
Furniture
370
     9
100
AcDb2dPolyline
 66
     1
 10
0.0
 20
0.0
 30
0.0
  0
VERTEX
  5
39B
330
39A
100
AcDbEntity
  8
Furniture
370
     9
100
AcDbVertex
100
AcDb2dVertex
 10
2658.810790176015
 20
-3707.656029845017
 30
0.0
  0
VERTEX
  5
39C
330
39A
100
AcDbEntity
  8
Furniture
100
AcDbVertex
100
AcDb2dVertex
 10
2658.810790176015
 20
-3707.656029845017
 30
0.0
  0
SEQEND
  5
39D
330
39A
100
AcDbEntity
  8
Furniture
370
     9
  0
POLYLINE
  5
39E
330
1F
100
AcDbEntity
  8
Furniture
370
     9
100
AcDb2dPolyline
 66
     1
 10
0.0
 20
0.0
 30
0.0
  0
VERTEX
  5
39F
330
39E
100
AcDbEntity
  8
Furniture
370
     9
100
AcDbVertex
100
AcDb2dVertex
 10
2658.306649306799
 20
-4288.345648642265
 30
0.0
  0
VERTEX
  5
3A0
330
39E
100
AcDbEntity
  8
Furniture
100
AcDbVertex
100
AcDb2dVertex
 10
2658.306649306799
 20
-4288.345648642265
 30
0.0
  0
SEQEND
  5
3A1
330
39E
100
AcDbEntity
  8
Furniture
370
     9
  0
SPLINE
  5
3F0
330
1F
100
AcDbEntity
  8
Furniture
370
     9
100
AcDbSpline
210
0.0
220
0.0
230
1.0
 70
     8
 71
     3
 72
    32
 73
    28
 74
     0
 42
0.000000001
 43
0.0000000001
 40
0.0
 40
0.0
 40
0.0
 40
0.0
 40
1.0
 40
1.0
 40
1.0
 40
2.0
 40
2.0
 40
2.0
 40
3.0
 40
3.0
 40
3.0
 40
4.0
 40
4.0
 40
4.0
 40
5.0
 40
5.0
 40
5.0
 40
6.0
 40
6.0
 40
6.0
 40
7.0
 40
7.0
 40
7.0
 40
8.0
 40
8.0
 40
8.0
 40
9.0
 40
9.0
 40
9.0
 40
9.0
 10
7683.248165554056
 20
-2067.791483451046
 30
0.0
 10
7686.287645725906
 20
-2026.339598415055
 30
0.0
 10
7688.703642785583
 20
-2009.047683975834
 30
0.0
 10
7695.289183157929
 20
-1974.317726242978
 30
0.0
 10
7696.497181687769
 20
-1967.868572801421
 30
0.0
 10
7707.057426900226
 20
-1961.302516276331
 30
0.0
 10
7719.994701477855
 20
-1961.614257832418
 30
0.0
 10
7719.994701477855
 20
-1961.614257832418
 30
0.0
 10
7727.749272685525
 20
-1961.360967818097
 30
0.0
 10
7727.749272685525
 20
-1961.360967818097
 30
0.0
 10
7727.749272685525
 20
-1961.360967818097
 30
0.0
 10
7755.494271177301
 20
-1961.302516276331
 30
0.0
 10
7755.455303482789
 20
-1983.611521383832
 30
0.0
 10
7755.416335788277
 20
-2000.309178481761
 30
0.0
 10
7757.325752819314
 20
-2370.268470168429
 30
0.0
 10
7757.325752819314
 20
-2370.268470168429
 30
0.0
 10
7757.325752819314
 20
-2370.268470168429
 30
0.0
 10
7757.754397458933
 20
-2381.013811929814
 30
0.0
 10
7749.493246222619
 20
-2381.013811929814
 30
0.0
 10
7749.493246222619
 20
-2381.013811929814
 30
0.0
 10
7234.301357093754
 20
-2381.062521547954
 30
0.0
 10
7234.301357093754
 20
-2381.062521547954
 30
0.0
 10
7234.301357093754
 20
-2381.062521547954
 30
0.0
 10
7220.896470181999
 20
-2382.874519342711
 30
0.0
 10
7221.091308654553
 20
-2367.930408497773
 30
0.0
 10
7221.091308654553
 20
-2367.930408497773
 30
0.0
 10
7221.052340960042
 20
-2356.220616297242
 30
0.0
 10
7221.052340960042
 20
-2356.220616297242
 30
0.0
  0
POLYLINE
  5
3F1
330
1F
100
AcDbEntity
  8
Furniture
370
     9
100
AcDb2dPolyline
 66
     1
 10
0.0
 20
0.0
 30
0.0
  0
VERTEX
  5
3F2
330
3F1
100
AcDbEntity
  8
Furniture
370
     9
100
AcDbVertex
100
AcDb2dVertex
 10
7715.786190470672
 20
-2381.013811929814
 30
0.0
  0
VERTEX
  5
3F3
330
3F1
100
AcDbEntity
  8
Furniture
370
     9
100
AcDbVertex
100
AcDb2dVertex
 10
7723.77456784541
 20
-2736.155637778705
 30
0.0
  0
VERTEX
  5
3F4
330
3F1
100
AcDbEntity
  8
Furniture
370
     9
100
AcDbVertex
100
AcDb2dVertex
 10
7745.206799826417
 20
-2736.155637778705
 30
0.0
  0
VERTEX
  5
3F5
330
3F1
100
AcDbEntity
  8
Furniture
370
     9
100
AcDbVertex
100
AcDb2dVertex
 10
7749.493246222619
 20
-2381.013811929814
 30
0.0
  0
SEQEND
  5
3F6
330
3F1
100
AcDbEntity
  8
Furniture
370
     9
  0
POLYLINE
  5
3F7
330
1F
100
AcDbEntity
  8
Furniture
370
     9
100
AcDb2dPolyline
 66
     1
 10
0.0
 20
0.0
 30
0.0
  0
VERTEX
  5
3F8
330
3F7
100
AcDbEntity
  8
Furniture
370
     9
100
AcDbVertex
100
AcDb2dVertex
 10
7228.767944473206
 20
-2381.013811929814
 30
0.0
  0
VERTEX
  5
3F9
330
3F7
100
AcDbEntity
  8
Furniture
370
     9
100
AcDbVertex
100
AcDb2dVertex
 10
7236.795289542453
 20
-2736.155637778705
 30
0.0
  0
VERTEX
  5
3FA
330
3F7
100
AcDbEntity
  8
Furniture
370
     9
100
AcDbVertex
100
AcDb2dVertex
 10
7258.22752152346
 20
-2736.155637778705
 30
0.0
  0
VERTEX
  5
3FB
330
3F7
100
AcDbEntity
  8
Furniture
370
     9
100
AcDbVertex
100
AcDb2dVertex
 10
7262.47500022515
 20
-2381.013811929814
 30
0.0
  0
SEQEND
  5
3FC
330
3F7
100
AcDbEntity
  8
Furniture
370
     9
  0
SPLINE
  5
3FD
330
1F
100
AcDbEntity
  8
Furniture
370
     9
100
AcDbSpline
210
0.0
220
0.0
230
1.0
 70
     8
 71
     3
 72
    14
 73
    10
 74
     0
 42
0.000000001
 43
0.0000000001
 40
0.0
 40
0.0
 40
0.0
 40
0.0
 40
1.0
 40
1.0
 40
1.0
 40
2.0
 40
2.0
 40
2.0
 40
3.0
 40
3.0
 40
3.0
 40
3.0
 10
7220.896470181999
 20
-2367.930408497773
 30
0.0
 10
7220.896470181999
 20
-2367.930408497773
 30
0.0
 10
7220.896470181999
 20
-2092.945130257844
 30
0.0
 10
7220.896470181999
 20
-2092.945130257844
 30
0.0
 10
7220.896470181999
 20
-2092.945130257844
 30
0.0
 10
7663.998124465662
 20
-2092.945130257844
 30
0.0
 10
7663.998124465662
 20
-2092.945130257844
 30
0.0
 10
7663.998124465662
 20
-2092.945130257844
 30
0.0
 10
7683.248165554056
 20
-2091.386422477407
 30
0.0
 10
7683.248165554056
 20
-2067.791483451046
 30
0.0
  0
SPLINE
  5
3FF
330
1F
100
AcDbEntity
  8
Furniture
370
     9
100
AcDbSpline
210
0.0
220
0.0
230
1.0
 70
     8
 71
     3
 72
    26
 73
    22
 74
     0
 42
0.000000001
 43
0.0000000001
 40
0.0
 40
0.0
 40
0.0
 40
0.0
 40
1.0
 40
1.0
 40
1.0
 40
2.0
 40
2.0
 40
2.0
 40
3.0
 40
3.0
 40
3.0
 40
4.0
 40
4.0
 40
4.0
 40
5.0
 40
5.0
 40
5.0
 40
6.0
 40
6.0
 40
6.0
 40
7.0
 40
7.0
 40
7.0
 40
7.0
 10
2660.037248160974
 20
-2275.451817945774
 30
0.0
 10
2600.749830522551
 20
-2275.451817945774
 30
0.0
 10
2574.837428791511
 20
-2275.983455367307
 30
0.0
 10
2452.816795412132
 20
-2277.558677357036
 30
0.0
 10
2452.816795412132
 20
-2277.558677357036
 30
0.0
 10
2413.101510996091
 20
-2716.602581306798
 30
0.0
 10
2413.101510996091
 20
-2716.602581306798
 30
0.0
 10
2413.101510996091
 20
-2716.602581306798
 30
0.0
 10
2410.561465537653
 20
-2741.116973521954
 30
0.0
 10
2394.986458114209
 20
-2741.412327645029
 30
0.0
 10
2374.429811148246
 20
-2741.806133142461
 30
0.0
 10
2374.429811148246
 20
-2716.563200757055
 30
0.0
 10
2374.429811148246
 20
-2716.563200757055
 30
0.0
 10
2374.429811148246
 20
-2716.563200757055
 30
0.0
 10
2401.681151570557
 20
-2233.344165132832
 30
0.0
 10
2401.681151570557
 20
-2233.344165132832
 30
0.0
 10
2401.681151570557
 20
-2233.344165132832
 30
0.0
 10
2401.799293219786
 20
-2207.126564141281
 30
0.0
 10
2438.954841902518
 20
-2204.940943630532
 30
0.0
 10
2474.397336671418
 20
-2202.804548806962
 30
0.0
 10
2667.066676290139
 20
-2202.804548806962
 30
0.0
 10
2667.066676290139
 20
-2202.804548806962
 30
0.0
  0
POLYLINE
  5
400
330
1F
100
AcDbEntity
  8
Furniture
370
    35
100
AcDb2dPolyline
 66
     1
 10
0.0
 20
0.0
 30
0.0
  0
VERTEX
  5
401
330
400
100
AcDbEntity
  8
Furniture
370
    35
100
AcDbVertex
100
AcDb2dVertex
 10
2399.298628311091
 20
-2731.370287460507
 30
0.0
  0
VERTEX
  5
402
330
400
100
AcDbEntity
  8
Furniture
100
AcDbVertex
100
AcDb2dVertex
 10
2399.298628311091
 20
-2731.370287460507
 30
0.0
  0
SEQEND
  5
403
330
400
100
AcDbEntity
  8
Furniture
370
    35
  0
SPLINE
  5
404
330
1F
100
AcDbEntity
  8
Furniture
370
     9
100
AcDbSpline
210
0.0
220
0.0
230
1.0
 70
     8
 71
     3
 72
     8
 73
     4
 74
     0
 42
0.000000001
 43
0.0000000001
 40
0.0
 40
0.0
 40
0.0
 40
0.0
 40
1.0
 40
1.0
 40
1.0
 40
1.0
 10
2403.354824934643
 20
-2738.271728803007
 30
0.0
 10
2403.354824934643
 20
-2738.271728803007
 30
0.0
 10
2583.894955232451
 20
-2741.806133142461
 30
0.0
 10
2667.519552612186
 20
-2741.806133142461
 30
0.0
  0
POLYLINE
  5
405
330
1F
100
AcDbEntity
  8
Furniture
370
     9
100
AcDb2dPolyline
 66
     1
 10
0.0
 20
0.0
 30
0.0
  0
VERTEX
  5
406
330
405
100
AcDbEntity
  8
Furniture
370
     9
100
AcDbVertex
100
AcDb2dVertex
 10
2644.796975410346
 20
-2202.804548806962
 30
0.0
  0
VERTEX
  5
407
330
405
100
AcDbEntity
  8
Furniture
100
AcDbVertex
100
AcDb2dVertex
 10
2644.796975410346
 20
-2202.804548806962
 30
0.0
  0
SEQEND
  5
408
330
405
100
AcDbEntity
  8
Furniture
370
     9
  0
POLYLINE
  5
409
330
1F
100
AcDbEntity
  8
Furniture
370
     9
100
AcDb2dPolyline
 66
     1
 10
0.0
 20
0.0
 30
0.0
  0
VERTEX
  5
40A
330
409
100
AcDbEntity
  8
Furniture
370
     9
100
AcDbVertex
100
AcDb2dVertex
 10
2644.344099088299
 20
-2741.806133142461
 30
0.0
  0
VERTEX
  5
40B
330
409
100
AcDbEntity
  8
Furniture
100
AcDbVertex
100
AcDb2dVertex
 10
2644.344099088299
 20
-2741.806133142461
 30
0.0
  0
SEQEND
  5
40C
330
409
100
AcDbEntity
  8
Furniture
370
     9
  0
SPLINE
  5
40D
330
1F
100
AcDbEntity
  8
Furniture
370
     9
100
AcDbSpline
210
0.0
220
0.0
230
1.0
 70
     8
 71
     3
 72
    26
 73
    22
 74
     0
 42
0.000000001
 43
0.0000000001
 40
0.0
 40
0.0
 40
0.0
 40
0.0
 40
1.0
 40
1.0
 40
1.0
 40
2.0
 40
2.0
 40
2.0
 40
3.0
 40
3.0
 40
3.0
 40
4.0
 40
4.0
 40
4.0
 40
5.0
 40
5.0
 40
5.0
 40
6.0
 40
6.0
 40
6.0
 40
7.0
 40
7.0
 40
7.0
 40
7.0
 10
2657.083706930232
 20
-2275.451817945774
 30
0.0
 10
2716.390814843527
 20
-2275.451817945774
 30
0.0
 10
2742.283526299696
 20
-2275.983455367307
 30
0.0
 10
2864.31400481651
 20
-2277.558677357036
 30
0.0
 10
2864.31400481651
 20
-2277.558677357036
 30
0.0
 10
2904.009598957678
 20
-2716.602581306798
 30
0.0
 10
2904.009598957678
 20
-2716.602581306798
 30
0.0
 10
2904.009598957678
 20
-2716.602581306798
 30
0.0
 10
2906.569334690987
 20
-2741.116973521954
 30
0.0
 10
2922.164032389305
 20
-2741.412327645029
 30
0.0
 10
2942.681298805524
 20
-2741.806133142461
 30
0.0
 10
2942.681298805524
 20
-2716.563200757055
 30
0.0
 10
2942.681298805524
 20
-2716.563200757055
 30
0.0
 10
2942.681298805524
 20
-2716.563200757055
 30
0.0
 10
2915.429958383214
 20
-2233.344165132832
 30
0.0
 10
2915.429958383214
 20
-2233.344165132832
 30
0.0
 10
2915.429958383214
 20
-2233.344165132832
 30
0.0
 10
2915.311816733984
 20
-2207.126564141281
 30
0.0
 10
2878.175958326125
 20
-2204.940943630532
 30
0.0
 10
2842.723618419788
 20
-2202.804548806962
 30
0.0
 10
2650.034588526195
 20
-2202.804548806962
 30
0.0
 10
2650.034588526195
 20
-2202.804548806962
 30
0.0
  0
POLYLINE
  5
40E
330
1F
100
AcDbEntity
  8
Furniture
370
    35
100
AcDb2dPolyline
 66
     1
 10
0.0
 20
0.0
 30
0.0
  0
VERTEX
  5
40F
330
40E
100
AcDbEntity
  8
Furniture
370
    35
100
AcDbVertex
100
AcDb2dVertex
 10
2917.83217191755
 20
-2731.370287460507
 30
0.0
  0
VERTEX
  5
410
330
40E
100
AcDbEntity
  8
Furniture
100
AcDbVertex
100
AcDb2dVertex
 10
2917.83217191755
 20
-2731.370287460507
 30
0.0
  0
SEQEND
  5
411
330
40E
100
AcDbEntity
  8
Furniture
370
    35
  0
SPLINE
  5
412
330
1F
100
AcDbEntity
  8
Furniture
370
     9
100
AcDbSpline
210
0.0
220
0.0
230
1.0
 70
     8
 71
     3
 72
     8
 73
     4
 74
     0
 42
0.000000001
 43
0.0000000001
 40
0.0
 40
0.0
 40
0.0
 40
0.0
 40
1.0
 40
1.0
 40
1.0
 40
1.0
 10
2913.775975293999
 20
-2738.271728803007
 30
0.0
 10
2913.775975293999
 20
-2738.271728803007
 30
0.0
 10
2733.225999858755
 20
-2741.806133142461
 30
0.0
 10
2649.601402479019
 20
-2741.806133142461
 30
0.0
  0
POLYLINE
  5
413
330
1F
100
AcDbEntity
  8
Furniture
370
     9
100
AcDb2dPolyline
 66
     1
 10
0.0
 20
0.0
 30
0.0
  0
VERTEX
  5
414
330
413
100
AcDbEntity
  8
Furniture
370
     9
100
AcDbVertex
100
AcDb2dVertex
 10
2672.323979680859
 20
-2202.804548806962
 30
0.0
  0
VERTEX
  5
415
330
413
100
AcDbEntity
  8
Furniture
100
AcDbVertex
100
AcDb2dVertex
 10
2672.323979680859
 20
-2202.804548806962
 30
0.0
  0
SEQEND
  5
416
330
413
100
AcDbEntity
  8
Furniture
370
     9
  0
POLYLINE
  5
417
330
1F
100
AcDbEntity
  8
Furniture
370
     9
100
AcDb2dPolyline
 66
     1
 10
0.0
 20
0.0
 30
0.0
  0
VERTEX
  5
418
330
417
100
AcDbEntity
  8
Furniture
370
     9
100
AcDbVertex
100
AcDb2dVertex
 10
2672.776856002907
 20
-2741.806133142461
 30
0.0
  0
VERTEX
  5
419
330
417
100
AcDbEntity
  8
Furniture
100
AcDbVertex
100
AcDb2dVertex
 10
2672.776856002907
 20
-2741.806133142461
 30
0.0
  0
SEQEND
  5
41A
330
417
100
AcDbEntity
  8
Furniture
370
     9
  0
SPLINE
  5
41B
330
1F
100
AcDbEntity
  8
Furniture
370
     9
100
AcDbSpline
210
0.0
220
0.0
230
1.0
 70
     8
 71
     3
 72
    20
 73
    16
 74
     0
 42
0.000000001
 43
0.0000000001
 40
0.0
 40
0.0
 40
0.0
 40
0.0
 40
1.0
 40
1.0
 40
1.0
 40
2.0
 40
2.0
 40
2.0
 40
3.0
 40
3.0
 40
3.0
 40
4.0
 40
4.0
 40
4.0
 40
5.0
 40
5.0
 40
5.0
 40
5.0
 10
2675.499227737763
 20
-733.6321334880549
 30
0.0
 10
2675.499227737763
 20
-733.6321334880549
 30
0.0
 10
2501.552635134781
 20
-733.0256788486531
 30
0.0
 10
2466.898084311829
 20
-735.1145781621475
 30
0.0
 10
2430.568563532435
 20
-737.2612350603471
 30
0.0
 10
2424.715794949004
 20
-767.6513508792522
 30
0.0
 10
2424.715794949004
 20
-767.6513508792522
 30
0.0
 10
2424.715794949004
 20
-767.6513508792522
 30
0.0
 10
2398.282073682386
 20
-1235.969100194971
 30
0.0
 10
2398.282073682386
 20
-1235.969100194971
 30
0.0
 10
2398.282073682386
 20
-1235.969100194971
 30
0.0
 10
2398.282073682386
 20
-1260.670093920441
 30
0.0
 10
2418.381713159697
 20
-1260.265790827507
 30
0.0
 10
2418.381713159697
 20
-1260.265790827507
 30
0.0
 10
2650.547951145237
 20
-1263.557973155687
 30
0.0
 10
2677.135692637735
 20
-1263.557973155687
 30
0.0
  0
POLYLINE
  5
41C
330
1F
100
AcDbEntity
  8
Furniture
370
    35
100
AcDb2dPolyline
 66
     1
 10
0.0
 20
0.0
 30
0.0
  0
VERTEX
  5
41D
330
41C
100
AcDbEntity
  8
Furniture
370
    35
100
AcDbVertex
100
AcDb2dVertex
 10
2422.617269371392
 20
-1250.475880220023
 30
0.0
  0
VERTEX
  5
41E
330
41C
100
AcDbEntity
  8
Furniture
100
AcDbVertex
100
AcDb2dVertex
 10
2422.617269371392
 20
-1250.475880220023
 30
0.0
  0
SEQEND
  5
41F
330
41C
100
AcDbEntity
  8
Furniture
370
    35
  0
SPLINE
  5
420
330
1F
100
AcDbEntity
  8
Furniture
370
     9
100
AcDbSpline
210
0.0
220
0.0
230
1.0
 70
     8
 71
     3
 72
    11
 73
     7
 74
     0
 42
0.000000001
 43
0.0000000001
 40
0.0
 40
0.0
 40
0.0
 40
0.0
 40
1.0
 40
1.0
 40
1.0
 40
2.0
 40
2.0
 40
2.0
 40
2.0
 10
2426.333007320742
 20
-762.5398046328669
 30
0.0
 10
2425.620663776047
 20
-778.7408071425966
 30
0.0
 10
2448.107616754495
 20
-792.140566794138
 30
0.0
 10
2468.534549211802
 20
-794.1909610511625
 30
0.0
 10
2468.534549211802
 20
-794.1909610511625
 30
0.0
 10
2572.844747188886
 20
-801.1507500081052
 30
0.0
 10
2677.135692637735
 20
-801.5646793651571
 30
0.0
  0
SPLINE
  5
421
330
1F
100
AcDbEntity
  8
Furniture
370
     9
100
AcDbSpline
210
0.0
220
0.0
230
1.0
 70
     8
 71
     3
 72
    20
 73
    16
 74
     0
 42
0.000000001
 43
0.0000000001
 40
0.0
 40
0.0
 40
0.0
 40
0.0
 40
1.0
 40
1.0
 40
1.0
 40
2.0
 40
2.0
 40
2.0
 40
3.0
 40
3.0
 40
3.0
 40
4.0
 40
4.0
 40
4.0
 40
5.0
 40
5.0
 40
5.0
 40
5.0
 10
2635.530979121958
 20
-733.6321334880549
 30
0.0
 10
2635.530979121958
 20
-733.6321334880549
 30
0.0
 10
2809.47757172494
 20
-733.0256788486531
 30
0.0
 10
2844.132122547891
 20
-735.1145781621475
 30
0.0
 10
2880.452017063168
 20
-737.2612350603471
 30
0.0
 10
2886.343290703069
 20
-767.6513508792522
 30
0.0
 10
2886.343290703069
 20
-767.6513508792522
 30
0.0
 10
2886.343290703069
 20
-767.6513508792522
 30
0.0
 10
2912.757759441453
 20
-1235.969100194971
 30
0.0
 10
2912.757759441453
 20
-1235.969100194971
 30
0.0
 10
2912.757759441453
 20
-1235.969100194971
 30
0.0
 10
2912.757759441453
 20
-1260.670093920441
 30
0.0
 10
2892.65811996414
 20
-1260.265790827507
 30
0.0
 10
2892.65811996414
 20
-1260.265790827507
 30
0.0
 10
2660.482255714484
 20
-1263.557973155687
 30
0.0
 10
2633.894514221986
 20
-1263.557973155687
 30
0.0
  0
POLYLINE
  5
422
330
1F
100
AcDbEntity
  8
Furniture
370
    35
100
AcDb2dPolyline
 66
     1
 10
0.0
 20
0.0
 30
0.0
  0
VERTEX
  5
423
330
422
100
AcDbEntity
  8
Furniture
370
    35
100
AcDbVertex
100
AcDb2dVertex
 10
2888.422563752447
 20
-1250.475880220023
 30
0.0
  0
VERTEX
  5
424
330
422
100
AcDbEntity
  8
Furniture
100
AcDbVertex
100
AcDb2dVertex
 10
2888.422563752447
 20
-1250.475880220023
 30
0.0
  0
SEQEND
  5
425
330
422
100
AcDbEntity
  8
Furniture
370
    35
  0
SPLINE
  5
426
330
1F
100
AcDbEntity
  8
Furniture
370
     9
100
AcDbSpline
210
0.0
220
0.0
230
1.0
 70
     8
 71
     3
 72
    11
 73
     7
 74
     0
 42
0.000000001
 43
0.0000000001
 40
0.0
 40
0.0
 40
0.0
 40
0.0
 40
1.0
 40
1.0
 40
1.0
 40
2.0
 40
2.0
 40
2.0
 40
2.0
 10
2884.687573274862
 20
-762.5398046328669
 30
0.0
 10
2885.419169347791
 20
-778.7408071425966
 30
0.0
 10
2862.932216369342
 20
-792.140566794138
 30
0.0
 10
2842.495657647918
 20
-794.1909610511625
 30
0.0
 10
2842.495657647918
 20
-794.1909610511625
 30
0.0
 10
2738.204712199069
 20
-801.1507500081052
 30
0.0
 10
2633.894514221986
 20
-801.5646793651571
 30
0.0
  0
POLYLINE
  5
427
330
1F
100
AcDbEntity
  8
Furniture
370
     9
100
AcDb2dPolyline
 66
     1
 10
0.0
 20
0.0
 30
0.0
  0
VERTEX
  5
428
330
427
100
AcDbEntity
  8
Furniture
370
     9
100
AcDbVertex
100
AcDb2dVertex
 10
5345.069591815369
 20
-908.3661848204101
 30
0.0
  0
VERTEX
  5
429
330
427
100
AcDbEntity
  8
Furniture
370
     9
100
AcDbVertex
100
AcDb2dVertex
 10
5339.224437638732
 20
-1263.5080106693
 30
0.0
  0
VERTEX
  5
42A
330
427
100
AcDbEntity
  8
Furniture
370
     9
100
AcDbVertex
100
AcDb2dVertex
 10
5317.792205657727
 20
-1263.5080106693
 30
0.0
  0
VERTEX
  5
42B
330
427
100
AcDbEntity
  8
Furniture
370
     9
100
AcDbVertex
100
AcDb2dVertex
 10
5311.362536063423
 20
-908.3564428967825
 30
0.0
  0
SEQEND
  5
42C
330
427
100
AcDbEntity
  8
Furniture
370
     9
  0
SPLINE
  5
42D
330
1F
100
AcDbEntity
  8
Furniture
370
     9
100
AcDbSpline
210
0.0
220
0.0
230
1.0
 70
     8
 71
     3
 72
    20
 73
    16
 74
     0
 42
0.000000001
 43
0.0000000001
 40
0.0
 40
0.0
 40
0.0
 40
0.0
 40
1.0
 40
1.0
 40
1.0
 40
2.0
 40
2.0
 40
2.0
 40
3.0
 40
3.0
 40
3.0
 40
4.0
 40
4.0
 40
4.0
 40
5.0
 40
5.0
 40
5.0
 40
5.0
 10
5090.026031241404
 20
-908.3856686676659
 30
0.0
 10
5090.026031241404
 20
-908.3856686676659
 30
0.0
 10
5339.107534555198
 20
-908.3856686676659
 30
0.0
 10
5339.107534555198
 20
-908.3856686676659
 30
0.0
 10
5339.107534555198
 20
-908.3856686676659
 30
0.0
 10
5352.044809132824
 20
-908.2979913550166
 30
0.0
 10
5352.044809132824
 20
-895.4581360136685
 30
0.0
 10
5352.044809132824
 20
-882.6182806723204
 30
0.0
 10
5352.044809132824
 20
-842.9394257365769
 30
0.0
 10
5352.044809132824
 20
-842.9394257365769
 30
0.0
 10
5352.044809132824
 20
-842.9394257365769
 30
0.0
 10
5351.655132187715
 20
-804.7997947340146
 30
0.0
 10
5314.285113151742
 20
-805.1894716791238
 30
0.0
 10
5283.734440655182
 20
-805.5401809297222
 30
0.0
 10
5090.026031241404
 20
-805.1894716791238
 30
0.0
 10
5090.026031241404
 20
-805.1894716791238
 30
0.0
  0
SPLINE
  5
42E
330
1F
100
AcDbEntity
  8
Furniture
370
     9
100
AcDbSpline
210
0.0
220
0.0
230
1.0
 70
     8
 71
     3
 72
    17
 73
    13
 74
     0
 42
0.000000001
 43
0.0000000001
 40
0.0
 40
0.0
 40
0.0
 40
0.0
 40
1.0
 40
1.0
 40
1.0
 40
2.0
 40
2.0
 40
2.0
 40
3.0
 40
3.0
 40
3.0
 40
4.0
 40
4.0
 40
4.0
 40
4.0
 10
5343.082239395313
 20
-818.2533912639096
 30
0.0
 10
5343.082239395313
 20
-818.2533912639096
 30
0.0
 10
5343.082239395313
 20
-506.0344809187973
 30
0.0
 10
5343.082239395313
 20
-506.0344809187973
 30
0.0
 10
5343.082239395313
 20
-506.0344809187973
 30
0.0
 10
5342.770497839225
 20
-487.8657933530807
 30
0.0
 10
5345.264430287923
 20
-485.2062482027108
 30
0.0
 10
5347.953201209179
 20
-482.3031549616476
 30
0.0
 10
5320.169235022891
 20
-487.2130844700231
 30
0.0
 10
5320.169235022891
 20
-487.2130844700231
 30
0.0
 10
5320.169235022891
 20
-487.2130844700231
 30
0.0
 10
5084.648489398897
 20
-487.2130844700231
 30
0.0
 10
5084.648489398897
 20
-487.2130844700231
 30
0.0
  0
POLYLINE
  5
42F
330
1F
100
AcDbEntity
  8
Furniture
370
     9
100
AcDb2dPolyline
 66
     1
 10
0.0
 20
0.0
 30
0.0
  0
VERTEX
  5
430
330
42F
100
AcDbEntity
  8
Furniture
370
     9
100
AcDbVertex
100
AcDb2dVertex
 10
4842.970848042176
 20
-908.3661848204101
 30
0.0
  0
VERTEX
  5
431
330
42F
100
AcDbEntity
  8
Furniture
370
     9
100
AcDbVertex
100
AcDb2dVertex
 10
4848.816002218811
 20
-1263.5080106693
 30
0.0
  0
VERTEX
  5
432
330
42F
100
AcDbEntity
  8
Furniture
370
     9
100
AcDbVertex
100
AcDb2dVertex
 10
4870.248234199818
 20
-1263.5080106693
 30
0.0
  0
VERTEX
  5
433
330
42F
100
AcDbEntity
  8
Furniture
370
     9
100
AcDbVertex
100
AcDb2dVertex
 10
4876.67790379412
 20
-908.3564428967825
 30
0.0
  0
SEQEND
  5
434
330
42F
100
AcDbEntity
  8
Furniture
370
     9
  0
SPLINE
  5
435
330
1F
100
AcDbEntity
  8
Furniture
370
     9
100
AcDbSpline
210
0.0
220
0.0
230
1.0
 70
     8
 71
     3
 72
    20
 73
    16
 74
     0
 42
0.000000001
 43
0.0000000001
 40
0.0
 40
0.0
 40
0.0
 40
0.0
 40
1.0
 40
1.0
 40
1.0
 40
2.0
 40
2.0
 40
2.0
 40
3.0
 40
3.0
 40
3.0
 40
4.0
 40
4.0
 40
4.0
 40
5.0
 40
5.0
 40
5.0
 40
5.0
 10
5098.01440861614
 20
-908.3856686676659
 30
0.0
 10
5098.01440861614
 20
-908.3856686676659
 30
0.0
 10
4848.932905302344
 20
-908.3856686676659
 30
0.0
 10
4848.932905302344
 20
-908.3856686676659
 30
0.0
 10
4848.932905302344
 20
-908.3856686676659
 30
0.0
 10
4836.034598419232
 20
-908.2979913550166
 30
0.0
 10
4836.034598419232
 20
-895.4581360136685
 30
0.0
 10
4836.034598419232
 20
-882.6182806723204
 30
0.0
 10
4836.034598419232
 20
-842.9394257365769
 30
0.0
 10
4836.034598419232
 20
-842.9394257365769
 30
0.0
 10
4836.034598419232
 20
-842.9394257365769
 30
0.0
 10
4836.424275364341
 20
-804.7997947340146
 30
0.0
 10
4873.71635901129
 20
-805.1894716791238
 30
0.0
 10
4904.30599920236
 20
-805.5401809297222
 30
0.0
 10
5098.01440861614
 20
-805.1894716791238
 30
0.0
 10
5098.01440861614
 20
-805.1894716791238
 30
0.0
  0
SPLINE
  5
436
330
1F
100
AcDbEntity
  8
Furniture
370
     9
100
AcDbSpline
210
0.0
220
0.0
230
1.0
 70
     8
 71
     3
 72
    17
 73
    13
 74
     0
 42
0.000000001
 43
0.0000000001
 40
0.0
 40
0.0
 40
0.0
 40
0.0
 40
1.0
 40
1.0
 40
1.0
 40
2.0
 40
2.0
 40
2.0
 40
3.0
 40
3.0
 40
3.0
 40
4.0
 40
4.0
 40
4.0
 40
4.0
 10
4844.997168156744
 20
-818.2533912639096
 30
0.0
 10
4844.997168156744
 20
-818.2533912639096
 30
0.0
 10
4844.997168156744
 20
-506.0344809187973
 30
0.0
 10
4844.997168156744
 20
-506.0344809187973
 30
0.0
 10
4844.997168156744
 20
-506.0344809187973
 30
0.0
 10
4845.26994201832
 20
-487.8657933530807
 30
0.0
 10
4842.814977264129
 20
-485.2062482027108
 30
0.0
 10
4840.126206342879
 20
-482.3031549616476
 30
0.0
 10
4867.871204834653
 20
-487.2130844700231
 30
0.0
 10
4867.871204834653
 20
-487.2130844700231
 30
0.0
 10
4867.871204834653
 20
-487.2130844700231
 30
0.0
 10
5103.430918153159
 20
-487.2130844700231
 30
0.0
 10
5103.430918153159
 20
-487.2130844700231
 30
0.0
  0
SPLINE
  5
437
330
1F
100
AcDbEntity
  8
Furniture
370
     9
100
AcDbSpline
210
0.0
220
0.0
230
1.0
 70
     9
 71
     3
 72
    50
 73
    46
 74
     0
 42
0.000000001
 43
0.0000000001
 40
0.0
 40
0.0
 40
0.0
 40
0.0
 40
1.0
 40
1.0
 40
1.0
 40
2.0
 40
2.0
 40
2.0
 40
3.0
 40
3.0
 40
3.0
 40
4.0
 40
4.0
 40
4.0
 40
5.0
 40
5.0
 40
5.0
 40
6.0
 40
6.0
 40
6.0
 40
7.0
 40
7.0
 40
7.0
 40
8.0
 40
8.0
 40
8.0
 40
9.0
 40
9.0
 40
9.0
 40
10.0
 40
10.0
 40
10.0
 40
11.0
 40
11.0
 40
11.0
 40
12.0
 40
12.0
 40
12.0
 40
13.0
 40
13.0
 40
13.0
 40
14.0
 40
14.0
 40
14.0
 40
15.0
 40
15.0
 40
15.0
 40
15.0
 10
7749.493246222619
 20
-908.3564428967825
 30
0.0
 10
7749.493246222619
 20
-908.3564428967825
 30
0.0
 10
7234.301357093754
 20
-908.4051525149217
 30
0.0
 10
7234.301357093754
 20
-908.4051525149217
 30
0.0
 10
7234.301357093754
 20
-908.4051525149217
 30
0.0
 10
7220.896470181999
 20
-910.2268922333065
 30
0.0
 10
7221.091308654553
 20
-895.2632975411138
 30
0.0
 10
7221.091308654553
 20
-895.2632975411138
 30
0.0
 10
7220.896470181999
 20
-842.9394257365769
 30
0.0
 10
7220.896470181999
 20
-842.9394257365769
 30
0.0
 10
7220.896470181999
 20
-842.9394257365769
 30
0.0
 10
7220.896470181999
 20
-836.334401516976
 30
0.0
 10
7220.896470181999
 20
-836.334401516976
 30
0.0
 10
7220.896470181999
 20
-836.334401516976
 30
0.0
 10
7224.208724215427
 20
-807.361920648108
 30
0.0
 10
7268.514992874343
 20
-807.361920648108
 30
0.0
 10
7268.514992874343
 20
-807.361920648108
 30
0.0
 10
7676.623657487199
 20
-807.361920648108
 30
0.0
 10
7676.623657487199
 20
-807.361920648108
 30
0.0
 10
7676.623657487199
 20
-807.361920648108
 30
0.0
 10
7676.545722098177
 20
-807.4495979607572
 30
0.0
 10
7680.325588465738
 20
-809.8948207913176
 30
0.0
 10
7684.105454833296
 20
-812.33030169825
 30
0.0
 10
7676.623657487199
 20
-797.4154166241955
 30
0.0
 10
7676.623657487199
 20
-797.4154166241955
 30
0.0
 10
7676.623657487199
 20
-797.4154166241955
 30
0.0
 10
7676.039142069535
 20
-792.2619390251266
 30
0.0
 10
7675.415658957359
 20
-787.2935579749841
 30
0.0
 10
7674.792175845187
 20
-782.3251769248423
 30
0.0
 10
7675.415658957359
 20
-606.6198423751075
 30
0.0
 10
7695.289183157929
 20
-501.6895829808295
 30
0.0
 10
7696.497181687769
 20
-495.2209456920172
 30
0.0
 10
7707.057426900226
 20
-488.6548891669272
 30
0.0
 10
7719.994701477855
 20
-488.9666307230145
 30
0.0
 10
7719.994701477855
 20
-488.9666307230145
 30
0.0
 10
7727.749272685525
 20
-488.7133407086935
 30
0.0
 10
7727.749272685525
 20
-488.7133407086935
 30
0.0
 10
7727.749272685525
 20
-488.7133407086935
 30
0.0
 10
7755.494271177301
 20
-488.6548891669272
 30
0.0
 10
7755.455303482789
 20
-510.9444104271728
 30
0.0
 10
7755.416335788277
 20
-527.6615513723572
 30
0.0
 10
7757.325752819314
 20
-897.6111011353969
 30
0.0
 10
7757.325752819314
 20
-897.6111011353969
 30
0.0
 10
7757.325752819314
 20
-897.6111011353969
 30
0.0
 10
7757.754397458933
 20
-908.3564428967825
 30
0.0
 10
7749.493246222619
 20
-908.3564428967825
 30
0.0
  0
POLYLINE
  5
438
330
1F
100
AcDbEntity
  8
Furniture
370
     9
100
AcDb2dPolyline
 66
     1
 10
0.0
 20
0.0
 30
0.0
  0
VERTEX
  5
439
330
438
100
AcDbEntity
  8
Furniture
370
     9
100
AcDbVertex
100
AcDb2dVertex
 10
7715.786190470672
 20
-908.3661848204101
 30
0.0
  0
VERTEX
  5
43A
330
438
100
AcDbEntity
  8
Furniture
370
     9
100
AcDbVertex
100
AcDb2dVertex
 10
7723.77456784541
 20
-1263.5080106693
 30
0.0
  0
VERTEX
  5
43B
330
438
100
AcDbEntity
  8
Furniture
370
     9
100
AcDbVertex
100
AcDb2dVertex
 10
7745.206799826417
 20
-1263.5080106693
 30
0.0
  0
VERTEX
  5
43C
330
438
100
AcDbEntity
  8
Furniture
370
     9
100
AcDbVertex
100
AcDb2dVertex
 10
7749.493246222619
 20
-908.3564428967825
 30
0.0
  0
SEQEND
  5
43D
330
438
100
AcDbEntity
  8
Furniture
370
     9
  0
POLYLINE
  5
43E
330
1F
100
AcDbEntity
  8
Furniture
370
     9
100
AcDb2dPolyline
 66
     1
 10
0.0
 20
0.0
 30
0.0
  0
VERTEX
  5
43F
330
43E
100
AcDbEntity
  8
Furniture
370
     9
100
AcDbVertex
100
AcDb2dVertex
 10
7228.767944473206
 20
-908.3661848204101
 30
0.0
  0
VERTEX
  5
440
330
43E
100
AcDbEntity
  8
Furniture
370
     9
100
AcDbVertex
100
AcDb2dVertex
 10
7236.795289542453
 20
-1263.5080106693
 30
0.0
  0
VERTEX
  5
441
330
43E
100
AcDbEntity
  8
Furniture
370
     9
100
AcDbVertex
100
AcDb2dVertex
 10
7258.22752152346
 20
-1263.5080106693
 30
0.0
  0
VERTEX
  5
442
330
43E
100
AcDbEntity
  8
Furniture
370
     9
100
AcDbVertex
100
AcDb2dVertex
 10
7262.47500022515
 20
-908.3564428967825
 30
0.0
  0
SEQEND
  5
443
330
43E
100
AcDbEntity
  8
Furniture
370
     9
  0
POLYLINE
  5
444
330
1F
100
AcDbEntity
  8
Furniture
370
     9
100
AcDb2dPolyline
 66
     1
 10
0.0
 20
0.0
 30
0.0
  0
VERTEX
  5
445
330
444
100
AcDbEntity
  8
Furniture
370
     9
100
AcDbVertex
100
AcDb2dVertex
 10
5271.171060936898
 20
-5639.310124528119
 30
0.0
  0
VERTEX
  5
446
330
444
100
AcDbEntity
  8
Furniture
370
     9
100
AcDbVertex
100
AcDb2dVertex
 10
5265.249333329328
 20
-6222.481859321784
 30
0.0
  0
VERTEX
  5
447
330
444
100
AcDbEntity
  8
Furniture
370
     9
100
AcDbVertex
100
AcDb2dVertex
 10
5243.575810285614
 20
-6222.481859321784
 30
0.0
  0
VERTEX
  5
448
330
444
100
AcDbEntity
  8
Furniture
370
     9
100
AcDbVertex
100
AcDb2dVertex
 10
5237.101388101336
 20
-5639.310124528119
 30
0.0
  0
SEQEND
  5
449
330
444
100
AcDbEntity
  8
Furniture
370
     9
  0
SPLINE
  5
44A
330
1F
100
AcDbEntity
  8
Furniture
370
     9
100
AcDbSpline
210
0.0
220
0.0
230
1.0
 70
     8
 71
     3
 72
    20
 73
    16
 74
     0
 42
0.000000001
 43
0.0000000001
 40
0.0
 40
0.0
 40
0.0
 40
0.0
 40
1.0
 40
1.0
 40
1.0
 40
2.0
 40
2.0
 40
2.0
 40
3.0
 40
3.0
 40
3.0
 40
4.0
 40
4.0
 40
4.0
 40
5.0
 40
5.0
 40
5.0
 40
5.0
 10
5094.664100047212
 20
-5639.310124528119
 30
0.0
 10
5094.664100047212
 20
-5639.310124528119
 30
0.0
 10
5265.130898777176
 20
-5639.310124528119
 30
0.0
 10
5265.130898777176
 20
-5639.310124528119
 30
0.0
 10
5265.130898777176
 20
-5639.310124528119
 30
0.0
 10
5278.198177697883
 20
-5639.231168160018
 30
0.0
 10
5278.198177697883
 20
-5626.262584699436
 30
0.0
 10
5278.198177697883
 20
-5613.294001238855
 30
0.0
 10
5278.198177697883
 20
-5573.184166243569
 30
0.0
 10
5278.198177697883
 20
-5573.184166243569
 30
0.0
 10
5278.198177697883
 20
-5573.184166243569
 30
0.0
 10
5277.763917673328
 20
-5534.633719518279
 30
0.0
 10
5240.062251905123
 20
-5535.048240450808
 30
0.0
 10
5209.150833793597
 20
-5535.383805015237
 30
0.0
 10
5094.664100047212
 20
-5535.048240450808
 30
0.0
 10
5094.664100047212
 20
-5535.048240450808
 30
0.0
  0
SPLINE
  5
44B
330
1F
100
AcDbEntity
  8
Furniture
370
     9
100
AcDbSpline
210
0.0
220
0.0
230
1.0
 70
     8
 71
     3
 72
    17
 73
    13
 74
     0
 42
0.000000001
 43
0.0000000001
 40
0.0
 40
0.0
 40
0.0
 40
0.0
 40
1.0
 40
1.0
 40
1.0
 40
2.0
 40
2.0
 40
2.0
 40
3.0
 40
3.0
 40
3.0
 40
4.0
 40
4.0
 40
4.0
 40
4.0
 10
5269.118195366274
 20
-5548.233953923667
 30
0.0
 10
5269.118195366274
 20
-5548.233953923667
 30
0.0
 10
5269.118195366274
 20
-5293.915492270487
 30
0.0
 10
5269.118195366274
 20
-5293.915492270487
 30
0.0
 10
5269.118195366274
 20
-5293.915492270487
 30
0.0
 10
5268.802369893871
 20
-5275.558136687013
 30
0.0
 10
5271.289495489051
 20
-5272.853881079556
 30
0.0
 10
5274.052968372584
 20
-5269.952234551848
 30
0.0
 10
5245.983979512693
 20
-5274.887007558158
 30
0.0
 10
5245.983979512693
 20
-5274.887007558158
 30
0.0
 10
5245.983979512693
 20
-5274.887007558158
 30
0.0
 10
5089.216110648245
 20
-5274.887007558158
 30
0.0
 10
5089.216110648245
 20
-5274.887007558158
 30
0.0
  0
POLYLINE
  5
44C
330
1F
100
AcDbEntity
  8
Furniture
370
     9
100
AcDb2dPolyline
 66
     1
 10
0.0
 20
0.0
 30
0.0
  0
VERTEX
  5
44D
330
44C
100
AcDbEntity
  8
Furniture
370
     9
100
AcDbVertex
100
AcDb2dVertex
 10
4844.964585927937
 20
-5639.310124528119
 30
0.0
  0
VERTEX
  5
44E
330
44C
100
AcDbEntity
  8
Furniture
370
     9
100
AcDbVertex
100
AcDb2dVertex
 10
4850.88631353551
 20
-6222.481859321784
 30
0.0
  0
VERTEX
  5
44F
330
44C
100
AcDbEntity
  8
Furniture
370
     9
100
AcDbVertex
100
AcDb2dVertex
 10
4872.52035839517
 20
-6222.481859321784
 30
0.0
  0
VERTEX
  5
450
330
44C
100
AcDbEntity
  8
Furniture
370
     9
100
AcDbVertex
100
AcDb2dVertex
 10
4879.0342587635
 20
-5639.310124528119
 30
0.0
  0
SEQEND
  5
451
330
44C
100
AcDbEntity
  8
Furniture
370
     9
  0
SPLINE
  5
452
330
1F
100
AcDbEntity
  8
Furniture
370
     9
100
AcDbSpline
210
0.0
220
0.0
230
1.0
 70
     8
 71
     3
 72
    20
 73
    16
 74
     0
 42
0.000000001
 43
0.0000000001
 40
0.0
 40
0.0
 40
0.0
 40
0.0
 40
1.0
 40
1.0
 40
1.0
 40
2.0
 40
2.0
 40
2.0
 40
3.0
 40
3.0
 40
3.0
 40
4.0
 40
4.0
 40
4.0
 40
5.0
 40
5.0
 40
5.0
 40
5.0
 10
5102.717649593509
 20
-5639.310124528119
 30
0.0
 10
5102.717649593509
 20
-5639.310124528119
 30
0.0
 10
4850.96526990361
 20
-5639.310124528119
 30
0.0
 10
4850.96526990361
 20
-5639.310124528119
 30
0.0
 10
4850.96526990361
 20
-5639.310124528119
 30
0.0
 10
4837.937469166951
 20
-5639.231168160018
 30
0.0
 10
4837.937469166951
 20
-5626.262584699436
 30
0.0
 10
4837.937469166951
 20
-5613.294001238855
 30
0.0
 10
4837.937469166951
 20
-5573.184166243569
 30
0.0
 10
4837.937469166951
 20
-5573.184166243569
 30
0.0
 10
4837.937469166951
 20
-5573.184166243569
 30
0.0
 10
4838.371729191507
 20
-5534.633719518279
 30
0.0
 10
4876.073394959714
 20
-5535.048240450808
 30
0.0
 10
4906.945334887186
 20
-5535.383805015237
 30
0.0
 10
5102.717649593509
 20
-5535.048240450808
 30
0.0
 10
5102.717649593509
 20
-5535.048240450808
 30
0.0
  0
SPLINE
  5
453
330
1F
100
AcDbEntity
  8
Furniture
370
     9
100
AcDbSpline
210
0.0
220
0.0
230
1.0
 70
     8
 71
     3
 72
    17
 73
    13
 74
     0
 42
0.000000001
 43
0.0000000001
 40
0.0
 40
0.0
 40
0.0
 40
0.0
 40
1.0
 40
1.0
 40
1.0
 40
2.0
 40
2.0
 40
2.0
 40
3.0
 40
3.0
 40
3.0
 40
4.0
 40
4.0
 40
4.0
 40
4.0
 10
4846.977973314512
 20
-5548.233953923667
 30
0.0
 10
4846.977973314512
 20
-5548.233953923667
 30
0.0
 10
4846.977973314512
 20
-5293.915492270487
 30
0.0
 10
4846.977973314512
 20
-5293.915492270487
 30
0.0
 10
4846.977973314512
 20
-5293.915492270487
 30
0.0
 10
4847.293798786916
 20
-5275.558136687013
 30
0.0
 10
4844.806673191735
 20
-5272.853881079556
 30
0.0
 10
4842.082678492252
 20
-5269.952234551848
 30
0.0
 10
4870.11218916809
 20
-5274.887007558158
 30
0.0
 10
4870.11218916809
 20
-5274.887007558158
 30
0.0
 10
4870.11218916809
 20
-5274.887007558158
 30
0.0
 10
5108.165638992474
 20
-5274.887007558158
 30
0.0
 10
5108.165638992474
 20
-5274.887007558158
 30
0.0
  0
POLYLINE
  5
454
330
1F
100
AcDbEntity
  8
Furniture
370
     9
100
AcDb2dPolyline
 66
     1
 10
0.0
 20
0.0
 30
0.0
  0
VERTEX
  5
455
330
454
100
AcDbEntity
  8
Furniture
370
     9
100
AcDbVertex
100
AcDb2dVertex
 10
4880.337038837166
 20
-5997.594383878233
 30
0.0
  0
VERTEX
  5
456
330
454
100
AcDbEntity
  8
Furniture
370
     9
100
AcDbVertex
100
AcDb2dVertex
 10
5238.601559095256
 20
-5997.594383878233
 30
0.0
  0
SEQEND
  5
457
330
454
100
AcDbEntity
  8
Furniture
370
     9
  0
POLYLINE
  5
458
330
1F
100
AcDbEntity
  8
Furniture
370
     9
100
AcDb2dPolyline
 66
     1
 10
0.0
 20
0.0
 30
0.0
  0
VERTEX
  5
459
330
458
100
AcDbEntity
  8
Furniture
370
     9
100
AcDbVertex
100
AcDb2dVertex
 10
4880.337038837166
 20
-5982.533456662977
 30
0.0
  0
VERTEX
  5
45A
330
458
100
AcDbEntity
  8
Furniture
370
     9
100
AcDbVertex
100
AcDb2dVertex
 10
5238.601559095256
 20
-5982.533456662977
 30
0.0
  0
SEQEND
  5
45B
330
458
100
AcDbEntity
  8
Furniture
370
     9
  0
SPLINE
  5
45C
330
1F
100
AcDbEntity
  8
Furniture
370
     9
100
AcDbSpline
210
0.0
220
0.0
230
1.0
 70
     9
 71
     3
 72
    50
 73
    46
 74
     0
 42
0.000000001
 43
0.0000000001
 40
0.0
 40
0.0
 40
0.0
 40
0.0
 40
1.0
 40
1.0
 40
1.0
 40
2.0
 40
2.0
 40
2.0
 40
3.0
 40
3.0
 40
3.0
 40
4.0
 40
4.0
 40
4.0
 40
5.0
 40
5.0
 40
5.0
 40
6.0
 40
6.0
 40
6.0
 40
7.0
 40
7.0
 40
7.0
 40
8.0
 40
8.0
 40
8.0
 40
9.0
 40
9.0
 40
9.0
 40
10.0
 40
10.0
 40
10.0
 40
11.0
 40
11.0
 40
11.0
 40
12.0
 40
12.0
 40
12.0
 40
13.0
 40
13.0
 40
13.0
 40
14.0
 40
14.0
 40
14.0
 40
15.0
 40
15.0
 40
15.0
 40
15.0
 10
7783.049477516671
 20
-5639.310124528119
 30
0.0
 10
7783.049477516671
 20
-5639.310124528119
 30
0.0
 10
7311.995785426367
 20
-5639.349602712171
 30
0.0
 10
7311.995785426367
 20
-5639.349602712171
 30
0.0
 10
7311.995785426367
 20
-5639.349602712171
 30
0.0
 10
7298.454768297052
 20
-5641.205077362543
 30
0.0
 10
7298.652159217304
 20
-5626.084932871211
 30
0.0
 10
7298.652159217304
 20
-5626.084932871211
 30
0.0
 10
7298.494246481102
 20
-5573.184166243569
 30
0.0
 10
7298.494246481102
 20
-5573.184166243569
 30
0.0
 10
7298.494246481102
 20
-5573.184166243569
 30
0.0
 10
7298.454768297052
 20
-5566.512353139039
 30
0.0
 10
7298.454768297052
 20
-5566.512353139039
 30
0.0
 10
7298.454768297052
 20
-5566.512353139039
 30
0.0
 10
7301.849892125392
 20
-5537.219540573584
 30
0.0
 10
7346.578674654584
 20
-5537.219540573584
 30
0.0
 10
7346.578674654584
 20
-5537.219540573584
 30
0.0
 10
7709.422664262529
 20
-5537.219540573584
 30
0.0
 10
7709.422664262529
 20
-5537.219540573584
 30
0.0
 10
7709.422664262529
 20
-5537.219540573584
 30
0.0
 10
7709.343707894428
 20
-5537.337975125734
 30
0.0
 10
7713.133613563273
 20
-5539.785622536864
 30
0.0
 10
7716.962997416169
 20
-5542.253009040019
 30
0.0
 10
7709.422664262529
 20
-5527.192081824764
 30
0.0
 10
7709.422664262529
 20
-5527.192081824764
 30
0.0
 10
7709.422664262529
 20
-5527.192081824764
 30
0.0
 10
7708.830491501773
 20
-5521.9809615301
 30
0.0
 10
7708.198840556964
 20
-5516.947493063664
 30
0.0
 10
7707.567189612156
 20
-5511.914024597229
 30
0.0
 10
7708.198840556964
 20
-5387.834092126574
 30
0.0
 10
7728.253758054608
 20
-5281.79568976699
 30
0.0
 10
7729.517059944223
 20
-5275.242311214611
 30
0.0
 10
7740.176169637853
 20
-5268.60997629413
 30
0.0
 10
7753.24344855856
 20
-5268.925801766535
 30
0.0
 10
7753.24344855856
 20
-5268.925801766535
 30
0.0
 10
7761.060129000554
 20
-5268.669193570206
 30
0.0
 10
7761.060129000554
 20
-5268.669193570206
 30
0.0
 10
7761.060129000554
 20
-5268.669193570206
 30
0.0
 10
7789.129117860444
 20
-5268.60997629413
 30
0.0
 10
7789.089639676394
 20
-5291.152019386952
 30
0.0
 10
7789.050161492344
 20
-5308.009203976507
 30
0.0
 10
7790.984592510817
 20
-5628.414145730189
 30
0.0
 10
7790.984592510817
 20
-5628.414145730189
 30
0.0
 10
7790.984592510817
 20
-5628.414145730189
 30
0.0
 10
7791.418852535371
 20
-5639.310124528119
 30
0.0
 10
7783.049477516671
 20
-5639.310124528119
 30
0.0
  0
POLYLINE
  5
45D
330
1F
100
AcDbEntity
  8
Furniture
370
     9
100
AcDb2dPolyline
 66
     1
 10
0.0
 20
0.0
 30
0.0
  0
VERTEX
  5
45E
330
45D
100
AcDbEntity
  8
Furniture
370
     9
100
AcDbVertex
100
AcDb2dVertex
 10
7748.979804681109
 20
-5639.310124528119
 30
0.0
  0
VERTEX
  5
45F
330
45D
100
AcDbEntity
  8
Furniture
370
     9
100
AcDbVertex
100
AcDb2dVertex
 10
7757.072832411456
 20
-6222.481859321784
 30
0.0
  0
VERTEX
  5
460
330
45D
100
AcDbEntity
  8
Furniture
370
     9
100
AcDbVertex
100
AcDb2dVertex
 10
7778.746355455169
 20
-6222.481859321784
 30
0.0
  0
VERTEX
  5
461
330
45D
100
AcDbEntity
  8
Furniture
370
     9
100
AcDbVertex
100
AcDb2dVertex
 10
7783.049477516671
 20
-5639.310124528119
 30
0.0
  0
SEQEND
  5
462
330
45D
100
AcDbEntity
  8
Furniture
370
     9
  0
POLYLINE
  5
463
330
1F
100
AcDbEntity
  8
Furniture
370
     9
100
AcDb2dPolyline
 66
     1
 10
0.0
 20
0.0
 30
0.0
  0
VERTEX
  5
464
330
463
100
AcDbEntity
  8
Furniture
370
     9
100
AcDbVertex
100
AcDb2dVertex
 10
7306.389883291199
 20
-5639.310124528119
 30
0.0
  0
VERTEX
  5
465
330
463
100
AcDbEntity
  8
Furniture
370
     9
100
AcDbVertex
100
AcDb2dVertex
 10
7314.482911021547
 20
-6222.481859321784
 30
0.0
  0
VERTEX
  5
466
330
463
100
AcDbEntity
  8
Furniture
370
     9
100
AcDbVertex
100
AcDb2dVertex
 10
7336.195912249308
 20
-6222.481859321784
 30
0.0
  0
VERTEX
  5
467
330
463
100
AcDbEntity
  8
Furniture
370
     9
100
AcDbVertex
100
AcDb2dVertex
 10
7340.459556126759
 20
-5639.310124528119
 30
0.0
  0
SEQEND
  5
468
330
463
100
AcDbEntity
  8
Furniture
370
     9
  0
POLYLINE
  5
469
330
1F
100
AcDbEntity
  8
Furniture
370
     9
100
AcDb2dPolyline
 66
     1
 10
0.0
 20
0.0
 30
0.0
  0
VERTEX
  5
46A
330
469
100
AcDbEntity
  8
Furniture
370
     9
100
AcDbVertex
100
AcDb2dVertex
 10
7755.019966840831
 20
-6084.821431537767
 30
0.0
  0
VERTEX
  5
46B
330
469
100
AcDbEntity
  8
Furniture
370
     9
100
AcDbVertex
100
AcDb2dVertex
 10
7337.301301402722
 20
-6084.821431537767
 30
0.0
  0
SEQEND
  5
46C
330
469
100
AcDbEntity
  8
Furniture
370
     9
  0
POLYLINE
  5
46D
330
1F
100
AcDbEntity
  8
Furniture
370
     9
100
AcDb2dPolyline
 66
     1
 10
0.0
 20
0.0
 30
0.0
  0
VERTEX
  5
46E
330
46D
100
AcDbEntity
  8
Furniture
370
     9
100
AcDbVertex
100
AcDb2dVertex
 10
7755.019966840831
 20
-6069.780243414532
 30
0.0
  0
VERTEX
  5
46F
330
46D
100
AcDbEntity
  8
Furniture
370
     9
100
AcDbVertex
100
AcDb2dVertex
 10
7337.301301402722
 20
-6069.780243414532
 30
0.0
  0
SEQEND
  5
470
330
46D
100
AcDbEntity
  8
Furniture
370
     9
  0
POLYLINE
  5
471
330
1F
100
AcDbEntity
  8
Furniture
370
     9
100
AcDb2dPolyline
 66
     1
 10
0.0
 20
0.0
 30
0.0
  0
VERTEX
  5
472
330
471
100
AcDbEntity
  8
Furniture
370
     9
100
AcDbVertex
100
AcDb2dVertex
 10
4825.902997846391
 20
-2381.023553853442
 30
0.0
  0
VERTEX
  5
473
330
471
100
AcDbEntity
  8
Furniture
370
     9
100
AcDbVertex
100
AcDb2dVertex
 10
4831.74815202303
 20
-2736.155637778705
 30
0.0
  0
VERTEX
  5
474
330
471
100
AcDbEntity
  8
Furniture
370
     9
100
AcDbVertex
100
AcDb2dVertex
 10
4853.180384004036
 20
-2736.155637778705
 30
0.0
  0
VERTEX
  5
475
330
471
100
AcDbEntity
  8
Furniture
370
     9
100
AcDbVertex
100
AcDb2dVertex
 10
4859.610053598339
 20
-2381.013811929814
 30
0.0
  0
SEQEND
  5
476
330
471
100
AcDbEntity
  8
Furniture
370
     9
  0
SPLINE
  5
477
330
1F
100
AcDbEntity
  8
Furniture
370
     9
100
AcDbSpline
210
0.0
220
0.0
230
1.0
 70
     8
 71
     3
 72
    35
 73
    31
 74
     0
 42
0.000000001
 43
0.0000000001
 40
0.0
 40
0.0
 40
0.0
 40
0.0
 40
1.0
 40
1.0
 40
1.0
 40
2.0
 40
2.0
 40
2.0
 40
3.0
 40
3.0
 40
3.0
 40
4.0
 40
4.0
 40
4.0
 40
5.0
 40
5.0
 40
5.0
 40
6.0
 40
6.0
 40
6.0
 40
7.0
 40
7.0
 40
7.0
 40
8.0
 40
8.0
 40
8.0
 40
9.0
 40
9.0
 40
9.0
 40
10.0
 40
10.0
 40
10.0
 40
10.0
 10
5114.341872616217
 20
-2381.043037700697
 30
0.0
 10
5114.341872616217
 20
-2381.043037700697
 30
0.0
 10
4832.878215163846
 20
-2381.043037700697
 30
0.0
 10
4832.878215163846
 20
-2381.043037700697
 30
0.0
 10
4832.878215163846
 20
-2381.043037700697
 30
0.0
 10
4814.680301827248
 20
-2383.342131676841
 30
0.0
 10
4814.680301827248
 20
-2368.125246970328
 30
0.0
 10
4814.680301827248
 20
-2368.125246970328
 30
0.0
 10
4809.458630762783
 20
-2304.237711819676
 30
0.0
 10
4811.173209321265
 20
-2225.406065824087
 30
0.0
 10
4812.381207851103
 20
-2168.298909518334
 30
0.0
 10
4822.668679201986
 20
-2117.358390868935
 30
0.0
 10
4825.43538551226
 20
-2105.366082883199
 30
0.0
 10
4830.111508853572
 20
-2085.239268668309
 30
0.0
 10
4838.567498562441
 20
-2086.992814921302
 30
0.0
 10
4838.567498562441
 20
-2086.992814921302
 30
0.0
 10
4838.567498562441
 20
-2086.992814921302
 30
0.0
 10
4848.192519106639
 20
-2086.398557580009
 30
0.0
 10
4851.504773140066
 20
-2109.905819293722
 30
0.0
 10
4854.544253311917
 20
-2131.347793198355
 30
0.0
 10
4858.986570486163
 20
-2218.898460840764
 30
0.0
 10
4859.571085903827
 20
-2228.513739461332
 30
0.0
 10
4860.233536710512
 20
-2238.44075963799
 30
0.0
 10
4861.012890600733
 20
-2292.040823437758
 30
0.0
 10
4861.012890600733
 20
-2292.040823437758
 30
0.0
 10
4861.012890600733
 20
-2292.040823437758
 30
0.0
 10
4860.857019822688
 20
-2281.285739752744
 30
0.0
 10
4873.872229789333
 20
-2280.66225664057
 30
0.0
 10
4886.926407450491
 20
-2280.048515452023
 30
0.0
 10
5090.571578964555
 20
-2275.070392478253
 30
0.0
 10
5115.394000368011
 20
-2275.6841336668
 30
0.0
  0
SPLINE
  5
478
330
1F
100
AcDbEntity
  8
Furniture
370
     9
100
AcDbSpline
210
0.0
220
0.0
230
1.0
 70
     8
 71
     3
 72
    14
 73
    10
 74
     0
 42
0.000000001
 43
0.0000000001
 40
0.0
 40
0.0
 40
0.0
 40
0.0
 40
1.0
 40
1.0
 40
1.0
 40
2.0
 40
2.0
 40
2.0
 40
3.0
 40
3.0
 40
3.0
 40
3.0
 10
4822.590743812964
 20
-2119.18013058732
 30
0.0
 10
4822.590743812964
 20
-2119.18013058732
 30
0.0
 10
4821.655519144702
 20
-1985.657325345656
 30
0.0
 10
4820.408552920353
 20
-1960.815420094945
 30
0.0
 10
4820.408552920353
 20
-1960.815420094945
 30
0.0
 10
4833.306859803466
 20
-1959.812001961288
 30
0.0
 10
4848.192519106639
 20
-1960.649807393273
 30
0.0
 10
4863.117146104319
 20
-1961.47787090163
 30
0.0
 10
5116.017483480185
 20
-1961.322000123587
 30
0.0
 10
5116.017483480185
 20
-1961.322000123587
 30
0.0
  0
POLYLINE
  5
479
330
1F
100
AcDbEntity
  8
Furniture
370
     9
100
AcDb2dPolyline
 66
     1
 10
0.0
 20
0.0
 30
0.0
  0
VERTEX
  5
47A
330
479
100
AcDbEntity
  8
Furniture
370
     9
100
AcDbVertex
100
AcDb2dVertex
 10
5362.176409705662
 20
-2381.023553853442
 30
0.0
  0
VERTEX
  5
47B
330
479
100
AcDbEntity
  8
Furniture
370
     9
100
AcDbVertex
100
AcDb2dVertex
 10
5356.292287834515
 20
-2736.155637778705
 30
0.0
  0
VERTEX
  5
47C
330
479
100
AcDbEntity
  8
Furniture
370
     9
100
AcDbVertex
100
AcDb2dVertex
 10
5334.860055853509
 20
-2736.155637778705
 30
0.0
  0
VERTEX
  5
47D
330
479
100
AcDbEntity
  8
Furniture
370
     9
100
AcDbVertex
100
AcDb2dVertex
 10
5328.430386259206
 20
-2381.013811929814
 30
0.0
  0
SEQEND
  5
47E
330
479
100
AcDbEntity
  8
Furniture
370
     9
  0
SPLINE
  5
47F
330
1F
100
AcDbEntity
  8
Furniture
370
     9
100
AcDbSpline
210
0.0
220
0.0
230
1.0
 70
     8
 71
     3
 72
    35
 73
    31
 74
     0
 42
0.000000001
 43
0.0000000001
 40
0.0
 40
0.0
 40
0.0
 40
0.0
 40
1.0
 40
1.0
 40
1.0
 40
2.0
 40
2.0
 40
2.0
 40
3.0
 40
3.0
 40
3.0
 40
4.0
 40
4.0
 40
4.0
 40
5.0
 40
5.0
 40
5.0
 40
6.0
 40
6.0
 40
6.0
 40
7.0
 40
7.0
 40
7.0
 40
8.0
 40
8.0
 40
8.0
 40
9.0
 40
9.0
 40
9.0
 40
10.0
 40
10.0
 40
10.0
 40
10.0
 10
5073.698567241328
 20
-2381.043037700697
 30
0.0
 10
5073.698567241328
 20
-2381.043037700697
 30
0.0
 10
5355.162224693697
 20
-2381.043037700697
 30
0.0
 10
5355.162224693697
 20
-2381.043037700697
 30
0.0
 10
5355.162224693697
 20
-2381.043037700697
 30
0.0
 10
5373.399105724807
 20
-2383.342131676841
 30
0.0
 10
5373.399105724807
 20
-2368.125246970328
 30
0.0
 10
5373.399105724807
 20
-2368.125246970328
 30
0.0
 10
5378.58180909476
 20
-2304.237711819676
 30
0.0
 10
5376.90619823079
 20
-2225.406065824087
 30
0.0
 10
5375.659232006441
 20
-2168.298909518334
 30
0.0
 10
5365.41072835007
 20
-2117.358390868935
 30
0.0
 10
5362.605054345282
 20
-2105.366082883199
 30
0.0
 10
5357.967898698483
 20
-2085.239268668309
 30
0.0
 10
5349.511908989614
 20
-2086.992814921302
 30
0.0
 10
5349.511908989614
 20
-2086.992814921302
 30
0.0
 10
5349.511908989614
 20
-2086.992814921302
 30
0.0
 10
5339.847920750906
 20
-2086.398557580009
 30
0.0
 10
5336.535666717479
 20
-2109.905819293722
 30
0.0
 10
5333.535154240137
 20
-2131.347793198355
 30
0.0
 10
5329.053869371382
 20
-2218.898460840764
 30
0.0
 10
5328.469353953717
 20
-2228.513739461332
 30
0.0
 10
5327.845870841542
 20
-2238.44075963799
 30
0.0
 10
5327.027549256812
 20
-2292.040823437758
 30
0.0
 10
5327.027549256812
 20
-2292.040823437758
 30
0.0
 10
5327.027549256812
 20
-2292.040823437758
 30
0.0
 10
5327.222387729369
 20
-2281.285739752744
 30
0.0
 10
5314.168210068212
 20
-2280.66225664057
 30
0.0
 10
5301.153000101564
 20
-2280.048515452023
 30
0.0
 10
5097.507828587499
 20
-2275.070392478253
 30
0.0
 10
5072.646439489532
 20
-2275.6841336668
 30
0.0
  0
SPLINE
  5
480
330
1F
100
AcDbEntity
  8
Furniture
370
     9
100
AcDbSpline
210
0.0
220
0.0
230
1.0
 70
     8
 71
     3
 72
    14
 73
    10
 74
     0
 42
0.000000001
 43
0.0000000001
 40
0.0
 40
0.0
 40
0.0
 40
0.0
 40
1.0
 40
1.0
 40
1.0
 40
2.0
 40
2.0
 40
2.0
 40
3.0
 40
3.0
 40
3.0
 40
3.0
 10
5366.423888407354
 20
-2124.265414720995
 30
0.0
 10
5366.423888407354
 20
-2124.265414720995
 30
0.0
 10
5365.995243767733
 20
-1984.90719722632
 30
0.0
 10
5367.242209992082
 20
-1960.065291975609
 30
0.0
 10
5367.242209992082
 20
-1960.065291975609
 30
0.0
 10
5360.968411175825
 20
-1959.646389259617
 30
0.0
 10
5346.082751872653
 20
-1960.503678538857
 30
0.0
 10
5331.15812487497
 20
-1961.322000123587
 30
0.0
 10
5072.06192407187
 20
-1961.322000123587
 30
0.0
 10
5072.06192407187
 20
-1961.322000123587
 30
0.0
  0
SPLINE
  5
487
330
1F
100
AcDbEntity
  8
Furniture
370
     9
100
AcDbSpline
210
0.0
220
0.0
230
1.0
 70
     8
 71
     3
 72
    26
 73
    22
 74
     0
 42
0.000000001
 43
0.0000000001
 40
0.0
 40
0.0
 40
0.0
 40
0.0
 40
1.0
 40
1.0
 40
1.0
 40
2.0
 40
2.0
 40
2.0
 40
3.0
 40
3.0
 40
3.0
 40
4.0
 40
4.0
 40
4.0
 40
5.0
 40
5.0
 40
5.0
 40
6.0
 40
6.0
 40
6.0
 40
7.0
 40
7.0
 40
7.0
 40
7.0
 10
2642.274969665745
 20
-3785.999520921115
 30
0.0
 10
2707.914110837611
 20
-3785.999520921115
 30
0.0
 10
2750.241778216949
 20
-3784.325773235318
 30
0.0
 10
2885.623767236095
 20
-3782.591528645218
 30
0.0
 10
2885.623767236095
 20
-3782.591528645218
 30
0.0
 10
2927.205306128993
 20
-4262.412642329818
 30
0.0
 10
2927.205306128993
 20
-4262.412642329818
 30
0.0
 10
2927.205306128993
 20
-4262.412642329818
 30
0.0
 10
2927.890937711127
 20
-4287.619685790594
 30
0.0
 10
2945.11238980353
 20
-4287.942335946893
 30
0.0
 10
2967.859225822536
 20
-4288.345648642265
 30
0.0
 10
2967.859225822536
 20
-4261.162372974162
 30
0.0
 10
2967.859225822536
 20
-4261.162372974162
 30
0.0
 10
2967.859225822536
 20
-4261.162372974162
 30
0.0
 10
2937.691436208677
 20
-3740.566345787409
 30
0.0
 10
2937.691436208677
 20
-3740.566345787409
 30
0.0
 10
2937.691436208677
 20
-3740.566345787409
 30
0.0
 10
2937.570442400065
 20
-3712.334457111338
 30
0.0
 10
2896.432547472075
 20
-3709.954912208639
 30
0.0
 10
2857.240636299259
 20
-3707.656029845017
 30
0.0
 10
2644.049545525383
 20
-3707.656029845017
 30
0.0
 10
2644.049545525383
 20
-3707.656029845017
 30
0.0
  0
POLYLINE
  5
488
330
1F
100
AcDbEntity
  8
Furniture
370
    35
100
AcDb2dPolyline
 66
     1
 10
0.0
 20
0.0
 30
0.0
  0
VERTEX
  5
489
330
488
100
AcDbEntity
  8
Furniture
370
    35
100
AcDbVertex
100
AcDb2dVertex
 10
2940.312968728598
 20
-4277.13355571091
 30
0.0
  0
VERTEX
  5
48A
330
488
100
AcDbEntity
  8
Furniture
100
AcDbVertex
100
AcDb2dVertex
 10
2940.312968728598
 20
-4277.13355571091
 30
0.0
  0
SEQEND
  5
48B
330
488
100
AcDbEntity
  8
Furniture
370
    35
  0
SPLINE
  5
48C
330
1F
100
AcDbEntity
  8
Furniture
370
     9
100
AcDbSpline
210
0.0
220
0.0
230
1.0
 70
     8
 71
     3
 72
     8
 73
     4
 74
     0
 42
0.000000001
 43
0.0000000001
 40
0.0
 40
0.0
 40
0.0
 40
0.0
 40
1.0
 40
1.0
 40
1.0
 40
1.0
 10
2935.836197809964
 20
-4284.574674940532
 30
0.0
 10
2935.836197809964
 20
-4284.574674940532
 30
0.0
 10
2736.085502609376
 20
-4288.345648642265
 30
0.0
 10
2643.585735925704
 20
-4288.345648642265
 30
0.0
  0
TEXT
  5
4FF
330
1F
100
AcDbEntity
  8
Text
100
AcDbText
 10
0.0
 20
-740.4468657816851
 30
0.0
 40
233.9816249415046
  1
Dining and
 41
1.000399999999999
100
AcDbText
  0
TEXT
  5
500
330
1F
100
AcDbEntity
  8
Text
100
AcDbText
 10
0.0
 20
1743.490540091472
 30
0.0
 40
192.6907499518273
  1
MAGGIE
 41
1.000399999999999
100
AcDbText
  0
TEXT
  5
501
330
1F
100
AcDbEntity
  8
Text
100
AcDbText
 10
0.0
 20
1140.867571736269
 30
0.0
 40
192.6907499518273
  1
—
 41
1.000399999999999
100
AcDbText
  0
TEXT
  5
502
330
1F
100
AcDbEntity
  8
Text
100
AcDbText
 10
0.0
 20
465.8970558578057
 30
0.0
 40
233.9816249415046
  1
DIMENSIONS
 41
1.000399999999999
100
AcDbText
  0
TEXT
  5
503
330
1F
100
AcDbEntity
  8
Text
100
AcDbText
 10
0.0
 20
-1143.331764705815
 30
0.0
 40
233.9816249415046
  1
Armchairs
 41
1.000399999999999
100
AcDbText
  0
TEXT
  5
512
330
1F
100
AcDbEntity
  8
Text
100
AcDbText
 10
-0.0000000000000595
 20
-5509.52030043166
 30
0.0
 40
233.9816249415046
  1
Barstools
 41
1.000399999999999
100
AcDbText
  0
ENDSEC
  0
SECTION
  2
OBJECTS
  0
DICTIONARY
  5
C
330
0
100
AcDbDictionary
281
     1
  3
ACAD_CIP_PREVIOUS_PRODUCT_INFO
350
4DA
  3
ACAD_COLOR
350
238
  3
ACAD_DETAILVIEWSTYLE
350
4D0
  3
ACAD_GROUP
350
D
  3
ACAD_LAYOUT
350
1A
  3
ACAD_MATERIAL
350
21C
  3
ACAD_MLEADERSTYLE
350
25C
  3
ACAD_MLINESTYLE
350
17
  3
ACAD_PLOTSETTINGS
350
19
  3
ACAD_PLOTSTYLENAME
350
E
  3
ACAD_SCALELIST
350
23A
  3
ACAD_SECTIONVIEWSTYLE
350
4CE
  3
ACAD_TABLESTYLE
350
21A
  3
ACAD_VISUALSTYLE
350
2A
  3
AcAmCatalogState
350
2BE
  3
ACDB_RECOMPOSE_DATA
350
5C4
  3
AcDbVariableDictionary
350
30E
  3
ACDMSYSVARMGR
350
279
  3
ACGREF_MASTER
350
271
  3
ACGREFACAD_MASTER
350
29C
  3
AcmDictionary
350
2BC
  3
ACME_BOM_MANAGER_NAME
350
26D
  3
ACME_COMMAND_HISTORY
350
26A
  3
ACME_SCOPE_NAME
350
269
  3
ACMESTATEMGR
350
270
  3
AcmeSysVarManager
350
26B
  3
AcmSystemVariableManager
350
2A1
  3
AD_APPL
350
2A9
  3
ADSYSVARMGR
350
2A8
  3
AmdtNamedDwgMgr
350
297
  3
AMG
350
262
  3
AMI_MASTER
350
29F
  3
AUTOCAD_ASSEMBLIES_PROJECT
350
2B2
  3
Designer_Assemblies_SysVars
350
2AC
  3
GREFAM_MODULE
350
2A0
  3
StructToggleButtonState
350
302
  0
DICTIONARY
  5
306
330
2
100
AcDbDictionary
280
     1
281
     1
  3
ACAD_LAYERSTATES
360
307
  0
DICTIONARY
  5
2FE
330
10
100
AcDbDictionary
280
     1
281
     1
  3
ADSK_XREC_LAYER_RECONCILED
360
2FF
  0
DICTIONARY
  5
300
330
3B
100
AcDbDictionary
280
     1
281
     1
  3
ADSK_XREC_LAYER_RECONCILED
360
301
  0
DICTIONARY
  5
354
330
1F
100
AcDbDictionary
280
     1
281
     1
  3
ACAD_SORTENTS
360
355
  0
XRECORD
  5
4DA
102
{ACAD_REACTORS
330
C
102
}
330
C
100
AcDbXrecord
280
     1
300
AMECH_PP
300
2018
300
PDSP_F_S
  0
DICTIONARY
  5
238
102
{ACAD_REACTORS
330
C
102
}
330
C
100
AcDbDictionary
281
     1
  0
DICTIONARY
  5
4D0
102
{ACAD_REACTORS
330
C
102
}
330
C
100
AcDbDictionary
281
     1
  3
Imperial24
350
4D1
  0
DICTIONARY
  5
D
102
{ACAD_REACTORS
330
C
102
}
330
C
100
AcDbDictionary
281
     1
  0
DICTIONARY
  5
1A
102
{ACAD_REACTORS
330
C
102
}
330
C
100
AcDbDictionary
281
     1
  3
Layout1
350
1E
  3
Layout2
350
26
  3
Model
350
22
  0
DICTIONARY
  5
21C
102
{ACAD_REACTORS
330
C
102
}
330
C
100
AcDbDictionary
281
     1
  3
ByBlock
350
225
  3
ByLayer
350
21D
  3
Global
350
22D
  0
DICTIONARY
  5
25C
102
{ACAD_REACTORS
330
C
102
}
330
C
100
AcDbDictionary
281
     1
  3
Standard
350
25D
  0
DICTIONARY
  5
17
102
{ACAD_REACTORS
330
C
102
}
330
C
100
AcDbDictionary
281
     1
  3
Standard
350
18
  0
DICTIONARY
  5
19
102
{ACAD_REACTORS
330
C
102
}
330
C
100
AcDbDictionary
281
     1
  0
ACDBDICTIONARYWDFLT
  5
E
102
{ACAD_REACTORS
330
C
102
}
330
C
100
AcDbDictionary
281
     1
  3
Normal
350
F
100
AcDbDictionaryWithDefault
340
F
  0
DICTIONARY
  5
23A
102
{ACAD_REACTORS
330
C
102
}
330
C
100
AcDbDictionary
281
     1
  3
A0
350
23B
  3
A1
350
23C
  3
A2
350
23D
  3
A3
350
23E
  3
A4
350
23F
  3
A5
350
240
  3
A6
350
241
  3
A7
350
242
  3
A8
350
243
  3
A9
350
244
  3
B0
350
245
  3
B1
350
246
  3
B2
350
247
  3
B3
350
248
  3
B4
350
249
  3
B5
350
24A
  3
B6
350
24B
  3
B7
350
24C
  3
B8
350
24D
  3
B9
350
24E
  3
C0
350
24F
  3
C1
350
250
  3
C2
350
251
  3
C3
350
252
  3
C4
350
253
  3
C5
350
254
  3
C6
350
255
  3
C7
350
256
  3
C8
350
257
  3
C9
350
258
  3
D0
350
259
  3
D1
350
25A
  3
D2
350
25B
  0
DICTIONARY
  5
4CE
102
{ACAD_REACTORS
330
C
102
}
330
C
100
AcDbDictionary
281
     1
  3
Imperial24
350
4CF
  0
DICTIONARY
  5
21A
102
{ACAD_REACTORS
330
C
102
}
330
C
100
AcDbDictionary
281
     1
  3
Standard
350
239
  0
DICTIONARY
  5
2A
102
{ACAD_REACTORS
330
C
102
}
330
C
100
AcDbDictionary
281
     1
  3
2dWireframe
350
2F
  3
3D Hidden
350
31
  3
3dWireframe
350
30
  3
Basic
350
32
  3
Brighten
350
36
  3
ColorChange
350
3A
  3
Conceptual
350
34
  3
Dim
350
35
  3
EdgeColorOff
350
237
  3
Facepattern
350
39
  3
Flat
350
2B
  3
FlatWithEdges
350
2C
  3
Gouraud
350
2D
  3
GouraudWithEdges
350
2E
  3
Hidden
350
4C8
  3
JitterOff
350
235
  3
Linepattern
350
38
  3
OverhangOff
350
236
  3
Realistic
350
33
  3
Shaded
350
4CD
  3
Shaded with edges
350
4CC
  3
Shades of Gray
350
4C9
  3
Sketchy
350
4CA
  3
Thicken
350
37
  3
Wireframe
350
4C7
  3
X-Ray
350
4CB
  0
ACAD_PROXY_OBJECT
  5
2BE
102
{ACAD_REACTORS
330
C
102
}
330
C
100
AcDbProxyObject
 90
      499
 91
      547
 71
    29
 97
      226
 70
     0
162
              1258
311
5392800E801700110019401CC01A4019C01B80080018401B8019000800110019401D8019401B001BC01C001B4019401B801D00170010C018401900080011001C8018401DC01A401B8019C01CC01700128018401C80190018401B80080010C010401100080011001C8018401DC01A401B8019C01CC0170014C01B4018401B00
311
1B00080018C01A0018401A401C801CC017001340184019C019C01A4019400C
161
                94
310
3FFFFFFFE00A0284403002A8
 94
        0
  0
XRECORD
  5
5C4
102
{ACAD_REACTORS
330
C
102
}
330
C
100
AcDbXrecord
280
     1
 90
        1
330
239
  0
DICTIONARY
  5
30E
102
{ACAD_REACTORS
330
C
102
}
330
C
100
AcDbDictionary
281
     1
  3
CANNOSCALE
350
312
  3
CMLEADERSTYLE
350
310
  3
CTABLESTYLE
350
30F
  3
CVIEWDETAILSTYLE
350
55A
  3
CVIEWSECTIONSTYLE
350
55B
  3
LAYEREVAL
350
314
  3
LAYERNOTIFY
350
315
  3
LIGHTINGUNITS
350
313
  3
MSLTSCALE
350
311
  0
ACAD_PROXY_OBJECT
  5
279
102
{ACAD_REACTORS
330
C
102
}
330
C
100
AcDbProxyObject
 90
      499
 91
      510
 71
    29
 97
      226
 70
     0
162
                 0
161
               240
310
4C51A482000000000000000000000000000000000000000000000000000033
330
27A
330
27B
330
27C
330
27D
330
27E
330
27F
330
280
330
281
330
282
330
283
330
284
330
285
330
286
330
287
330
288
330
289
330
28A
330
28B
330
28C
330
28D
330
28E
330
28F
330
290
330
291
330
292
330
293
 94
        0
  0
ACAD_PROXY_OBJECT
  5
271
102
{ACAD_REACTORS
330
C
102
}
330
C
100
AcDbProxyObject
 90
      499
 91
      516
 71
    29
 97
      226
 70
     0
162
                 0
161
                34
310
0C000042CC
 94
        0
  0
ACAD_PROXY_OBJECT
  5
29C
102
{ACAD_REACTORS
330
C
102
}
330
C
100
AcDbProxyObject
 90
      499
 91
      526
 71
    29
 97
      226
 70
     0
162
                 0
161
               114
310
04000041C00000000000000000000C
 94
        0
  0
DICTIONARY
  5
2BC
102
{ACAD_REACTORS
330
C
102
}
330
C
100
AcDbDictionary
281
     1
  3
AcmBOMDATA
350
2BD
  3
AcmStdDictionary
350
2C8
  0
ACAD_PROXY_OBJECT
  5
26D
102
{ACAD_REACTORS
330
C
102
}
330
C
100
AcDbProxyObject
 90
      499
 91
      512
 71
    29
 97
      226
 70
     0
162
                 0
161
                50
310
0000004040000C
330
0
330
0
330
26E
 94
        0
  0
ACAD_PROXY_OBJECT
  5
26A
102
{ACAD_REACTORS
330
C
102
}
330
C
100
AcDbProxyObject
 90
      499
 91
      509
 71
    29
 97
      226
 70
     0
162
              1494
311
4390401340110015001480114014C01140150011001080134013C011001084E0020002D00200055004E0044004F0042138008000B40080015401380110013C010455004E0044004F004115401380110013C0105510053004100560045004B934014C011C008000B4008001400140010400E80080008000800190019401CC01
311
AC01D001BC01C000B8018401C801E00080011801A401B001940158019401C801CC01A401BC01B800E8008000C400D000B800C800B800C000B800D000
161
                90
310
41005020101018060140404C
 94
        0
  0
ACAD_PROXY_OBJECT
  5
269
102
{ACAD_REACTORS
330
C
102
}
330
C
100
AcDbProxyObject
 90
      499
 91
      508
 71
    29
 97
      226
 70
     0
162
                 0
161
               554
310
0E00004C8000000000000000000013150200000000000000000000000000000000000000000000000000000000000000000000000000000000000000000000000000AAAAAA8C
360
26C
360
26E
360
272
360
273
360
274
360
275
360
276
360
277
360
27A
360
27B
360
27C
360
27D
360
27E
360
27F
360
280
360
281
360
282
360
283
360
284
360
285
360
286
360
287
360
288
360
289
360
28A
360
28B
360
28C
360
28D
360
28E
360
28F
360
290
360
291
360
292
360
293
360
2A2
360
2A4
360
2A5
360
2A6
360
2A7
360
2AD
360
2AE
360
2AF
360
2B0
360
2B1
360
2B6
360
2B7
360
2B8
360
2B9
360
2BA
 94
        0
  0
ACAD_PROXY_OBJECT
  5
270
102
{ACAD_REACTORS
330
C
102
}
330
C
100
AcDbProxyObject
 90
      499
 91
      515
 71
    29
 97
      226
 70
     0
162
                 0
161
                50
310
0E000043A4128C
 94
        0
  0
ACAD_PROXY_OBJECT
  5
26B
102
{ACAD_REACTORS
330
C
102
}
330
C
100
AcDbProxyObject
 90
      499
 91
      510
 71
    29
 97
      226
 70
     0
162
                 0
161
                32
310
9014220000
330
26C
 94
        0
  0
ACAD_PROXY_OBJECT
  5
2A1
102
{ACAD_REACTORS
330
C
102
}
330
C
100
AcDbProxyObject
 90
      499
 91
      510
 71
    29
 97
      226
 70
     0
162
                 0
161
                32
310
9014220000
330
2A2
 94
        0
  0
ACAD_PROXY_OBJECT
  5
2A9
102
{ACAD_REACTORS
330
C
102
}
330
C
100
AcDbProxyObject
 90
      499
 91
      537
 71
    29
 97
      226
 70
     0
162
                 0
161
                34
310
000B00008C
330
2A4
 94
        0
  0
ACAD_PROXY_OBJECT
  5
2A8
102
{ACAD_REACTORS
330
C
102
}
330
C
100
AcDbProxyObject
 90
      499
 91
      510
 71
    29
 97
      226
 70
     0
162
                 0
161
                 8
310
AA54
 94
        0
  0
ACAD_PROXY_OBJECT
  5
297
102
{ACAD_REACTORS
330
C
102
}
330
C
100
AcDbProxyObject
 90
      499
 91
      523
 71
    29
 97
      226
 70
     0
162
                 0
161
                42
310
000100005E8C
330
272
 94
        0
  0
DICTIONARY
  5
262
102
{ACAD_REACTORS
330
C
102
}
330
C
100
AcDbDictionary
281
     1
  3
AcMgSettings
350
263
  3
AMGLAYCFG
350
2DC
  0
ACAD_PROXY_OBJECT
  5
29F
102
{ACAD_REACTORS
330
C
102
}
330
C
100
AcDbProxyObject
 90
      499
 91
      529
 71
    29
 97
      226
 70
     0
162
                 0
161
                34
310
050000428C
 94
        0
  0
ACAD_PROXY_OBJECT
  5
2B2
102
{ACAD_REACTORS
330
C
102
}
330
C
100
AcDbProxyObject
 90
      499
 91
      540
 71
    29
 97
      226
 70
     0
162
                 0
161
                98
310
0E000053C0000000000000000C
330
2B8
330
0
330
2B9
330
0
330
0
330
0
330
0
330
0
 94
        0
  0
ACAD_PROXY_OBJECT
  5
2AC
102
{ACAD_REACTORS
330
C
102
}
330
C
100
AcDbProxyObject
 90
      499
 91
      510
 71
    29
 97
      226
 70
     0
162
                 0
161
                64
310
905422000000000000
330
2AD
330
2AE
330
2AF
330
2B0
330
2B1
 94
        0
  0
ACAD_PROXY_OBJECT
  5
2A0
102
{ACAD_REACTORS
330
C
102
}
330
C
100
AcDbProxyObject
 90
      499
 91
      530
 71
    29
 97
      226
 70
     0
162
                 0
161
                 8
310
0565
 94
        0
  0
ACAD_PROXY_OBJECT
  5
302
102
{ACAD_REACTORS
330
C
102
}
330
C
100
AcDbProxyObject
 90
      499
 91
      574
 71
    29
 97
      226
 70
     0
162
                 0
161
                 1
310
4C
 94
        0
  0
DICTIONARY
  5
307
102
{ACAD_REACTORS
330
306
102
}
330
306
100
AcDbDictionary
281
     1
  0
XRECORD
  5
2FF
102
{ACAD_REACTORS
330
2FE
102
}
330
2FE
100
AcDbXrecord
280
     1
290
     1
  0
XRECORD
  5
301
102
{ACAD_REACTORS
330
300
102
}
330
300
100
AcDbXrecord
280
     1
290
     1
  0
SORTENTSTABLE
  5
355
102
{ACAD_REACTORS
330
354
102
}
330
354
100
AcDbSortentsTable
330
1F
331
452
  5
481
331
392
  5
192
331
359
  5
453
331
396
  5
19D
331
421
  5
36B
331
35D
  5
400
331
39A
  5
1A1
331
39E
  5
1A2
331
19D
  5
427
331
42D
  5
37A
331
3D
  5
3D
331
135
  5
3D0
331
139
  5
3DF
331
41
  5
41
331
45
  5
45
331
437
  5
3EA
331
373
  5
392
331
37B
  5
139
331
186
  5
41B
331
55
  5
55
331
59
  5
59
331
34A
  5
438
331
44B
  5
47F
331
40E
  5
135
331
412
  5
136
331
352
  5
44C
331
356
  5
471
331
18A
  5
421
331
18E
  5
422
331
192
  5
426
331
453
  5
482
331
35A
  5
454
331
35E
  5
404
331
422
  5
371
331
426
  5
373
331
1A2
  5
42E
331
36A
  5
409
331
42E
  5
37B
331
3F7
  5
3FE
331
136
  5
3D4
331
13A
  5
3E0
331
438
  5
3F0
331
477
  5
3B8
331
3FF
  5
A3
331
37C
  5
13A
331
47F
  5
3C5
331
1F7
  5
48C
331
52
  5
52
331
187
  5
41C
331
444
  5
478
331
380
  5
13D
331
5A
  5
5A
331
487
  5
188
331
44C
  5
480
331
34B
  5
43E
331
34F
  5
444
331
413
  5
137
331
353
  5
452
331
417
  5
138
331
357
  5
477
331
454
  5
486
331
458
  5
487
331
41B
  5
35E
331
35B
  5
458
331
427
  5
379
331
1A3
  5
435
331
36B
  5
389
331
42F
  5
380
331
3F0
  5
3F7
331
435
  5
381
331
371
  5
38D
331
478
  5
3BD
331
379
  5
396
331
400
  5
CD
331
404
  5
DB
331
53
  5
53
331
480
  5
3C9
331
57
  5
57
331
381
  5
14E
331
385
  5
172
331
5B
  5
5B
331
488
  5
18A
331
389
  5
185
331
48C
  5
18E
331
350
  5
44A
331
38D
  5
186
331
41C
  5
364
331
420
  5
36A
331
364
  5
405
331
1A4
  5
436
331
3F1
  5
3FD
331
134
  5
3CF
331
138
  5
3DB
331
471
  5
3B4
331
372
  5
391
331
436
  5
385
331
3FD
  5
3FF
331
479
  5
3C1
331
37A
  5
39A
331
43E
  5
3F1
331
405
  5
103
331
185
  5
417
331
54
  5
54
331
409
  5
11D
331
58
  5
58
331
40D
  5
134
331
44A
  5
479
331
351
  5
44B
  0
ACDBDETAILVIEWSTYLE
  5
4D1
102
{ACAD_REACTORS
330
4D0
102
}
330
4D0
100
AcDbModelDocViewStyle
 70
     0
  3
Imperial24
290
     0
300
Imperial24
 90
        0
100
AcDbDetailViewStyle
 70
     0
 71
     0
 90
        3
 71
     1
340
11
 62
   256
 40
0.24
340
0
 62
   256
 40
0.24
300

 40
0.36
280
     3
 71
     2
340
16
 90
       25
 62
   256
 71
     3
340
11
 62
   256
 40
0.24
 90
        1
 40
0.75
 90
        1
300
%<\AcVar ViewType \f "%tc1">% %<\AcVar ViewDetailId>%\PSCALE %<\AcVar ViewScale \f "%sn">%
 71
     4
340
16
 90
       25
 62
   256
340
16
 90
       25
 62
   256
280
     0
  0
LAYOUT
  5
1E
102
{ACAD_REACTORS
330
1A
102
}
330
1A
100
AcDbPlotSettings
  1

  2
none_device
  4

  6

 40
0.0
 41
0.0
 42
0.0
 43
0.0
 44
0.0
 45
0.0
 46
0.0
 47
0.0
 48
0.0
 49
0.0
140
0.0
141
0.0
142
1.0
143
1.0
 70
   688
 72
     0
 73
     0
 74
     5
  7

 75
    16
147
1.0
 76
     0
 77
     2
 78
   300
148
0.0
149
0.0
100
AcDbLayout
  1
Layout1
 70
     1
 71
     1
 10
0.0
 20
0.0
 11
12.0
 21
9.0
 12
0.0
 22
0.0
 32
0.0
 14
1.000000000000000E+20
 24
1.000000000000000E+20
 34
1.000000000000000E+20
 15
-1.000000000000000E+20
 25
-1.000000000000000E+20
 35
-1.000000000000000E+20
146
0.0
 13
0.0
 23
0.0
 33
0.0
 16
1.0
 26
0.0
 36
0.0
 17
0.0
 27
1.0
 37
0.0
 76
     0
330
1B
  0
LAYOUT
  5
26
102
{ACAD_REACTORS
330
1A
102
}
330
1A
100
AcDbPlotSettings
  1

  2
none_device
  4

  6

 40
0.0
 41
0.0
 42
0.0
 43
0.0
 44
0.0
 45
0.0
 46
0.0
 47
0.0
 48
0.0
 49
0.0
140
0.0
141
0.0
142
1.0
143
1.0
 70
   688
 72
     0
 73
     0
 74
     5
  7

 75
    16
147
1.0
 76
     0
 77
     2
 78
   300
148
0.0
149
0.0
100
AcDbLayout
  1
Layout2
 70
     1
 71
     2
 10
0.0
 20
0.0
 11
0.0
 21
0.0
 12
0.0
 22
0.0
 32
0.0
 14
0.0
 24
0.0
 34
0.0
 15
0.0
 25
0.0
 35
0.0
146
0.0
 13
0.0
 23
0.0
 33
0.0
 16
1.0
 26
0.0
 36
0.0
 17
0.0
 27
1.0
 37
0.0
 76
     0
330
23
  0
LAYOUT
  5
22
102
{ACAD_XDICTIONARY
360
30C
102
}
102
{ACAD_REACTORS
330
1A
102
}
330
1A
100
AcDbPlotSettings
  1

  2
none_device
  4

  6

 40
0.0
 41
0.0
 42
0.0
 43
0.0
 44
0.0
 45
0.0
 46
0.0
 47
0.0
 48
0.0
 49
0.0
140
0.0
141
0.0
142
1.0
143
1.0
 70
  1712
 72
     0
 73
     0
 74
     0
  7

 75
     0
147
1.0
 76
     0
 77
     2
 78
   300
148
0.0
149
0.0
100
AcDbLayout
  1
Model
 70
     1
 71
     0
 10
0.0
 20
0.0
 11
12.0
 21
9.0
 12
0.0
 22
0.0
 32
0.0
 14
1.000000000000000E+20
 24
1.000000000000000E+20
 34
1.000000000000000E+20
 15
-1.000000000000000E+20
 25
-1.000000000000000E+20
 35
-1.000000000000000E+20
146
0.0
 13
0.0
 23
0.0
 33
0.0
 16
1.0
 26
0.0
 36
0.0
 17
0.0
 27
1.0
 37
0.0
 76
     0
330
1F
331
29
  0
MATERIAL
  5
225
102
{ACAD_XDICTIONARY
360
226
102
}
102
{ACAD_REACTORS
330
21C
102
}
330
21C
100
AcDbMaterial
  1
ByBlock
 72
     0
 43
0.0208333333333333
 43
0.0
 43
0.0
 43
0.0
 43
0.0
 43
0.0208333333333333
 43
0.0
 43
0.0
 43
0.0
 43
0.0
 43
1.0
 43
0.0
 43
0.0
 43
0.0
 43
0.0
 43
1.0
 77
     0
 47
0.0208333333333333
 47
0.0
 47
0.0
 47
0.0
 47
0.0
 47
0.0208333333333333
 47
0.0
 47
0.0
 47
0.0
 47
0.0
 47
1.0
 47
0.0
 47
0.0
 47
0.0
 47
0.0
 47
1.0
171
     0
 49
0.0208333333333333
 49
0.0
 49
0.0
 49
0.0
 49
0.0
 49
0.0208333333333333
 49
0.0
 49
0.0
 49
0.0
 49
0.0
 49
1.0
 49
0.0
 49
0.0
 49
0.0
 49
0.0
 49
1.0
175
     0
142
0.0208333333333333
142
0.0
142
0.0
142
0.0
142
0.0
142
0.0208333333333333
142
0.0
142
0.0
142
0.0
142
0.0
142
1.0
142
0.0
142
0.0
142
0.0
142
0.0
142
1.0
179
     0
144
0.0208333333333333
144
0.0
144
0.0
144
0.0
144
0.0
144
0.0208333333333333
144
0.0
144
0.0
144
0.0
144
0.0
144
1.0
144
0.0
144
0.0
144
0.0
144
0.0
144
1.0
147
0.0208333333333333
147
0.0
147
0.0
147
0.0
147
0.0
147
0.0208333333333333
147
0.0
147
0.0
147
0.0
147
0.0
147
1.0
147
0.0
147
0.0
147
0.0
147
0.0
147
1.0
  0
MATERIAL
  5
21D
102
{ACAD_XDICTIONARY
360
21E
102
}
102
{ACAD_REACTORS
330
21C
102
}
330
21C
100
AcDbMaterial
  1
ByLayer
 72
     0
 43
0.0208333333333333
 43
0.0
 43
0.0
 43
0.0
 43
0.0
 43
0.0208333333333333
 43
0.0
 43
0.0
 43
0.0
 43
0.0
 43
1.0
 43
0.0
 43
0.0
 43
0.0
 43
0.0
 43
1.0
 77
     0
 47
0.0208333333333333
 47
0.0
 47
0.0
 47
0.0
 47
0.0
 47
0.0208333333333333
 47
0.0
 47
0.0
 47
0.0
 47
0.0
 47
1.0
 47
0.0
 47
0.0
 47
0.0
 47
0.0
 47
1.0
171
     0
 49
0.0208333333333333
 49
0.0
 49
0.0
 49
0.0
 49
0.0
 49
0.0208333333333333
 49
0.0
 49
0.0
 49
0.0
 49
0.0
 49
1.0
 49
0.0
 49
0.0
 49
0.0
 49
0.0
 49
1.0
175
     0
142
0.0208333333333333
142
0.0
142
0.0
142
0.0
142
0.0
142
0.0208333333333333
142
0.0
142
0.0
142
0.0
142
0.0
142
1.0
142
0.0
142
0.0
142
0.0
142
0.0
142
1.0
179
     0
144
0.0208333333333333
144
0.0
144
0.0
144
0.0
144
0.0
144
0.0208333333333333
144
0.0
144
0.0
144
0.0
144
0.0
144
1.0
144
0.0
144
0.0
144
0.0
144
0.0
144
1.0
147
0.0208333333333333
147
0.0
147
0.0
147
0.0
147
0.0
147
0.0208333333333333
147
0.0
147
0.0
147
0.0
147
0.0
147
1.0
147
0.0
147
0.0
147
0.0
147
0.0
147
1.0
  0
MATERIAL
  5
22D
102
{ACAD_XDICTIONARY
360
22E
102
}
102
{ACAD_REACTORS
330
21C
102
}
330
21C
100
AcDbMaterial
  1
Global
 72
     0
 43
0.0208333333333333
 43
0.0
 43
0.0
 43
0.0
 43
0.0
 43
0.0208333333333333
 43
0.0
 43
0.0
 43
0.0
 43
0.0
 43
1.0
 43
0.0
 43
0.0
 43
0.0
 43
0.0
 43
1.0
 77
     0
 47
0.0208333333333333
 47
0.0
 47
0.0
 47
0.0
 47
0.0
 47
0.0208333333333333
 47
0.0
 47
0.0
 47
0.0
 47
0.0
 47
1.0
 47
0.0
 47
0.0
 47
0.0
 47
0.0
 47
1.0
171
     0
 49
0.0208333333333333
 49
0.0
 49
0.0
 49
0.0
 49
0.0
 49
0.0208333333333333
 49
0.0
 49
0.0
 49
0.0
 49
0.0
 49
1.0
 49
0.0
 49
0.0
 49
0.0
 49
0.0
 49
1.0
175
     0
142
0.0208333333333333
142
0.0
142
0.0
142
0.0
142
0.0
142
0.0208333333333333
142
0.0
142
0.0
142
0.0
142
0.0
142
1.0
142
0.0
142
0.0
142
0.0
142
0.0
142
1.0
179
     0
144
0.0208333333333333
144
0.0
144
0.0
144
0.0
144
0.0
144
0.0208333333333333
144
0.0
144
0.0
144
0.0
144
0.0
144
1.0
144
0.0
144
0.0
144
0.0
144
0.0
144
1.0
147
0.0208333333333333
147
0.0
147
0.0
147
0.0
147
0.0
147
0.0208333333333333
147
0.0
147
0.0
147
0.0
147
0.0
147
1.0
147
0.0
147
0.0
147
0.0
147
0.0
147
1.0
  0
MLEADERSTYLE
  5
25D
102
{ACAD_REACTORS
330
25C
102
}
330
25C
100
AcDbMLeaderStyle
179
     2
170
     2
171
     1
172
     0
 90
        2
 40
0.0
 41
0.0
173
     1
 91
-1056964608
340
14
 92
       -2
290
     1
 42
0.09
291
     1
 43
0.36
  3
Standard
 44
0.18
300

342
11
174
     1
178
     6
175
     1
176
     0
 93
-1056964608
 45
0.18
292
     0
297
     0
 46
0.18
 94
-1056964608
 47
1.0
 49
1.0
140
1.0
293
     1
141
0.0
294
     1
177
     0
142
1.0
295
     0
296
     0
143
0.125
271
     0
272
     9
273
     9
298
     0
  0
MLINESTYLE
  5
18
102
{ACAD_REACTORS
330
17
102
}
330
17
100
AcDbMlineStyle
  2
STANDARD
 70
     0
  3

 62
   256
 51
90.0
 52
90.0
 71
     2
 49
0.5
 62
   256
  6
BYLAYER
 49
-0.5
 62
   256
  6
BYLAYER
  0
ACDBPLACEHOLDER
  5
F
102
{ACAD_REACTORS
330
E
102
}
330
E
  0
SCALE
  5
23B
102
{ACAD_REACTORS
330
23A
102
}
330
23A
100
AcDbScale
 70
     0
300
1:1
140
1.0
141
1.0
290
     1
  0
SCALE
  5
23C
102
{ACAD_REACTORS
330
23A
102
}
330
23A
100
AcDbScale
 70
     0
300
1:2
140
1.0
141
2.0
290
     0
  0
SCALE
  5
23D
102
{ACAD_REACTORS
330
23A
102
}
330
23A
100
AcDbScale
 70
     0
300
1:4
140
1.0
141
4.0
290
     0
  0
SCALE
  5
23E
102
{ACAD_REACTORS
330
23A
102
}
330
23A
100
AcDbScale
 70
     0
300
1:5
140
1.0
141
5.0
290
     0
  0
SCALE
  5
23F
102
{ACAD_REACTORS
330
23A
102
}
330
23A
100
AcDbScale
 70
     0
300
1:8
140
1.0
141
8.0
290
     0
  0
SCALE
  5
240
102
{ACAD_REACTORS
330
23A
102
}
330
23A
100
AcDbScale
 70
     0
300
1:10
140
1.0
141
10.0
290
     0
  0
SCALE
  5
241
102
{ACAD_REACTORS
330
23A
102
}
330
23A
100
AcDbScale
 70
     0
300
1:16
140
1.0
141
16.0
290
     0
  0
SCALE
  5
242
102
{ACAD_REACTORS
330
23A
102
}
330
23A
100
AcDbScale
 70
     0
300
1:20
140
1.0
141
20.0
290
     0
  0
SCALE
  5
243
102
{ACAD_REACTORS
330
23A
102
}
330
23A
100
AcDbScale
 70
     0
300
1:30
140
1.0
141
30.0
290
     0
  0
SCALE
  5
244
102
{ACAD_REACTORS
330
23A
102
}
330
23A
100
AcDbScale
 70
     0
300
1:40
140
1.0
141
40.0
290
     0
  0
SCALE
  5
245
102
{ACAD_REACTORS
330
23A
102
}
330
23A
100
AcDbScale
 70
     0
300
1:50
140
1.0
141
50.0
290
     0
  0
SCALE
  5
246
102
{ACAD_REACTORS
330
23A
102
}
330
23A
100
AcDbScale
 70
     0
300
1:100
140
1.0
141
100.0
290
     0
  0
SCALE
  5
247
102
{ACAD_REACTORS
330
23A
102
}
330
23A
100
AcDbScale
 70
     0
300
2:1
140
2.0
141
1.0
290
     0
  0
SCALE
  5
248
102
{ACAD_REACTORS
330
23A
102
}
330
23A
100
AcDbScale
 70
     0
300
4:1
140
4.0
141
1.0
290
     0
  0
SCALE
  5
249
102
{ACAD_REACTORS
330
23A
102
}
330
23A
100
AcDbScale
 70
     0
300
8:1
140
8.0
141
1.0
290
     0
  0
SCALE
  5
24A
102
{ACAD_REACTORS
330
23A
102
}
330
23A
100
AcDbScale
 70
     0
300
10:1
140
10.0
141
1.0
290
     0
  0
SCALE
  5
24B
102
{ACAD_REACTORS
330
23A
102
}
330
23A
100
AcDbScale
 70
     0
300
100:1
140
100.0
141
1.0
290
     0
  0
SCALE
  5
24C
102
{ACAD_REACTORS
330
23A
102
}
330
23A
100
AcDbScale
 70
     0
300
1/128" = 1'-0"
140
0.0078125
141
12.0
290
     0
  0
SCALE
  5
24D
102
{ACAD_REACTORS
330
23A
102
}
330
23A
100
AcDbScale
 70
     0
300
1/64" = 1'-0"
140
0.015625
141
12.0
290
     0
  0
SCALE
  5
24E
102
{ACAD_REACTORS
330
23A
102
}
330
23A
100
AcDbScale
 70
     0
300
1/32" = 1'-0"
140
0.03125
141
12.0
290
     0
  0
SCALE
  5
24F
102
{ACAD_REACTORS
330
23A
102
}
330
23A
100
AcDbScale
 70
     0
300
1/16" = 1'-0"
140
0.0625
141
12.0
290
     0
  0
SCALE
  5
250
102
{ACAD_REACTORS
330
23A
102
}
330
23A
100
AcDbScale
 70
     0
300
3/32" = 1'-0"
140
0.09375
141
12.0
290
     0
  0
SCALE
  5
251
102
{ACAD_REACTORS
330
23A
102
}
330
23A
100
AcDbScale
 70
     0
300
1/8" = 1'-0"
140
0.125
141
12.0
290
     0
  0
SCALE
  5
252
102
{ACAD_REACTORS
330
23A
102
}
330
23A
100
AcDbScale
 70
     0
300
3/16" = 1'-0"
140
0.1875
141
12.0
290
     0
  0
SCALE
  5
253
102
{ACAD_REACTORS
330
23A
102
}
330
23A
100
AcDbScale
 70
     0
300
1/4" = 1'-0"
140
0.25
141
12.0
290
     0
  0
SCALE
  5
254
102
{ACAD_REACTORS
330
23A
102
}
330
23A
100
AcDbScale
 70
     0
300
3/8" = 1'-0"
140
0.375
141
12.0
290
     0
  0
SCALE
  5
255
102
{ACAD_REACTORS
330
23A
102
}
330
23A
100
AcDbScale
 70
     0
300
1/2" = 1'-0"
140
0.5
141
12.0
290
     0
  0
SCALE
  5
256
102
{ACAD_REACTORS
330
23A
102
}
330
23A
100
AcDbScale
 70
     0
300
3/4" = 1'-0"
140
0.75
141
12.0
290
     0
  0
SCALE
  5
257
102
{ACAD_REACTORS
330
23A
102
}
330
23A
100
AcDbScale
 70
     0
300
1" = 1'-0"
140
1.0
141
12.0
290
     0
  0
SCALE
  5
258
102
{ACAD_REACTORS
330
23A
102
}
330
23A
100
AcDbScale
 70
     0
300
1-1/2" = 1'-0"
140
1.5
141
12.0
290
     0
  0
SCALE
  5
259
102
{ACAD_REACTORS
330
23A
102
}
330
23A
100
AcDbScale
 70
     0
300
3" = 1'-0"
140
3.0
141
12.0
290
     0
  0
SCALE
  5
25A
102
{ACAD_REACTORS
330
23A
102
}
330
23A
100
AcDbScale
 70
     0
300
6" = 1'-0"
140
6.0
141
12.0
290
     0
  0
SCALE
  5
25B
102
{ACAD_REACTORS
330
23A
102
}
330
23A
100
AcDbScale
 70
     0
300
1'-0" = 1'-0"
140
12.0
141
12.0
290
     0
  0
ACDBSECTIONVIEWSTYLE
  5
4CF
102
{ACAD_REACTORS
330
4CE
102
}
330
4CE
100
AcDbModelDocViewStyle
 70
     0
  3
Imperial24
290
     0
300
Imperial24
 90
        0
100
AcDbSectionViewStyle
 70
     0
 71
     0
 90
       78
 71
     1
340
11
 62
   256
 40
0.24
340
0
340
0
 62
   256
 40
0.24
300
I, O, Q, S, X, Z
 40
0.48
 90
        3
 40
0.18
 90
        1
 71
     2
340
16
 90
       25
 62
   256
340
16
 90
       50
 62
   256
 40
0.24
 40
0.0
 40
0.24
 71
     3
340
11
 62
   256
 40
0.24
 90
        1
 40
0.75
 90
        1
300
%<\AcVar ViewType \f "%tc1">% %<\AcVar ViewSectionStartId>%-%<\AcVar ViewSectionEndId>%\PSCALE %<\AcVar ViewScale \f "%sn">%
 71
     4
 62
   256
 62
   257
300
ANSI31
 40
1.0
 90
        0
290
     0
290
     0
 90
        6
 40
0.0
 40
1.570796326794896
 40
0.2617993877991494
 40
1.308996938995747
 40
-0.2617993877991494
 40
1.832595714594046
  0
TABLESTYLE
  5
239
102
{ACAD_XDICTIONARY
360
5C2
102
}
102
{ACAD_REACTORS
330
21A
102
}
330
21A
100
AcDbTableStyle
280
     0
  3
Standard
 70
     0
 71
     0
 40
0.06
 41
0.06
280
     0
281
     0
  7
Standard
140
0.18
170
     2
 62
     0
 63
     7
283
     0
 90
      512
 91
        0
  1

274
    -2
284
     1
 64
     0
275
    -2
285
     1
 65
     0
276
    -2
286
     1
 66
     0
277
    -2
287
     1
 67
     0
278
    -2
288
     1
 68
     0
279
    -2
289
     1
 69
     0
  7
Standard
140
0.25
170
     5
 62
     0
 63
     7
283
     0
 90
      512
 91
        0
  1

274
    -2
284
     1
 64
     0
275
    -2
285
     1
 65
     0
276
    -2
286
     1
 66
     0
277
    -2
287
     1
 67
     0
278
    -2
288
     1
 68
     0
279
    -2
289
     1
 69
     0
  7
Standard
140
0.18
170
     5
 62
     0
 63
     7
283
     0
 90
      512
 91
        0
  1

274
    -2
284
     1
 64
     0
275
    -2
285
     1
 65
     0
276
    -2
286
     1
 66
     0
277
    -2
287
     1
 67
     0
278
    -2
288
     1
 68
     0
279
    -2
289
     1
 69
     0
  0
VISUALSTYLE
  5
2F
102
{ACAD_REACTORS
330
2A
102
}
330
2A
100
AcDbVisualStyle
  2
2dWireframe
 70
     4
177
     3
291
     0
 70
    58
 90
        0
176
     1
 90
        2
176
     1
 90
        0
176
     1
 90
        0
176
     1
 40
0.6
176
     1
 40
30.0
176
     1
 62
     7
420
 16777215
176
     1
 90
        1
176
     1
 90
        4
176
     1
 62
     7
176
     1
 62
   257
176
     1
 90
        1
176
     1
 90
        1
176
     1
 40
1.0
176
     1
 90
        0
176
     1
 62
   257
176
     1
 40
1.0
176
     1
 90
        1
176
     1
 90
        6
176
     1
 90
        2
176
     1
 62
     7
176
     1
 90
        5
176
     1
 90
        0
176
     1
 90
        0
176
     1
290
     0
176
     1
 90
        1
176
     1
 40
0.0
176
     1
 90
        0
176
     1
290
     1
176
     1
290
     1
176
     1
290
     0
176
     1
290
     0
176
     1
290
     0
176
     1
290
     0
176
     1
290
     0
176
     1
290
     0
176
     1
290
     0
176
     1
 90
       50
176
     1
 40
0.0
176
     1
 40
1.0
176
     1
 90
        0
176
     1
 62
    18
420
        0
176
     1
 90
       50
176
     1
 90
        3
176
     1
 62
     5
420
      255
176
     1
290
     0
176
     1
 90
       50
176
     1
 90
       50
176
     1
 90
       50
176
     1
290
     0
176
     1
 90
       50
176
     1
 62
   256
176
     0
 40
1.0
176
     0
 90
        2
176
     1
  1
strokes_ogs.tif
176
     1
290
     0
176
     1
 40
1.0
176
     1
 40
1.0
176
     1
  0
VISUALSTYLE
  5
31
102
{ACAD_REACTORS
330
2A
102
}
330
2A
100
AcDbVisualStyle
  2
3D Hidden
 70
     6
177
     3
291
     0
 70
    58
 90
        1
176
     1
 90
        2
176
     1
 90
        2
176
     1
 90
        0
176
     1
 40
0.6
176
     1
 40
30.0
176
     1
 62
     7
420
 16777215
176
     1
 90
        2
176
     1
 90
        2
176
     1
 62
     7
176
     1
 62
   257
176
     1
 90
        2
176
     1
 90
        1
176
     1
 40
40.0
176
     1
 90
        0
176
     1
 62
   257
176
     1
 40
1.0
176
     1
 90
        1
176
     1
 90
        6
176
     1
 90
        2
176
     1
 62
     7
176
     1
 90
        3
176
     1
 90
        0
176
     1
 90
        0
176
     1
290
     0
176
     1
 90
        1
176
     1
 40
0.0
176
     1
 90
        0
176
     1
290
     0
176
     1
290
     1
176
     1
290
     1
176
     1
290
     0
176
     1
290
     0
176
     1
290
     0
176
     1
290
     0
176
     1
290
     0
176
     1
290
     0
176
     1
 90
       50
176
     1
 40
0.0
176
     1
 40
1.0
176
     1
 90
        0
176
     1
 62
    18
420
        0
176
     1
 90
       50
176
     1
 90
        3
176
     1
 62
     5
420
      255
176
     1
290
     0
176
     1
 90
       50
176
     1
 90
       50
176
     1
 90
       50
176
     1
290
     0
176
     1
 90
       50
176
     1
 62
   256
176
     0
 40
1.0
176
     0
 90
        2
176
     1
  1
strokes_ogs.tif
176
     1
290
     0
176
     1
 40
1.0
176
     1
 40
1.0
176
     1
  0
VISUALSTYLE
  5
30
102
{ACAD_REACTORS
330
2A
102
}
330
2A
100
AcDbVisualStyle
  2
3dWireframe
 70
     5
177
     3
291
     0
 70
    58
 90
        0
176
     1
 90
        2
176
     1
 90
        0
176
     1
 90
        0
176
     1
 40
0.6
176
     1
 40
30.0
176
     1
 62
     7
420
 16777215
176
     1
 90
        1
176
     1
 90
        4
176
     1
 62
     7
176
     1
 62
   257
176
     1
 90
        1
176
     1
 90
        1
176
     1
 40
1.0
176
     1
 90
        0
176
     1
 62
   257
176
     1
 40
1.0
176
     1
 90
        1
176
     1
 90
        6
176
     1
 90
        2
176
     1
 62
     7
176
     1
 90
        5
176
     1
 90
        0
176
     1
 90
        0
176
     1
290
     0
176
     1
 90
        1
176
     1
 40
0.0
176
     1
 90
        0
176
     1
290
     0
176
     1
290
     1
176
     1
290
     1
176
     1
290
     0
176
     1
290
     0
176
     1
290
     0
176
     1
290
     0
176
     1
290
     0
176
     1
290
     0
176
     1
 90
       50
176
     1
 40
0.0
176
     1
 40
1.0
176
     1
 90
        0
176
     1
 62
    18
420
        0
176
     1
 90
       50
176
     1
 90
        3
176
     1
 62
     5
420
      255
176
     1
290
     0
176
     1
 90
       50
176
     1
 90
       50
176
     1
 90
       50
176
     1
290
     0
176
     1
 90
       50
176
     1
 62
   256
176
     0
 40
1.0
176
     0
 90
        2
176
     1
  1
strokes_ogs.tif
176
     1
290
     0
176
     1
 40
1.0
176
     1
 40
1.0
176
     1
  0
VISUALSTYLE
  5
32
102
{ACAD_REACTORS
330
2A
102
}
330
2A
100
AcDbVisualStyle
  2
Basic
 70
     7
177
     3
291
     1
 70
    58
 90
        1
176
     1
 90
        0
176
     1
 90
        1
176
     1
 90
        0
176
     1
 40
0.6
176
     1
 40
30.0
176
     1
 62
     7
420
 16777215
176
     1
 90
        0
176
     1
 90
        4
176
     1
 62
     7
176
     1
 62
   257
176
     1
 90
        1
176
     1
 90
        1
176
     1
 40
1.0
176
     1
 90
        8
176
     1
 62
     7
176
     1
 40
1.0
176
     1
 90
        1
176
     1
 90
        6
176
     1
 90
        2
176
     1
 62
     7
176
     1
 90
        5
176
     1
 90
        0
176
     1
 90
        0
176
     1
290
     0
176
     1
 90
        1
176
     1
 40
0.0
176
     1
 90
        0
176
     1
290
     0
176
     1
290
     1
176
     1
290
     1
176
     1
290
     0
176
     1
290
     0
176
     1
290
     0
176
     1
290
     0
176
     1
290
     0
176
     1
290
     0
176
     1
 90
       50
176
     1
 40
0.0
176
     1
 40
1.0
176
     1
 90
        0
176
     1
 62
    18
420
        0
176
     1
 90
       50
176
     1
 90
        3
176
     1
 62
     5
420
      255
176
     1
290
     0
176
     1
 90
       50
176
     1
 90
       50
176
     1
 90
       50
176
     1
290
     0
176
     1
 90
       50
176
     1
 62
   256
176
     0
 40
1.0
176
     0
 90
        2
176
     1
  1
strokes_ogs.tif
176
     1
290
     0
176
     1
 40
1.0
176
     1
 40
1.0
176
     1
  0
VISUALSTYLE
  5
36
102
{ACAD_REACTORS
330
2A
102
}
330
2A
100
AcDbVisualStyle
  2
Brighten
 70
    12
177
     3
291
     1
 70
    58
 90
        2
176
     1
 90
        2
176
     1
 90
        0
176
     1
 90
        0
176
     1
 40
0.6
176
     1
 40
30.0
176
     1
 62
     7
420
 16777215
176
     1
 90
        1
176
     1
 90
        4
176
     1
 62
     7
176
     1
 62
   257
176
     1
 90
        1
176
     1
 90
        1
176
     1
 40
1.0
176
     1
 90
        8
176
     1
 62
     7
176
     1
 40
1.0
176
     1
 90
        1
176
     1
 90
        6
176
     1
 90
        2
176
     1
 62
     7
176
     1
 90
        5
176
     1
 90
        0
176
     1
 90
        0
176
     1
290
     0
176
     1
 90
        1
176
     1
 40
50.0
176
     1
 90
        0
176
     1
290
     0
176
     1
290
     1
176
     1
290
     1
176
     1
290
     0
176
     1
290
     0
176
     1
290
     0
176
     1
290
     0
176
     1
290
     0
176
     1
290
     0
176
     1
 90
       50
176
     1
 40
0.0
176
     1
 40
1.0
176
     1
 90
        0
176
     1
 62
    18
420
        0
176
     1
 90
       50
176
     1
 90
        3
176
     1
 62
     5
420
      255
176
     1
290
     0
176
     1
 90
       50
176
     1
 90
       50
176
     1
 90
       50
176
     1
290
     0
176
     1
 90
       50
176
     1
 62
   256
176
     0
 40
1.0
176
     0
 90
        2
176
     1
  1
strokes_ogs.tif
176
     1
290
     0
176
     1
 40
1.0
176
     1
 40
1.0
176
     1
  0
VISUALSTYLE
  5
3A
102
{ACAD_REACTORS
330
2A
102
}
330
2A
100
AcDbVisualStyle
  2
ColorChange
 70
    16
177
     3
291
     1
 70
    58
 90
        2
176
     1
 90
        2
176
     1
 90
        3
176
     1
 90
        0
176
     1
 40
0.6
176
     1
 40
30.0
176
     1
 62
     8
420
  8421504
176
     1
 90
        1
176
     1
 90
        4
176
     1
 62
     7
176
     1
 62
   257
176
     1
 90
        1
176
     1
 90
        1
176
     1
 40
1.0
176
     1
 90
        8
176
     1
 62
     8
420
  8421504
176
     1
 40
1.0
176
     1
 90
        1
176
     1
 90
        6
176
     1
 90
        2
176
     1
 62
     7
176
     1
 90
        5
176
     1
 90
        0
176
     1
 90
        0
176
     1
290
     0
176
     1
 90
        1
176
     1
 40
0.0
176
     1
 90
        0
176
     1
290
     0
176
     1
290
     1
176
     1
290
     1
176
     1
290
     0
176
     1
290
     0
176
     1
290
     0
176
     1
290
     0
176
     1
290
     0
176
     1
290
     0
176
     1
 90
       50
176
     1
 40
0.0
176
     1
 40
1.0
176
     1
 90
        0
176
     1
 62
    18
420
        0
176
     1
 90
       50
176
     1
 90
        3
176
     1
 62
     5
420
      255
176
     1
290
     0
176
     1
 90
       50
176
     1
 90
       50
176
     1
 90
       50
176
     1
290
     0
176
     1
 90
       50
176
     1
 62
   256
176
     0
 40
1.0
176
     0
 90
        2
176
     1
  1
strokes_ogs.tif
176
     1
290
     0
176
     1
 40
1.0
176
     1
 40
1.0
176
     1
  0
VISUALSTYLE
  5
34
102
{ACAD_REACTORS
330
2A
102
}
330
2A
100
AcDbVisualStyle
  2
Conceptual
 70
     9
177
     3
291
     0
 70
    58
 90
        3
176
     1
 90
        2
176
     1
 90
        0
176
     1
 90
        0
176
     1
 40
0.6
176
     1
 40
30.0
176
     1
 62
     7
420
 16777215
176
     1
 90
        2
176
     1
 90
        2
176
     1
 62
     7
176
     1
 62
   257
176
     1
 90
        1
176
     1
 90
        1
176
     1
 40
40.0
176
     1
 90
        8
176
     1
 62
     7
176
     1
 40
1.0
176
     1
 90
        1
176
     1
 90
        6
176
     1
 90
        2
176
     1
 62
     7
176
     1
 90
        3
176
     1
 90
        0
176
     1
 90
        0
176
     1
290
     0
176
     1
 90
        1
176
     1
 40
0.0
176
     1
 90
        0
176
     1
290
     0
176
     1
290
     1
176
     1
290
     1
176
     1
290
     0
176
     1
290
     0
176
     1
290
     0
176
     1
290
     0
176
     1
290
     0
176
     1
290
     0
176
     1
 90
       50
176
     1
 40
0.0
176
     1
 40
1.0
176
     1
 90
        0
176
     1
 62
    18
420
        0
176
     1
 90
       50
176
     1
 90
        3
176
     1
 62
     5
420
      255
176
     1
290
     0
176
     1
 90
       50
176
     1
 90
       50
176
     1
 90
       50
176
     1
290
     0
176
     1
 90
       50
176
     1
 62
   256
176
     0
 40
1.0
176
     0
 90
        2
176
     1
  1
strokes_ogs.tif
176
     1
290
     0
176
     1
 40
1.0
176
     1
 40
1.0
176
     1
  0
VISUALSTYLE
  5
35
102
{ACAD_REACTORS
330
2A
102
}
330
2A
100
AcDbVisualStyle
  2
Dim
 70
    11
177
     3
291
     1
 70
    58
 90
        2
176
     1
 90
        2
176
     1
 90
        0
176
     1
 90
        0
176
     1
 40
0.6
176
     1
 40
30.0
176
     1
 62
     7
420
 16777215
176
     1
 90
        1
176
     1
 90
        4
176
     1
 62
     7
176
     1
 62
   257
176
     1
 90
        1
176
     1
 90
        1
176
     1
 40
1.0
176
     1
 90
        8
176
     1
 62
     7
176
     1
 40
1.0
176
     1
 90
        1
176
     1
 90
        6
176
     1
 90
        2
176
     1
 62
     7
176
     1
 90
        5
176
     1
 90
        0
176
     1
 90
        0
176
     1
290
     0
176
     1
 90
        1
176
     1
 40
-50.0
176
     1
 90
        0
176
     1
290
     0
176
     1
290
     1
176
     1
290
     1
176
     1
290
     0
176
     1
290
     0
176
     1
290
     0
176
     1
290
     0
176
     1
290
     0
176
     1
290
     0
176
     1
 90
       50
176
     1
 40
0.0
176
     1
 40
1.0
176
     1
 90
        0
176
     1
 62
    18
420
        0
176
     1
 90
       50
176
     1
 90
        3
176
     1
 62
     5
420
      255
176
     1
290
     0
176
     1
 90
       50
176
     1
 90
       50
176
     1
 90
       50
176
     1
290
     0
176
     1
 90
       50
176
     1
 62
   256
176
     0
 40
1.0
176
     0
 90
        2
176
     1
  1
strokes_ogs.tif
176
     1
290
     0
176
     1
 40
1.0
176
     1
 40
1.0
176
     1
  0
VISUALSTYLE
  5
237
102
{ACAD_REACTORS
330
2A
102
}
330
2A
100
AcDbVisualStyle
  2
EdgeColorOff
 70
    22
177
     3
291
     1
 70
    58
 90
        2
176
     0
 90
        2
176
     0
 90
        0
176
     0
 90
        0
176
     0
 40
0.6
176
     0
 40
30.0
176
     0
 62
     7
420
 16777215
176
     0
 90
        1
176
     0
 90
        4
176
     0
 62
     7
176
     0
 62
   257
176
     0
 90
        1
176
     0
 90
        1
176
     0
 40
1.0
176
     0
 90
        8
176
     2
 62
     7
176
     0
 40
1.0
176
     0
 90
        1
176
     0
 90
        6
176
     0
 90
        2
176
     0
 62
     7
176
     0
 90
        5
176
     0
 90
        0
176
     0
 90
        0
176
     0
290
     0
176
     0
 90
        1
176
     0
 40
0.0
176
     0
 90
        0
176
     0
290
     0
176
     1
290
     1
176
     1
290
     1
176
     1
290
     0
176
     1
290
     0
176
     1
290
     0
176
     1
290
     0
176
     1
290
     0
176
     1
290
     0
176
     1
 90
       50
176
     1
 40
0.0
176
     1
 40
1.0
176
     1
 90
        0
176
     1
 62
    18
420
        0
176
     1
 90
       50
176
     1
 90
        3
176
     1
 62
     5
420
      255
176
     1
290
     0
176
     1
 90
       50
176
     1
 90
       50
176
     1
 90
       50
176
     1
290
     0
176
     1
 90
       50
176
     1
 62
   256
176
     0
 40
1.0
176
     0
 90
        2
176
     1
  1
strokes_ogs.tif
176
     1
290
     0
176
     1
 40
1.0
176
     1
 40
1.0
176
     1
  0
VISUALSTYLE
  5
39
102
{ACAD_REACTORS
330
2A
102
}
330
2A
100
AcDbVisualStyle
  2
Facepattern
 70
    15
177
     3
291
     1
 70
    58
 90
        2
176
     1
 90
        2
176
     1
 90
        0
176
     1
 90
        0
176
     1
 40
0.6
176
     1
 40
30.0
176
     1
 62
     7
420
 16777215
176
     1
 90
        1
176
     1
 90
        4
176
     1
 62
     7
176
     1
 62
   257
176
     1
 90
        1
176
     1
 90
        1
176
     1
 40
1.0
176
     1
 90
        8
176
     1
 62
     7
176
     1
 40
1.0
176
     1
 90
        1
176
     1
 90
        6
176
     1
 90
        2
176
     1
 62
     7
176
     1
 90
        5
176
     1
 90
        0
176
     1
 90
        0
176
     1
290
     0
176
     1
 90
        1
176
     1
 40
0.0
176
     1
 90
        0
176
     1
290
     0
176
     1
290
     1
176
     1
290
     1
176
     1
290
     0
176
     1
290
     0
176
     1
290
     0
176
     1
290
     0
176
     1
290
     0
176
     1
290
     0
176
     1
 90
       50
176
     1
 40
0.0
176
     1
 40
1.0
176
     1
 90
        0
176
     1
 62
    18
420
        0
176
     1
 90
       50
176
     1
 90
        3
176
     1
 62
     5
420
      255
176
     1
290
     0
176
     1
 90
       50
176
     1
 90
       50
176
     1
 90
       50
176
     1
290
     0
176
     1
 90
       50
176
     1
 62
   256
176
     0
 40
1.0
176
     0
 90
        2
176
     1
  1
strokes_ogs.tif
176
     1
290
     0
176
     1
 40
1.0
176
     1
 40
1.0
176
     1
  0
VISUALSTYLE
  5
2B
102
{ACAD_REACTORS
330
2A
102
}
330
2A
100
AcDbVisualStyle
  2
Flat
 70
     0
177
     3
291
     1
 70
    58
 90
        2
176
     1
 90
        1
176
     1
 90
        1
176
     1
 90
        2
176
     1
 40
0.6
176
     1
 40
30.0
176
     1
 62
     7
420
 16777215
176
     1
 90
        0
176
     1
 90
        4
176
     1
 62
     7
176
     1
 62
   257
176
     1
 90
        1
176
     1
 90
        1
176
     1
 40
1.0
176
     1
 90
        8
176
     1
 62
     7
176
     1
 40
1.0
176
     1
 90
        1
176
     1
 90
        6
176
     1
 90
        2
176
     1
 62
     7
176
     1
 90
        5
176
     1
 90
        0
176
     1
 90
        0
176
     1
290
     0
176
     1
 90
       13
176
     1
 40
0.0
176
     1
 90
        0
176
     1
290
     0
176
     1
290
     1
176
     1
290
     1
176
     1
290
     0
176
     1
290
     0
176
     1
290
     0
176
     1
290
     0
176
     1
290
     0
176
     1
290
     0
176
     1
 90
       50
176
     1
 40
0.0
176
     1
 40
1.0
176
     1
 90
        0
176
     1
 62
    18
420
        0
176
     1
 90
       50
176
     1
 90
        3
176
     1
 62
     5
420
      255
176
     1
290
     0
176
     1
 90
       50
176
     1
 90
       50
176
     1
 90
       50
176
     1
290
     0
176
     1
 90
       50
176
     1
 62
   256
176
     0
 40
1.0
176
     0
 90
        2
176
     1
  1
strokes_ogs.tif
176
     1
290
     0
176
     1
 40
1.0
176
     1
 40
1.0
176
     1
  0
VISUALSTYLE
  5
2C
102
{ACAD_REACTORS
330
2A
102
}
330
2A
100
AcDbVisualStyle
  2
FlatWithEdges
 70
     1
177
     3
291
     1
 70
    58
 90
        2
176
     1
 90
        1
176
     1
 90
        1
176
     1
 90
        2
176
     1
 40
0.6
176
     1
 40
30.0
176
     1
 62
     7
420
 16777215
176
     1
 90
        1
176
     1
 90
        4
176
     1
 62
     7
176
     1
 62
   257
176
     1
 90
        1
176
     1
 90
        1
176
     1
 40
1.0
176
     1
 90
        0
176
     1
 62
   257
176
     1
 40
1.0
176
     1
 90
        1
176
     1
 90
        6
176
     1
 90
        2
176
     1
 62
     7
176
     1
 90
        5
176
     1
 90
        0
176
     1
 90
        0
176
     1
290
     0
176
     1
 90
       13
176
     1
 40
0.0
176
     1
 90
        0
176
     1
290
     0
176
     1
290
     1
176
     1
290
     1
176
     1
290
     0
176
     1
290
     0
176
     1
290
     0
176
     1
290
     0
176
     1
290
     0
176
     1
290
     0
176
     1
 90
       50
176
     1
 40
0.0
176
     1
 40
1.0
176
     1
 90
        0
176
     1
 62
    18
420
        0
176
     1
 90
       50
176
     1
 90
        3
176
     1
 62
     5
420
      255
176
     1
290
     0
176
     1
 90
       50
176
     1
 90
       50
176
     1
 90
       50
176
     1
290
     0
176
     1
 90
       50
176
     1
 62
   256
176
     0
 40
1.0
176
     0
 90
        2
176
     1
  1
strokes_ogs.tif
176
     1
290
     0
176
     1
 40
1.0
176
     1
 40
1.0
176
     1
  0
VISUALSTYLE
  5
2D
102
{ACAD_REACTORS
330
2A
102
}
330
2A
100
AcDbVisualStyle
  2
Gouraud
 70
     2
177
     3
291
     1
 70
    58
 90
        2
176
     1
 90
        2
176
     1
 90
        1
176
     1
 90
        2
176
     1
 40
0.6
176
     1
 40
30.0
176
     1
 62
     7
420
 16777215
176
     1
 90
        0
176
     1
 90
        4
176
     1
 62
     7
176
     1
 62
   257
176
     1
 90
        1
176
     1
 90
        1
176
     1
 40
1.0
176
     1
 90
        0
176
     1
 62
     7
176
     1
 40
1.0
176
     1
 90
        1
176
     1
 90
        6
176
     1
 90
        2
176
     1
 62
     7
176
     1
 90
        5
176
     1
 90
        0
176
     1
 90
        0
176
     1
290
     0
176
     1
 90
       13
176
     1
 40
0.0
176
     1
 90
        0
176
     1
290
     0
176
     1
290
     1
176
     1
290
     1
176
     1
290
     0
176
     1
290
     0
176
     1
290
     0
176
     1
290
     0
176
     1
290
     0
176
     1
290
     0
176
     1
 90
       50
176
     1
 40
0.0
176
     1
 40
1.0
176
     1
 90
        0
176
     1
 62
    18
420
        0
176
     1
 90
       50
176
     1
 90
        3
176
     1
 62
     5
420
      255
176
     1
290
     0
176
     1
 90
       50
176
     1
 90
       50
176
     1
 90
       50
176
     1
290
     0
176
     1
 90
       50
176
     1
 62
   256
176
     0
 40
1.0
176
     0
 90
        2
176
     1
  1
strokes_ogs.tif
176
     1
290
     0
176
     1
 40
1.0
176
     1
 40
1.0
176
     1
  0
VISUALSTYLE
  5
2E
102
{ACAD_REACTORS
330
2A
102
}
330
2A
100
AcDbVisualStyle
  2
GouraudWithEdges
 70
     3
177
     3
291
     1
 70
    58
 90
        2
176
     1
 90
        2
176
     1
 90
        1
176
     1
 90
        2
176
     1
 40
0.6
176
     1
 40
30.0
176
     1
 62
     7
420
 16777215
176
     1
 90
        1
176
     1
 90
        4
176
     1
 62
     7
176
     1
 62
   257
176
     1
 90
        1
176
     1
 90
        1
176
     1
 40
1.0
176
     1
 90
        0
176
     1
 62
   257
176
     1
 40
1.0
176
     1
 90
        1
176
     1
 90
        6
176
     1
 90
        2
176
     1
 62
     7
176
     1
 90
        5
176
     1
 90
        0
176
     1
 90
        0
176
     1
290
     0
176
     1
 90
       13
176
     1
 40
0.0
176
     1
 90
        0
176
     1
290
     0
176
     1
290
     1
176
     1
290
     1
176
     1
290
     0
176
     1
290
     0
176
     1
290
     0
176
     1
290
     0
176
     1
290
     0
176
     1
290
     0
176
     1
 90
       50
176
     1
 40
0.0
176
     1
 40
1.0
176
     1
 90
        0
176
     1
 62
    18
420
        0
176
     1
 90
       50
176
     1
 90
        3
176
     1
 62
     5
420
      255
176
     1
290
     0
176
     1
 90
       50
176
     1
 90
       50
176
     1
 90
       50
176
     1
290
     0
176
     1
 90
       50
176
     1
 62
   256
176
     0
 40
1.0
176
     0
 90
        2
176
     1
  1
strokes_ogs.tif
176
     1
290
     0
176
     1
 40
1.0
176
     1
 40
1.0
176
     1
  0
VISUALSTYLE
  5
4C8
102
{ACAD_REACTORS
330
2A
102
}
330
2A
100
AcDbVisualStyle
  2
Hidden
 70
     6
177
     3
291
     0
 70
    58
 90
        1
176
     1
 90
        2
176
     1
 90
        2
176
     1
 90
        0
176
     1
 40
0.6
176
     1
 40
30.0
176
     1
 62
     7
420
 16777215
176
     1
 90
        2
176
     1
 90
        2
176
     1
 62
     7
176
     1
 62
   257
176
     1
 90
        2
176
     1
 90
        1
176
     1
 40
40.0
176
     1
 90
        0
176
     1
 62
   257
176
     1
 40
1.0
176
     1
 90
        1
176
     1
 90
        6
176
     1
 90
        2
176
     1
 62
     7
176
     1
 90
        3
176
     1
 90
        0
176
     1
 90
        0
176
     1
290
     0
176
     1
 90
        1
176
     1
 40
0.0
176
     1
 90
        0
176
     1
290
     0
176
     1
290
     1
176
     1
290
     1
176
     1
290
     0
176
     1
290
     0
176
     1
290
     0
176
     1
290
     0
176
     1
290
     0
176
     1
290
     0
176
     1
 90
       50
176
     1
 40
0.0
176
     1
 40
1.0
176
     1
 90
        0
176
     1
 62
    18
420
        0
176
     1
 90
       50
176
     1
 90
        3
176
     1
 62
     5
420
      255
176
     1
290
     0
176
     1
 90
       50
176
     1
 90
       50
176
     1
 90
       50
176
     1
290
     0
176
     1
 90
       50
176
     1
 62
   256
176
     0
 40
1.0
176
     0
 90
        2
176
     1
  1
strokes_ogs.tif
176
     1
290
     0
176
     1
 40
1.0
176
     1
 40
1.0
176
     1
  0
VISUALSTYLE
  5
235
102
{ACAD_REACTORS
330
2A
102
}
330
2A
100
AcDbVisualStyle
  2
JitterOff
 70
    20
177
     3
291
     1
 70
    58
 90
        2
176
     0
 90
        2
176
     0
 90
        0
176
     0
 90
        0
176
     0
 40
0.6
176
     0
 40
30.0
176
     0
 62
     7
420
 16777215
176
     0
 90
        1
176
     0
 90
        4
176
     0
 62
     7
176
     0
 62
   257
176
     0
 90
        1
176
     0
 90
        1
176
     0
 40
1.0
176
     0
 90
       10
176
     2
 62
     7
176
     0
 40
1.0
176
     0
 90
        1
176
     0
 90
        6
176
     0
 90
        2
176
     0
 62
     7
176
     0
 90
        5
176
     0
 90
        0
176
     0
 90
        0
176
     0
290
     0
176
     0
 90
        1
176
     0
 40
0.0
176
     0
 90
        0
176
     0
290
     0
176
     1
290
     1
176
     1
290
     1
176
     1
290
     0
176
     1
290
     0
176
     1
290
     0
176
     1
290
     0
176
     1
290
     0
176
     1
290
     0
176
     1
 90
       50
176
     1
 40
0.0
176
     1
 40
1.0
176
     1
 90
        0
176
     1
 62
    18
420
        0
176
     1
 90
       50
176
     1
 90
        3
176
     1
 62
     5
420
      255
176
     1
290
     0
176
     1
 90
       50
176
     1
 90
       50
176
     1
 90
       50
176
     1
290
     0
176
     1
 90
       50
176
     1
 62
   256
176
     0
 40
1.0
176
     0
 90
        2
176
     1
  1
strokes_ogs.tif
176
     1
290
     0
176
     1
 40
1.0
176
     1
 40
1.0
176
     1
  0
VISUALSTYLE
  5
38
102
{ACAD_REACTORS
330
2A
102
}
330
2A
100
AcDbVisualStyle
  2
Linepattern
 70
    14
177
     3
291
     1
 70
    58
 90
        2
176
     1
 90
        2
176
     1
 90
        0
176
     1
 90
        0
176
     1
 40
0.6
176
     1
 40
30.0
176
     1
 62
     7
420
 16777215
176
     1
 90
        1
176
     1
 90
        4
176
     1
 62
     7
176
     1
 62
   257
176
     1
 90
        7
176
     1
 90
        7
176
     1
 40
1.0
176
     1
 90
        8
176
     1
 62
     7
176
     1
 40
1.0
176
     1
 90
        1
176
     1
 90
        6
176
     1
 90
        2
176
     1
 62
     7
176
     1
 90
        5
176
     1
 90
        0
176
     1
 90
        0
176
     1
290
     0
176
     1
 90
        1
176
     1
 40
0.0
176
     1
 90
        0
176
     1
290
     0
176
     1
290
     1
176
     1
290
     1
176
     1
290
     0
176
     1
290
     0
176
     1
290
     0
176
     1
290
     0
176
     1
290
     0
176
     1
290
     0
176
     1
 90
       50
176
     1
 40
0.0
176
     1
 40
1.0
176
     1
 90
        0
176
     1
 62
    18
420
        0
176
     1
 90
       50
176
     1
 90
        3
176
     1
 62
     5
420
      255
176
     1
290
     0
176
     1
 90
       50
176
     1
 90
       50
176
     1
 90
       50
176
     1
290
     0
176
     1
 90
       50
176
     1
 62
   256
176
     0
 40
1.0
176
     0
 90
        2
176
     1
  1
strokes_ogs.tif
176
     1
290
     0
176
     1
 40
1.0
176
     1
 40
1.0
176
     1
  0
VISUALSTYLE
  5
236
102
{ACAD_REACTORS
330
2A
102
}
330
2A
100
AcDbVisualStyle
  2
OverhangOff
 70
    21
177
     3
291
     1
 70
    58
 90
        2
176
     0
 90
        2
176
     0
 90
        0
176
     0
 90
        0
176
     0
 40
0.6
176
     0
 40
30.0
176
     0
 62
     7
420
 16777215
176
     0
 90
        1
176
     0
 90
        4
176
     0
 62
     7
176
     0
 62
   257
176
     0
 90
        1
176
     0
 90
        1
176
     0
 40
1.0
176
     0
 90
        9
176
     2
 62
     7
176
     0
 40
1.0
176
     0
 90
        1
176
     0
 90
        6
176
     0
 90
        2
176
     0
 62
     7
176
     0
 90
        5
176
     0
 90
        0
176
     0
 90
        0
176
     0
290
     0
176
     0
 90
        1
176
     0
 40
0.0
176
     0
 90
        0
176
     0
290
     0
176
     1
290
     1
176
     1
290
     1
176
     1
290
     0
176
     1
290
     0
176
     1
290
     0
176
     1
290
     0
176
     1
290
     0
176
     1
290
     0
176
     1
 90
       50
176
     1
 40
0.0
176
     1
 40
1.0
176
     1
 90
        0
176
     1
 62
    18
420
        0
176
     1
 90
       50
176
     1
 90
        3
176
     1
 62
     5
420
      255
176
     1
290
     0
176
     1
 90
       50
176
     1
 90
       50
176
     1
 90
       50
176
     1
290
     0
176
     1
 90
       50
176
     1
 62
   256
176
     0
 40
1.0
176
     0
 90
        2
176
     1
  1
strokes_ogs.tif
176
     1
290
     0
176
     1
 40
1.0
176
     1
 40
1.0
176
     1
  0
VISUALSTYLE
  5
33
102
{ACAD_REACTORS
330
2A
102
}
330
2A
100
AcDbVisualStyle
  2
Realistic
 70
     8
177
     3
291
     0
 70
    58
 90
        2
176
     1
 90
        2
176
     1
 90
        0
176
     1
 90
        0
176
     1
 40
0.6
176
     1
 40
30.0
176
     1
 62
     7
420
 16777215
176
     1
 90
        1
176
     1
 90
        0
176
     1
 62
     7
176
     1
 62
   257
176
     1
 90
        1
176
     1
 90
        1
176
     1
 40
1.0
176
     1
 90
        8
176
     1
 62
     8
420
  7895160
176
     1
 40
1.0
176
     1
 90
        1
176
     1
 90
        6
176
     1
 90
        2
176
     1
 62
     7
176
     1
 90
        5
176
     1
 90
        0
176
     1
 90
        0
176
     1
290
     0
176
     1
 90
       13
176
     1
 40
0.0
176
     1
 90
        0
176
     1
290
     0
176
     1
290
     1
176
     1
290
     1
176
     1
290
     0
176
     1
290
     0
176
     1
290
     0
176
     1
290
     0
176
     1
290
     0
176
     1
290
     0
176
     1
 90
       50
176
     1
 40
0.0
176
     1
 40
1.0
176
     1
 90
        0
176
     1
 62
    18
420
        0
176
     1
 90
       50
176
     1
 90
        3
176
     1
 62
     5
420
      255
176
     1
290
     0
176
     1
 90
       50
176
     1
 90
       50
176
     1
 90
       50
176
     1
290
     0
176
     1
 90
       50
176
     1
 62
   256
176
     0
 40
1.0
176
     0
 90
        2
176
     1
  1
strokes_ogs.tif
176
     1
290
     0
176
     1
 40
1.0
176
     1
 40
1.0
176
     1
  0
VISUALSTYLE
  5
4CD
102
{ACAD_REACTORS
330
2A
102
}
330
2A
100
AcDbVisualStyle
  2
Shaded
 70
    27
177
     3
291
     0
 70
    58
 90
        2
176
     1
 90
        2
176
     1
 90
        1
176
     1
 90
        2
176
     1
 40
0.6
176
     1
 40
30.0
176
     1
 62
     7
420
 16777215
176
     1
 90
        0
176
     1
 90
        4
176
     1
 62
     7
176
     1
 62
   257
176
     1
 90
        1
176
     1
 90
        1
176
     1
 40
1.0
176
     1
 90
        8
176
     1
 62
   257
176
     1
 40
1.0
176
     1
 90
        1
176
     1
 90
        6
176
     1
 90
        2
176
     1
 62
     8
420
  7895160
176
     1
 90
        3
176
     1
 90
        0
176
     1
 90
        0
176
     1
290
     0
176
     1
 90
        5
176
     1
 40
0.0
176
     1
 90
        0
176
     1
290
     0
176
     1
290
     1
176
     1
290
     1
176
     1
290
     0
176
     1
290
     0
176
     1
290
     0
176
     1
290
     0
176
     1
290
     0
176
     1
290
     0
176
     1
 90
       50
176
     1
 40
0.0
176
     1
 40
1.0
176
     1
 90
        0
176
     1
 62
    18
420
        0
176
     1
 90
       50
176
     1
 90
        3
176
     1
 62
     5
420
      255
176
     1
290
     0
176
     1
 90
       50
176
     1
 90
       50
176
     1
 90
       50
176
     1
290
     0
176
     1
 90
       50
176
     1
 62
   256
176
     0
 40
1.0
176
     0
 90
        2
176
     1
  1
strokes_ogs.tif
176
     1
290
     0
176
     1
 40
1.0
176
     1
 40
1.0
176
     1
  0
VISUALSTYLE
  5
4CC
102
{ACAD_REACTORS
330
2A
102
}
330
2A
100
AcDbVisualStyle
  2
Shaded with edges
 70
    26
177
     3
291
     0
 70
    58
 90
        2
176
     1
 90
        2
176
     1
 90
        1
176
     1
 90
        2
176
     1
 40
0.6
176
     1
 40
30.0
176
     1
 62
     7
420
 16777215
176
     1
 90
        1
176
     1
 90
        2
176
     1
 62
     7
176
     1
 62
   257
176
     1
 90
        2
176
     1
 90
        1
176
     1
 40
1.0
176
     1
 90
        8
176
     1
 62
   257
176
     1
 40
1.0
176
     1
 90
        1
176
     1
 90
        6
176
     1
 90
        2
176
     1
 62
     7
176
     1
 90
        3
176
     1
 90
        0
176
     1
 90
        0
176
     1
290
     0
176
     1
 90
        5
176
     1
 40
0.0
176
     1
 90
        0
176
     1
290
     0
176
     1
290
     1
176
     1
290
     1
176
     1
290
     0
176
     1
290
     0
176
     1
290
     0
176
     1
290
     0
176
     1
290
     0
176
     1
290
     0
176
     1
 90
       50
176
     1
 40
0.0
176
     1
 40
1.0
176
     1
 90
        0
176
     1
 62
    18
420
        0
176
     1
 90
       50
176
     1
 90
        3
176
     1
 62
     5
420
      255
176
     1
290
     0
176
     1
 90
       50
176
     1
 90
       50
176
     1
 90
       50
176
     1
290
     0
176
     1
 90
       50
176
     1
 62
   256
176
     0
 40
1.0
176
     0
 90
        2
176
     1
  1
strokes_ogs.tif
176
     1
290
     0
176
     1
 40
1.0
176
     1
 40
1.0
176
     1
  0
VISUALSTYLE
  5
4C9
102
{ACAD_REACTORS
330
2A
102
}
330
2A
100
AcDbVisualStyle
  2
Shades of Gray
 70
    23
177
     3
291
     0
 70
    58
 90
        2
176
     1
 90
        2
176
     1
 90
        3
176
     1
 90
        0
176
     1
 40
0.6
176
     1
 40
30.0
176
     1
 62
     7
420
 16777215
176
     1
 90
        2
176
     1
 90
        2
176
     1
 62
     7
176
     1
 62
     7
176
     1
 90
        1
176
     1
 90
        1
176
     1
 40
40.0
176
     1
 90
        8
176
     1
 62
     7
176
     1
 40
1.0
176
     1
 90
        1
176
     1
 90
        6
176
     1
 90
        2
176
     1
 62
     7
176
     1
 90
        3
176
     1
 90
        0
176
     1
 90
        0
176
     1
290
     0
176
     1
 90
        1
176
     1
 40
0.0
176
     1
 90
        0
176
     1
290
     0
176
     1
290
     1
176
     1
290
     1
176
     1
290
     0
176
     1
290
     0
176
     1
290
     0
176
     1
290
     0
176
     1
290
     0
176
     1
290
     0
176
     1
 90
       50
176
     1
 40
0.0
176
     1
 40
1.0
176
     1
 90
        0
176
     1
 62
    18
420
        0
176
     1
 90
       50
176
     1
 90
        3
176
     1
 62
     5
420
      255
176
     1
290
     0
176
     1
 90
       50
176
     1
 90
       50
176
     1
 90
       50
176
     1
290
     0
176
     1
 90
       50
176
     1
 62
   256
176
     0
 40
1.0
176
     0
 90
        2
176
     1
  1
strokes_ogs.tif
176
     1
290
     0
176
     1
 40
1.0
176
     1
 40
1.0
176
     1
  0
VISUALSTYLE
  5
4CA
102
{ACAD_REACTORS
330
2A
102
}
330
2A
100
AcDbVisualStyle
  2
Sketchy
 70
    24
177
     3
291
     0
 70
    58
 90
        1
176
     1
 90
        2
176
     1
 90
        2
176
     1
 90
        0
176
     1
 40
0.6
176
     1
 40
30.0
176
     1
 62
     7
420
 16777215
176
     1
 90
        2
176
     1
 90
        2
176
     1
 62
     7
176
     1
 62
     7
176
     1
 90
        1
176
     1
 90
        1
176
     1
 40
40.0
176
     1
 90
       11
176
     1
 62
     7
176
     1
 40
1.0
176
     1
 90
        1
176
     1
 90
        6
176
     1
 90
        2
176
     1
 62
     7
176
     1
 90
        6
176
     1
 90
        0
176
     1
 90
        0
176
     1
290
     0
176
     1
 90
        1
176
     1
 40
0.0
176
     1
 90
        0
176
     1
290
     0
176
     1
290
     1
176
     1
290
     1
176
     1
290
     0
176
     1
290
     0
176
     1
290
     0
176
     1
290
     0
176
     1
290
     0
176
     1
290
     0
176
     1
 90
       50
176
     1
 40
0.0
176
     1
 40
1.0
176
     1
 90
        0
176
     1
 62
    18
420
        0
176
     1
 90
       50
176
     1
 90
        3
176
     1
 62
     5
420
      255
176
     1
290
     0
176
     1
 90
       50
176
     1
 90
       50
176
     1
 90
       50
176
     1
290
     0
176
     1
 90
       50
176
     1
 62
   256
176
     0
 40
1.0
176
     0
 90
        2
176
     1
  1
strokes_ogs.tif
176
     1
290
     0
176
     1
 40
1.0
176
     1
 40
1.0
176
     1
  0
VISUALSTYLE
  5
37
102
{ACAD_REACTORS
330
2A
102
}
330
2A
100
AcDbVisualStyle
  2
Thicken
 70
    13
177
     3
291
     1
 70
    58
 90
        2
176
     1
 90
        2
176
     1
 90
        0
176
     1
 90
        0
176
     1
 40
0.6
176
     1
 40
30.0
176
     1
 62
     7
420
 16777215
176
     1
 90
        1
176
     1
 90
        4
176
     1
 62
     7
176
     1
 62
   257
176
     1
 90
        1
176
     1
 90
        1
176
     1
 40
1.0
176
     1
 90
       12
176
     1
 62
     7
176
     1
 40
1.0
176
     1
 90
        1
176
     1
 90
        6
176
     1
 90
        2
176
     1
 62
     7
176
     1
 90
        5
176
     1
 90
        0
176
     1
 90
        0
176
     1
290
     0
176
     1
 90
        1
176
     1
 40
0.0
176
     1
 90
        0
176
     1
290
     0
176
     1
290
     1
176
     1
290
     1
176
     1
290
     0
176
     1
290
     0
176
     1
290
     0
176
     1
290
     0
176
     1
290
     0
176
     1
290
     0
176
     1
 90
       50
176
     1
 40
0.0
176
     1
 40
1.0
176
     1
 90
        0
176
     1
 62
    18
420
        0
176
     1
 90
       50
176
     1
 90
        3
176
     1
 62
     5
420
      255
176
     1
290
     0
176
     1
 90
       50
176
     1
 90
       50
176
     1
 90
       50
176
     1
290
     0
176
     1
 90
       50
176
     1
 62
   256
176
     0
 40
1.0
176
     0
 90
        2
176
     1
  1
strokes_ogs.tif
176
     1
290
     0
176
     1
 40
1.0
176
     1
 40
1.0
176
     1
  0
VISUALSTYLE
  5
4C7
102
{ACAD_REACTORS
330
2A
102
}
330
2A
100
AcDbVisualStyle
  2
Wireframe
 70
     5
177
     3
291
     0
 70
    58
 90
        0
176
     1
 90
        2
176
     1
 90
        0
176
     1
 90
        0
176
     1
 40
0.6
176
     1
 40
30.0
176
     1
 62
     7
420
 16777215
176
     1
 90
        1
176
     1
 90
        4
176
     1
 62
     7
176
     1
 62
   257
176
     1
 90
        1
176
     1
 90
        1
176
     1
 40
1.0
176
     1
 90
        0
176
     1
 62
   257
176
     1
 40
1.0
176
     1
 90
        1
176
     1
 90
        6
176
     1
 90
        2
176
     1
 62
     7
176
     1
 90
        3
176
     1
 90
        0
176
     1
 90
        0
176
     1
290
     0
176
     1
 90
        1
176
     1
 40
0.0
176
     1
 90
        0
176
     1
290
     0
176
     1
290
     1
176
     1
290
     1
176
     1
290
     0
176
     1
290
     0
176
     1
290
     0
176
     1
290
     0
176
     1
290
     0
176
     1
290
     0
176
     1
 90
       50
176
     1
 40
0.0
176
     1
 40
1.0
176
     1
 90
        0
176
     1
 62
    18
420
        0
176
     1
 90
       50
176
     1
 90
        3
176
     1
 62
     5
420
      255
176
     1
290
     0
176
     1
 90
       50
176
     1
 90
       50
176
     1
 90
       50
176
     1
290
     0
176
     1
 90
       50
176
     1
 62
   256
176
     0
 40
1.0
176
     0
 90
        2
176
     1
  1
strokes_ogs.tif
176
     1
290
     0
176
     1
 40
1.0
176
     1
 40
1.0
176
     1
  0
VISUALSTYLE
  5
4CB
102
{ACAD_REACTORS
330
2A
102
}
330
2A
100
AcDbVisualStyle
  2
X-Ray
 70
    25
177
     3
291
     0
 70
    58
 90
        2
176
     1
 90
        2
176
     1
 90
        1
176
     1
 90
        1
176
     1
 40
0.5
176
     1
 40
30.0
176
     1
 62
     7
420
 16777215
176
     1
 90
        1
176
     1
 90
        0
176
     1
 62
     7
176
     1
 62
   257
176
     1
 90
        1
176
     1
 90
        1
176
     1
 40
1.0
176
     1
 90
        8
176
     1
 62
     7
176
     1
 40
1.0
176
     1
 90
        1
176
     1
 90
        6
176
     1
 90
        2
176
     1
 62
     7
176
     1
 90
        3
176
     1
 90
        0
176
     1
 90
        0
176
     1
290
     0
176
     1
 90
       13
176
     1
 40
0.0
176
     1
 90
        0
176
     1
290
     0
176
     1
290
     1
176
     1
290
     1
176
     1
290
     0
176
     1
290
     0
176
     1
290
     0
176
     1
290
     0
176
     1
290
     0
176
     1
290
     0
176
     1
 90
       50
176
     1
 40
0.0
176
     1
 40
1.0
176
     1
 90
        0
176
     1
 62
    18
420
        0
176
     1
 90
       50
176
     1
 90
        3
176
     1
 62
     5
420
      255
176
     1
290
     0
176
     1
 90
       50
176
     1
 90
       50
176
     1
 90
       50
176
     1
290
     0
176
     1
 90
       50
176
     1
 62
   256
176
     0
 40
1.0
176
     0
 90
        2
176
     1
  1
strokes_ogs.tif
176
     1
290
     0
176
     1
 40
1.0
176
     1
 40
1.0
176
     1
  0
DICTIONARYVAR
  5
312
102
{ACAD_REACTORS
330
30E
102
}
330
30E
100
DictionaryVariables
280
     0
  1
1:1
  0
DICTIONARYVAR
  5
310
102
{ACAD_REACTORS
330
30E
102
}
330
30E
100
DictionaryVariables
280
     0
  1
STANDARD
  0
DICTIONARYVAR
  5
30F
102
{ACAD_REACTORS
330
30E
102
}
330
30E
100
DictionaryVariables
280
     0
  1
STANDARD
  0
DICTIONARYVAR
  5
55A
102
{ACAD_REACTORS
330
30E
102
}
330
30E
100
DictionaryVariables
280
     0
  1
Imperial24
  0
DICTIONARYVAR
  5
55B
102
{ACAD_REACTORS
330
30E
102
}
330
30E
100
DictionaryVariables
280
     0
  1
Imperial24
  0
DICTIONARYVAR
  5
314
102
{ACAD_REACTORS
330
30E
102
}
330
30E
100
DictionaryVariables
280
     0
  1
1
  0
DICTIONARYVAR
  5
315
102
{ACAD_REACTORS
330
30E
102
}
330
30E
100
DictionaryVariables
280
     0
  1
15
  0
DICTIONARYVAR
  5
313
102
{ACAD_REACTORS
330
30E
102
}
330
30E
100
DictionaryVariables
280
     0
  1
0
  0
DICTIONARYVAR
  5
311
102
{ACAD_REACTORS
330
30E
102
}
330
30E
100
DictionaryVariables
280
     0
  1
0
  0
ACAD_PROXY_OBJECT
  5
2BD
102
{ACAD_REACTORS
330
2BC
102
}
330
2BC
100
AcDbProxyObject
 90
      499
 91
      546
 71
    29
 97
      226
 70
     0
162
                 0
161
                84
310
90100057356C1DB7406AAC
 94
        0
  0
DICTIONARY
  5
2C8
102
{ACAD_REACTORS
330
2BC
102
}
330
2BC
100
AcDbDictionary
281
     1
  3
ANSI
350
2C9
  0
ACAD_PROXY_OBJECT
  5
26C
330
0
100
AcDbProxyObject
 90
      499
 91
      511
 71
    29
 97
      226
 70
     0
162
               234
311
43904010C01340114014C016401340108013C0130014C01240168011400C
161
                34
310
000101420C
330
269
 94
        0
  0
ACAD_PROXY_OBJECT
  5
26E
330
0
100
AcDbProxyObject
 90
      499
 91
      513
 71
    29
 97
      226
 70
     0
162
                74
311
41108013C013400C400C
161
                46
310
00010100AC00
330
269
330
0
330
0
 94
        0
  0
ACAD_PROXY_OBJECT
  5
272
330
0
100
AcDbProxyObject
 90
      499
 91
      517
 71
    29
 97
      226
 70
     0
162
               562
311
41190018401D001940109310034002E0030002E00340038002E00300041190018401D001940109310034002E0030002E00340038002E003000419040138014C012400CC00C400C
161
                92
310
00010101010140501000096C
330
269
330
273
330
279
 94
        0
  0
ACAD_PROXY_OBJECT
  5
273
330
0
100
AcDbProxyObject
 90
      499
 91
      518
 71
    29
 97
      226
 70
     0
162
                 0
161
                56
310
0001902422000000
330
269
330
274
330
276
 94
        0
  0
ACAD_PROXY_OBJECT
  5
274
330
0
100
AcDbProxyObject
 90
      499
 91
      519
 71
    29
 97
      226
 70
     0
162
                 0
161
                48
310
0001AA000000B9
330
269
330
1E
330
275
330
0
 94
        0
  0
ACAD_PROXY_OBJECT
  5
275
330
0
100
AcDbProxyObject
 90
      499
 91
      520
 71
    29
 97
      226
 70
     0
162
                 0
161
                28
310
0001AAAC
330
269
 94
        0
  0
ACAD_PROXY_OBJECT
  5
276
330
0
100
AcDbProxyObject
 90
      499
 91
      519
 71
    29
 97
      226
 70
     0
162
                 0
161
                48
310
0001AA000000DC
330
269
330
26
330
277
330
0
 94
        0
  0
ACAD_PROXY_OBJECT
  5
277
330
0
100
AcDbProxyObject
 90
      499
 91
      520
 71
    29
 97
      226
 70
     0
162
                 0
161
                28
310
0001AAAC
330
269
 94
        0
  0
ACAD_PROXY_OBJECT
  5
27A
330
0
100
AcDbProxyObject
 90
      499
 91
      511
 71
    29
 97
      226
 70
     0
162
               138
311
42104013401200130010C01040130010C00C
161
                34
310
000101404C
330
269
 94
        0
  0
ACAD_PROXY_OBJECT
  5
27B
330
0
100
AcDbProxyObject
 90
      499
 91
      511
 71
    29
 97
      226
 70
     0
162
               170
311
429040134014801140154014C011401100124013400C
161
                34
310
000101404C
330
269
 94
        0
  0
ACAD_PROXY_OBJECT
  5
27C
330
0
100
AcDbProxyObject
 90
      499
 91
      511
 71
    29
 97
      226
 70
     0
162
               202
311
431040134014C0114010C01500124013C013801100124013400C
161
                26
310
0001018C
330
269
 94
        0
  0
ACAD_PROXY_OBJECT
  5
27D
330
0
100
AcDbProxyObject
 90
      499
 91
      511
 71
    29
 97
      226
 70
     0
162
               170
311
429040134015801400108013C014801100114014800C
161
                34
310
000101404C
330
269
 94
        0
  0
ACAD_PROXY_OBJECT
  5
27E
330
0
100
AcDbProxyObject
 90
      499
 91
      511
 71
    29
 97
      226
 70
     0
162
               170
311
4290401340110015C011C010C013C0130013C014800C
161
                26
310
0001018C
330
269
 94
        0
  0
ACAD_PROXY_OBJECT
  5
27F
330
0
100
AcDbProxyObject
 90
      499
 91
      511
 71
    29
 97
      226
 70
     0
162
               218
311
435040134015801240114015C01480114011801480114014C012000C
161
                34
310
000101404C
330
269
 94
        0
  0
ACAD_PROXY_OBJECT
  5
280
330
0
100
AcDbProxyObject
 90
      499
 91
      511
 71
    29
 97
      226
 70
     0
162
               266
311
441040134010401380138013C01500114014001480114014C011401480158011400C
161
                34
310
000101404C
330
269
 94
        0
  0
ACAD_PROXY_OBJECT
  5
281
330
0
100
AcDbProxyObject
 90
      499
 91
      511
 71
    29
 97
      226
 70
     0
162
               266
311
441040134010401540150013C01100124013401040148014801040138011C011400C
161
                34
310
000101404C
330
269
 94
        0
  0
ACAD_PROXY_OBJECT
  5
282
330
0
100
AcDbProxyObject
 90
      499
 91
      511
 71
    29
 97
      226
 70
     0
162
               186
311
42D04013401140160015001480114011801100124013400C
161
                26
310
0001018C
330
269
 94
        0
  0
ACAD_PROXY_OBJECT
  5
283
330
0
100
AcDbProxyObject
 90
      499
 91
      511
 71
    29
 97
      226
 70
     0
162
               186
311
42D040134015001040140010401380138013C0150011400C
161
                34
310
000101404C
330
269
 94
        0
  0
ACAD_PROXY_OBJECT
  5
284
330
0
100
AcDbProxyObject
 90
      499
 91
      511
 71
    29
 97
      226
 70
     0
162
               138
311
421040134010401540150013C010C013000C
161
                34
310
000101404C
330
269
 94
        0
  0
ACAD_PROXY_OBJECT
  5
285
330
0
100
AcDbProxyObject
 90
      499
 91
      511
 71
    29
 97
      226
 70
     0
162
               138
311
421040134010C0130011801140104015000C
161
                34
310
000101414C
330
269
 94
        0
  0
ACAD_PROXY_OBJECT
  5
286
330
0
100
AcDbProxyObject
 90
      499
 91
      511
 71
    29
 97
      226
 70
     0
162
               138
311
421040134010C0130015801240114015C00C
161
                34
310
0001014FCC
330
269
 94
        0
  0
ACAD_PROXY_OBJECT
  5
287
330
0
100
AcDbProxyObject
 90
      499
 91
      511
 71
    29
 97
      226
 70
     0
162
               218
311
4350401340120012401100114016801140148013C01100124013400C
161
                34
310
000101404C
330
269
 94
        0
  0
ACAD_PROXY_OBJECT
  5
288
330
0
100
AcDbProxyObject
 90
      499
 91
      511
 71
    29
 97
      226
 70
     0
162
               170
311
429040134012001040150010C01200124014C013C00C
161
                34
310
000101404C
330
269
 94
        0
  0
ACAD_PROXY_OBJECT
  5
289
330
0
100
AcDbProxyObject
 90
      499
 91
      511
 71
    29
 97
      226
 70
     0
162
               234
311
439040134014C01240138011C0130011401200104015001300104016400C
161
                26
310
0001018C
330
269
 94
        0
  0
ACAD_PROXY_OBJECT
  5
28A
330
0
100
AcDbProxyObject
 90
      499
 91
      511
 71
    29
 97
      226
 70
     0
162
               186
311
42D0401340110015C011C0118013001100124014C014000C
161
                26
310
0001018C
330
269
 94
        0
  0
ACAD_PROXY_OBJECT
  5
28B
330
0
100
AcDbProxyObject
 90
      499
 91
      511
 71
    29
 97
      226
 70
     0
162
               138
311
421040134010401540150013C0120013800C
161
                26
310
0001018C
330
269
 94
        0
  0
ACAD_PROXY_OBJECT
  5
28C
330
0
100
AcDbProxyObject
 90
      499
 91
      511
 71
    29
 97
      226
 70
     0
162
               154
311
42504013401200138010C013C01540138015000C
161
                34
310
000101404C
330
269
 94
        0
  0
ACAD_PROXY_OBJECT
  5
28D
330
0
100
AcDbProxyObject
 90
      499
 91
      511
 71
    29
 97
      226
 70
     0
162
               138
311
4210401340120013801400148013C012800C
161
                34
310
000101404C
330
269
 94
        0
  0
ACAD_PROXY_OBJECT
  5
28E
330
0
100
AcDbProxyObject
 90
      499
 91
      511
 71
    29
 97
      226
 70
     0
162
               138
311
42104013401200138015001640140011400C
161
                34
310
00010141CC
330
269
 94
        0
  0
ACAD_PROXY_OBJECT
  5
28F
330
0
100
AcDbProxyObject
 90
      499
 91
      511
 71
    29
 97
      226
 70
     0
162
               138
311
42104013401200138015801240114015C00C
161
                34
310
00010143CC
330
269
 94
        0
  0
ACAD_PROXY_OBJECT
  5
290
330
0
100
AcDbProxyObject
 90
      499
 91
      511
 71
    29
 97
      226
 70
     0
162
               218
311
435040134014C0114010C01500124013C0138010C013C0140016400C
161
                26
310
0001018C
330
269
 94
        0
  0
ACAD_PROXY_OBJECT
  5
291
330
0
100
AcDbProxyObject
 90
      499
 91
      511
 71
    29
 97
      226
 70
     0
162
               138
311
421040134010C013001400148013C012800C
161
                34
310
00010140CC
330
269
 94
        0
  0
ACAD_PROXY_OBJECT
  5
292
330
0
100
AcDbProxyObject
 90
      499
 91
      522
 71
    29
 97
      226
 70
     0
162
               234
311
439040134010401540150013C012001040150010C01200148013C015000C
161
                90
310
0001010000000000000B900C
330
269
 94
        0
  0
ACAD_PROXY_OBJECT
  5
293
330
0
100
AcDbProxyObject
 90
      499
 91
      511
 71
    29
 97
      226
 70
     0
162
               234
311
439040134010401540150013C012001040150010C012001100114015000C
161
                34
310
000101404C
330
269
 94
        0
  0
ACAD_PROXY_OBJECT
  5
2A2
330
0
100
AcDbProxyObject
 90
      499
 91
      531
 71
    29
 97
      226
 70
     0
162
               212
311
421040134010C01540148014C01500110010441004E0053004900C
161
                32
310
0001010100
330
269
 94
        0
  0
ACAD_PROXY_OBJECT
  5
2A4
330
0
100
AcDbProxyObject
 90
      499
 91
      533
 71
    29
 97
      226
 70
     0
162
              1192
311
4795C019401900080012801D401B8008000C400E4008000C000D000E800C000D800E800C000C4008000C800C000C400CC008000A001540150010C00A40109310034002E0030002E00340038002E0030004615C019401900080012801D401B8008000C400E4008000C400D000E800C000D800E800C000D0008000C800C000C4
311
00CC0109310034002E0030002E00340038002E00300000
161
               114
310
0001000000009AA6A9AA404040404C
330
269
330
2A5
330
2A6
330
2A8
330
0
 94
        0
  0
ACAD_PROXY_OBJECT
  5
2A5
330
0
100
AcDbProxyObject
 90
      499
 91
      534
 71
    29
 97
      226
 70
     0
162
                 0
161
                70
310
0001AAA80820000000
330
269
330
2A5
330
2A5
 94
        0
  0
ACAD_PROXY_OBJECT
  5
2A6
330
0
100
AcDbProxyObject
 90
      499
 91
      535
 71
    29
 97
      226
 70
     0
162
                 0
161
                48
310
0001000000006F
330
269
330
0
330
2A7
330
0
330
0
 94
        0
  0
ACAD_PROXY_OBJECT
  5
2A7
330
0
100
AcDbProxyObject
 90
      499
 91
      536
 71
    29
 97
      226
 70
     0
162
                 0
161
                40
310
000100AAAA00
330
269
330
0
 94
        0
  0
ACAD_PROXY_OBJECT
  5
2AD
330
0
100
AcDbProxyObject
 90
      499
 91
      531
 71
    29
 97
      226
 70
     0
162
               276
311
431040104010C013C01340140011001180138010401340114010443004F004D005000C
161
                32
310
0001010100
330
269
 94
        0
  0
ACAD_PROXY_OBJECT
  5
2AE
330
0
100
AcDbProxyObject
 90
      499
 91
      531
 71
    29
 97
      226
 70
     0
162
               340
311
4390401040118013C0130011001140148011001180138010401340114010646006F006C00640065007200C
161
                32
310
0001010100
330
269
 94
        0
  0
ACAD_PROXY_OBJECT
  5
2AF
330
0
100
AcDbProxyObject
 90
      499
 91
      531
 71
    29
 97
      226
 70
     0
162
               260
311
431040104010401380138013C01100118013801040134011401035F0041005600C
161
                32
310
0001010100
330
269
 94
        0
  0
ACAD_PROXY_OBJECT
  5
2B0
330
0
100
AcDbProxyObject
 90
      499
 91
      531
 71
    29
 97
      226
 70
     0
162
               756
311
439040104010C013C01340140015801240114015C01300124014C0150012054006F0070000A00460072006F006E0074000A00520069006700680074000A004C006500660074000A0042006F00740074006F006D000A004100750078003100C
161
                32
310
0001010100
330
269
 94
        0
  0
ACAD_PROXY_OBJECT
  5
2B1
330
0
100
AcDbProxyObject
 90
      499
 91
      511
 71
    29
 97
      226
 70
     0
162
               234
311
439040134014C014C0150014801040130015C01040164014C013C013800C
161
                26
310
0001018C
330
269
 94
        0
  0
ACAD_PROXY_OBJECT
  5
2B6
330
0
100
AcDbProxyObject
 90
      499
 91
      541
 71
    29
 97
      226
 70
     0
162
                 0
161
                32
310
0001000000
330
269
340
2B3
330
2B7
330
2B3
 94
        0
  0
ACAD_PROXY_OBJECT
  5
2B7
330
0
100
AcDbProxyObject
 90
      499
 91
      542
 71
    29
 97
      226
 70
     0
162
               202
311
431340104011C011C012401140080014801040138011C011400C
161
                80
310
0001014140155005540000
330
269
330
2B6
330
0
 94
        0
  0
ACAD_PROXY_OBJECT
  5
2B8
330
0
100
AcDbProxyObject
 90
      499
 91
      543
 71
    29
 97
      226
 70
     0
162
                 0
161
               178
310
000100AAAAAA866004B29D649A91640554CB15F27C504C
330
269
330
2B7
 94
        0
  0
ACAD_PROXY_OBJECT
  5
2B9
330
0
100
AcDbProxyObject
 90
      499
 91
      544
 71
    29
 97
      226
 70
     0
162
                 0
161
               108
310
0001901422000000000000AAAAAC
330
269
330
2BA
330
2BA
330
2BA
330
2BA
330
2BA
330
0
 94
        0
  0
ACAD_PROXY_OBJECT
  5
2BA
330
0
100
AcDbProxyObject
 90
      499
 91
      545
 71
    29
 97
      226
 70
     0
162
                 0
161
                51
310
00010000AAAA8C
330
269
330
2B9
330
2B7
 94
        0
  0
DICTIONARY
  5
263
102
{ACAD_REACTORS
330
262
102
}
330
262
100
AcDbDictionary
281
     1
  3
DWGSETTINGS
350
264
  3
TRANSSETTINGS
350
265
  0
ACAD_PROXY_OBJECT
  5
2DC
102
{ACAD_REACTORS
330
262
102
}
330
262
100
AcDbProxyObject
 90
      499
 91
      570
 71
    29
 97
      226
 70
     0
162
             15824
311
404C0010441004D005F0030009013100411040134017C00C402404C8010441004D005F0032009013300411040134017C00CC02404D0010441004D005F0034009013500411040134017C00D402404D8010441004D005F0036009013700411040134017C00DC02404E0010441004D005F0038009013900411040134017C00E40
311
2408C80104010541004D005F003100300090234004100415040134017C00C400C402409240140010541004D005F003100320090230004E00415040134017C00C0013802408C40138010541004D005F0031004E0090232004E00415040134017C00C8013802408CC0138010541004D005F0033004E0090234004E0041504013
311
4017C00D0013802408D40138010541004D005F0035004E0090236004E00415040134017C00D8013802408DC0138010541004D005F0037004E0090238004E00415040134017C00E0013802408E40138010541004D005F0039004E00903320041004E00419040134017C00C400C001380240CD001040138010641004D005F003
311
10031004E00903490050004E00419040134017C00C400C80138024112C013001240138010541004D005F0043004C0090449004E0046004F00421040134017C01400104014801140118024154801040120013400D4010641004D005F0042004F0052009045600490045005700421040134017C015801240114015C014C02419
311
0801140120012401380110010641004D005F0049004E00560090554005200410049004C00415040134017C015001480240D2001240110010641004D005F00480049004400903560049005300419040134017C01580124014C024194001040148011001240134010941004D005F00500041005200440049004D009065200450
311
04600440049004D00425040134017C01480114011801100124013402411080120013801580101390041508012001380158014C010642004500480049004E00440041108013C014800C801055200410048004D00350041108013C014800CC01055200410048004D00350041108013C014800D401055200410048004D0035004
311
110C0104013000C8010134004110C0104013000CC010134004110C0104013000D4010134004110C0104013000DC010134004110C011401380138010137004110C01140138015C010137004110C01300124013801044B004C0049004E004110C013C013800C4010130004110C013C013800C8010131004110C013C013800CC0
311
10132004110C013C013800D00101320041110011401500104010134004111001240104011C010135004111001240130012401013500411100124013401400106500041005200440049004D00411100124013401480106520045004600440049004D00411180114013401380101380041518011401340140013801013800415
311
1801140134014C01400102340041004151801140134014C015001023400410041518011401340158013801013200415180114013401580150010132004112001040150010C0101380041120012401100138010133004112001240110015C01013300411200130012401380101340041120013C010C01380101370041120013
311
C010C015C010137004112401380118013C010449004E0046004F00411300114010401100101350041938017C0108012001380158010239004E0041938017C010C013C013800C4010230004E0041938017C010C013C013800C8010231004E0041938017C010C013C013800CC010232004E0041938017C010C013C013800D001
311
0232004E0041938017C010C011401380138010237004E0041938017C010C01140138015C010237004E0041938017C0110012401300124010235004E0041938017C012001040150010C010238004E0041938017C0120012401100138010233004E0041938017C012001240110015C010233004E0041938017C0130011401040
311
110010235004E0041938017C0138011C012401400103490050004E0041938017C01400120010401380103340041004E0041938017C0150010C013C0138010230004E0041938017C0150012001300124010234004E0041938017C0150013001140138010230004E0041938017C01580140013001240103320041004E0041138
311
011C01240140010249005000411400104013000C801055200410048004D003500411400104013000CC01055200410048004D003500411400104013000D401055200410048004D0035004114001200104013801023400410041140013C014C01380101350041148010C011C01380101370041148010C011C015C01013700411
311
4C01080148012C010134004114C0114010C0150010134004114C0164010800CC0101350041134014C016401340101350041150010C013C0138010130004115001200130012401013400411500124015000C801055200410048004D003500411500124015000CC01055200410048004D003500411500124015000D401055200
311
410048004D0035004115001300114013801013000415500148010401240130010554005200410049004C004115001480130012401013400411500160015000C401013600411500160015000C801013600411500160015000CC01013600411500160015000D401013600411500160015000DC010136004115801240114015C0
311
1045600490045005700411580114011001200103480049004400411580114011001580103560049005300411580140013001240102320041004116801240168010401013400404FC0200
161
              8940
310
4210349201C00030C011E44203800030C011E44201400030C011E44201800030C010FA17000030C010FA17000030C010FA23000030C011EA23800030C010FA00400030C010FA3F400030C0241201C00030C011EA17000030C010FA01C00030C011E40A01C00030C011EA03800030C011EA01400030C011EA01800030C010FA
310
17000030C010FA17000030C010FA23000030C011EA23800030C010FA00400030C010FA3F400030C0241201C00030C011EA17000030C010FA01C00030C011E40A00400030C010F42623800030C010F42E01C00030C011E42600400030C010F42E3F400030C0243617000030C010F42601C00030C010F42601C00030C011E426
310
17000030C010F42623800030C010F425538000000C0003FFFFFFFE8000000C0003FFFFFFFE8010000C30043E88C0000C30047A8000000C0003FFFFFFFE8000000C0003FFFFFFFE88C0000C30047A8070000C30047A81E0000C3004F28000000C0003FFFFFFFE8000000C0003FFFFFFFE8000000C0003FFFFFFFE8000000C00
310
03FFFFFFFD038000000C0003FFFFFFFD038000000C0003FFFFFFFD038000000C0003FFFFFFFD038000000C0003FFFFFFFE8000000C0003FFFFFFFE8000000C0003FFFFFFFE8000000C0003FFFFFFFE8000000C0003FFFFFFFE8000000C0003FFFFFFFE85C0000C3003FFFFFFFE8000000C0003FFFFFFFE85C0000C30043E80
310
00000C0003FFFFFFFE85C0000C30043E8000000C0003FFFFFFFD018000000C0003FFFFFFFD038000000C0003FFFFFFFD038000000C0003FFFFFFFD018000000C0003FFFFFFFE8000000C0003FFFFFFFE8000000C0003FFFFFFFE8000000C0003FFFFFFFE8000000C0003FFFFFFFE8000000C0003FFFFFFFD038000000C0003
310
FFFFFFFD038000000C0003FFFFFFFD038000000C0003FFFFFFFD038000000C0003FFFFFFFE8000000C0003FFFFFFFE8000000C0003FFFFFFFE8000000C0003FFFFFFFD018000000C0003FFFFFFFD038000000C0003FFFFFFFD038000000C0003FFFFFFFE8000000C0003FFFFFFFE8000000C0003FFFFFFFE8000000C0003FF
310
FFFFFD038000000C0003FFFFFFFD018000000C0003FFFFFFFD038000000C0003FFFFFFFE8000000C0003FFFFFFFE8010000C3003FFFFFFFE88C0000C3003FFFFFFFE8070000C3003FFFFFFFE8000000C0003FFFFFFFE8000000C0003FFFFFFFE8000000C0003FFFFFFFE8000000C0003FFFFFFFE8070000C30047901800000
310
0C0003FFFFFFFD0188C0000C30047A88C0000C3003FFFFFFFE8000000C0003FFFFFFFD038000000C0003FFFFFFFD018010000C30043E88C0000C30047A8000000C0003FFFFFFFE8000000C0003FFFFFFFD038000000C0003FFFFFFFE8000000C0003FFFFFFFD0185C0000C30043E85C0000C30043E8000000C0003FFFFFFFE
310
8070000C30047A81E0000C3004F28000000C0003FFFFFFFE8000000C0003FFFFFFFD028000000C0003FFFFFFFD028000000C0003FFFFFFFE8000000C0003FFFFFFFD01AAA3F400030C010A4391E41D1E4190F4151E4110F40D0F4091E4050F4793C7F680200C
340
16
340
16
340
16
340
294
340
16
340
16
340
16
340
296
340
16
340
16
340
295
340
295
340
16
340
16
340
16
340
16
340
294
340
16
340
16
340
16
340
296
340
16
340
16
340
295
340
295
340
16
340
2E0
340
16
340
16
340
16
340
16
340
16
340
294
340
16
340
16
340
16
340
15
340
15
340
15
340
15
340
15
340
15
340
15
340
15
340
15
340
2E6
340
15
340
15
340
15
340
15
340
15
340
15
340
16
340
15
340
15
340
15
340
15
340
15
340
15
340
16
340
15
340
15
340
15
340
15
340
2E7
340
15
340
15
340
2E6
340
15
340
15
340
15
340
15
340
15
340
15
340
15
340
15
340
2E6
340
15
340
15
340
15
340
2E7
340
15
340
15
340
15
340
15
340
15
340
2E7
340
15
340
15
340
15
340
16
340
16
340
16
340
15
340
15
340
2E6
340
15
340
15
340
15
340
15
340
15
340
15
340
2E7
340
15
340
15
340
15
340
15
340
15
340
15
340
15
340
15
340
15
340
15
340
15
340
15
340
15
340
15
340
15
340
2E8
 94
        0
  0
DICTIONARY
  5
30C
330
22
100
AcDbDictionary
280
     1
281
     1
  0
DICTIONARY
  5
226
330
225
100
AcDbDictionary
280
     1
281
     1
  3
BUMPTILE
360
228
  3
DIFFUSETILE
360
227
  3
OPACITYTILE
360
22B
  3
REFLECTIONTILE
360
22A
  3
REFRACTIONTILE
360
22C
  3
SPECULARTILE
360
229
  0
DICTIONARY
  5
21E
330
21D
100
AcDbDictionary
280
     1
281
     1
  3
BUMPTILE
360
220
  3
DIFFUSETILE
360
21F
  3
OPACITYTILE
360
223
  3
REFLECTIONTILE
360
222
  3
REFRACTIONTILE
360
224
  3
SPECULARTILE
360
221
  0
DICTIONARY
  5
22E
330
22D
100
AcDbDictionary
280
     1
281
     1
  3
BUMPTILE
360
230
  3
DIFFUSETILE
360
22F
  3
OPACITYTILE
360
233
  3
REFLECTIONTILE
360
232
  3
REFRACTIONTILE
360
234
  3
SPECULARTILE
360
231
  0
DICTIONARY
  5
5C2
330
239
100
AcDbDictionary
280
     1
281
     1
  3
ACAD_ROUNDTRIP_2008_TABLESTYLE_CELLSTYLEMAP
360
5C3
  0
ACAD_PROXY_OBJECT
  5
2C9
102
{ACAD_REACTORS
330
2C8
102
}
330
2C8
100
AcDbProxyObject
 90
      499
 91
      554
 71
    29
 97
      226
 70
     0
162
              3734
311
411040138014C01240243904018C01B4014C01D401C801980150019401E001D0014C01D001900109410063006D0046004300460053007400640043504018C01B4015C019401B0019001A401B8019C014C01D001900108410063006D004900640053007400640042D04018C01B40110018401D001D401B4014C01D001900109
311
410063006D0042004F004D005300740064004410401B4019001D00110019401D0018401A401B0014C01E401B4014C01D00190011141006D0064007400530065006300740069006F006E00530079006D005300740064004450401B4019001D0010C019401B801D0019401C8013001A401B80194014C01D00190011141006D00
311
640074005400680072006500610064004C0069006E00650053007400640042D0401B4019001D0013801BC01D00194014C01D00190010B410063006D00540061007000650072005300740064004350401B4019001D0010401B8015801A4019401DC014C01D00190010B4100630041006D0067004C0061007900530074006400
311
42D04018C010401B4019C011001A401B4014C01D0019001114100630041006D00670048006F006C0065004300680061007200740053007400640043504018C010401B4019C015001A401D001B00194014C01D0019000
161
               725
310
6DCB81E85EB51B8BE3F8000000C00040540623000030C0200000030000B81E85EB51B8BE3F495222812028120281202812028120281202812028120281202812028120281202812028120281202812028120280A04809FFFE7FFFC
340
11
360
2CA
360
2CB
360
2CC
360
2CD
360
2CE
360
2CF
360
2D0
360
2D1
360
2D2
360
2D3
360
2D4
360
2D5
360
2D6
360
2D7
360
2D8
360
2F2
360
2F3
340
2D9
340
0
340
15
340
15
 94
        0
  0
ACAD_PROXY_OBJECT
  5
264
102
{ACAD_REACTORS
330
263
102
}
330
263
100
AcDbProxyObject
 90
      499
 91
      507
 71
    29
 97
      226
 70
     0
162
              4140
311
42D10015C011C014C01140150015001240138011C014C0109430041004E00470041005200520041005900420CC00C001F000D000D401F000D800C00106430045004E0041004E004700424D000D401F000E400C001F000C400CC00D40106430045004E0044004900410041D0C01140138011001240104014C010B30002E0035
311
007C0031002E0030007C0031002E00350041D0C0114013801100124014C01500106430045004E004C0045004E004190C01140138013C01180118010E4300480041004D00460045005200440049004D004D004F00440045004550C0120010401340118011401480110012401340134013C01100114011001140118010401540
311
1300150010943004C0049004E0041005200520041005900438C000B800C400C800D401F000C000B800C800D401F000C000B800D4010843004C0049004E004500540059005000415600130012401380114010944005700470055005300430041004C00450041D300104014C0150013C0108012801013000421340104012C011
311
4015801240114015C010650005300430041004C00450041948011401580124014C0124010130004154C010C010401300114010331003A00310042550012401340114014C01500104013401400107560045005200530049004F004E00414C400D400B800C000C001107B00440057004700530045005400540049004E0047005
311
30045004E0044007D00C
161
               572
310
40682A0A940000000000001C07E82A50000000000000601FA50000000000000701FA50000000000000701FA7F27F20A82A50A0A9FA040C0080001054152819F9CFECACCC9CD0505C
 94
        0
  0
ACAD_PROXY_OBJECT
  5
265
102
{ACAD_REACTORS
330
263
102
}
330
263
100
AcDbProxyObject
 90
      499
 91
      507
 71
    29
 97
      226
 70
     0
162
              1382
311
43550014801040138014C014C01140150015001240138011C014C0112440052004100570049004E0047005400520041004E0053004C004100540049004F004E004353C01480124011C012401380104013001300164017C013C0138010A53004F0055005200430045004C0041004E00470040D1401380154010955005000520
311
0450053004500520056004500441EC0110015C011C014C01140150015001240138011C014C01140138011001F400
161
               126
310
4060C00800041801000020A0C0080000
 94
        0
  0
XRECORD
  5
228
102
{ACAD_REACTORS
330
226
102
}
330
226
100
AcDbXrecord
280
     1
270
     1
271
     1
  0
XRECORD
  5
227
102
{ACAD_REACTORS
330
226
102
}
330
226
100
AcDbXrecord
280
     1
270
     1
271
     1
  0
XRECORD
  5
22B
102
{ACAD_REACTORS
330
226
102
}
330
226
100
AcDbXrecord
280
     1
270
     1
271
     1
  0
XRECORD
  5
22A
102
{ACAD_REACTORS
330
226
102
}
330
226
100
AcDbXrecord
280
     1
270
     1
271
     1
  0
XRECORD
  5
22C
102
{ACAD_REACTORS
330
226
102
}
330
226
100
AcDbXrecord
280
     1
270
     1
271
     1
  0
XRECORD
  5
229
102
{ACAD_REACTORS
330
226
102
}
330
226
100
AcDbXrecord
280
     1
270
     1
271
     1
  0
XRECORD
  5
220
102
{ACAD_REACTORS
330
21E
102
}
330
21E
100
AcDbXrecord
280
     1
270
     1
271
     1
  0
XRECORD
  5
21F
102
{ACAD_REACTORS
330
21E
102
}
330
21E
100
AcDbXrecord
280
     1
270
     1
271
     1
  0
XRECORD
  5
223
102
{ACAD_REACTORS
330
21E
102
}
330
21E
100
AcDbXrecord
280
     1
270
     1
271
     1
  0
XRECORD
  5
222
102
{ACAD_REACTORS
330
21E
102
}
330
21E
100
AcDbXrecord
280
     1
270
     1
271
     1
  0
XRECORD
  5
224
102
{ACAD_REACTORS
330
21E
102
}
330
21E
100
AcDbXrecord
280
     1
270
     1
271
     1
  0
XRECORD
  5
221
102
{ACAD_REACTORS
330
21E
102
}
330
21E
100
AcDbXrecord
280
     1
270
     1
271
     1
  0
XRECORD
  5
230
102
{ACAD_REACTORS
330
22E
102
}
330
22E
100
AcDbXrecord
280
     1
270
     1
271
     1
  0
XRECORD
  5
22F
102
{ACAD_REACTORS
330
22E
102
}
330
22E
100
AcDbXrecord
280
     1
270
     1
271
     1
  0
XRECORD
  5
233
102
{ACAD_REACTORS
330
22E
102
}
330
22E
100
AcDbXrecord
280
     1
270
     1
271
     1
  0
XRECORD
  5
232
102
{ACAD_REACTORS
330
22E
102
}
330
22E
100
AcDbXrecord
280
     1
270
     1
271
     1
  0
XRECORD
  5
234
102
{ACAD_REACTORS
330
22E
102
}
330
22E
100
AcDbXrecord
280
     1
270
     1
271
     1
  0
XRECORD
  5
231
102
{ACAD_REACTORS
330
22E
102
}
330
22E
100
AcDbXrecord
280
     1
270
     1
271
     1
  0
CELLSTYLEMAP
  5
5C3
102
{ACAD_REACTORS
330
5C2
102
}
330
5C2
100
AcDbCellStyleMap
 90
        3
300
CELLSTYLE
  1
TABLEFORMAT_BEGIN
 90
        5
170
     1
 91
        0
 92
    32768
 62
   257
 93
        1
300
CONTENTFORMAT
  1
CONTENTFORMAT_BEGIN
 90
        0
 91
        0
 92
      512
 93
        0
300

 40
0.0
140
1.0
 94
        5
 62
     0
340
11
144
0.25
309
CONTENTFORMAT_END
171
     0
 94
        0
309
TABLEFORMAT_END
  1
CELLSTYLE_BEGIN
 90
        1
 91
        1
300
_TITLE
309
CELLSTYLE_END
300
CELLSTYLE
  1
TABLEFORMAT_BEGIN
 90
        5
170
     1
 91
        0
 92
        0
 62
   257
 93
        1
300
CONTENTFORMAT
  1
CONTENTFORMAT_BEGIN
 90
        0
 91
        0
 92
      512
 93
        0
300

 40
0.0
140
1.0
 94
        5
 62
     0
340
11
144
0.18
309
CONTENTFORMAT_END
171
     0
 94
        0
309
TABLEFORMAT_END
  1
CELLSTYLE_BEGIN
 90
        2
 91
        1
300
_HEADER
309
CELLSTYLE_END
300
CELLSTYLE
  1
TABLEFORMAT_BEGIN
 90
        5
170
     1
 91
        0
 92
        0
 62
   257
 93
        1
300
CONTENTFORMAT
  1
CONTENTFORMAT_BEGIN
 90
        0
 91
        0
 92
      512
 93
        0
300

 40
0.0
140
1.0
 94
        2
 62
     0
340
11
144
0.18
309
CONTENTFORMAT_END
171
     0
 94
        0
309
TABLEFORMAT_END
  1
CELLSTYLE_BEGIN
 90
        3
 91
        2
300
_DATA
309
CELLSTYLE_END
  0
ACAD_PROXY_OBJECT
  5
2CA
330
2C9
100
AcDbProxyObject
 90
      499
 91
      555
 71
    29
 97
      226
 70
     0
162
                 0
161
               423
310
6DCB81E85EB51B8BE3F2E07A17AD46E2F8FE23000030C02000000300012AF841D01405014050140501083C80A0481A0882A0D55554
 94
        0
  0
ACAD_PROXY_OBJECT
  5
2CB
330
2C9
100
AcDbProxyObject
 90
      499
 91
      556
 71
    29
 97
      226
 70
     0
162
                 0
161
               567
310
6DCB81E85EB51B8BE3F2E07A17AD46E2F8FE23000030C02000000300012AFA1C80A0280A0280A0280A0280A0280A0280A0284A0280A0280A0280A0280A02400000000000000080
340
2F5
 94
        0
  0
ACAD_PROXY_OBJECT
  5
2CC
330
2C9
100
AcDbProxyObject
 90
      499
 91
      557
 71
    29
 97
      226
 70
     0
162
                 0
161
               648
310
6DCB81E85EB51B8BE3F2E07A17AD46E2F8FE23000030C02000000300012AF98333333333333D33F24080A0280A0280A0280A0280A0280A0280A0280A0280A0280A0280A0280A0280A0280A0280A0280A0200
340
0
 94
        0
  0
ACAD_PROXY_OBJECT
  5
2CD
330
2C9
100
AcDbProxyObject
 90
      499
 91
      558
 71
    29
 97
      226
 70
     0
162
                 0
161
               245
310
6DCB81E85EB51B8BE3F2E07A17AD46E2F8FE23000030C02000000300012AFC
 94
        0
  0
ACAD_PROXY_OBJECT
  5
2CE
330
2C9
100
AcDbProxyObject
 90
      499
 91
      559
 71
    29
 97
      226
 70
     0
162
                 0
161
               492
310
6DCB81E85EB51B8BE3F2E07A17AD46E2F8FE23000030C02000000300012AFC521D4454FB21E93F26A6666666666E4FE89A9999999999B93F88C0000C300C
340
2F6
340
2F7
 94
        0
  0
ACAD_PROXY_OBJECT
  5
2CF
330
2C9
100
AcDbProxyObject
 90
      499
 91
      560
 71
    29
 97
      226
 70
     0
162
             23548
311
4112401500114013401044900540045004D004CD1C01140138015001480104010C013C00B001140138015400B000C000B0012401500114013400B0011C011401380150014801040150016000B0009401CC00B000A0011C011401380134014C011C0080019C019401B8019001DC019C008000C800C800C800A4029035100540
311
0590040D44015001640132470045004E0054005200410043004F002C0045004E0055002C0030002C005100540059002C00470045004E00540052004100540058002C00250073002C002800470045004E004D00530047002000670065006E0064007700670020003200320033002900A4113801040134011401044E0041004D
311
0045004CD1C01140138015001480104010C013C00B001140138015400B000C000B0013801040134011400B0011C011401380150014801040150016000B0009401CC00B000A0011C011401380134014C011C0080019C019401B8019001DC019C008000C800C800D800A4012C3D004900460028004900530042004C0041004E0
311
04B00280050004100520054003A004E0041004D00450029002C0042004C004F0043004B003A004E0041004D0045002C0050004100520054003A004E0041004D00450029009054400450053004300520042D100114014C010C01480124014001500124013C0138013A470045004E0054005200410043004F002C0045004E005
311
5002C0030002C004400450053004300520049005000540049004F004E002C00470045004E00540052004100540058002C00250073002C002800470045004E004D00530047002000670065006E0064007700670020003200310037002900A4214C015001040138011001040148011001085300540041004E004400410052004
311
4004DD1C01140138015001480104010C013C00B001140138015400B000C000B0014C015001040138011001040148011000B0011C011401380150014801040150016000B0009401CC00B000A0011C011401380134014C011C0080019C019401B8019001DC019C008000C800C400E000A4029084D00410054004500520049004
311
1004C004213401040150011401480124010401300137470045004E0054005200410043004F002C0045004E0055002C0030002C004D004100540045005200490041004C002C00470045004E00540052004100540058002C00250073002C002800470045004E004D00530047002000670065006E006400770067002000320032
311
0031002900A41138013C0150011401044E004F00540045004CD1C01140138015001480104010C013C00B001140138015400B000C000B00138013C0150011400B0011C011401380150014801040150016000B0009401CC00B000A0011C011401380134014C011C0080019C019401B8019001DC019C008000C800C800D400A40
311
2906560045004E0044004F00520041958011401380110013C01480135470045004E0054005200410043004F002C0045004E0055002C0030002C00560045004E0044004F0052002C00470045004E00540052004100540058002C00250073002C002800470045004E004D00530047002000670065006E0064007700670020003
311
200320034002900A419100114014C010C014800C8010D4400450053004300520049005000540049004F004E00200032004ED1C01140138015001480104010C013C00B001140138015400B000C000B001100114014C010C01480124014001500124013C0138008000C800B0011C011401380150014801040150016000B00094
311
01CC00B000A0011C011401380134014C011C0080019C019401B8019001DC019C008000CC00D800A4029095300540041004E00440041005200440032004294C0150010401380110010401480110008000C80139470045004E0054005200410043004F002C0045004E0055002C0030002C005300540041004E00440041005200
311
4400200032002C00470045004E00540052004100540058002C00250073002C002800470045004E004D00530047002000670065006E0064007700670020003200320030002900A42534010401500114014801240104013000C8010A4D004100540045005200490041004C00200032004E11C01140138015001480104010C013
311
C00B001140138015400B000C000B001340104015001140148012401040130008000C800B0011C011401380150014801040150016000B0009401CC00B000A0011C011401380134014C011C0080019C019401B8019001DC019C008000D000C000A4029044D00410053005300411340104014C014C0132470045004E005400520
311
0410043004F002C0045004E0055002C0030002C004D004100530053002C00470045004E00540052004100540058002C00250073002C002800470045004E004D00530047002000670065006E006400770067002000340032002900A4154001480124010C01140105500052004900430045004CD1C0114013801500148010401
311
0C013C00B001140138015400B000C000B0014001480124010C011400B0011C011401380150014801040150016000B0009401CC00B000A0011C011401380134014C011C0080019C019401B8019001DC019C008000D000CC00A402903440049004D0042D3401140104014C01540148011401340114013801500139470045004E
311
0054005200410043004F002C0045004E0055002C0030002C004D004500410053005500520045004D0045004E0054002C00470045004E00540052004100540058002C00250073002C002800470045004E004D00530047002000670065006E006400770067002000340034002900A42508013C0134017C015401380124015001
311
4C010555004E004900540053004D11C01140138015001480104010C013C00B001140138015400B000C000B00154013801240150014C00B0011C011401380150014801040150016000B0009401CC00B000A0011C011401380134014C011C0080019C019401B8019001DC019C008000C800D000CC00A4029073D003C00490054
311
0045004D003E0041CF400F0012401500114013400F801073D003C004900540045004D003E0041CF400F0012401500114013400F801073D003C004900540045004D003E00418F400F001440150016400F801073D003C004900540045004D003E0041CF400F0012401500114013400F802AAA404C40242D94018400240194018
311
4002401140184018C01A000280115730071006D000900730071006D00090053007100750061007200650020004D0065007400650072000A00471CC01C4018C01B4002401CC01C4018C01B40024014C01C401D4018401C801940080010C019401B801D001A401B4019401D0019401C800280116730071006600740009007300
311
7100660074000900530071007500610072006500200046006F006F0074000A00451CC01C401A401B8002401CC01C401A401B80024014C01C401D4018401C801940080012401B80028010F670061006C000900670061006C000900470061006C006C006F006E000A00431C401D0002401C401D00024014401D4018401C801D0
311
0028011B6C00710064005F006F007A0009006C00710064005F006F007A0009004C006900710075006900640020004F0075006E00630065000A00429B0002401B00024013001A401D0019401C8002801116D006C0009006D006C0009004D0069006C006C0069006C0069007400650072000A0042DE40190002401E401900024
311
0164018401C801900028010B66007400090066007400090046006F006F0074000A0042DA401B8002401A401B80024012401B8018C01A00028010A6D0009006D0009004D0065007400650072000A004458C01B40024018C01B40024010C019401B801D001A401B4019401D0019401C8002801116D006D0009006D006D000900
311
4D0069006C006C0069006D0065007400650072000A00431B00188002401B001880024014001BC01D401B801900028010C6F007A0009006F007A0009004F0075006E00630065000A004259C0024019C0024011C01C8018401B4002801106D00670009006D00670009004D0069006C006C0069006700720061006D000A004298
311
801E00024018801E00024010801BC01E0002801012D00C
161
              6487
310
6DCB81E85EB51B8BE3F2E07A17AD46E2F8FE23000030C02000000300012AFA1E80A0280A0280A0280D202269349E4B2196C9FA0320240501405014090140501405019011349A4F2590CB64FD0190120280A0280A3880C80C815174B85D2F97CA048080C80901405014051D40640640E883C16030180C064040440480A0280A
310
028EA0320320947077FBFDFEBF7F9FA02202405014050147501901905A0A0B6C1C7480BECFD0190120280A0280A3A80C80C835174B85D2F97CBE47E80C80901405014051D40640641E8BA5C2E97CBE5F23F40640480A0280A028EA03203211441E0B0180C060320202202405014050147501901909A383BFDFEFF5FBFCFD01
310
10120280A0280A3A80C80C8550505B60E3A405F67E80880901405014051D405024050242D03408BA5C2E97CBE5F23F40440480A0280A028EA028120281218812045D2E174BE5F2F91FA02202405014050147501409014090D40D022E970BA5F2F97C8FD0190120280A0280A3C80C80C875174B85D2F97CBE47E80C80901405
310
0F4A9022E07A17AD46E338FE07800030C0001018ACD56AB55AADF63F2B355AAD56AB7D8FD014062B355AAD56AB7D8FCACD56AB55AADF63F40501890C7E3F1783CEE3F2431F8FC5E0F3B8FD014062431F8FC5E0F3B8FC90C7E3F1783CEE3F405029012B355AAD56AB7D8FCACD56AB55AADF63F405014062B355AAD56AB7D8FC
310
ACD56AB55AADF63F4050184D2693C96432E93F1349A4F2590CBA4FD0140400ACD56AB55AADF63F2B355AAD56AB7D8FE90800000000000020810000001800169FFFE8220681A048120280A20852108820321480C8452028521485214814000000000000F0BF0000000000003C2FD0188C0000C3008070000C3003673BDD4F8E
310
96ACFCD9CEF753E3A5AB3F3673BDD4F8E96ACFCAAF1D24D6210A83F0EF7D3E365DBA48FCAAF1D24D6210A83F3673BDD4F8E96ACFCAAF1D24D6210A83F0EF7D3E365DBA48FCAAF1D24D6210A83F2E07A17AD46E2F8FE80A028120D2028120A83A0C80D2E07A17AD46E2F8FE23000030C0223000030C0200400030C00A45102F
310
E7FFF9FFFE7FFF901405014550140501405014050140501405014050140501405014050140501901A0C8120A8320E86A1C
340
15
340
0
340
11
340
11
340
16
340
16
340
16
 94
        0
  0
ACAD_PROXY_OBJECT
  5
2D0
330
2C9
100
AcDbProxyObject
 90
      499
 91
      561
 71
    29
 97
      226
 70
     0
162
               762
311
4BCF4011001140150010401240130008000F0011001140150010401240130017C0130010401080114013000F801700140014C010C010401300114008000F0011001140150010401240130017C01040108014C014C010C01040130011400F800C
161
               658
310
6DCB81E85EB51B8CE3F2E07A17AD46E338FE07800030C020000003000123C820E4D4CCCCCCCCCDC9F9353333333333927E000000000000701FA00000000000000200000000000000288000000000000012204C
340
16
340
11
 94
        0
  0
ACAD_PROXY_OBJECT
  5
2D1
330
2C9
100
AcDbProxyObject
 90
      499
 91
      562
 71
    29
 97
      226
 70
     0
162
               826
311
4CCF4014C0114010C01500124013C0138008000F0014C0114010C01500124013C0138017C01300104010801140130017C011801240148014C015000F800B400F0014C0114010C01500124013C0138017C01300104010801140130017C01300104014C015000F800C
161
               473
310
6DCB81E85EB51B8CE3F2E07A17AD46E338FE07800030C02000000300012AE00726A666666666764FC7FFFC000000600009A9999999999D93FA7FFFCC
340
15
340
11
 94
        0
  0
ACAD_PROXY_OBJECT
  5
2D2
330
2C9
100
AcDbProxyObject
 90
      499
 91
      563
 71
    29
 97
      226
 70
     0
162
                 0
161
               507
310
6DC000000000000F0BF0000000000003C2FE000000320020000003200200570E2DB39DEF867E14AE47E17A945E1F852B91F85EA51787F4333333333333F33FAC
 94
        0
  0
ACAD_PROXY_OBJECT
  5
2D3
330
2C9
100
AcDbProxyObject
 90
      499
 91
      564
 71
    29
 97
      226
 70
     0
162
                 0
161
               241
310
6DC000000000000F0BF0000000000003C2FE000000320020000003200204CC
340
0
 94
        0
  0
ACAD_PROXY_OBJECT
  5
2D4
330
2C9
100
AcDbProxyObject
 90
      499
 91
      565
 71
    29
 97
      226
 70
     0
162
             13376
311
42950019401B401C001B0018401D00194008000C40005013D003C0069006600280065007100750061006C00280048006F006C0065003A007400610070007000650064002C0022003000220029002C00220025002500630022002C0048006F006C0065003A006E006F006D0069006E0061006C0020002200200022002000690
311
06600280065007100750061006C00280048006F006C0065003A0075006E006900740073002C0022003100220029002C002200780022002C0022002D0022002900200022002000220029003E003C0069006600280065007100750061006C00280048006F006C0065003A007400610070007000650064002C002200300022002
311
9002C0048006F006C0065003A006400690061002C0048006F006C0065003A0070006900740063006800640065007300630029003E0020007B005C00460041004D004700440054003B0078007D0020003C0069006600280065007100750061006C00280048006F006C0065003A007400650072006D0069006E0061007400690
311
06F006E002C0022003000220029002C0048006F006C0065003A00640065007000740068002C0022005400480052005500220029003E005C0050007B005C00460041004D004700440054003B0076007D002500250063003C0048006F006C0065003A00630074006400690061003E0020007B005C00460041004D00470044005
311
4003B0078007D0020003C0048006F006C0065003A0063007400640065007000740068003E0042950019401B401C001B0018401D00194008000C401FE3D003C0069006600280065007100750061006C00280048006F006C0065003A007400610070007000650064002C0022003000220029002C00220025002500630022002C
311
0048006F006C0065003A006E006F006D0069006E0061006C002000220020002200200069006600280065007100750061006C00280048006F006C0065003A0075006E006900740073002C0022003100220029002C002200780022002C0022002D0022002900200022002000220029003E003C00690066002800650071007500
311
61006C00280048006F006C0065003A007400610070007000650064002C0022003000220029002C0048006F006C0065003A006400690061002C0048006F006C0065003A0070006900740063006800640065007300630029003E0020007B005C00460041004D004700440054003B0078007D0020003C00690066002800650071
311
00750061006C00280048006F006C0065003A007400650072006D0069006E006100740069006F006E002C0022003000220029002C0048006F006C0065003A00640065007000740068002C0022005400480052005500220029003E005C0050007B005C00460041004D004700440054003B0077007D002500250063003C004800
311
6F006C0065003A00630074006400690061003E002000580020003C0048006F006C0065003A006300740061006E0067006C0065003E0025002500640042950019401B401C001B0018401D00194008000C401CF3D003C0069006600280065007100750061006C00280048006F006C0065003A007400610070007000650064002
311
C0022003000220029002C00220025002500630022002C0048006F006C0065003A006E006F006D0069006E0061006C002000220020002200200069006600280065007100750061006C00280048006F006C0065003A0075006E006900740073002C0022003100220029002C002200780022002C0022002D00220029002000220
311
02000220029003E003C0069006600280065007100750061006C00280048006F006C0065003A007400610070007000650064002C0022003000220029002C0048006F006C0065003A006400690061002C0048006F006C0065003A0070006900740063006800640065007300630029003E005C0050007B005C00460041004D004
311
700440054003B0078007D0020003C0069006600280065007100750061006C00280048006F006C0065003A007400650072006D0069006E006100740069006F006E002C0022003000220029002C0048006F006C0065003A00640065007000740068002C0022005400480052005500220029003E0042950019401B401C001B001
311
8401D00194008000C801173D003C0053005400440050003A0044004500530043003E0020003C0053005400440050003A005300540044003E0042950019401B401C001B0018401D00194008000C4010C3D003C0053005400440050003A0044004500530043003E0042950019401B401C001B0018401D00194008000CC010B3D
311
003C0053005400440050003A005300540044003E0000
161
               667
310
6DCB81E85EB51B8BE3F2E07A17AD46E2F8FE23000030C02000000300012AFA1080A17480A15480A0480A0280E9014050340501407480A0280A0280A03A405014790340501D20280A901405481A028AD556DEA06C
360
2FC
330
2FC
360
2FD
330
2FD
360
2FB
330
2FB
360
2F9
360
2F8
360
2FA
330
2F9
330
2F8
330
2FA
 94
        0
  0
ACAD_PROXY_OBJECT
  5
2D5
330
2C9
100
AcDbProxyObject
 90
      499
 91
      566
 71
    29
 97
      226
 70
     0
162
                26
311
404E800C
161
               305
310
6DCB81E85EB51B8BE3F2E07A17AD46E2F8FE23000030C02000000300012AFA1680A0280D55554C
 94
        0
  0
ACAD_PROXY_OBJECT
  5
2D6
330
2C9
100
AcDbProxyObject
 90
      499
 91
      567
 71
    29
 97
      226
 70
     0
162
              1098
311
510F400F0014C015001480154010C015000E8010C013C01340140017C013801040134011400F8008000F0014C015001480154010C015000E8015801240114015C017C013801040134011400F80080015801240114015C01700140014C010C010401300114008000F0014C015001480154010C015000E8014C0158017C014C0
311
10C01040130011400F800C
161
               332
310
6DCB81E85EB51B8CE3F2E07A17AD46E2F8FE07800030C02000000300012AFA02808000000000001D07FC
340
11
 94
        0
  0
ACAD_PROXY_OBJECT
  5
2D7
330
2C9
100
AcDbProxyObject
 90
      499
 91
      568
 71
    29
 97
      226
 70
     0
162
                 0
161
               253
310
6DC000000000000F0BF0000000000003C2FE0000003200200000032002020754
340
2DC
 94
        0
  0
ACAD_PROXY_OBJECT
  5
2D8
330
2C9
100
AcDbProxyObject
 90
      499
 91
      569
 71
    29
 97
      226
 70
     0
162
               142
311
408F000F801023C003E0040DB0018C00CC00
161
               400
310
6DC000000000000F0BF0000000000003C2FE00000032002000000320020208000000000000701F8000000000001C07E7FFFC00
340
2D9
340
0
340
0
340
2E9
340
2EA
340
0
340
2EB
340
2EC
340
2F1
340
0
340
2EA
340
0
 94
        0
  0
ACAD_PROXY_OBJECT
  5
2F2
330
2C9
100
AcDbProxyObject
 90
      499
 91
      571
 71
    29
 97
      226
 70
     0
162
             20912
311
44D300124014C01500080013C01180080010C013C013C0148011001240138010401500114014C0142470045004E0054005200410043004F002C0045004E0055002C0030002C004C0049005300540020004F004600200043004F004F005200440049004E0041005400450053002C00470045004E00540052004100540058002
311
C00250073002C002800470045004E004D00530047002000670065006E00640069006D007A00200033003000290043CF400F0011001940198018401D401B001D0015001A401D001B0019400F8010A48004F004C00450020005400410042004C0045004E51C01140138015001480104010C013C00B001140138015400B000C00
311
0B00120013C0130011400800150010401080130011400B0011C011401380150014801040150016000B0009401CC00B000A0011C011401380134014C011C0080019C019401B8019001A401B401E8008000CC00C400A4010F3D003C00440065006600610075006C0074005400690074006C0065003E004193C01480124011C01
311
2401380134470045004E0054005200410043004F002C0045004E0055002C0030002C004F0052004900470049004E002C00470045004E00540052004100540058002C00250073002C002800470045004E004D00530047002000670065006E00640069006D007A002000310029004193C01480124011C0124013801344700450
311
04E0054005200410043004F002C0045004E0055002C0030002C004F0052004900470049004E002C00470045004E00540052004100540058002C00250073002C002800470045004E004D00530047002000670065006E00640069006D007A0020003100290041120013C013001140132470045004E0054005200410043004F00
311
2C0045004E0055002C0030002C0048004F004C0045002C00470045004E00540052004100540058002C00250073002C002800470045004E004D00530047002000670065006E00640069006D007A00200032002900538F400F00124011800A00124014C0108013001040138012C00A0012001BC01B00194012401D0019401B40
311
0A400B0013C01C801A4019C01A401B800B00080012001BC01B00194012401D0019401B400A400F800F00124011800A00124014C0108013001040138012C00A0012001BC01B00194012401D0019401B400A400B00088008800B00080012001BC01B00194012401B80190019401E000A400F8010158004BD1C01140138015001
311
480104010C013C00B001140138015400B000C000B0016000B0011C011401380150014801040150016000B0009401CC00B000A0011C011401380134014C011C0080019C019401B8019001A401B401E8008000CC00A4010159004BD1C01140138015001480104010C013C00B001140138015400B000C000B0016400B0011C011
311
401380150014801040150016000B0009401CC00B000A0011C011401380134014C011C0080019C019401B8019001A401B401E8008000D000A4010152004BD1C01140138015001480104010C013C00B001140138015400B000C000B0014800B0011C011401380150014801040150016000B0009401CC00B000A0011C01140138
311
0134014C011C0080019C019401B8019001A401B401E8008000D800A401187B005C004600530059004D0042004F004C007C00420030007C00490030007C00430032007C00500030003B004A007D005191C01140138015001480104010C013C00B001140138015400B000C000B001EC01700118014C016401340108013C01300
311
1F0010800C001F0012400C001F0010C00C801F0014000C000EC012801F400B0011C011401380150014801040150016000B0009401CC00B000A0011C011401380134014C011C0080019C019401B8019001A401B401E8008000DC00A401032500250043004C51C01140138015001480104010C013C00B001140138015400B000
311
C000B000940094010C00B0011C011401380150014801040150016000B0009401CC00B000A0011C011401380134014C011C0080019C019401B8019001A401B401E8008000E000A4010B4400450053004300520049005000540049004F004E004E91C01140138015001480104010C013C00B001140138015400B000C000B0011
311
00114014C010C01480124014001500124013C013800B0011C011401380150014801040150016000B0009401CC00B000A0011C011401380134014C011C0080019C019401B8019001A401B401E8008000C800C000A401044900540045004D004CD1C01140138015001480104010C013C00B001140138015400B000C000B00124
311
01500114013400B0011C011401380150014801040150016000B0009401CC00B000A0011C011401380134014C011C0080019C019401B8019001A401B401E8008000C400D000A4010549004E004400450058004D11C01140138015001480104010C013C00B001140138015400B000C000B00124013801100114016000B0011C0
311
11401380150014801040150016000B0009401CC00B000A0011C011401380134014C011C0080019C019401B8019001A401B401E8008000C400D400A4010448004F004C0045004CD1C01140138015001480104010C013C00B001140138015400B000C000B00120013C0130011400B0011C011401380150014801040150016000
311
B0009401CC00B000A0011C011401380134014C011C0080019C019401B8019001A401B401E8008000C400D800A4010A48004F004C004500200049004E004400450058004E51C01140138015001480104010C013C00B001140138015400B000C000B00120013C0130011400800124013801100114016000B0011C01140138015
311
0014801040150016000B0009401CC00B000A0011C011401380134014C011C0080019C019401B8019001A401B401E8008000C400DC00A40109550053004500520020004900540045004D004E11C01140138015001480104010C013C00B001140138015400B000C000B00154014C011401480080012401500114013400B0011C
311
011401380150014801040150016000B0009401CC00B000A0011C011401380134014C011C0080019C019401B8019001A401B401E8008000C800C800A401035100540059004C91C01140138015001480104010C013C00B001140138015400B000C000B001440150016400B0011C011401380150014801040150016000B000940
311
1CC00B000A0011C011401380134014C011C0080019C019401B8019001A401B401E8008000C400E400A401085300540041004E0044004100520044004DD1C01140138015001480104010C013C00B001140138015400B000C000B0014C015001040138011001040148011000B0011C011401380150014801040150016000B000
311
9401CC00B000A0011C011401380134014C011C0080019C019401B8019001A401B401E8008000C800C400A4014E3D003C004900460028004900530042004C0041004E004B00280048006F006C0065004900740065006D0029002C004F0072006900670069006E002C00200048006F006C0065004900740065006D0029003E00
311
3C004900460028004900530042004C0041004E004B00280048006F006C0065004900740065006D0029002C00220022002C00200048006F006C00650049006E0064006500780029003E00CC
161
              7065
310
6DC000000000000F0BF0000000000003C2FE00000032002000000320020246352020600005C0F42F5A8DC5F1FC46000061806808180001703D0BD6A3717C7F118000186018080F0201800000000000000000000000000000000F6295C8FC2F5487E5C0F42F5A8DC5F1FC46000061800F6295C8FC2F5487E5C0F42F5A8DC5F1
310
FC4600006180403F8080F0201800000000000000000000000000000000F6295C8FC2F5487E5C0F42F5A8DC5F1FC46000061800F6295C8FC2F5487E5C0F42F5A8DC5F1FC4600006180403FA1C8821E88A0481A0882A0E862028722489A2A82A2483A288621A880000808000808200110A000101000101040021F40002020202
310
020800446800040400040400008150000808000808000103A0001010001010000209400020200020206004168000404000404040083D000080800080020010CA0001010001010500A0340002020002020A0143A800040400040410008950000808000808280113A000101000101050022B40002020002020C0045280004040
310
00400100086D22000CFFFFFFFF0026A6666666667A4FE7FFFFFFF819353333333333D27F3FFFFFFFC049A9999999999E93F9FFFFFFFE024D4CCCCCCCCCF49FCFFFFFFFF0226A6666666667A4FE7FFFFFFF811353333333333D27F3FFFFFFFC0D9FFFFFFFE0600000000000000204FFFFFFFF0026A666666666764FE7FFFFFF
310
F801353333333333D27F3FFFFFFFC009A9999999999E93F9FFFFFFFE004D4CCCCCCCCCF49FCFFFFFFFF0026A6666666667A4FE7FFFFFFF819703D0BD6A371BC7F3FFFFFFFC0C67666666666606409FFFFFFFE880033FFFFFFFC009A9999999999E93F9FFFFFFFE064D4CCCCCCCCCF49FCFFFFFFFF0326A6666666667A4FE7F
310
FFFFFF819353333333333D27F3FFFFFFFC0C9A9999999999E93F9FFFFFFFE064D4CCCCCCCCCF49FCFFFFFFFF0367FFFFFFF81800000000000000813FFFFFFFC009A9999999999D93F9FFFFFFFE004D4CCCCCCCCCF49FCFFFFFFFF0326A6666666667A4FE7FFFFFFF801353333333333D27F3FFFFFFFC009A9999999999E93F
310
9FFFFFFFE065C0F42F5A8DC6F1FCFFFFFFFF0319D999999999819027FFFFFFFA088800000021E000000890000002260000008220E00020089000000206000200810000801FFFFFFFE812020002822200000008780000022400000089800000206000082220000000878000002240000008A8000001FFFFFFFF4C
340
0
340
0
340
0
340
0
340
11
340
11
 94
        0
  0
ACAD_PROXY_OBJECT
  5
2F3
330
2C9
100
AcDbProxyObject
 90
      499
 91
      572
 71
    29
 97
      226
 70
     0
162
             10568
311
411040138014C0124010641004E00530049005F004300429040138014C0124017C0150012401500154014C011541004E00530049005F00420052005F005200650076006900730069006F006E006C0069007300740061004450C008000A000C400DC00B800C001E000C800C800B800C001A401B8018C01A000A4010641004E0
311
0530049005F00430044518008000A000C800E000B800C001E000D000C000B800C001A401B8018C01A000A4010641004E00530049005F00460044508008000A000C400C400B800C001E000C400DC00B800C001A401B8018C01A000A4010641004E00530049005F00420044510008000A000C800C800B800C001E000CC00D000
311
B800C001A401B8018C01A000A4010641004E00530049005F00440044514008000A000CC00D000B800C001E000D000D000B800C001A401B8018C01A000A4010641004E00530049005F00450044104008000A000E000B800D401E000C400C400B800C001A401B8018C01A000A4010641004E00530049005F00410043954014C0
311
080015001A401D001B001940080010801B001BC018C01AC010A41004E00530049005F005400490054005500530044D0401B801CC01A40080015001A401D001B001940080010801B001BC018C01AC00800110010C010C41004E00530049005F005400490054004C0045004400430044D0401B801CC01A40080015001A401D00
311
1B001940080010801B001BC018C01AC00800104010C010C41004E00530049005F005400490054004C004500410043004490401B801CC01A40080015001A401D001B001940080010801B001BC018C01AC00800104010B41004E00530049005F005400490054004C00450041004490401B801CC01A40080015001A401D001B00
311
1940080010801B001BC018C01AC00800110010B41004E00530049005F005400490054004C004500440044948019401D801A401CC01A401BC01B801B001A401CC01D000800104017C01080148017C011541004E00530049005F00420052005F005200650076006900730069006F006E006C0069007300740061004494801940
311
1D801A401CC01A401BC01B801B001A401CC01D000800104017C01500148017C011541004E00530049005F00540052005F005200650076006900730069006F006E006C00690073007400610044948019401D801A401CC01A401BC01B801B001A401CC01D000800110017C01080148017C011541004E00530049005F00420052
311
005F005200650076006900730069006F006E006C00690073007400640044948019401D801A401CC01A401BC01B801B001A401CC01D000800110017C01500148017C011541004E00530049005F00540052005F005200650076006900730069006F006E006C00690073007400640044948019401D801A401CC01A401BC01B801
311
B001A401CC01D000800104017C01080130017C011541004E00530049005F0042004C005F005200650076006900730069006F006E006C00690073007400610044948019401D801A401CC01A401BC01B801B001A401CC01D000800104017C01500130017C011541004E00530049005F0054004C005F005200650076006900730
311
069006F006E006C00690073007400610044948019401D801A401CC01A401BC01B801B001A401CC01D000800110017C01080130017C011541004E00530049005F0042004C005F005200650076006900730069006F006E006C00690073007400640044948019401D801A401CC01A401BC01B801B001A401CC01D000800110017
311
C01500130017C011541004E00530049005F0054004C005F005200650076006900730069006F006E006C006900730074006400A4F
161
               291
310
6DC000000000000F0BF0000000000003C2FE0000003200200000032002032E8320A842054C
 94
        0
  0
ACAD_PROXY_OBJECT
  5
2FC
330
0
100
AcDbProxyObject
 90
      499
 91
      573
 71
    29
 97
      226
 70
     0
162
              4364
311
42950019401B401C001B0018401D00194008000C40005013D003C0069006600280065007100750061006C00280048006F006C0065003A007400610070007000650064002C0022003000220029002C00220025002500630022002C0048006F006C0065003A006E006F006D0069006E0061006C0020002200200022002000690
311
06600280065007100750061006C00280048006F006C0065003A0075006E006900740073002C0022003100220029002C002200780022002C0022002D0022002900200022002000220029003E003C0069006600280065007100750061006C00280048006F006C0065003A007400610070007000650064002C002200300022002
311
9002C0048006F006C0065003A006400690061002C0048006F006C0065003A0070006900740063006800640065007300630029003E0020007B005C00460041004D004700440054003B0078007D0020003C0069006600280065007100750061006C00280048006F006C0065003A007400650072006D0069006E0061007400690
311
06F006E002C0022003000220029002C0048006F006C0065003A00640065007000740068002C0022005400480052005500220029003E005C0050007B005C00460041004D004700440054003B0076007D002500250063003C0048006F006C0065003A00630074006400690061003E0020007B005C00460041004D00470044005
311
4003B0078007D0020003C0048006F006C0065003A0063007400640065007000740068003E00C
161
                29
310
6DE0101C
 94
        0
  0
ACAD_PROXY_OBJECT
  5
2FD
330
0
100
AcDbProxyObject
 90
      499
 91
      573
 71
    29
 97
      226
 70
     0
162
              4244
311
42950019401B401C001B0018401D00194008000C401FE3D003C0069006600280065007100750061006C00280048006F006C0065003A007400610070007000650064002C0022003000220029002C00220025002500630022002C0048006F006C0065003A006E006F006D0069006E0061006C002000220020002200200069006
311
600280065007100750061006C00280048006F006C0065003A0075006E006900740073002C0022003100220029002C002200780022002C0022002D0022002900200022002000220029003E003C0069006600280065007100750061006C00280048006F006C0065003A007400610070007000650064002C00220030002200290
311
02C0048006F006C0065003A006400690061002C0048006F006C0065003A0070006900740063006800640065007300630029003E0020007B005C00460041004D004700440054003B0078007D0020003C0069006600280065007100750061006C00280048006F006C0065003A007400650072006D0069006E006100740069006
311
F006E002C0022003000220029002C0048006F006C0065003A00640065007000740068002C0022005400480052005500220029003E005C0050007B005C00460041004D004700440054003B0077007D002500250063003C0048006F006C0065003A00630074006400690061003E002000580020003C0048006F006C0065003A0
311
06300740061006E0067006C0065003E00250025006400C
161
                29
310
6DE0101C
 94
        0
  0
ACAD_PROXY_OBJECT
  5
2FB
330
0
100
AcDbProxyObject
 90
      499
 91
      573
 71
    29
 97
      226
 70
     0
162
              3492
311
42950019401B401C001B0018401D00194008000C401CF3D003C0069006600280065007100750061006C00280048006F006C0065003A007400610070007000650064002C0022003000220029002C00220025002500630022002C0048006F006C0065003A006E006F006D0069006E0061006C002000220020002200200069006
311
600280065007100750061006C00280048006F006C0065003A0075006E006900740073002C0022003100220029002C002200780022002C0022002D0022002900200022002000220029003E003C0069006600280065007100750061006C00280048006F006C0065003A007400610070007000650064002C00220030002200290
311
02C0048006F006C0065003A006400690061002C0048006F006C0065003A0070006900740063006800640065007300630029003E005C0050007B005C00460041004D004700440054003B0078007D0020003C0069006600280065007100750061006C00280048006F006C0065003A007400650072006D0069006E00610074006
311
9006F006E002C0022003000220029002C0048006F006C0065003A00640065007000740068002C0022005400480052005500220029003E00C
161
                29
310
6DE0101C
 94
        0
  0
ACAD_PROXY_OBJECT
  5
2F9
330
0
100
AcDbProxyObject
 90
      499
 91
      573
 71
    29
 97
      226
 70
     0
162
               548
311
42950019401B401C001B0018401D00194008000C801173D003C0053005400440050003A0044004500530043003E0020003C0053005400440050003A005300540044003E00C
161
                29
310
6DE01014
 94
        0
  0
ACAD_PROXY_OBJECT
  5
2F8
330
0
100
AcDbProxyObject
 90
      499
 91
      573
 71
    29
 97
      226
 70
     0
162
               372
311
42950019401B401C001B0018401D00194008000C4010C3D003C0053005400440050003A0044004500530043003E00C
161
                29
310
6DE0101C
 94
        0
  0
ACAD_PROXY_OBJECT
  5
2FA
330
0
100
AcDbProxyObject
 90
      499
 91
      573
 71
    29
 97
      226
 70
     0
162
               356
311
42950019401B401C001B0018401D00194008000CC010B3D003C0053005400440050003A005300540044003E00C
161
                29
310
6DE01014
 94
        0
  0
ENDSEC
  0
SECTION
  2
ACDSDATA
 70
     2
 71
     8
  0
ACDSSCHEMA
 90
        0
  1
AcDb_Thumbnail_Schema
  2
AcDbDs::ID
280
    10
 91
        8
  2
Thumbnail_Data
280
    15
 91
        0
101
ACDSRECORD
 95
        0
 90
        1
  2
AcDbDs::TreatedAsObjectData
280
     1
291
     1
101
ACDSRECORD
 95
        0
 90
        2
  2
AcDbDs::Legacy
280
     1
291
     1
101
ACDSRECORD
  1
AcDbDs::ID
 90
        3
  2
AcDs:Indexable
280
     1
291
     1
101
ACDSRECORD
  1
AcDbDs::ID
 90
        4
  2
AcDbDs::HandleAttribute
280
     7
282
     1
  0
ACDSSCHEMA
 90
        1
  1
AcDbDs::TreatedAsObjectDataSchema
  2
AcDbDs::TreatedAsObjectData
280
     1
 91
        0
  0
ACDSSCHEMA
 90
        2
  1
AcDbDs::LegacySchema
  2
AcDbDs::Legacy
280
     1
 91
        0
  0
ACDSSCHEMA
 90
        3
  1
AcDbDs::IndexedPropertySchema
  2
AcDs:Indexable
280
     1
 91
        0
  0
ACDSSCHEMA
 90
        4
  1
AcDbDs::HandleAttributeSchema
  2
AcDbDs::HandleAttribute
280
     7
 91
        1
284
     1
  0
ACDSRECORD
 90
        0
  2
AcDbDs::ID
280
    10
320
22
  2
Thumbnail_Data
280
    15
 94
     1032
310
89504E470D0A1A0A0000000D49484452000001000000006F08030000003479EE6F00000300504C5445212830FFFFFF2128300000000000000000000000000000000000000000000000000000330000660000990000CC0000FF0033000033330033660033990033CC0033FF0066000066330066660066990066CC0066FF0099
310
000099330099660099990099CC0099FF00CC0000CC3300CC6600CC9900CCCC00CCFF00FF0000FF3300FF6600FF9900FFCC00FFFF3300003300333300663300993300CC3300FF3333003333333333663333993333CC3333FF3366003366333366663366993366CC3366FF3399003399333399663399993399CC3399FF33CC00
310
33CC3333CC6633CC9933CCCC33CCFF33FF0033FF3333FF6633FF9933FFCC33FFFF6600006600336600666600996600CC6600FF6633006633336633666633996633CC6633FF6666006666336666666666996666CC6666FF6699006699336699666699996699CC6699FF66CC0066CC3366CC6666CC9966CCCC66CCFF66FF0066
310
FF3366FF6666FF9966FFCC66FFFF9900009900339900669900999900CC9900FF9933009933339933669933999933CC9933FF9966009966339966669966999966CC9966FF9999009999339999669999999999CC9999FF99CC0099CC3399CC6699CC9999CCCC99CCFF99FF0099FF3399FF6699FF9999FFCC99FFFFCC0000CC00
310
33CC0066CC0099CC00CCCC00FFCC3300CC3333CC3366CC3399CC33CCCC33FFCC6600CC6633CC6666CC6699CC66CCCC66FFCC9900CC9933CC9966CC9999CC99CCCC99FFCCCC00CCCC33CCCC66CCCC99CCCCCCCCCCFFCCFF00CCFF33CCFF66CCFF99CCFFCCCCFFFFFF0000FF0033FF0066FF0099FF00CCFF00FFFF3300FF3333
310
FF3366FF3399FF33CCFF33FFFF6600FF6633FF6666FF6699FF66CCFF66FFFF9900FF9933FF9966FF9999FF99CCFF99FFFFCC00FFCC33FFCC66FFCC99FFCCCCFFCCFFFFFF00FFFF33FFFF66FFFF99FFFFCCFFFFFF0000000D0D0D1A1A1A2828283535354343435050505D5D5D6B6B6B787878868686939393A1A1A1AEAEAEBB
310
BBBBC9C9C9D6D6D6E4E4E4F1F1F1FFFFFF0000000000000000000000000000000000000000000000000000000000002E4550F1000000C34944415478DAEDD9310EC2301004C0FBFF7FAF4774E7108B880A7967BAD079BD8E2FA20A000000008027FA4D0024374000B805925F84F10138023F905A4A33E6E3F147E0E3F775D1
310
1901CC1C6628479FFB2580B1D1B3011DD28065A36302E0514D44903D07C44C7FBB45C7BC04BB3601C434A0EE773DA501BDABBD39C03598FE39DC15730DDE7F0BC4CF0139D760B9065D8384CD01FE17E0FB4C70F420B46BF565CD81012C0D489C042BE4085C6ADFE90DA8E806000000000000000000000000FC8F174E974853
310
5AD6E68B0000000049454E44AE426082
  0
ENDSEC
  0
EOF
