  0
SECTION
  2
HEADER
  9
$ACADVER
  1
AC1027
  9
$ACADMAINTVER
 70
   125
  9
$DWGCODEPAGE
  3
ANSI_1252
  9
$LASTSAVEDBY
  1
carolina.coriani
  9
$REQUIREDVERSIONS
160
                 0
  9
$INSBASE
 10
0.0
 20
0.0
 30
0.0
  9
$EXTMIN
 10
16.12494033494113
 20
1792.178042576322
 30
0.0
  9
$EXTMAX
 10
24766.10647101268
 20
6465.793215769899
 30
0.0
  9
$LIMMIN
 10
0.0
 20
0.0
  9
$LIMMAX
 10
12.0
 20
9.0
  9
$ORTHOMODE
 70
     0
  9
$REGENMODE
 70
     1
  9
$FILLMODE
 70
     1
  9
$QTEXTMODE
 70
     0
  9
$MIRRTEXT
 70
     0
  9
$LTSCALE
 40
1.0
  9
$ATTMODE
 70
     1
  9
$TEXTSIZE
 40
0.2
  9
$TRACEWID
 40
0.05
  9
$TEXTSTYLE
  7
Standard
  9
$CLAYER
  8
0
  9
$CELTYPE
  6
ByLayer
  9
$CECOLOR
 62
   256
  9
$CELTSCALE
 40
1.0
  9
$DISPSILH
 70
     0
  9
$DIMSCALE
 40
1.0
  9
$DIMASZ
 40
0.18
  9
$DIMEXO
 40
0.0625
  9
$DIMDLI
 40
0.38
  9
$DIMRND
 40
0.0
  9
$DIMDLE
 40
0.0
  9
$DIMEXE
 40
0.18
  9
$DIMTP
 40
0.0
  9
$DIMTM
 40
0.0
  9
$DIMTXT
 40
0.18
  9
$DIMCEN
 40
0.09
  9
$DIMTSZ
 40
0.0
  9
$DIMTOL
 70
     0
  9
$DIMLIM
 70
     0
  9
$DIMTIH
 70
     1
  9
$DIMTOH
 70
     1
  9
$DIMSE1
 70
     0
  9
$DIMSE2
 70
     0
  9
$DIMTAD
 70
     0
  9
$DIMZIN
 70
     0
  9
$DIMBLK
  1

  9
$DIMASO
 70
     1
  9
$DIMSHO
 70
     1
  9
$DIMPOST
  1

  9
$DIMAPOST
  1

  9
$DIMALT
 70
     0
  9
$DIMALTD
 70
     2
  9
$DIMALTF
 40
25.4
  9
$DIMLFAC
 40
1.0
  9
$DIMTOFL
 70
     0
  9
$DIMTVP
 40
0.0
  9
$DIMTIX
 70
     0
  9
$DIMSOXD
 70
     0
  9
$DIMSAH
 70
     0
  9
$DIMBLK1
  1

  9
$DIMBLK2
  1

  9
$DIMSTYLE
  2
Standard
  9
$DIMCLRD
 70
     0
  9
$DIMCLRE
 70
     0
  9
$DIMCLRT
 70
     0
  9
$DIMTFAC
 40
1.0
  9
$DIMGAP
 40
0.09
  9
$DIMJUST
 70
     0
  9
$DIMSD1
 70
     0
  9
$DIMSD2
 70
     0
  9
$DIMTOLJ
 70
     1
  9
$DIMTZIN
 70
     0
  9
$DIMALTZ
 70
     0
  9
$DIMALTTZ
 70
     0
  9
$DIMUPT
 70
     0
  9
$DIMDEC
 70
     4
  9
$DIMTDEC
 70
     4
  9
$DIMALTU
 70
     2
  9
$DIMALTTD
 70
     2
  9
$DIMTXSTY
  7
Standard
  9
$DIMAUNIT
 70
     0
  9
$DIMADEC
 70
     0
  9
$DIMALTRND
 40
0.0
  9
$DIMAZIN
 70
     0
  9
$DIMDSEP
 70
    46
  9
$DIMATFIT
 70
     3
  9
$DIMFRAC
 70
     0
  9
$DIMLDRBLK
  1

  9
$DIMLUNIT
 70
     2
  9
$DIMLWD
 70
    -2
  9
$DIMLWE
 70
    -2
  9
$DIMTMOVE
 70
     0
  9
$DIMFXL
 40
1.0
  9
$DIMFXLON
 70
     0
  9
$DIMJOGANG
 40
0.7853981633974483
  9
$DIMTFILL
 70
     0
  9
$DIMTFILLCLR
 70
     0
  9
$DIMARCSYM
 70
     0
  9
$DIMLTYPE
  6

  9
$DIMLTEX1
  6

  9
$DIMLTEX2
  6

  9
$DIMTXTDIRECTION
 70
     0
  9
$LUNITS
 70
     2
  9
$LUPREC
 70
     4
  9
$SKETCHINC
 40
0.1
  9
$FILLETRAD
 40
0.0
  9
$AUNITS
 70
     0
  9
$AUPREC
 70
     0
  9
$MENU
  1
.
  9
$ELEVATION
 40
0.0
  9
$PELEVATION
 40
0.0
  9
$THICKNESS
 40
0.0
  9
$LIMCHECK
 70
     0
  9
$CHAMFERA
 40
0.0
  9
$CHAMFERB
 40
0.0
  9
$CHAMFERC
 40
0.0
  9
$CHAMFERD
 40
0.0
  9
$SKPOLY
 70
     0
  9
$TDCREATE
 40
2458166.602800926
  9
$TDUCREATE
 40
2458166.144469780
  9
$TDUPDATE
 40
2458639.513530093
  9
$TDUUPDATE
 40
2458639.096863426
  9
$TDINDWG
 40
0.3514338079
  9
$TDUSRTIMER
 40
0.3514337847
  9
$USRTIMER
 70
     1
  9
$ANGBASE
 50
0.0
  9
$ANGDIR
 70
     0
  9
$PDMODE
 70
     0
  9
$PDSIZE
 40
0.0
  9
$PLINEWID
 40
0.0
  9
$SPLFRAME
 70
     0
  9
$SPLINETYPE
 70
     6
  9
$SPLINESEGS
 70
     8
  9
$HANDSEED
  5
B9B
  9
$SURFTAB1
 70
     6
  9
$SURFTAB2
 70
     6
  9
$SURFTYPE
 70
     6
  9
$SURFU
 70
     6
  9
$SURFV
 70
     6
  9
$UCSBASE
  2

  9
$UCSNAME
  2

  9
$UCSORG
 10
0.0
 20
0.0
 30
0.0
  9
$UCSXDIR
 10
1.0
 20
0.0
 30
0.0
  9
$UCSYDIR
 10
0.0
 20
1.0
 30
0.0
  9
$UCSORTHOREF
  2

  9
$UCSORTHOVIEW
 70
     0
  9
$UCSORGTOP
 10
0.0
 20
0.0
 30
0.0
  9
$UCSORGBOTTOM
 10
0.0
 20
0.0
 30
0.0
  9
$UCSORGLEFT
 10
0.0
 20
0.0
 30
0.0
  9
$UCSORGRIGHT
 10
0.0
 20
0.0
 30
0.0
  9
$UCSORGFRONT
 10
0.0
 20
0.0
 30
0.0
  9
$UCSORGBACK
 10
0.0
 20
0.0
 30
0.0
  9
$PUCSBASE
  2

  9
$PUCSNAME
  2

  9
$PUCSORG
 10
0.0
 20
0.0
 30
0.0
  9
$PUCSXDIR
 10
1.0
 20
0.0
 30
0.0
  9
$PUCSYDIR
 10
0.0
 20
1.0
 30
0.0
  9
$PUCSORTHOREF
  2

  9
$PUCSORTHOVIEW
 70
     0
  9
$PUCSORGTOP
 10
0.0
 20
0.0
 30
0.0
  9
$PUCSORGBOTTOM
 10
0.0
 20
0.0
 30
0.0
  9
$PUCSORGLEFT
 10
0.0
 20
0.0
 30
0.0
  9
$PUCSORGRIGHT
 10
0.0
 20
0.0
 30
0.0
  9
$PUCSORGFRONT
 10
0.0
 20
0.0
 30
0.0
  9
$PUCSORGBACK
 10
0.0
 20
0.0
 30
0.0
  9
$USERI1
 70
     0
  9
$USERI2
 70
     0
  9
$USERI3
 70
     0
  9
$USERI4
 70
     0
  9
$USERI5
 70
     0
  9
$USERR1
 40
0.0
  9
$USERR2
 40
0.0
  9
$USERR3
 40
0.0
  9
$USERR4
 40
0.0
  9
$USERR5
 40
0.0
  9
$WORLDVIEW
 70
     1
  9
$SHADEDGE
 70
     3
  9
$SHADEDIF
 70
    70
  9
$TILEMODE
 70
     1
  9
$MAXACTVP
 70
    64
  9
$PINSBASE
 10
0.0
 20
0.0
 30
0.0
  9
$PLIMCHECK
 70
     0
  9
$PEXTMIN
 10
1.000000000000000E+20
 20
1.000000000000000E+20
 30
1.000000000000000E+20
  9
$PEXTMAX
 10
-1.000000000000000E+20
 20
-1.000000000000000E+20
 30
-1.000000000000000E+20
  9
$PLIMMIN
 10
-0.2500002402958907
 20
-0.2499999962453767
  9
$PLIMMAX
 10
10.74999951940822
 20
8.249999763458733
  9
$UNITMODE
 70
     0
  9
$VISRETAIN
 70
     1
  9
$PLINEGEN
 70
     0
  9
$PSLTSCALE
 70
     1
  9
$TREEDEPTH
 70
  3020
  9
$CMLSTYLE
  2
Standard
  9
$CMLJUST
 70
     0
  9
$CMLSCALE
 40
1.0
  9
$PROXYGRAPHICS
 70
     1
  9
$MEASUREMENT
 70
     0
  9
$CELWEIGHT
370
    -1
  9
$ENDCAPS
280
     0
  9
$JOINSTYLE
280
     0
  9
$LWDISPLAY
290
     0
  9
$INSUNITS
 70
     1
  9
$HYPERLINKBASE
  1

  9
$STYLESHEET
  1

  9
$XEDIT
290
     1
  9
$CEPSNTYPE
380
     0
  9
$PSTYLEMODE
290
     1
  9
$FINGERPRINTGUID
  2
{FAC30E4E-F6E6-4662-BC9E-63EC0C2FDA66}
  9
$VERSIONGUID
  2
{534639E2-B1EE-1343-BAB2-93B61847C32A}
  9
$EXTNAMES
290
     1
  9
$PSVPSCALE
 40
0.0
  9
$OLESTARTUP
290
     0
  9
$SORTENTS
280
   127
  9
$INDEXCTL
280
     0
  9
$HIDETEXT
280
     1
  9
$XCLIPFRAME
280
     2
  9
$HALOGAP
280
     0
  9
$OBSCOLOR
 70
   257
  9
$OBSLTYPE
280
     0
  9
$INTERSECTIONDISPLAY
280
     0
  9
$INTERSECTIONCOLOR
 70
   257
  9
$DIMASSOC
280
     2
  9
$PROJECTNAME
  1

  9
$CAMERADISPLAY
290
     0
  9
$LENSLENGTH
 40
50.0
  9
$CAMERAHEIGHT
 40
0.0
  9
$STEPSPERSEC
 40
2.0
  9
$STEPSIZE
 40
6.0
  9
$3DDWFPREC
 40
2.0
  9
$PSOLWIDTH
 40
0.25
  9
$PSOLHEIGHT
 40
4.0
  9
$LOFTANG1
 40
1.570796326794896
  9
$LOFTANG2
 40
1.570796326794896
  9
$LOFTMAG1
 40
0.0
  9
$LOFTMAG2
 40
0.0
  9
$LOFTPARAM
 70
     7
  9
$LOFTNORMALS
280
     1
  9
$LATITUDE
 40
37.795
  9
$LONGITUDE
 40
-122.394
  9
$NORTHDIRECTION
 40
0.0
  9
$TIMEZONE
 70
 -8000
  9
$LIGHTGLYPHDISPLAY
280
     1
  9
$TILEMODELIGHTSYNCH
280
     1
  9
$CMATERIAL
347
96
  9
$SOLIDHIST
280
     0
  9
$SHOWHIST
280
     1
  9
$DWFFRAME
280
     2
  9
$DGNFRAME
280
     0
  9
$REALWORLDSCALE
290
     1
  9
$INTERFERECOLOR
 62
     1
  9
$INTERFEREOBJVS
345
A3
  9
$INTERFEREVPVS
346
A0
  9
$CSHADOW
280
     0
  9
$SHADOWPLANELOCATION
 40
0.0
  0
ENDSEC
  0
SECTION
  2
CLASSES
  0
CLASS
  1
ACDBDICTIONARYWDFLT
  2
AcDbDictionaryWithDefault
  3
ObjectDBX Classes
 90
        0
 91
        1
280
     0
281
     0
  0
CLASS
  1
DICTIONARYVAR
  2
AcDbDictionaryVar
  3
ObjectDBX Classes
 90
        0
 91
        9
280
     0
281
     0
  0
CLASS
  1
TABLESTYLE
  2
AcDbTableStyle
  3
ObjectDBX Classes
 90
     4095
 91
        1
280
     0
281
     0
  0
CLASS
  1
MATERIAL
  2
AcDbMaterial
  3
ObjectDBX Classes
 90
     1153
 91
        3
280
     0
281
     0
  0
CLASS
  1
VISUALSTYLE
  2
AcDbVisualStyle
  3
ObjectDBX Classes
 90
     4095
 91
       24
280
     0
281
     0
  0
CLASS
  1
SCALE
  2
AcDbScale
  3
ObjectDBX Classes
 90
     1153
 91
       33
280
     0
281
     0
  0
CLASS
  1
MLEADERSTYLE
  2
AcDbMLeaderStyle
  3
ACDB_MLEADERSTYLE_CLASS
 90
     4095
 91
        2
280
     0
281
     0
  0
CLASS
  1
CELLSTYLEMAP
  2
AcDbCellStyleMap
  3
ObjectDBX Classes
 90
     1152
 91
        1
280
     0
281
     0
  0
CLASS
  1
EXACXREFPANELOBJECT
  2
ExAcXREFPanelObject
  3
EXAC_ESW
 90
     1025
 91
        0
280
     0
281
     0
  0
CLASS
  1
NPOCOLLECTION
  2
AcDbImpNonPersistentObjectsCollection
  3
ObjectDBX Classes
 90
     1153
 91
        0
280
     0
281
     0
  0
CLASS
  1
LAYER_INDEX
  2
AcDbLayerIndex
  3
ObjectDBX Classes
 90
        0
 91
        0
280
     0
281
     0
  0
CLASS
  1
SPATIAL_INDEX
  2
AcDbSpatialIndex
  3
ObjectDBX Classes
 90
        0
 91
        0
280
     0
281
     0
  0
CLASS
  1
IDBUFFER
  2
AcDbIdBuffer
  3
ObjectDBX Classes
 90
        0
 91
        0
280
     0
281
     0
  0
CLASS
  1
ACDBSECTIONVIEWSTYLE
  2
AcDbSectionViewStyle
  3
ObjectDBX Classes
 90
     1025
 91
        5
280
     0
281
     0
  0
CLASS
  1
ACDBDETAILVIEWSTYLE
  2
AcDbDetailViewStyle
  3
ObjectDBX Classes
 90
     1025
 91
        5
280
     0
281
     0
  0
CLASS
  1
SORTENTSTABLE
  2
AcDbSortentsTable
  3
ObjectDBX Classes
 90
        0
 91
        0
280
     0
281
     0
  0
CLASS
  1
ACME_DOCUMENT
  2
AcMeDbDoc
  3
AcMeServices
 90
     1024
 91
        2
280
     0
281
     0
  0
CLASS
  1
AMGSETTINGSOBJ
  2
AmgSettingsObj
  3
"AcadM|Product Description: AutoCAD Mechanical|Company: Autodesk, Inc."
 90
     1024
 91
        2
280
     0
281
     0
  0
CLASS
  1
ACMESCOPE
  2
AcMeScope
  3
AcMeServices
 90
     1024
 91
        1
280
     0
281
     0
  0
CLASS
  1
ACMECOMMANDHISTORY
  2
AcMeCommandHistory
  3
AcMeServices
 90
     1024
 91
        1
280
     0
281
     0
  0
CLASS
  1
ACIMSYSVARMAN
  2
AcImSysVarManager
  3
AcMeServices
 90
     1024
 91
        3
280
     0
281
     0
  0
CLASS
  1
ACIMINTSYSVAR
  2
AcImIntSysVar
  3
AcMeServices
 90
     1024
 91
        2
280
     0
281
     0
  0
CLASS
  1
ACMESTATEMGR
  2
AcMeStateMgr
  3
AcMeServices
 90
     1024
 91
        1
280
     0
281
     0
  0
CLASS
  1
ACDBENTITYCACHE
  2
AcMeEntityCache
  3
AcMeServices
 90
     1024
 91
        1
280
     0
281
     0
  0
CLASS
  1
ACGREFMASTER
  2
AcGrefMaster
  3
AcAttribServices
 90
     1024
 91
        1
280
     0
281
     0
  0
CLASS
  1
ACME_DATABASE
  2
AcMeDbDatabase
  3
AcMeServices
 90
     1024
 91
        1
280
     0
281
     0
  0
CLASS
  1
ACRFINSADJUSTERMGR
  2
AcRfInsAdjusterMgr
  3
AcMeServices
 90
     1024
 91
        1
280
     0
281
     0
  0
CLASS
  1
ACGREFACADMASTER
  2
AcGrefacadMaster
  3
AcGrefServices
 90
     1024
 91
        1
280
     0
281
     0
  0
CLASS
  1
AMIMASTER
  2
AmiMaster
  3
AmiServices
 90
     1024
 91
        1
280
     0
281
     0
  0
CLASS
  1
AMDTMENUSTATEMGR
  2
AmdtMenuStateMgr
  3
McadcomServices
 90
     1024
 91
        1
280
     0
281
     0
  0
CLASS
  1
AMDTMCOMMENUSTATE
  2
AmdtMcomMenuState
  3
McadcomServices
 90
     1024
 91
        1
280
     0
281
     0
  0
CLASS
  1
MAPIAMMOUDLE
  2
MApiAmModule
  3
MApiAmServices
 90
     1024
 91
        1
280
     0
281
     0
  0
CLASS
  1
ACIMSTRSYSVAR
  2
AcImStrSysVar
  3
AcMeServices
 90
     1024
 91
        5
280
     0
281
     0
  0
CLASS
  1
AMDTAMMENUSTATE
  2
AmdtAmMenuState
  3
DesignerAssemblies_arx
 90
     1024
 91
        1
280
     0
281
     0
  0
CLASS
  1
ACAMPROJECT
  2
AcAmProject
  3
DesignerAssemblies
 90
     1024
 91
        1
280
     0
281
     0
  0
CLASS
  1
ACAMGRCOMPDEF
  2
AcAmGrCompDef
  3
DesignerAssemblies
 90
     1024
 91
        1
280
     0
281
     0
  0
CLASS
  1
ACAMCOMPDEF
  2
AcAmCompDef
  3
DesignerAssemblies
 90
     1024
 91
        1
280
     0
281
     0
  0
CLASS
  1
ACAMCOMPDEFMGR
  2
AcAmCompDefMgr
  3
DesignerAssemblies
 90
     1024
 91
        1
280
     0
281
     0
  0
CLASS
  1
AMCONTEXTMGR
  2
AcAmContextMgr
  3
DesignerAssemblies
 90
     1024
 91
        1
280
     0
281
     0
  0
CLASS
  1
ACAMCONTEXTMODELER
  2
AcAmContextModeler
  3
DesignerAssemblies
 90
     1024
 91
        1
280
     0
281
     0
  0
CLASS
  1
ACMDATADICTIONARY
  2
AcmDataDictionary
  3
"AcmSymBB|Product Description: AutoCAD Mechanical|Company: Autodesk, Inc."
 90
     1024
 91
        1
280
     0
281
     0
  0
CLASS
  1
ACAMGRCOMPDEFSET
  2
AcAmGrCompDefSet
  3
DesignerAssemblies
 90
     1024
 91
        1
280
     0
281
     0
  0
CLASS
  1
AMDTBROWSERDBTAB
  2
AmdtBrowserDbTab
  3
McadcomServices
 90
     1024
 91
        1
280
     0
281
     0
  0
CLASS
  1
CBROWSERAPPOBJECT
  2
CBrowserAppObject
  3
McadcomServices
 90
     1024
 91
        2
280
     0
281
     0
  0
CLASS
  1
DM_PLACEHOLDER
  2
AcDmSelsetPlaceholder
  3
McadcomServices
 90
     1024
 91
        1
280
     0
281
     0
  0
CLASS
  1
ACMSTANDARDANSI
  2
AcmStandardANSI
  3
"Amdt_StdImp|Product Description: AutoCAD Mechanical|Company: Autodesk, Inc."
 90
     1024
 91
        1
280
     0
281
     0
  0
CLASS
  1
ACMSURFSTANDARDANSI
  2
AcmSurfTextStdANSI
  3
"Amdt_StdImp|Product Description: AutoCAD Mechanical|Company: Autodesk, Inc."
 90
     1024
 91
        1
280
     0
281
     0
  0
CLASS
  1
ACMFCFSTANDARDANSI
  2
AcmFCFStdANSI
  3
"Amdt_StdImp|Product Description: AutoCAD Mechanical|Company: Autodesk, Inc."
 90
     1024
 91
        1
280
     0
281
     0
  0
CLASS
  1
ACMWELDSTANDARDANSI
  2
AcmWeldingStdANSI
  3
"Amdt_StdImp|Product Description: AutoCAD Mechanical|Company: Autodesk, Inc."
 90
     1024
 91
        1
280
     0
281
     0
  0
CLASS
  1
ACMIDSTANDARDANSI
  2
AcmIdStdANSI
  3
"Amdt_StdImp|Product Description: AutoCAD Mechanical|Company: Autodesk, Inc."
 90
     1024
 91
        1
280
     0
281
     0
  0
CLASS
  1
ACMDATUMSTANDARDANSI
  2
AcmDatumStdANSI
  3
"Amdt_StdImp|Product Description: AutoCAD Mechanical|Company: Autodesk, Inc."
 90
     1024
 91
        1
280
     0
281
     0
  0
CLASS
  1
ACMBOMSTANDARDANSI
  2
AcmBOMStdANSI
  3
"Amdt_StdImp|Product Description: AutoCAD Mechanical|Company: Autodesk, Inc."
 90
     1024
 91
        1
280
     0
281
     0
  0
CLASS
  1
ACMDETAILSTANDARDANSI
  2
AmdtDetailSymStdANSI
  3
"Amdt_StdImp|Product Description: AutoCAD Mechanical|Company: Autodesk, Inc."
 90
     1024
 91
        1
280
     0
281
     0
  0
CLASS
  1
ACMSECTIONSTANDARDANSI
  2
AmdtSectionSymStdANSI
  3
"Amdt_StdImp|Product Description: AutoCAD Mechanical|Company: Autodesk, Inc."
 90
     1024
 91
        1
280
     0
281
     0
  0
CLASS
  1
ACMCENTERLINESTANDARDANSI
  2
AmdtCenterLineStdANSI
  3
"Amdt_StdImp|Product Description: AutoCAD Mechanical|Company: Autodesk, Inc."
 90
     1024
 91
        1
280
     0
281
     0
  0
CLASS
  1
ACMTHREADLINESTANDARDANSI
  2
AmdtThreadLineStdANSI
  3
"Amdt_StdImp|Product Description: AutoCAD Mechanical|Company: Autodesk, Inc."
 90
     1024
 91
        1
280
     0
281
     0
  0
CLASS
  1
ACMNOTESTANDARDANSI
  2
AmdtNoteStdANSI
  3
"Amdt_StdImp|Product Description: AutoCAD Mechanical|Company: Autodesk, Inc."
 90
     1024
 91
        1
280
     0
281
     0
  0
CLASS
  1
ACMTAPERSTANDARDANSI
  2
AcmTaperStdANSI
  3
"Amdt_StdImp|Product Description: AutoCAD Mechanical|Company: Autodesk, Inc."
 90
     1024
 91
        1
280
     0
281
     0
  0
CLASS
  1
ACMANOOTATIONVIEWSTANDARDANSI
  2
AmdtAnViewStdANSI
  3
"Amdt_StdImp|Product Description: AutoCAD Mechanical|Company: Autodesk, Inc."
 90
     1024
 91
        1
280
     0
281
     0
  0
CLASS
  1
ACAMGLAYSTD
  2
AcAmgLayStd
  3
"AmgLay|Product Description: AutoCAD Mechanical|Company: Autodesk, Inc."
 90
     1024
 91
        2
280
     0
281
     0
  0
CLASS
  1
ACAMGTITLESTD
  2
AcAmgTitleStd
  3
"AmgTitle|Product Description: AutoCAD Mechanical|Company: Autodesk, Inc."
 90
     1024
 91
        2
280
     0
281
     0
  0
CLASS
  1
ACAMGDIMSTD
  2
AcAmgDimStd
  3
"AmgDim|Product Description: AutoCAD Mechanical|Company: Autodesk, Inc."
 90
     1024
 91
        2
280
     0
281
     0
  0
CLASS
  1
AMGOBJPROPCFG
  2
AmgObjPropCfg
  3
"AmgLay|Product Description: AutoCAD Mechanical|Company: Autodesk, Inc."
 90
     1024
 91
        1
280
     0
281
     0
  0
CLASS
  1
ACAMGHOLECHARTSTDANSI
  2
AcAmgHoleChartStdANSI
  3
"AmgDim" "Product Description: AutoCAD Mechanical|Company: Autodesk, Inc."
 90
     1024
 91
        1
280
     0
281
     0
  0
CLASS
  1
ACMSECTIONSTANDARDCUSTOM
  2
AmdtSectionSymStdCustom
  3
"Amdt_StdImp|Product Description: AutoCAD Mechanical|Company: Autodesk, Inc."
 90
     1024
 91
        6
280
     0
281
     0
  0
CLASS
  1
ACMDETAILTANDARDCUSTOM
  2
AmdtDetailSymStdCustom
  3
"Amdt_StdImp|Product Description: AutoCAD Mechanical|Company: Autodesk, Inc."
 90
     1024
 91
        6
280
     0
281
     0
  0
CLASS
  1
FIELD
  2
AcDbField
  3
ObjectDBX Classes
 90
     1152
 91
       11
280
     0
281
     0
  0
CLASS
  1
FIELDLIST
  2
AcDbFieldList
  3
ObjectDBX Classes
 90
     1152
 91
        1
280
     0
281
     0
  0
CLASS
  1
AMDTNOTETEMPLATEDB
  2
AmdtNoteTemplateDB
  3
"AcmSymBB" "Product Description: AutoCAD Mechanical|Company: Autodesk, Inc."
 90
     1024
 91
       14
280
     0
281
     0
  0
CLASS
  1
ACMSTANDARDISO
  2
AcmStandardISO
  3
"Amdt_StdImp|Product Description: AutoCAD Mechanical|Company: Autodesk, Inc."
 90
     1024
 91
        1
280
     0
281
     0
  0
CLASS
  1
AMDTEDGESTANDARDISO13715
  2
AmdtEdgeStdISO13715
  3
"Amdt_StdImp|Product Description: AutoCAD Mechanical|Company: Autodesk, Inc."
 90
     1024
 91
        1
280
     0
281
     0
  0
CLASS
  1
ACMSURFSTANDARDISO2002
  2
AcmSurfTextStdISO2002
  3
"Amdt_StdImp|Product Description: AutoCAD Mechanical|Company: Autodesk, Inc."
 90
     1024
 91
        1
280
     0
281
     0
  0
CLASS
  1
ACMFCFSTANDARDISO2012
  2
AcmFCFStdISO2012
  3
"Amdt_StdImp|Product Description: AutoCAD Mechanical|Company: Autodesk, Inc."
 90
     1024
 91
        1
280
     0
281
     0
  0
CLASS
  1
ACMWELDSTANDARDISO
  2
AcmWeldingStdISO
  3
"Amdt_StdImp|Product Description: AutoCAD Mechanical|Company: Autodesk, Inc."
 90
     1024
 91
        1
280
     0
281
     0
  0
CLASS
  1
ACMIDSTANDARDISO2012
  2
AcmIdStdISO2012
  3
"Amdt_StdImp|Product Description: AutoCAD Mechanical|Company: Autodesk, Inc."
 90
     1024
 91
        1
280
     0
281
     0
  0
CLASS
  1
ACMDATUMSTANDARDISO2012
  2
AcmDatumStdISO2012
  3
"Amdt_StdImp|Product Description: AutoCAD Mechanical|Company: Autodesk, Inc."
 90
     1024
 91
        1
280
     0
281
     0
  0
CLASS
  1
ACMBOMSTANDARDISO
  2
AcmBOMStdISO
  3
"Amdt_StdImp|Product Description: AutoCAD Mechanical|Company: Autodesk, Inc."
 90
     1024
 91
        1
280
     0
281
     0
  0
CLASS
  1
ACMDETAILSTANDARDISO
  2
AmdtDetailSymStdISO
  3
"Amdt_StdImp|Product Description: AutoCAD Mechanical|Company: Autodesk, Inc."
 90
     1024
 91
        1
280
     0
281
     0
  0
CLASS
  1
ACMSECTIONSTANDARDISO2001
  2
AmdtSectionSymStdISO2001
  3
"Amdt_StdImp|Product Description: AutoCAD Mechanical|Company: Autodesk, Inc."
 90
     1024
 91
        1
280
     0
281
     0
  0
CLASS
  1
ACMCENTERLINESTANDARDISO
  2
AmdtCenterLineStdISO
  3
"Amdt_StdImp|Product Description: AutoCAD Mechanical|Company: Autodesk, Inc."
 90
     1024
 91
        1
280
     0
281
     0
  0
CLASS
  1
ACMTHREADLINESTANDARDISO
  2
AmdtThreadLineStdISO
  3
"Amdt_StdImp|Product Description: AutoCAD Mechanical|Company: Autodesk, Inc."
 90
     1024
 91
        1
280
     0
281
     0
  0
CLASS
  1
ACMNOTESTANDARDISO
  2
AmdtNoteStdISO
  3
"Amdt_StdImp|Product Description: AutoCAD Mechanical|Company: Autodesk, Inc."
 90
     1024
 91
        1
280
     0
281
     0
  0
CLASS
  1
ACMTAPERSTANDARDISO
  2
AcmTaperStdISO
  3
"Amdt_StdImp|Product Description: AutoCAD Mechanical|Company: Autodesk, Inc."
 90
     1024
 91
        1
280
     0
281
     0
  0
CLASS
  1
ACMANOOTATIONVIEWSTANDARDISO
  2
AmdtAnViewStdISO
  3
"Amdt_StdImp|Product Description: AutoCAD Mechanical|Company: Autodesk, Inc."
 90
     1024
 91
        1
280
     0
281
     0
  0
CLASS
  1
ACAMGHOLECHARTSTDISO
  2
AcAmgHoleChartStdISO
  3
"AmgDim" "Product Description: AutoCAD Mechanical|Company: Autodesk, Inc."
 90
     1024
 91
        1
280
     0
281
     0
  0
CLASS
  1
ACAMGFILTERDAT
  2
AcAmgFilterDat
  3
"AcadM|Product Description: AutoCAD Mechanical|Company: Autodesk, Inc."
 90
     1024
 91
        6
280
     0
281
     0
  0
CLASS
  1
CAMSSTRUCTBTNSTATE
  2
StructBtnState
  3
DesignerAssemblies_arx
 90
     1024
 91
        1
280
     0
281
     0
  0
ENDSEC
  0
SECTION
  2
TABLES
  0
TABLE
  2
VPORT
  5
8
330
0
100
AcDbSymbolTable
 70
     1
1001
ACAD
1000
DbSaveVer
1071
      123
  0
VPORT
  5
94
330
8
100
AcDbSymbolTableRecord
100
AcDbViewportTableRecord
  2
*Active
 70
     0
 10
0.0
 20
0.0
 11
1.0
 21
1.0
 12
2657.327384237627
 22
2958.69735248179
 13
0.0
 23
0.0
 14
0.5
 24
0.5
 15
0.5
 25
0.5
 16
0.0
 26
0.0
 36
1.0
 17
0.0
 27
0.0
 37
0.0
 40
4885.633039344777
 41
2.153519932145886
 42
50.0
 43
0.0
 44
0.0
 50
0.0
 51
0.0
 71
     0
 72
  1000
 73
     1
 74
     3
 75
     0
 76
     1
 77
     0
 78
     0
281
     0
 65
     1
110
0.0
120
0.0
130
0.0
111
1.0
121
0.0
131
0.0
112
0.0
122
1.0
132
0.0
 79
     0
146
0.0
348
9F
 60
     3
 61
     5
292
     1
282
     1
141
0.0
142
0.0
 63
   250
421
  3355443
1001
ACAD_NAV_VCDISPLAY
1070
     3
  0
ENDTAB
  0
TABLE
  2
LTYPE
  5
5
330
0
100
AcDbSymbolTable
 70
    19
  0
LTYPE
  5
14
330
5
100
AcDbSymbolTableRecord
100
AcDbLinetypeTableRecord
  2
ByBlock
 70
     0
  3

 72
    65
 73
     0
 40
0.0
  0
LTYPE
  5
15
330
5
100
AcDbSymbolTableRecord
100
AcDbLinetypeTableRecord
  2
ByLayer
 70
     0
  3

 72
    65
 73
     0
 40
0.0
  0
LTYPE
  5
16
330
5
100
AcDbSymbolTableRecord
100
AcDbLinetypeTableRecord
  2
Continuous
 70
     0
  3
Solid line
 72
    65
 73
     0
 40
0.0
  0
LTYPE
  5
88F
330
5
100
AcDbSymbolTableRecord
100
AcDbLinetypeTableRecord
  2
HIDDEN
 70
     0
  3
Hidden __ __ __ __ __ __ __ __ __ __ __ __ __ _
 72
    65
 73
     2
 40
0.375
 49
0.25
 74
     0
 49
-0.125
 74
     0
  0
LTYPE
  5
890
330
5
100
AcDbSymbolTableRecord
100
AcDbLinetypeTableRecord
  2
PHANTOM2
 70
     0
  3
Phantom (.5x) ___ _ _ ___ _ _ ___ _ _ ___ _ _
 72
    65
 73
     6
 40
1.25
 49
0.625
 74
     0
 49
-0.125
 74
     0
 49
0.125
 74
     0
 49
-0.125
 74
     0
 49
0.125
 74
     0
 49
-0.125
 74
     0
  0
LTYPE
  5
891
330
5
100
AcDbSymbolTableRecord
100
AcDbLinetypeTableRecord
  2
CENTER
 70
     0
  3
Center ____ _ ____ _ ____ _ ____ _ ____ _ ____
 72
    65
 73
     4
 40
2.0
 49
1.25
 74
     0
 49
-0.25
 74
     0
 49
0.25
 74
     0
 49
-0.25
 74
     0
  0
LTYPE
  5
8CB
330
5
100
AcDbSymbolTableRecord
100
AcDbLinetypeTableRecord
  2
AM_ISO02W050
 70
     0
  3
__ __ __ __ __ __ __ __ __ __ __ __ __ __ __
 72
    65
 73
     2
 40
7.5
 49
6.0
 74
     0
 49
-1.5
 74
     0
  0
LTYPE
  5
8CC
330
5
100
AcDbSymbolTableRecord
100
AcDbLinetypeTableRecord
  2
AM_ISO08W050
 70
     0
  3
____ . ____ . ____ . ____ . ____ . ____ . ____
 72
    65
 73
     4
 40
18.0
 49
12.0
 74
     0
 49
-1.5
 74
     0
 49
3.0
 74
     0
 49
-1.5
 74
     0
  0
LTYPE
  5
8CD
330
5
100
AcDbSymbolTableRecord
100
AcDbLinetypeTableRecord
  2
AM_ISO09W050
 70
     0
  3
_____ . . _____ . . _____ . . ____ .. ____
 72
    65
 73
     6
 40
22.5
 49
12.0
 74
     0
 49
-1.5
 74
     0
 49
3.0
 74
     0
 49
-1.5
 74
     0
 49
3.0
 74
     0
 49
-1.5
 74
     0
  0
LTYPE
  5
8CE
330
5
100
AcDbSymbolTableRecord
100
AcDbLinetypeTableRecord
  2
Amconstr
 70
     0
  3
_______________________
 72
    65
 73
     2
 40
9999.0
 49
9999.0
 74
     0
 49
0.0
 74
     0
  0
LTYPE
  5
8CF
330
5
100
AcDbSymbolTableRecord
100
AcDbLinetypeTableRecord
  2
AM_ISO08W050x2
 70
     0
  3
__ . __ . __ . __ . __ . __
 72
    65
 73
     4
 40
9.0
 49
6.0
 74
     0
 49
-0.75
 74
     0
 49
1.5
 74
     0
 49
-0.75
 74
     0
  0
LTYPE
  5
8D0
330
5
100
AcDbSymbolTableRecord
100
AcDbLinetypeTableRecord
  2
AM_ISO02W050x2
 70
     0
  3
 _ _ _ _ _ _ _ _ _ _ _ _
 72
    65
 73
     2
 40
3.75
 49
3.0
 74
     0
 49
-0.75
 74
     0
  0
LTYPE
  5
8D3
330
5
100
AcDbSymbolTableRecord
100
AcDbLinetypeTableRecord
  2
Amzigzag
 70
     0
  3
/\/-/\/-/\/-/\/-/\/-/\/
 72
    65
 73
     2
 40
11.0001
 49
0.0001
 74
     4
 75
   136
340
8D2
 46
0.04
 50
0.0
 44
0.0
 45
0.0
 49
-11.0
 74
     0
  0
LTYPE
  5
8D4
330
5
100
AcDbSymbolTableRecord
100
AcDbLinetypeTableRecord
  2
CENTER2
 70
     0
  3
Center (.5x) ___ _ ___ _ ___ _ ___ _ ___ _ ___
 72
    65
 73
     4
 40
1.125
 49
0.75
 74
     0
 49
-0.125
 74
     0
 49
0.125
 74
     0
 49
-0.125
 74
     0
  0
LTYPE
  5
8D5
330
5
100
AcDbSymbolTableRecord
100
AcDbLinetypeTableRecord
  2
HIDDEN2
 70
     0
  3
Hidden (.5x) _ _ _ _ _ _ _ _ _ _ _ _ _ _ _ _ _
 72
    65
 73
     2
 40
0.1875
 49
0.125
 74
     0
 49
-0.0625
 74
     0
  0
LTYPE
  5
8D6
330
5
100
AcDbSymbolTableRecord
100
AcDbLinetypeTableRecord
  2
Amzigzag2
 70
     0
  3
/\/-/\/-/\/-/\/-/\/-/\/
 72
    65
 73
     2
 40
0.4401
 49
0.0001
 74
     4
 75
   136
340
8D2
 46
0.0016
 50
0.0
 44
0.0
 45
0.0
 49
-0.4400000000000001
 74
     0
  0
LTYPE
  5
8E7
330
5
100
AcDbSymbolTableRecord
100
AcDbLinetypeTableRecord
  2
ACANSTGB
 70
     0
  3
__ . . __ . .
 72
    65
 73
     6
 40
0.35433070866
 49
0.15748031496
 74
     0
 49
-0.03937007874
 74
     0
 49
0.03937007874
 74
     0
 49
-0.03937007874
 74
     0
 49
0.03937007874
 74
     0
 49
-0.03937007874
 74
     0
  0
LTYPE
  5
8E8
330
5
100
AcDbSymbolTableRecord
100
AcDbLinetypeTableRecord
  2
ACANSTGL
 70
     0
  3
_ _ _ _ _
 72
    65
 73
     2
 40
0.11811023622
 49
0.07874015748
 74
     0
 49
-0.03937007874
 74
     0
  0
LTYPE
  5
8FF
330
5
100
AcDbSymbolTableRecord
100
AcDbLinetypeTableRecord
  2
ACISOWELD
 70
     0
  3
_ _ _ _ _
 72
    65
 73
     2
 40
2.0
 49
2.0
 74
     0
 49
-1.0
 74
     0
  0
LTYPE
  5
900
330
5
100
AcDbSymbolTableRecord
100
AcDbLinetypeTableRecord
  2
ACISOTGL
 70
     0
  3
_ _ _ _ _
 72
    65
 73
     2
 40
3.0
 49
2.0
 74
     0
 49
-1.0
 74
     0
  0
LTYPE
  5
901
330
5
100
AcDbSymbolTableRecord
100
AcDbLinetypeTableRecord
  2
ACISOTGB
 70
     0
  3
__ . . __ . .
 72
    65
 73
     6
 40
9.0
 49
4.0
 74
     0
 49
-1.0
 74
     0
 49
1.0
 74
     0
 49
-1.0
 74
     0
 49
1.0
 74
     0
 49
-1.0
 74
     0
  0
ENDTAB
  0
TABLE
  2
LAYER
  5
2
102
{ACAD_XDICTIONARY
360
18E
102
}
330
0
100
AcDbSymbolTable
 70
     7
  0
LAYER
  5
10
102
{ACAD_XDICTIONARY
360
E6
102
}
330
2
100
AcDbSymbolTableRecord
100
AcDbLayerTableRecord
  2
0
 70
     0
 62
     7
  6
Continuous
370
    -3
390
F
347
98
348
0
  0
LAYER
  5
2EC
330
2
100
AcDbSymbolTableRecord
100
AcDbLayerTableRecord
  2
LINE
 70
     0
 62
     7
  6
Continuous
370
     5
390
F
347
98
348
0
1001
AcAecLayerStandard
1000

1000

1001
AcCmTransparency
1071
        0
  0
LAYER
  5
3D2
330
2
100
AcDbSymbolTableRecord
100
AcDbLayerTableRecord
  2
Dimension (ANSI)
 70
     0
 62
     7
  6
Continuous
370
    25
390
F
347
98
348
0
  0
LAYER
  5
3D3
330
2
100
AcDbSymbolTableRecord
100
AcDbLayerTableRecord
  2
Visible (ANSI)
 70
     0
 62
     7
  6
Continuous
370
    50
390
F
347
98
348
0
  0
LAYER
  5
707
330
2
100
AcDbSymbolTableRecord
100
AcDbLayerTableRecord
  2
ASHADE
 70
     0
 62
    90
  6
Continuous
370
    -3
390
708
347
98
348
0
  0
LAYER
  5
ACE
102
{ACAD_XDICTIONARY
360
ACF
102
}
330
2
100
AcDbSymbolTableRecord
100
AcDbLayerTableRecord
  2
Layer 1
 70
     0
 62
   255
  6
Continuous
370
    -3
390
F
347
98
348
0
  0
LAYER
  5
AD0
330
2
100
AcDbSymbolTableRecord
100
AcDbLayerTableRecord
  2
Text
 70
     0
 62
     7
  6
Continuous
370
    -3
390
F
347
98
348
0
1001
AcAecLayerStandard
1000

1000

  0
ENDTAB
  0
TABLE
  2
STYLE
  5
3
330
0
100
AcDbSymbolTable
 70
     7
  0
STYLE
  5
11
330
3
100
AcDbSymbolTableRecord
100
AcDbTextStyleTableRecord
  2
Standard
 70
     0
 40
0.0
 41
1.0
 50
0.0
 71
     0
 42
0.2
  3
arial.ttf
  4

1001
ACAD
1000
Arial
1071
       34
  0
STYLE
  5
DC
330
3
100
AcDbSymbolTableRecord
100
AcDbTextStyleTableRecord
  2
Annotative
 70
     0
 40
0.0
 41
1.0
 50
0.0
 71
     0
 42
0.2
  3
arial.ttf
  4

1001
AcadAnnotative
1000
AnnotativeData
1002
{
1070
     1
1070
     1
1002
}
1001
ACAD
1000
Arial
1071
       34
  0
STYLE
  5
3D4
330
3
100
AcDbSymbolTableRecord
100
AcDbTextStyleTableRecord
  2
Note Text (ANSI)
 70
     0
 40
0.0
 41
1.0
 50
0.0
 71
     0
 42
0.2
  3
apercu_regular-webfont_0.ttf
  4

1001
ACAD
1000
Apercu
1071
      256
  0
STYLE
  5
8D2
330
3
100
AcDbSymbolTableRecord
100
AcDbTextStyleTableRecord
  2

 70
     1
 40
0.0
 41
1.0
 50
0.0
 71
     0
 42
0.2
  3
genltshp.shx
  4

  0
STYLE
  5
8E5
330
3
100
AcDbSymbolTableRecord
100
AcDbTextStyleTableRecord
  2
ACANSTS
 70
     0
 40
0.0
 41
1.0
 50
0.0
 71
     0
 42
0.2
  3
romans.shx
  4

  0
STYLE
  5
8E6
330
3
100
AcDbSymbolTableRecord
100
AcDbTextStyleTableRecord
  2
ACANSGDT
 70
     0
 40
0.0
 41
1.0
 50
0.0
 71
     0
 42
0.2
  3
amgdt.shx
  4

  0
STYLE
  5
902
330
3
100
AcDbSymbolTableRecord
100
AcDbTextStyleTableRecord
  2
ACISOGDT
 70
     0
 40
0.0
 41
1.0
 50
0.0
 71
     0
 42
0.2
  3
amgdt.shx
  4

  0
ENDTAB
  0
TABLE
  2
VIEW
  5
6
330
0
100
AcDbSymbolTable
 70
     0
  0
ENDTAB
  0
TABLE
  2
UCS
  5
7
330
0
100
AcDbSymbolTable
 70
     0
  0
ENDTAB
  0
TABLE
  2
APPID
  5
9
330
0
100
AcDbSymbolTable
 70
    16
  0
APPID
  5
12
330
9
100
AcDbSymbolTableRecord
100
AcDbRegAppTableRecord
  2
ACAD
 70
     0
  0
APPID
  5
DD
330
9
100
AcDbSymbolTableRecord
100
AcDbRegAppTableRecord
  2
AcadAnnoPO
 70
     0
  0
APPID
  5
DE
330
9
100
AcDbSymbolTableRecord
100
AcDbRegAppTableRecord
  2
AcadAnnotative
 70
     0
  0
APPID
  5
DF
330
9
100
AcDbSymbolTableRecord
100
AcDbRegAppTableRecord
  2
ACAD_DSTYLE_DIMJAG
 70
     0
  0
APPID
  5
E0
330
9
100
AcDbSymbolTableRecord
100
AcDbRegAppTableRecord
  2
ACAD_DSTYLE_DIMTALN
 70
     0
  0
APPID
  5
107
330
9
100
AcDbSymbolTableRecord
100
AcDbRegAppTableRecord
  2
ACAD_MLEADERVER
 70
     0
  0
APPID
  5
1A6
330
9
100
AcDbSymbolTableRecord
100
AcDbRegAppTableRecord
  2
ACAD_NAV_VCDISPLAY
 70
     0
  0
APPID
  5
2ED
330
9
100
AcDbSymbolTableRecord
100
AcDbRegAppTableRecord
  2
AcAecLayerStandard
 70
     0
  0
APPID
  5
2EE
330
9
100
AcDbSymbolTableRecord
100
AcDbRegAppTableRecord
  2
AcCmTransparency
 70
     0
  0
APPID
  5
382
330
9
100
AcDbSymbolTableRecord
100
AcDbRegAppTableRecord
  2
ACAD_EXEMPT_FROM_CAD_STANDARDS
 70
     0
  0
APPID
  5
888
330
9
100
AcDbSymbolTableRecord
100
AcDbRegAppTableRecord
  2
MCAD_NO_VIS
 70
     0
  0
APPID
  5
889
330
9
100
AcDbSymbolTableRecord
100
AcDbRegAppTableRecord
  2
ACAD_TEMP_GRAPHIC
 70
     0
  0
APPID
  5
896
330
9
100
AcDbSymbolTableRecord
100
AcDbRegAppTableRecord
  2
ACATTRIBSERVICES
 70
     0
  0
APPID
  5
8AE
330
9
100
AcDbSymbolTableRecord
100
AcDbRegAppTableRecord
  2
DESIGNERASSEMBLIES
 70
     0
  0
APPID
  5
8C9
330
9
100
AcDbSymbolTableRecord
100
AcDbRegAppTableRecord
  2
ACAD_DSTYLE_DIMBREAK
 70
     0
  0
APPID
  5
AD1
330
9
100
AcDbSymbolTableRecord
100
AcDbRegAppTableRecord
  2
ACAD_PSEXT
 70
     0
  0
ENDTAB
  0
TABLE
  2
DIMSTYLE
  5
A
330
0
100
AcDbSymbolTable
 70
    16
100
AcDbDimStyleTable
 71
     2
340
27
340
E1
  0
DIMSTYLE
105
27
330
A
100
AcDbSymbolTableRecord
100
AcDbDimStyleTableRecord
  2
Standard
 70
     0
340
11
  0
DIMSTYLE
105
E1
330
A
100
AcDbSymbolTableRecord
100
AcDbDimStyleTableRecord
  2
Annotative
 70
     0
 40
0.0
340
11
1001
AcadAnnotative
1000
AnnotativeData
1002
{
1070
     1
1070
     1
1002
}
1001
ACAD_DSTYLE_DIMJAG
1070
   388
1040
1.5
1001
ACAD_DSTYLE_DIMTALN
1070
   392
1070
     0
  0
DIMSTYLE
105
3D5
330
A
100
AcDbSymbolTableRecord
100
AcDbDimStyleTableRecord
  2
Default - mm (ANSI)
 70
     0
 40
10.0
 41
2.5
 42
1.600199999999999
 43
5.999999999999999
 44
3.174999999999998
 45
0.00000001
 73
     0
 78
    12
 79
     1
140
3.048000097274779
143
1.0
147
0.8
171
     0
176
   256
177
   256
178
   256
271
     1
272
     2
274
     1
284
     4
285
     4
340
3D4
342
3CE
371
    -1
372
    -1
  0
DIMSTYLE
105
8C8
102
{ACAD_REACTORS
330
8B7
102
}
330
A
100
AcDbSymbolTableRecord
100
AcDbDimStyleTableRecord
  2
AM_ANSI
 70
     0
  4
mm
 41
0.12
 42
0.05
 43
0.5
 44
0.1
 47
0.1
 48
0.1
 78
     7
 79
     2
 90
     1
140
0.12
141
0.0
146
0.71
147
0.06
176
   256
177
   256
178
     2
274
     4
284
     7
340
11
345
14
346
14
347
14
371
    -1
372
    -1
1001
ACAD_DSTYLE_DIMJAG
1070
   388
1040
1.5
1001
ACAD_DSTYLE_DIMBREAK
1070
   391
1040
0.125
  0
DIMSTYLE
105
8D7
330
A
100
AcDbSymbolTableRecord
100
AcDbDimStyleTableRecord
  2
AM_ANSI$3
 70
     0
  4
mm
 41
0.12
 42
0.05
 43
0.5
 44
0.1
 47
0.1
 48
0.1
 78
     7
 79
     2
 90
     1
140
0.12
141
0.0
146
0.71
147
0.06
176
   256
177
   256
178
     2
274
     4
284
     7
288
     1
289
     0
340
11
345
14
346
14
347
14
371
    -1
372
    -1
1001
ACAD_DSTYLE_DIMBREAK
1070
   391
1040
0.125
1001
ACAD_DSTYLE_DIMJAG
1070
   388
1040
1.5
  0
DIMSTYLE
105
8D8
330
A
100
AcDbSymbolTableRecord
100
AcDbDimStyleTableRecord
  2
AM_ANSI$4
 70
     0
  4
mm
 41
0.12
 42
0.05
 43
0.5
 44
0.1
 47
0.1
 48
0.1
 78
     7
 79
     2
 90
     1
140
0.12
141
0.0
146
0.71
147
0.06
176
   256
177
   256
178
     2
274
     4
284
     7
288
     1
289
     0
340
11
345
14
346
14
347
14
371
    -1
372
    -1
1001
ACAD_DSTYLE_DIMBREAK
1070
   391
1040
0.125
1001
ACAD_DSTYLE_DIMJAG
1070
   388
1040
1.5
  0
DIMSTYLE
105
8D9
330
A
100
AcDbSymbolTableRecord
100
AcDbDimStyleTableRecord
  2
AM_ANSI$7
 70
     0
  4
mm
 41
0.12
 42
0.05
 43
0.5
 44
0.1
 47
0.1
 48
0.1
 78
     7
 79
     2
 90
     1
140
0.12
141
0.0
146
0.71
147
0.06
176
   256
177
   256
178
     2
274
     4
284
     7
340
11
345
14
346
14
347
14
371
    -1
372
    -1
1001
ACAD_DSTYLE_DIMBREAK
1070
   391
1040
0.125
1001
ACAD_DSTYLE_DIMJAG
1070
   388
1040
1.5
  0
DIMSTYLE
105
8DA
330
A
100
AcDbSymbolTableRecord
100
AcDbDimStyleTableRecord
  2
AM_ANSI$SF
 70
     0
  4
mm
 41
0.12
 42
0.05
 43
0.5
 44
0.1
 47
0.1
 48
0.1
 75
     1
 76
     1
 78
     7
 79
     2
 90
     1
140
0.12
141
0.0
146
0.71
147
0.06
176
   256
177
   256
178
     2
274
     4
284
     7
340
11
345
14
346
14
347
14
371
    -1
372
    -1
1001
ACAD_DSTYLE_DIMBREAK
1070
   391
1040
0.125
1001
ACAD_DSTYLE_DIMJAG
1070
   388
1040
1.5
  0
DIMSTYLE
105
8DF
330
A
100
AcDbSymbolTableRecord
100
AcDbDimStyleTableRecord
  2
AM_ANSI$SH
 70
     0
  4
mm
 41
0.12
 42
0.05
 43
0.5
 44
0.1
 47
0.1
 48
0.1
 75
     1
 76
     1
 78
     7
 79
     2
 90
     1
140
0.12
141
0.0
146
0.71
147
0.06
173
     1
176
   256
177
   256
178
     2
274
     4
284
     7
340
11
343
8DB
345
14
346
14
347
14
371
    -1
372
    -1
1001
ACAD_DSTYLE_DIMBREAK
1070
   391
1040
0.125
1001
ACAD_DSTYLE_DIMJAG
1070
   388
1040
1.5
  0
DIMSTYLE
105
903
102
{ACAD_REACTORS
330
9D9
102
}
330
A
100
AcDbSymbolTableRecord
100
AcDbDimStyleTableRecord
  2
AM_ISO
 70
     0
  4
"
 41
3.5
 42
1.0
 43
10.0
 44
1.0
 47
0.1
 48
0.1
 73
     0
 74
     0
 77
     1
 78
     8
 79
     2
 90
     1
140
3.5
141
0.0
143
0.0393701
146
0.71
147
1.5
172
     1
176
   256
177
   256
178
     2
271
     2
272
     3
274
     4
283
     0
284
     8
340
11
345
14
346
14
347
14
371
    -1
372
    -1
1001
ACAD_DSTYLE_DIMJAG
1070
   388
1040
1.5
1001
ACAD_DSTYLE_DIMBREAK
1070
   391
1040
3.75
  0
DIMSTYLE
105
904
330
A
100
AcDbSymbolTableRecord
100
AcDbDimStyleTableRecord
  2
AM_ISO$3
 70
     0
  4
"
 41
3.5
 42
1.0
 43
10.0
 44
1.0
 47
0.1
 48
0.1
 73
     0
 77
     1
 78
     8
 79
     2
 90
     1
140
3.5
141
0.0
143
0.0393701
146
0.71
147
1.5
176
   256
177
   256
178
     2
271
     2
272
     3
274
     4
283
     0
284
     8
288
     1
289
     0
340
11
345
14
346
14
347
14
371
    -1
372
    -1
1001
ACAD_DSTYLE_DIMBREAK
1070
   391
1040
3.75
1001
ACAD_DSTYLE_DIMJAG
1070
   388
1040
1.5
  0
DIMSTYLE
105
905
330
A
100
AcDbSymbolTableRecord
100
AcDbDimStyleTableRecord
  2
AM_ISO$4
 70
     0
  4
"
 41
3.5
 42
1.0
 43
10.0
 44
1.0
 47
0.1
 48
0.1
 73
     0
 77
     1
 78
     8
 79
     2
 90
     1
140
3.5
141
0.0
143
0.0393701
146
0.71
147
1.5
176
   256
177
   256
178
     2
271
     2
272
     3
274
     4
283
     0
284
     8
288
     1
289
     0
340
11
345
14
346
14
347
14
371
    -1
372
    -1
1001
ACAD_DSTYLE_DIMBREAK
1070
   391
1040
3.75
1001
ACAD_DSTYLE_DIMJAG
1070
   388
1040
1.5
  0
DIMSTYLE
105
906
330
A
100
AcDbSymbolTableRecord
100
AcDbDimStyleTableRecord
  2
AM_ISO$6
 70
     0
  4
"
 41
3.5
 42
1.0
 43
10.0
 44
1.0
 47
0.1
 48
0.1
 73
     0
 74
     0
 78
     8
 79
     2
 90
     1
140
3.5
141
0.0
143
0.0393701
146
0.71
147
1.5
172
     1
176
   256
177
   256
178
     2
271
     2
272
     3
274
     4
283
     0
284
     8
340
11
345
14
346
14
347
14
371
    -1
372
    -1
1001
ACAD_DSTYLE_DIMBREAK
1070
   391
1040
3.75
1001
ACAD_DSTYLE_DIMJAG
1070
   388
1040
1.5
  0
DIMSTYLE
105
907
330
A
100
AcDbSymbolTableRecord
100
AcDbDimStyleTableRecord
  2
AM_ISO$7
 70
     0
  4
"
 41
3.5
 42
1.0
 43
10.0
 44
1.0
 47
0.1
 48
0.1
 73
     0
 74
     0
 77
     1
 78
     8
 79
     2
 90
     1
140
3.5
141
0.0
143
0.0393701
146
0.71
147
1.5
172
     1
176
   256
177
   256
178
     2
271
     2
272
     3
274
     4
283
     0
284
     8
340
11
345
14
346
14
347
14
371
    -1
372
    -1
1001
ACAD_DSTYLE_DIMBREAK
1070
   391
1040
3.75
1001
ACAD_DSTYLE_DIMJAG
1070
   388
1040
1.5
  0
DIMSTYLE
105
908
330
A
100
AcDbSymbolTableRecord
100
AcDbDimStyleTableRecord
  2
AM_ISO$SF
 70
     0
  4
"
 41
3.5
 42
1.0
 43
10.0
 44
1.0
 47
0.1
 48
0.1
 73
     0
 74
     0
 75
     1
 76
     1
 77
     1
 78
     8
 79
     2
 90
     1
140
3.5
141
0.0
143
0.0393701
146
0.71
147
1.5
172
     1
176
   256
177
   256
178
     2
271
     2
272
     3
274
     4
283
     0
284
     8
340
11
345
14
346
14
347
14
371
    -1
372
    -1
1001
ACAD_DSTYLE_DIMBREAK
1070
   391
1040
3.75
1001
ACAD_DSTYLE_DIMJAG
1070
   388
1040
1.5
  0
DIMSTYLE
105
909
330
A
100
AcDbSymbolTableRecord
100
AcDbDimStyleTableRecord
  2
AM_ISO$SH
 70
     0
  4
"
 41
3.5
 42
1.0
 43
10.0
 44
1.0
 47
0.1
 48
0.1
 73
     0
 74
     0
 75
     1
 76
     1
 77
     1
 78
     8
 79
     2
 90
     1
140
3.5
141
0.0
143
0.0393701
144
2.0
146
0.71
147
1.5
172
     1
173
     1
176
   256
177
   256
178
     2
271
     2
272
     3
274
     4
283
     0
284
     8
340
11
343
8DB
345
14
346
14
347
14
371
    -1
372
    -1
1001
ACAD_DSTYLE_DIMBREAK
1070
   391
1040
3.75
1001
ACAD_DSTYLE_DIMJAG
1070
   388
1040
1.5
  0
ENDTAB
  0
TABLE
  2
BLOCK_RECORD
  5
1
330
0
100
AcDbSymbolTable
 70
     6
  0
BLOCK_RECORD
  5
1F
102
{ACAD_XDICTIONARY
360
15D
102
}
330
1
100
AcDbSymbolTableRecord
100
AcDbBlockTableRecord
  2
*Model_Space
340
22
 70
     0
280
     1
281
     0
  0
BLOCK_RECORD
  5
58
330
1
100
AcDbSymbolTableRecord
100
AcDbBlockTableRecord
  2
*Paper_Space
340
59
 70
     0
280
     1
281
     0
  0
BLOCK_RECORD
  5
B29
330
1
100
AcDbSymbolTableRecord
100
AcDbBlockTableRecord
  2
*Paper_Space0
340
B2A
 70
     0
280
     1
281
     0
  0
BLOCK_RECORD
  5
3CE
330
1
100
AcDbSymbolTableRecord
100
AcDbBlockTableRecord
  2
_Oblique
340
0
 70
     0
280
     1
281
     0
  0
BLOCK_RECORD
  5
8DB
330
1
100
AcDbSymbolTableRecord
100
AcDbBlockTableRecord
  2
GENAXEH
340
0
 70
     0
280
     1
281
     0
  0
BLOCK_RECORD
  5
8EA
330
1
100
AcDbSymbolTableRecord
100
AcDbBlockTableRecord
  2
_ACMFILLEDHALF
340
0
 70
     0
280
     1
281
     0
  0
BLOCK_RECORD
  5
5D
330
1
100
AcDbSymbolTableRecord
100
AcDbBlockTableRecord
  2
*Paper_Space5
340
5E
 70
     0
280
     1
281
     0
  0
ENDTAB
  0
ENDSEC
  0
SECTION
  2
BLOCKS
  0
BLOCK
  5
20
330
1F
100
AcDbEntity
  8
0
100
AcDbBlockBegin
  2
*Model_Space
 70
     0
 10
0.0
 20
0.0
 30
0.0
  3
*Model_Space
  1

  0
ENDBLK
  5
21
330
1F
100
AcDbEntity
  8
0
100
AcDbBlockEnd
  0
BLOCK
  5
5A
330
58
100
AcDbEntity
 67
     1
  8
0
100
AcDbBlockBegin
  2
*Paper_Space
 70
     0
 10
0.0
 20
0.0
 30
0.0
  3
*Paper_Space
  1

  0
ENDBLK
  5
5B
330
58
100
AcDbEntity
 67
     1
  8
0
100
AcDbBlockEnd
  0
BLOCK
  5
B2B
330
B29
100
AcDbEntity
 67
     1
  8
0
100
AcDbBlockBegin
  2
*Paper_Space0
 70
     0
 10
0.0
 20
0.0
 30
0.0
  3
*Paper_Space0
  1

  0
VIEWPORT
  5
B37
102
{ACAD_XDICTIONARY
360
B38
102
}
330
B29
100
AcDbEntity
 67
     1
  8
0
100
AcDbViewport
 10
5.647083793099471
 20
3.935416570798618
 30
0.0
 40
20.31387443263657
 41
8.746133096049151
 68
     0
 69
     0
 12
5.647083793099471
 22
3.935416570798618
 13
0.0
 23
0.0
 14
10.0
 24
10.0
 15
10.0
 25
10.0
 16
0.0
 26
0.0
 36
1.0
 17
0.0
 27
0.0
 37
0.0
 42
50.0
 43
0.0
 44
0.0
 45
8.746133096049151
 50
0.0
 51
0.0
 72
  1000
 90
   819232
  1

281
     0
 71
     1
 74
     0
110
0.0
120
0.0
130
0.0
111
1.0
121
0.0
131
0.0
112
0.0
122
1.0
132
0.0
 79
     0
146
0.0
170
     0
 61
     5
348
9F
292
     1
282
     1
141
0.0
142
0.0
 63
   250
421
  3355443
  0
ENDBLK
  5
B2C
330
B29
100
AcDbEntity
 67
     1
  8
0
100
AcDbBlockEnd
  0
BLOCK
  5
3CF
330
3CE
100
AcDbEntity
  8
0
100
AcDbBlockBegin
  2
_Oblique
 70
     0
 10
0.0
 20
0.0
 30
0.0
  3
_Oblique
  1

  0
LINE
  5
3D0
330
3CE
100
AcDbEntity
  8
0
  6
ByBlock
 62
     0
370
    -2
100
AcDbLine
 10
-0.5
 20
-0.5
 30
0.0
 11
0.5
 21
0.5
 31
0.0
  0
ENDBLK
  5
3D1
330
3CE
100
AcDbEntity
  8
0
100
AcDbBlockEnd
  0
BLOCK
  5
8DD
330
8DB
100
AcDbEntity
  8
0
100
AcDbBlockBegin
  2
GENAXEH
 70
     0
 10
0.0
 20
0.0
 30
0.0
  3
GENAXEH
  1

  0
LINE
  5
8DC
330
8DB
100
AcDbEntity
  8
0
100
AcDbLine
 10
-1.0
 20
0.0
 30
0.0
 11
1.0
 21
0.0
 31
0.0
  0
ENDBLK
  5
8DE
330
8DB
100
AcDbEntity
  8
0
100
AcDbBlockEnd
  0
BLOCK
  5
8EB
330
8EA
100
AcDbEntity
  8
0
100
AcDbBlockBegin
  2
_ACMFILLEDHALF
 70
     0
 10
0.0
 20
0.0
 30
0.0
  3
_ACMFILLEDHALF
  1

  0
TRACE
  5
8ED
330
8EA
100
AcDbEntity
  8
0
 62
     0
100
AcDbTrace
 10
-0.8
 20
0.0
 30
0.0
 11
-1.0
 21
0.166666666
 31
0.0
 12
0.0
 22
0.0
 32
0.0
 13
0.0
 23
0.0
 33
0.0
  0
LINE
  5
8EE
330
8EA
100
AcDbEntity
  8
0
 62
     0
100
AcDbLine
 10
-1.0
 20
0.0
 30
0.0
 11
-0.8
 21
0.0
 31
0.0
  0
ENDBLK
  5
8EC
330
8EA
100
AcDbEntity
  8
0
100
AcDbBlockEnd
  0
BLOCK
  5
5F
330
5D
100
AcDbEntity
 67
     1
  8
0
100
AcDbBlockBegin
  2
*Paper_Space5
 70
     0
 10
0.0
 20
0.0
 30
0.0
  3
*Paper_Space5
  1

  0
VIEWPORT
  5
B03
102
{ACAD_XDICTIONARY
360
B04
102
}
330
5D
100
AcDbEntity
 67
     1
  8
0
100
AcDbViewport
 10
5.249999639556165
 20
3.999999883606678
 30
0.0
 40
20.88724989684468
 41
8.992999745766949
 68
     0
 69
     0
 12
5.249999639556165
 22
3.999999883606678
 13
0.0
 23
0.0
 14
10.0
 24
10.0
 15
10.0
 25
10.0
 16
0.0
 26
0.0
 36
1.0
 17
0.0
 27
0.0
 37
0.0
 42
50.0
 43
0.0
 44
0.0
 45
8.992999745766949
 50
0.0
 51
0.0
 72
  1000
 90
   819232
  1

281
     0
 71
     1
 74
     0
110
0.0
120
0.0
130
0.0
111
1.0
121
0.0
131
0.0
112
0.0
122
1.0
132
0.0
 79
     0
146
0.0
170
     0
 61
     5
348
9F
292
     1
282
     1
141
0.0
142
0.0
 63
   250
421
  3355443
  0
ENDBLK
  5
60
330
5D
100
AcDbEntity
 67
     1
  8
0
100
AcDbBlockEnd
  0
ENDSEC
  0
SECTION
  2
ENTITIES
  0
ARC
  5
759
330
1F
100
AcDbEntity
  8
ASHADE
 62
     7
100
AcDbCircle
 10
4484.917719061335
 20
2999.50622117088
 30
0.0
 40
174.5941409100523
100
AcDbArc
 50
98.11882336298964
 51
148.710720605626
  0
ARC
  5
75A
330
1F
100
AcDbEntity
  8
ASHADE
 62
     7
100
AcDbCircle
 10
4564.793565881704
 20
2569.022693865497
 30
0.0
 40
612.3165645187632
100
AcDbArc
 50
89.3357606056867
 51
99.82953949116136
  0
ARC
  5
75B
330
1F
100
AcDbEntity
  8
ASHADE
 62
     7
100
AcDbCircle
 10
4508.733799401102
 20
3020.56098194741
 30
0.0
 40
186.4993171399183
100
AcDbArc
 50
158.0800159622438
 51
186.5926258361031
  0
ARC
  5
75C
330
1F
100
AcDbEntity
  8
ASHADE
 62
     7
100
AcDbCircle
 10
4371.678647587446
 20
3043.842874315934
 30
0.0
 40
60.18341820986584
100
AcDbArc
 50
215.5167644413845
 51
270.3931498624664
  0
ARC
  5
75D
330
1F
100
AcDbEntity
  8
ASHADE
 62
     7
100
AcDbCircle
 10
4365.238574713425
 20
3513.130670182154
 30
0.0
 40
529.7790049899266
100
AcDbArc
 50
270.7121408712603
 51
280.0255017396153
  0
ARC
  5
75E
330
1F
100
AcDbEntity
  8
ASHADE
 62
     7
100
AcDbCircle
 10
4525.281456586616
 20
4506.808920749787
 30
0.0
 40
1516.884400366372
100
AcDbArc
 50
267.4376172985096
 51
271.7608548264496
  0
ARC
  5
75F
330
1F
100
AcDbEntity
  8
ASHADE
 62
     7
100
AcDbCircle
 10
4419.952659498298
 20
2941.471520205455
 30
0.0
 40
112.4102028199729
100
AcDbArc
 50
149.1295003937117
 51
200.7765606976738
  0
ARC
  5
760
330
1F
100
AcDbEntity
  8
ASHADE
 62
     7
100
AcDbCircle
 10
4410.377710976018
 20
3232.760454511856
 30
0.0
 40
344.6656464111228
100
AcDbArc
 50
253.9096055351015
 51
275.7959064388808
  0
ARC
  5
761
330
1F
100
AcDbEntity
  8
ASHADE
 62
     7
100
AcDbCircle
 10
4549.691602895067
 20
4882.854457941179
 30
0.0
 40
1995.73587387583
100
AcDbArc
 50
266.9983035036093
 51
270.637369236151
  0
ARC
  5
762
330
1F
100
AcDbEntity
  8
ASHADE
 62
     7
100
AcDbCircle
 10
4372.404986935697
 20
2803.959103810223
 30
0.0
 40
166.621938410505
100
AcDbArc
 50
151.3874261828284
 51
166.9612684270594
  0
ARC
  5
763
330
1F
100
AcDbEntity
  8
ASHADE
 62
     7
100
AcDbCircle
 10
4258.308524891117
 20
2870.091773793538
 30
0.0
 40
34.95670652430721
100
AcDbArc
 50
52.58677256753848
 51
156.9976420257988
  0
ARC
  5
764
330
1F
100
AcDbEntity
  8
ASHADE
 62
     7
100
AcDbCircle
 10
4211.443963478612
 20
2563.651550743995
 30
0.0
 40
35.21079289514152
100
AcDbArc
 50
176.822910896295
 51
319.0474619324541
  0
ARC
  5
765
330
1F
100
AcDbEntity
  8
ASHADE
 62
     7
100
AcDbCircle
 10
4267.075158995632
 20
2574.03569717593
 30
0.0
 40
57.06877404512044
100
AcDbArc
 50
293.2437848059388
 51
349.3786283080291
  0
ARC
  5
766
330
1F
100
AcDbEntity
  8
ASHADE
 62
     7
100
AcDbCircle
 10
3397.004264034408
 20
2765.433656720071
 30
0.0
 40
948.1547357623261
100
AcDbArc
 50
347.5390927334276
 51
5.419105696469287
  0
ARC
  5
767
330
1F
100
AcDbEntity
  8
ASHADE
 62
     7
100
AcDbCircle
 10
4302.863569090155
 20
2851.790021175892
 30
0.0
 40
38.19094182596876
100
AcDbArc
 50
4.787811127898172
 51
72.5671530794617
  0
ARC
  5
768
330
1F
100
AcDbEntity
  8
ASHADE
 62
     7
100
AcDbCircle
 10
4310.201064389564
 20
2939.402109140376
 30
0.0
 40
51.33960423448138
100
AcDbArc
 50
234.0457411542011
 51
274.5850686316015
  0
ARC
  5
769
330
1F
100
AcDbEntity
  8
ASHADE
 62
     7
100
AcDbCircle
 10
4281.917553919234
 20
2536.067645897096
 30
0.0
 40
16.38038114212155
100
AcDbArc
 50
177.4887727067193
 51
297.9577858676491
  0
ARC
  5
76A
330
1F
100
AcDbEntity
  8
ASHADE
 62
     7
100
AcDbCircle
 10
4249.431168782438
 20
2534.961734700429
 30
0.0
 40
16.26341801167407
100
AcDbArc
 50
6.932920890645798
 51
121.283833445646
  0
ARC
  5
76B
330
1F
100
AcDbEntity
  8
ASHADE
 62
     7
100
AcDbCircle
 10
4259.139733556195
 20
2537.732453527776
 30
0.0
 40
21.29306797597534
100
AcDbArc
 50
148.4921469201672
 51
172.3331727696066
  0
ARC
  5
76C
330
1F
100
AcDbEntity
  8
ASHADE
 62
     7
100
AcDbCircle
 10
4425.009985591132
 20
2495.653590910448
 30
0.0
 40
154.2170051633296
100
AcDbArc
 50
170.0654523135955
 51
221.1793538804778
  0
ARC
  5
76D
330
1F
100
AcDbEntity
  8
ASHADE
 62
     7
100
AcDbCircle
 10
4455.220618670831
 20
2600.860878415213
 30
0.0
 40
253.2640750287376
100
AcDbArc
 50
234.7188950989555
 51
260.3266276219924
  0
ARC
  5
76E
330
1F
100
AcDbEntity
  8
ASHADE
 62
     7
100
AcDbCircle
 10
4544.191246067421
 20
4100.087167460342
 30
0.0
 40
1753.823658356044
100
AcDbArc
 50
265.621018161013
 51
270.904998422594
  0
ARC
  5
76F
330
1F
100
AcDbEntity
  8
ASHADE
 62
     7
100
AcDbCircle
 10
4296.666598707148
 20
2548.609030405891
 30
0.0
 40
55.68123308967852
100
AcDbArc
 50
179.7411974277941
 51
205.3836800275408
  0
LINE
  5
770
330
1F
100
AcDbEntity
  8
ASHADE
 62
     7
100
AcDbLine
 10
4246.335680956455
 20
2524.80910847332
 30
0.0
 11
4267.247168645161
 21
2493.512230103183
 31
0.0
  0
LINE
  5
771
330
1F
100
AcDbEntity
  8
ASHADE
 62
     7
100
AcDbLine
 10
4267.247168645161
 20
2493.512230103183
 30
0.0
 11
4199.414800107244
 21
2426.735583423101
 31
0.0
  0
LINE
  5
772
330
1F
100
AcDbEntity
  8
ASHADE
 62
     7
100
AcDbLine
 10
4273.250368381008
 20
2468.23273633254
 30
0.0
 11
4215.502415291506
 21
2410.516803065682
 31
0.0
  0
ARC
  5
773
330
1F
100
AcDbEntity
  8
ASHADE
 62
     7
100
AcDbCircle
 10
4207.427932159125
 20
2418.595765784604
 30
0.0
 40
11.42221154019041
100
AcDbArc
 50
134.5506455008666
 51
314.9841110435959
  0
ARC
  5
774
330
1F
100
AcDbEntity
  8
ASHADE
 62
     7
100
AcDbCircle
 10
4352.299310218157
 20
2912.177946800373
 30
0.0
 40
68.25912551688745
100
AcDbArc
 50
149.6449280580838
 51
168.2652695150145
  0
LINE
  5
775
330
1F
100
AcDbEntity
  8
ASHADE
 62
     7
100
AcDbLine
 10
4285.614575029203
 20
2927.368457106159
 30
0.0
 11
4280.362071558693
 21
2897.430440885159
 31
0.0
  0
LINE
  5
776
330
1F
100
AcDbEntity
  8
ASHADE
 62
     7
100
AcDbLine
 10
4322.784351262468
 20
2998.014734346217
 30
0.0
 11
4279.192596367237
 21
3041.143477091068
 31
0.0
  0
LINE
  5
777
330
1F
100
AcDbEntity
  8
ASHADE
 62
     7
100
AcDbLine
 10
4312.883889347596
 20
2975.71085659569
 30
0.0
 11
4263.961565685104
 21
3025.279518170106
 31
0.0
  0
LINE
  5
778
330
1F
100
AcDbEntity
  8
ASHADE
 62
     7
100
AcDbLine
 10
4293.397814116277
 20
2946.673192462501
 30
0.0
 11
4310.798187477941
 21
2968.329571809854
 31
0.0
  0
LINE
  5
779
330
1F
100
AcDbEntity
  8
ASHADE
 62
     7
100
AcDbLine
 10
4308.340031988038
 20
2926.786439291229
 30
0.0
 11
4305.791435571403
 21
2914.019305725331
 31
0.0
  0
LINE
  5
77A
330
1F
100
AcDbEntity
  8
ASHADE
 62
     7
100
AcDbLine
 10
4305.791435571403
 20
2914.019305725331
 30
0.0
 11
4302.280467610459
 21
2888.544216766716
 31
0.0
  0
ARC
  5
77B
330
1F
100
AcDbEntity
  8
ASHADE
 62
     7
100
AcDbCircle
 10
4271.790615246138
 20
3033.006482837481
 30
0.0
 40
11.0
100
AcDbArc
 50
42.90366950988402
 51
224.6240071838586
  0
LINE
  5
77C
330
1F
100
AcDbEntity
  8
ASHADE
 62
     7
100
AcDbLine
 10
4314.852394377596
 20
2901.596866983322
 30
0.0
 11
4314.305109201011
 21
2888.226804753017
 31
0.0
  0
ARC
  5
77D
330
1F
100
AcDbEntity
  8
ASHADE
 62
     7
100
AcDbCircle
 10
5363.917685053699
 20
2560.212486769874
 30
0.0
 40
1187.642629125476
100
AcDbArc
 50
166.2970673343216
 51
179.7399424614414
  0
ARC
  5
77E
330
1F
100
AcDbEntity
  8
ASHADE
 62
     7
100
AcDbCircle
 10
4658.866467937454
 20
2999.50622117088
 30
0.0
 40
174.5941409100523
100
AcDbArc
 50
31.28927939437396
 51
81.88117663701035
  0
ARC
  5
77F
330
1F
100
AcDbEntity
  8
ASHADE
 62
     7
100
AcDbCircle
 10
4578.990621117087
 20
2569.022693865497
 30
0.0
 40
612.3165645187632
100
AcDbArc
 50
80.17046050883861
 51
90.66423939431329
  0
ARC
  5
780
330
1F
100
AcDbEntity
  8
ASHADE
 62
     7
100
AcDbCircle
 10
4635.05038759769
 20
3020.56098194741
 30
0.0
 40
186.4993171399183
100
AcDbArc
 50
353.4073741638968
 51
21.91998403775621
  0
ARC
  5
781
330
1F
100
AcDbEntity
  8
ASHADE
 62
     7
100
AcDbCircle
 10
4772.105539411342
 20
3043.842874315934
 30
0.0
 40
60.18341820986584
100
AcDbArc
 50
269.6068501375336
 51
324.4832355586155
  0
ARC
  5
782
330
1F
100
AcDbEntity
  8
ASHADE
 62
     7
100
AcDbCircle
 10
4778.545612285366
 20
3513.130670182154
 30
0.0
 40
529.7790049899266
100
AcDbArc
 50
259.9744982603847
 51
269.2878591287397
  0
ARC
  5
783
330
1F
100
AcDbEntity
  8
ASHADE
 62
     7
100
AcDbCircle
 10
4618.502730412173
 20
4506.808920749787
 30
0.0
 40
1516.884400366372
100
AcDbArc
 50
268.2391451735504
 51
272.5623827014904
  0
ARC
  5
784
330
1F
100
AcDbEntity
  8
ASHADE
 62
     7
100
AcDbCircle
 10
4723.831527500491
 20
2941.471520205455
 30
0.0
 40
112.4102028199729
100
AcDbArc
 50
339.2234393023262
 51
30.87049960628825
  0
ARC
  5
785
330
1F
100
AcDbEntity
  8
ASHADE
 62
     7
100
AcDbCircle
 10
4733.406476022774
 20
3232.760454511856
 30
0.0
 40
344.6656464111228
100
AcDbArc
 50
264.2040935611192
 51
286.0903944648985
  0
ARC
  5
786
330
1F
100
AcDbEntity
  8
ASHADE
 62
     7
100
AcDbCircle
 10
4594.092584103722
 20
4882.854457941179
 30
0.0
 40
1995.73587387583
100
AcDbArc
 50
269.362630763849
 51
273.0016964963907
  0
ARC
  5
787
330
1F
100
AcDbEntity
  8
ASHADE
 62
     7
100
AcDbCircle
 10
4771.379200063094
 20
2803.959103810223
 30
0.0
 40
166.621938410505
100
AcDbArc
 50
13.0387315729406
 51
28.61257381716277
  0
ARC
  5
788
330
1F
100
AcDbEntity
  8
ASHADE
 62
     7
100
AcDbCircle
 10
4885.475662107673
 20
2870.091773793538
 30
0.0
 40
34.95670652430721
100
AcDbArc
 50
23.00235797421137
 51
127.4132274324615
  0
ARC
  5
789
330
1F
100
AcDbEntity
  8
ASHADE
 62
     7
100
AcDbCircle
 10
4932.340223520178
 20
2563.651550743995
 30
0.0
 40
35.21079289514152
100
AcDbArc
 50
220.9525380675458
 51
3.177089103705019
  0
ARC
  5
78A
330
1F
100
AcDbEntity
  8
ASHADE
 62
     7
100
AcDbCircle
 10
4876.709028003158
 20
2574.03569717593
 30
0.0
 40
57.06877404512044
100
AcDbArc
 50
190.6213716919707
 51
246.7562151940612
  0
ARC
  5
78B
330
1F
100
AcDbEntity
  8
ASHADE
 62
     7
100
AcDbCircle
 10
5746.779922964385
 20
2765.433656720071
 30
0.0
 40
948.1547357623261
100
AcDbArc
 50
174.5808943035307
 51
192.4609072665723
  0
ARC
  5
78C
330
1F
100
AcDbEntity
  8
ASHADE
 62
     7
100
AcDbCircle
 10
4840.920617908634
 20
2851.790021175892
 30
0.0
 40
38.19094182596876
100
AcDbArc
 50
107.4328469205383
 51
175.2121888721018
  0
ARC
  5
78D
330
1F
100
AcDbEntity
  8
ASHADE
 62
     7
100
AcDbCircle
 10
4833.583122609225
 20
2939.402109140376
 30
0.0
 40
51.33960423448138
100
AcDbArc
 50
265.4149313683985
 51
305.9542588457988
  0
ARC
  5
78E
330
1F
100
AcDbEntity
  8
ASHADE
 62
     7
100
AcDbCircle
 10
4861.866633079555
 20
2536.067645897096
 30
0.0
 40
16.38038114212155
100
AcDbArc
 50
242.042214132234
 51
2.511227293280711
  0
ARC
  5
78F
330
1F
100
AcDbEntity
  8
ASHADE
 62
     7
100
AcDbCircle
 10
4894.353018216354
 20
2534.961734700429
 30
0.0
 40
16.26341801167407
100
AcDbArc
 50
58.71616655435393
 51
173.0670791093542
  0
ARC
  5
790
330
1F
100
AcDbEntity
  8
ASHADE
 62
     7
100
AcDbCircle
 10
4884.644453442593
 20
2537.732453527776
 30
0.0
 40
21.29306797597534
100
AcDbArc
 50
7.666827230393375
 51
31.50785307983278
  0
ARC
  5
791
330
1F
100
AcDbEntity
  8
ASHADE
 62
     7
100
AcDbCircle
 10
4718.77420140766
 20
2495.653590910448
 30
0.0
 40
154.2170051633296
100
AcDbArc
 50
318.8206461195222
 51
9.934547686404503
  0
ARC
  5
792
330
1F
100
AcDbEntity
  8
ASHADE
 62
     7
100
AcDbCircle
 10
4688.56356832796
 20
2600.860878415213
 30
0.0
 40
253.2640750287376
100
AcDbArc
 50
279.6733723780075
 51
305.2811049010444
  0
ARC
  5
793
330
1F
100
AcDbEntity
  8
ASHADE
 62
     7
100
AcDbCircle
 10
4599.592940931368
 20
4100.087167460342
 30
0.0
 40
1753.823658356044
100
AcDbArc
 50
269.095001577406
 51
274.3789818389871
  0
ARC
  5
794
330
1F
100
AcDbEntity
  8
ASHADE
 62
     7
100
AcDbCircle
 10
4847.117588291641
 20
2548.609030405891
 30
0.0
 40
55.68123308967852
100
AcDbArc
 50
334.6163199724591
 51
0.2588025722059299
  0
LINE
  5
795
330
1F
100
AcDbEntity
  8
ASHADE
 62
     7
100
AcDbLine
 10
4897.448506042334
 20
2524.80910847332
 30
0.0
 11
4876.537018353629
 21
2493.512230103183
 31
0.0
  0
LINE
  5
796
330
1F
100
AcDbEntity
  8
ASHADE
 62
     7
100
AcDbLine
 10
4876.537018353629
 20
2493.512230103183
 30
0.0
 11
4944.369386891545
 21
2426.735583423101
 31
0.0
  0
LINE
  5
797
330
1F
100
AcDbEntity
  8
ASHADE
 62
     7
100
AcDbLine
 10
4870.533818617783
 20
2468.23273633254
 30
0.0
 11
4928.281771707283
 21
2410.516803065682
 31
0.0
  0
ARC
  5
798
330
1F
100
AcDbEntity
  8
ASHADE
 62
     7
100
AcDbCircle
 10
4936.356254839665
 20
2418.595765784604
 30
0.0
 40
11.42221154019041
100
AcDbArc
 50
225.0158889564041
 51
45.44935449913333
  0
ARC
  5
799
330
1F
100
AcDbEntity
  8
ASHADE
 62
     7
100
AcDbCircle
 10
4802.002571262872
 20
2915.890959243522
 30
0.0
 40
57.22566418271519
100
AcDbArc
 50
10.23641435358811
 51
43.89701340571025
  0
LINE
  5
79A
330
1F
100
AcDbEntity
  8
ASHADE
 62
     7
100
AcDbLine
 10
4858.169611969586
 20
2927.368457106159
 30
0.0
 11
4863.422115440098
 21
2897.430440885159
 31
0.0
  0
LINE
  5
79B
330
1F
100
AcDbEntity
  8
ASHADE
 62
     7
100
AcDbLine
 10
4820.999835736322
 20
2998.014734346217
 30
0.0
 11
4864.591590631553
 21
3041.143477091068
 31
0.0
  0
LINE
  5
79C
330
1F
100
AcDbEntity
  8
ASHADE
 62
     7
100
AcDbLine
 10
4830.900297651193
 20
2975.71085659569
 30
0.0
 11
4879.822621313685
 21
3025.279518170106
 31
0.0
  0
LINE
  5
79D
330
1F
100
AcDbEntity
  8
ASHADE
 62
     7
100
AcDbLine
 10
4843.238655526013
 20
2955.56918999788
 30
0.0
 11
4832.985999520848
 21
2968.329571809854
 31
0.0
  0
LINE
  5
79E
330
1F
100
AcDbEntity
  8
ASHADE
 62
     7
100
AcDbLine
 10
4835.171438001544
 20
2925.996442575754
 30
0.0
 11
4837.992751427385
 21
2914.019305725331
 31
0.0
  0
LINE
  5
79F
330
1F
100
AcDbEntity
  8
ASHADE
 62
     7
100
AcDbLine
 10
4837.992751427385
 20
2914.019305725331
 30
0.0
 11
4841.503719388331
 21
2888.544216766716
 31
0.0
  0
ARC
  5
7A0
330
1F
100
AcDbEntity
  8
ASHADE
 62
     7
100
AcDbCircle
 10
4871.993571752652
 20
3033.006482837481
 30
0.0
 40
11.0
100
AcDbArc
 50
315.3759928161414
 51
137.0963304902328
  0
LINE
  5
7A1
330
1F
100
AcDbEntity
  8
ASHADE
 62
     7
100
AcDbLine
 10
4828.931792621195
 20
2901.596866983322
 30
0.0
 11
4829.479077797779
 21
2888.226804753017
 31
0.0
  0
ARC
  5
7A2
330
1F
100
AcDbEntity
  8
ASHADE
 62
     7
100
AcDbCircle
 10
3779.866501945091
 20
2560.212486769874
 30
0.0
 40
1187.642629125476
100
AcDbArc
 50
0.2600575385585096
 51
13.70293266567844
  0
MTEXT
  5
7A3
330
1F
100
AcDbEntity
  8
0
100
AcDbMText
 10
4267.315074150174
 20
2041.913666661228
 30
0.0
 40
192.6907499518273
 41
691.715102794329
 46
0.0
 71
     1
 72
     1
  1
JN74
 73
     1
 44
1.0
  0
ARC
  5
A01
330
1F
100
AcDbEntity
  8
0
 62
     7
420
 16777215
100
AcDbCircle
 10
356.2713917362953
 20
2920.649092059854
 30
0.0
 40
52.60754837132571
100
AcDbArc
 50
189.2311053582755
 51
223.8100537396513
  0
ARC
  5
A02
330
1F
100
AcDbEntity
  8
0
 62
     7
420
 16777215
100
AcDbCircle
 10
1198.899093216982
 20
2993.059109530053
 30
0.0
 40
898.2000616404407
100
AcDbArc
 50
175.5511758577216
 51
185.164321932548
  0
ARC
  5
A03
330
1F
100
AcDbEntity
  8
0
 62
     7
420
 16777215
100
AcDbCircle
 10
390.1288517746898
 20
3061.446932496441
 30
0.0
 40
86.7330661790574
100
AcDbArc
 50
139.8887262600193
 51
179.1515445196293
  0
ARC
  5
A04
330
1F
100
AcDbEntity
  8
0
 62
     7
420
 16777215
100
AcDbCircle
 10
361.9529283539041
 20
3064.810102474611
 30
0.0
 40
64.91506101084022
100
AcDbArc
 50
101.888937979458
 51
126.0010317497375
  0
ARC
  5
A05
330
1F
100
AcDbEntity
  8
0
 62
     7
420
 16777215
100
AcDbCircle
 10
432.4327560291148
 20
2692.697556694111
 30
0.0
 40
443.6319637938492
100
AcDbArc
 50
93.56604119700213
 51
100.8953359506939
  0
ARC
  5
A06
330
1F
100
AcDbEntity
  8
0
 62
     7
420
 16777215
100
AcDbCircle
 10
588.7413137102412
 20
-11266.28764359473
 30
0.0
 40
14402.93230260136
100
AcDbArc
 50
90.21356673622333
 51
90.73159377848302
  0
ARC
  5
A07
330
1F
100
AcDbEntity
  8
0
 62
     7
420
 16777215
100
AcDbCircle
 10
345.8407983726283
 20
2836.65161461183
 30
0.0
 40
55.04569750530562
100
AcDbArc
 50
120.1153320471143
 51
170.6537259903551
  0
ARC
  5
A08
330
1F
100
AcDbEntity
  8
0
 62
     7
420
 16777215
100
AcDbCircle
 10
515.5252240961671
 20
2793.215868159667
 30
0.0
 40
230.0410553604245
100
AcDbArc
 50
166.8396151962289
 51
177.8252394249375
  0
ARC
  5
A09
330
1F
100
AcDbEntity
  8
0
 62
     7
420
 16777215
100
AcDbCircle
 10
537.4611754052421
 20
5045.536569195892
 30
0.0
 40
2172.405461363642
100
AcDbArc
 50
264.1964445357791
 51
269.9432574434951
  0
ARC
  5
A0A
330
1F
100
AcDbEntity
  8
0
 62
     7
420
 16777215
100
AcDbCircle
 10
198.162397403762
 20
2781.399693486622
 30
0.0
 40
39.06681607413844
100
AcDbArc
 50
119.4411394793612
 51
164.9213864780191
  0
ARC
  5
A0B
330
1F
100
AcDbEntity
  8
0
 62
     7
420
 16777215
100
AcDbCircle
 10
225.8501532970367
 20
2738.033018595571
 30
0.0
 40
90.4857211327504
100
AcDbArc
 50
77.47329181078336
 51
121.2119844899076
  0
ARC
  5
A0C
330
1F
100
AcDbEntity
  8
0
 62
     7
420
 16777215
100
AcDbCircle
 10
227.6438804734125
 20
2750.795269354997
 30
0.0
 40
77.64488689775697
100
AcDbArc
 50
38.87118015291753
 51
76.72277766002108
  0
ARC
  5
A0D
330
1F
100
AcDbEntity
  8
0
 62
     7
420
 16777215
100
AcDbCircle
 10
212.3710529338487
 20
2733.018677104712
 30
0.0
 40
100.7816431477456
100
AcDbArc
 50
10.80847594123408
 51
41.29111601506878
  0
ARC
  5
A0E
330
1F
100
AcDbEntity
  8
0
 62
     7
420
 16777215
100
AcDbCircle
 10
74.89288877973831
 20
2702.445238006032
 30
0.0
 40
241.5916018865813
100
AcDbArc
 50
0.1522986540616139
 51
11.81651228870013
  0
ARC
  5
A0F
330
1F
100
AcDbEntity
  8
0
 62
     7
420
 16777215
100
AcDbCircle
 10
292.2990784821704
 20
2759.634406094259
 30
0.0
 40
135.6689290565278
100
AcDbArc
 50
166.3883502449067
 51
190.7139125254297
  0
ARC
  5
A10
330
1F
100
AcDbEntity
  8
0
 62
     7
420
 16777215
100
AcDbCircle
 10
397.7584790302317
 20
2767.300205303136
 30
0.0
 40
241.0176232207561
100
AcDbArc
 50
187.8425958849702
 51
200.5634229215905
  0
ARC
  5
A11
330
1F
100
AcDbEntity
  8
0
 62
     7
420
 16777215
100
AcDbCircle
 10
275.2773851189531
 20
2732.476276216612
 30
0.0
 40
114.5832197035177
100
AcDbArc
 50
205.7788331551954
 51
245.2980069528836
  0
ARC
  5
A12
330
1F
100
AcDbEntity
  8
0
 62
     7
420
 16777215
100
AcDbCircle
 10
239.7060209709289
 20
2660.811777002975
 30
0.0
 40
34.69215345078204
100
AcDbArc
 50
249.2116836479246
 51
264.0787643191364
  0
ARC
  5
A13
330
1F
100
AcDbEntity
  8
0
 62
     7
420
 16777215
100
AcDbCircle
 10
226.0558390606111
 20
2763.061878466761
 30
0.0
 40
15.87591041834339
100
AcDbArc
 50
3.108773109289411
 51
157.3011421155349
  0
ARC
  5
A14
330
1F
100
AcDbEntity
  8
0
 62
     7
420
 16777215
100
AcDbCircle
 10
953.0571074019716
 20
2689.154227861689
 30
0.0
 40
715.0684243726075
100
AcDbArc
 50
173.9980966012268
 51
180.9356072030114
  0
ARC
  5
A15
330
1F
100
AcDbEntity
  8
0
 62
     7
420
 16777215
100
AcDbCircle
 10
326.5419266444296
 20
2672.358364089795
 30
0.0
 40
88.60594385713644
100
AcDbArc
 50
176.6875569671441
 51
222.9448878991376
  0
ARC
  5
A16
330
1F
100
AcDbEntity
  8
0
 62
     7
420
 16777215
100
AcDbCircle
 10
1440.059579967706
 20
3894.026830424997
 30
0.0
 40
1741.318202551068
100
AcDbArc
 50
227.4124438501365
 51
227.4970806951933
  0
ARC
  5
A17
330
1F
100
AcDbEntity
  8
0
 62
     7
420
 16777215
100
AcDbCircle
 10
281.9920636441357
 20
2650.513242356657
 30
0.0
 40
44.6961671445976
100
AcDbArc
 50
112.7931264231643
 51
166.7027911847276
  0
ARC
  5
A18
330
1F
100
AcDbEntity
  8
0
 62
     7
420
 16777215
100
AcDbCircle
 10
426.8167709013014
 20
2076.554226387465
 30
0.0
 40
636.1739045675904
100
AcDbArc
 50
96.47818318607475
 51
104.7657501481992
  0
ARC
  5
A19
330
1F
100
AcDbEntity
  8
0
 62
     7
420
 16777215
100
AcDbCircle
 10
467.24507605487
 20
-736.0837599616034
 30
0.0
 40
3446.576763625059
100
AcDbArc
 50
88.86842158786743
 51
91.86561439030894
  0
ARC
  5
A1A
330
1F
100
AcDbEntity
  8
0
 62
     7
420
 16777215
100
AcDbCircle
 10
478.293327381798
 20
-19067.06542936832
 30
0.0
 40
21695.9160012512
100
AcDbArc
 50
89.84942770268224
 51
90.60202179493867
  0
ARC
  5
A1B
330
1F
100
AcDbEntity
  8
0
 62
     7
420
 16777215
100
AcDbCircle
 10
311.6650936720926
 20
2526.184942276284
 30
0.0
 40
146.9986947420546
100
AcDbArc
 50
97.73921605227876
 51
119.2288510484523
  0
ARC
  5
A1C
330
1F
100
AcDbEntity
  8
0
 62
     7
420
 16777215
100
AcDbCircle
 10
550.7655531119562
 20
-1657.398612515174
 30
0.0
 40
4336.977572575961
100
AcDbArc
 50
90.20418698758041
 51
93.42230721926933
  0
ARC
  5
A1D
330
1F
100
AcDbEntity
  8
0
 62
     7
420
 16777215
100
AcDbCircle
 10
1911.000236234857
 20
2638.607114539025
 30
0.0
 40
65.37509589725617
100
AcDbArc
 50
110.0532672463579
 51
151.4300599533278
  0
ARC
  5
A1E
330
1F
100
AcDbEntity
  8
0
 62
     7
420
 16777215
100
AcDbCircle
 10
1982.273176508535
 20
2285.048766276528
 30
0.0
 40
425.4149440406232
100
AcDbArc
 50
85.6337546543307
 51
102.7226128065184
  0
ARC
  5
A1F
330
1F
100
AcDbEntity
  8
0
 62
     7
420
 16777215
100
AcDbCircle
 10
1894.25328414467
 20
2659.773676961497
 30
0.0
 40
41.90258540378843
100
AcDbArc
 50
166.0553856860776
 51
230.9051649872374
  0
ARC
  5
A20
330
1F
100
AcDbEntity
  8
0
 62
     7
420
 16777215
100
AcDbCircle
 10
1949.47619037253
 20
2743.356362826463
 30
0.0
 40
141.9373935219365
100
AcDbArc
 50
234.8841235984606
 51
256.9282124933644
  0
ARC
  5
A21
330
1F
100
AcDbEntity
  8
0
 62
     7
420
 16777215
100
AcDbCircle
 10
2086.876763945378
 20
2786.845191859841
 30
0.0
 40
42.78299159232321
100
AcDbArc
 50
90.9248472416314
 51
154.5519840790233
  0
ARC
  5
A22
330
1F
100
AcDbEntity
  8
0
 62
     7
420
 16777215
100
AcDbCircle
 10
2003.723912285925
 20
196.053061434035
 30
0.0
 40
2634.860261378565
100
AcDbArc
 50
82.31721362296296
 51
88.20654129222942
  0
ARC
  5
A23
330
1F
100
AcDbEntity
  8
0
 62
     7
420
 16777215
100
AcDbCircle
 10
2245.238629737605
 20
2704.165872741393
 30
0.0
 40
221.4052304337852
100
AcDbArc
 50
152.8410300077561
 51
185.4578878767181
  0
ARC
  5
A24
330
1F
100
AcDbEntity
  8
0
 62
     7
420
 16777215
100
AcDbCircle
 10
2059.349736494038
 20
2681.394166557906
 30
0.0
 40
34.5550517013915
100
AcDbArc
 50
177.1586013436736
 51
251.546255484077
  0
ARC
  5
A25
330
1F
100
AcDbEntity
  8
0
 62
     7
420
 16777215
100
AcDbCircle
 10
2427.764499316743
 20
4821.665349430979
 30
0.0
 40
2205.913011702146
100
AcDbArc
 50
260.0975705015589
 51
267.3516522455114
  0
ARC
  5
A26
330
1F
100
AcDbEntity
  8
0
 62
     7
420
 16777215
100
AcDbCircle
 10
2342.719061522805
 20
2728.915641027826
 30
0.0
 40
79.45903063428494
100
AcDbArc
 50
53.96759415721433
 51
80.39710216164756
  0
ARC
  5
A27
330
1F
100
AcDbEntity
  8
0
 62
     7
420
 16777215
100
AcDbCircle
 10
2336.14631781364
 20
2745.341048420669
 30
0.0
 40
71.62586353124644
100
AcDbArc
 50
13.73436574009486
 51
41.89762409803171
  0
ARC
  5
A28
330
1F
100
AcDbEntity
  8
0
 62
     7
420
 16777215
100
AcDbCircle
 10
2323.954836031055
 20
2722.766864063592
 30
0.0
 40
104.6754143309714
100
AcDbArc
 50
271.0309647810445
 51
304.9674433832627
  0
ARC
  5
A29
330
1F
100
AcDbEntity
  8
0
 62
     7
420
 16777215
100
AcDbCircle
 10
2220.861565879255
 20
2729.891653205597
 30
0.0
 40
187.6899111601008
100
AcDbArc
 50
330.3311404636034
 51
9.957491349674823
  0
ARC
  5
A2A
330
1F
100
AcDbEntity
  8
0
 62
     7
420
 16777215
100
AcDbCircle
 10
3442.365096004389
 20
2355.94176886687
 30
0.0
 40
1097.800022994078
100
AcDbArc
 50
153.4437842541005
 51
159.6283810511153
  0
ARC
  5
A2B
330
1F
100
AcDbEntity
  8
0
 62
     7
420
 16777215
100
AcDbCircle
 10
3442.365096004389
 20
2355.94176886687
 30
0.0
 40
1097.800022994078
100
AcDbArc
 50
160.3509674737474
 51
160.3728094144618
  0
ARC
  5
A2C
330
1F
100
AcDbEntity
  8
0
 62
     7
420
 16777215
100
AcDbCircle
 10
2581.052429264548
 20
2782.811897062071
 30
0.0
 40
136.5543195644313
100
AcDbArc
 50
133.6079262094968
 51
152.0849453163228
  0
ARC
  5
A2D
330
1F
100
AcDbEntity
  8
0
 62
     7
420
 16777215
100
AcDbCircle
 10
2581.052429264548
 20
2782.811897062071
 30
0.0
 40
136.5543195644313
100
AcDbArc
 50
155.1886427458746
 51
155.2150494365384
  0
ARC
  5
A2E
330
1F
100
AcDbEntity
  8
0
 62
     7
420
 16777215
100
AcDbCircle
 10
2500.515151389754
 20
2867.895102195596
 30
0.0
 40
19.40292357477624
100
AcDbArc
 50
86.55292054048748
 51
134.6959090518414
  0
ARC
  5
A2F
330
1F
100
AcDbEntity
  8
0
 62
     7
420
 16777215
100
AcDbCircle
 10
2512.551745774207
 20
2912.975311734184
 30
0.0
 40
27.91564279939209
100
AcDbArc
 50
219.8023832504793
 51
247.0836954006196
  0
ARC
  5
A30
330
1F
100
AcDbEntity
  8
0
 62
     7
420
 16777215
100
AcDbCircle
 10
2558.350948852003
 20
2907.793738745592
 30
0.0
 40
68.43218865859042
100
AcDbArc
 50
168.4596561827159
 51
190.6853616154986
  0
ARC
  5
A31
330
1F
100
AcDbEntity
  8
0
 62
     7
420
 16777215
100
AcDbCircle
 10
3163.993478909933
 20
2769.044299444976
 30
0.0
 40
689.747408892842
100
AcDbArc
 50
152.4054569349424
 51
167.2317432763291
  0
ARC
  5
A32
330
1F
100
AcDbEntity
  8
0
 62
     7
420
 16777215
100
AcDbCircle
 10
2626.13500554121
 20
3046.179478344027
 30
0.0
 40
84.77294218029031
100
AcDbArc
 50
112.202148034746
 51
150.0176585390054
  0
ARC
  5
A33
330
1F
100
AcDbEntity
  8
0
 62
     7
420
 16777215
100
AcDbCircle
 10
2655.32622102597
 20
2953.756045716234
 30
0.0
 40
181.5462804042823
100
AcDbArc
 50
95.4622517813939
 51
109.708864404244
  0
ARC
  5
A34
330
1F
100
AcDbEntity
  8
0
 62
     7
420
 16777215
100
AcDbCircle
 10
2641.957244175168
 20
3103.782857816077
 30
0.0
 40
30.94342312294254
100
AcDbArc
 50
29.78513767945678
 51
97.26376330568704
  0
ARC
  5
A35
330
1F
100
AcDbEntity
  8
0
 62
     7
420
 16777215
100
AcDbCircle
 10
2522.885937226522
 20
3092.317808110224
 30
0.0
 40
148.3740137820935
100
AcDbArc
 50
340.8987044095283
 51
10.42034142805496
  0
ARC
  5
A36
330
1F
100
AcDbEntity
  8
0
 62
     7
420
 16777215
100
AcDbCircle
 10
-213.2046714955459
 20
3778.395562060191
 30
0.0
 40
2968.629077907041
100
AcDbArc
 50
342.3923852317974
 51
345.6724502310382
  0
SPLINE
  5
A37
330
1F
100
AcDbEntity
  8
Visible (ANSI)
100
AcDbSpline
210
0.0
220
0.0
230
1.0
 70
     8
 71
     3
 72
    21
 73
    17
 74
     0
 42
0.000000001
 43
0.0000000001
 40
-9.043379414051299
 40
-9.043379414051299
 40
-9.043379414051299
 40
-9.043379414051299
 40
-8.649502124773372
 40
-8.649502124773372
 40
-8.2187818808132
 40
-8.2187818808132
 40
-7.789245615587834
 40
-7.789245615587834
 40
-7.360171499473141
 40
-7.360171499473141
 40
-6.931416933554224
 40
-6.931416933554224
 40
-6.931416933554224
 40
-6.581656925194801
 40
-6.581656925194801
 40
-6.291791287053022
 40
-6.291791287053022
 40
-6.291791287053022
 40
-6.291791287053022
 10
391.8924644812305
 20
2598.599000611359
 30
0.0
 10
391.6997917770241
 20
2598.649227251831
 30
0.0
 10
391.5056203166969
 20
2598.932949857158
 30
0.0
 10
391.1153317762719
 20
2599.988771001802
 30
0.0
 10
390.924533944999
 20
2600.793783201272
 30
0.0
 10
390.5911991124094
 20
2602.817644521945
 30
0.0
 10
390.4516818714601
 20
2604.016217780187
 30
0.0
 10
390.2424418293149
 20
2606.654266292571
 30
0.0
 10
390.1746691695617
 20
2608.067965017986
 30
0.0
 10
390.1203989402839
 20
2610.9268096822
 30
0.0
 10
390.134368945718
 20
2612.344126852543
 30
0.0
 10
390.1885939649846
 20
2613.670599347235
 30
0.0
 10
390.2328284634596
 20
2614.752680023945
 30
0.0
 10
390.3032213416591
 20
2615.758910349678
 30
0.0
 10
390.474874296573
 20
2617.391678600918
 30
0.0
 10
390.5679768529089
 20
2618.046050009709
 30
0.0
 10
390.6738971813047
 20
2618.59851860274
 30
0.0
  0
SPLINE
  5
A38
330
1F
100
AcDbEntity
  8
Visible (ANSI)
100
AcDbSpline
210
0.0
220
0.0
230
1.0
 70
     8
 71
     3
 72
    10
 73
     6
 74
     0
 42
0.000000001
 43
0.0000000001
 40
-9.088409567600683
 40
-9.088409567600683
 40
-9.088409567600683
 40
-9.088409567600683
 40
-9.0808837563316
 40
-9.0808837563316
 40
-9.043379414051299
 40
-9.043379414051299
 40
-9.043379414051299
 40
-9.043379414051299
 10
391.95847036962
 20
2598.590948835384
 30
0.0
 10
391.9548002590945
 20
2598.590885281299
 30
0.0
 10
391.951128002308
 20
2598.5909073817
 30
0.0
 10
391.9291428438255
 20
2598.591552583815
 30
0.0
 10
391.9108104569468
 20
2598.594218085191
 30
0.0
 10
391.8924644812305
 20
2598.599000611359
 30
0.0
  0
SPLINE
  5
A39
330
1F
100
AcDbEntity
  8
Visible (ANSI)
100
AcDbSpline
210
0.0
220
0.0
230
1.0
 70
     8
 71
     3
 72
    12
 73
     8
 74
     0
 42
0.000000001
 43
0.0000000001
 40
-13.22320822060724
 40
-13.22320822060724
 40
-13.22320822060724
 40
-13.22320822060724
 40
-13.16413729779368
 40
-13.16413729779368
 40
-12.73396911683318
 40
-12.73396911683318
 40
-12.55242069235486
 40
-12.55242069235486
 40
-12.55242069235486
 40
-12.55242069235486
 10
390.6738971813047
 20
2618.59851860274
 30
0.0
 10
390.6954824216827
 20
2618.711104433096
 30
0.0
 10
390.7175999526708
 20
2618.819458497845
 30
0.0
 10
390.9050163373522
 20
2619.680676928579
 30
0.0
 10
391.0941155018773
 20
2620.19329898175
 30
0.0
 10
391.3824173305229
 20
2620.532857077441
 30
0.0
 10
391.46990116907
 20
2620.584256382755
 30
0.0
 10
391.5584114631911
 20
2620.58578926304
 30
0.0
  0
SPLINE
  5
A3A
330
1F
100
AcDbEntity
  8
Visible (ANSI)
100
AcDbSpline
210
0.0
220
0.0
230
1.0
 70
     8
 71
     3
 72
    20
 73
    16
 74
     0
 42
0.000000001
 43
0.0000000001
 40
-9.590407610035537
 40
-9.590407610035537
 40
-9.590407610035537
 40
-9.590407610035537
 40
-9.526236064657203
 40
-9.526236064657203
 40
-9.093216828370731
 40
-9.093216828370731
 40
-8.662954664057728
 40
-8.662954664057728
 40
-8.234947860517646
 40
-8.234947860517646
 40
-7.807494348404872
 40
-7.807494348404872
 40
-7.378862390482089
 40
-7.378862390482089
 40
-7.203539003223192
 40
-7.203539003223192
 40
-7.203539003223192
 40
-7.203539003223192
 10
271.3298703292112
 20
2591.751382993375
 30
0.0
 10
271.1164783033991
 20
2591.755666846621
 30
0.0
 10
270.9030071525849
 20
2591.766044300904
 30
0.0
 10
269.2505288562525
 20
2591.893885700778
 30
0.0
 10
267.8461577811122
 20
2592.281989298005
 30
0.0
 10
265.2750383352559
 20
2593.565561415905
 30
0.0
 10
264.1306746980299
 20
2594.445894861741
 30
0.0
 10
262.2513418001545
 20
2596.586462556856
 30
0.0
 10
261.5323310839904
 20
2597.824141167768
 30
0.0
 10
260.6134886937016
 20
2600.50200217577
 30
0.0
 10
260.4220512124994
 20
2601.915587101916
 30
0.0
 10
260.5964326293561
 20
2604.740443266266
 30
0.0
 10
260.9620589555325
 20
2606.123789959389
 30
0.0
 10
261.8393117531005
 20
2607.920494407488
 30
0.0
 10
262.134942198265
 20
2608.419829389204
 30
0.0
 10
262.4681542580583
 20
2608.892622994358
 30
0.0
  0
SPLINE
  5
A3B
330
1F
100
AcDbEntity
  8
Visible (ANSI)
100
AcDbSpline
210
0.0
220
0.0
230
1.0
 70
     8
 71
     3
 72
    10
 73
     6
 74
     0
 42
0.000000001
 43
0.0000000001
 40
-10.30112672375376
 40
-10.30112672375376
 40
-10.30112672375376
 40
-10.30112672375376
 40
-9.960551619640712
 40
-9.960551619640712
 40
-9.590407610035537
 40
-9.590407610035537
 40
-9.590407610035537
 40
-9.590407610035537
 10
277.9840984352668
 20
2593.783301641085
 30
0.0
 10
277.0624098868111
 20
2593.132586802879
 30
0.0
 10
276.0435472526278
 20
2592.625327156523
 30
0.0
 10
273.7889455586983
 20
2591.904723414539
 30
0.0
 10
272.5607240354748
 20
2591.726677027645
 30
0.0
 10
271.3298703292112
 20
2591.751382993375
 30
0.0
  0
SPLINE
  5
A3C
330
1F
100
AcDbEntity
  8
Visible (ANSI)
100
AcDbSpline
210
0.0
220
0.0
230
1.0
 70
     8
 71
     3
 72
    10
 73
     6
 74
     0
 42
0.000000001
 43
0.0000000001
 40
0.690444370680273
 40
0.690444370680273
 40
0.690444370680273
 40
0.690444370680273
 40
9.937010866792254
 40
9.937010866792254
 40
15.06528303075206
 40
15.06528303075206
 40
15.06528303075206
 40
15.06528303075206
 10
535.3097460923127
 20
2599.870862407988
 30
0.0
 10
504.4865312972778
 20
2599.852074188955
 30
0.0
 10
473.6560946241297
 20
2599.668466860541
 30
0.0
 10
425.9174969143268
 20
2599.127924325667
 30
0.0
 10
408.9134980437075
 20
2598.884546810854
 30
0.0
 10
391.9584703696455
 20
2598.590948833927
 30
0.0
  0
SPLINE
  5
A3D
330
1F
100
AcDbEntity
  8
Visible (ANSI)
100
AcDbSpline
210
0.0
220
0.0
230
1.0
 70
     8
 71
     3
 72
    10
 73
     6
 74
     0
 42
0.000000001
 43
0.0000000001
 40
0.0
 40
0.0
 40
0.0
 40
0.0
 40
9.962297533345347
 40
9.962297533345347
 40
14.41474272123335
 40
14.41474272123335
 40
14.41474272123335
 40
14.41474272123335
 10
391.5584114631938
 20
2620.585789262865
 30
0.0
 10
424.4969288864758
 20
2621.156233559037
 30
0.0
 10
457.6319192838837
 20
2621.537617194459
 30
0.0
 10
505.6280349076132
 20
2621.813230221832
 30
0.0
 10
520.4684305187256
 20
2621.860321591229
 30
0.0
 10
535.3097460923127
 20
2621.869332858955
 30
0.0
  0
LINE
  5
A3E
330
1F
100
AcDbEntity
  8
Visible (ANSI)
100
AcDbLine
 10
313.1009619352444
 20
2597.091133466612
 30
0.0
 11
391.9584703761466
 21
2598.590948492136
 31
0.0
  0
LINE
  5
A3F
330
1F
100
AcDbEntity
  8
Visible (ANSI)
100
AcDbLine
 10
312.6816747601643
 20
2619.085608869879
 30
0.0
 11
391.5580108151662
 21
2620.585781983544
 31
0.0
  0
SPLINE
  5
A40
330
1F
100
AcDbEntity
  8
Visible (ANSI)
100
AcDbSpline
210
0.0
220
0.0
230
1.0
 70
     8
 71
     3
 72
    16
 73
    12
 74
     0
 42
0.000000001
 43
0.0000000001
 40
0.0
 40
0.0
 40
0.0
 40
0.0
 40
1.530387093388218
 40
1.530387093388218
 40
3.021468450455806
 40
3.021468450455806
 40
4.454216022005002
 40
4.454216022005002
 40
5.05870755269728
 40
5.05870755269728
 40
5.364996490135394
 40
5.364996490135394
 40
5.364996490135394
 40
5.364996490135394
 10
313.1009619151582
 20
2597.09113346623
 30
0.0
 10
308.0760907777967
 20
2596.995564238611
 30
0.0
 10
303.1302261551309
 20
2596.796696033797
 30
0.0
 10
294.3003255018284
 20
2596.234163439336
 30
0.0
 10
290.2739958407692
 20
2595.866338409296
 30
0.0
 10
283.7370474390537
 20
2595.046631394177
 30
0.0
 10
281.0576559853735
 20
2594.573484926513
 30
0.0
 10
278.6594223088759
 20
2593.993463336654
 30
0.0
 10
278.1159732067572
 20
2593.830881618568
 30
0.0
 10
277.6779919165347
 20
2593.679604342807
 30
0.0
 10
277.5952747452193
 20
2593.644926830896
 30
0.0
 10
277.5952747452229
 20
2593.644926830897
 30
0.0
  0
SPLINE
  5
A41
330
1F
100
AcDbEntity
  8
Visible (ANSI)
100
AcDbSpline
210
0.0
220
0.0
230
1.0
 70
     8
 71
     3
 72
    20
 73
    16
 74
     0
 42
0.000000001
 43
0.0000000001
 40
0.0
 40
0.0
 40
0.0
 40
0.0
 40
0.397014693992783
 40
0.397014693992783
 40
0.932624560669412
 40
0.932624560669412
 40
1.695211830634351
 40
1.695211830634351
 40
3.563185967193548
 40
3.563185967193548
 40
4.737063835556075
 40
4.737063835556075
 40
6.581380381292634
 40
6.581380381292634
 40
7.104341594060037
 40
7.104341594060037
 40
7.104341594060037
 40
7.104341594060037
 10
262.4681529935469
 20
2608.892623871601
 30
0.0
 10
263.0819045838089
 20
2609.763478551693
 30
0.0
 10
263.7800547593924
 20
2610.511663126672
 30
0.0
 10
265.4241701158507
 20
2611.963649839418
 30
0.0
 10
266.3759492471072
 20
2612.578620312055
 30
0.0
 10
268.5646543178327
 20
2613.76926262643
 30
0.0
 10
269.7868115908605
 20
2614.245974870657
 30
0.0
 10
274.1508910487246
 20
2615.6835931177
 30
0.0
 10
277.669334761521
 20
2616.367434380482
 30
0.0
 10
284.6455017067837
 20
2617.358279656489
 30
0.0
 10
287.6353251945029
 20
2617.694285807627
 30
0.0
 10
295.9017369253588
 20
2618.429462853763
 30
0.0
 10
301.6337584324474
 20
2618.76224034662
 30
0.0
 10
309.2540215817826
 20
2619.009126284659
 30
0.0
 10
310.9618394085974
 20
2619.052898906305
 30
0.0
 10
312.6816747796784
 20
2619.08560887025
 30
0.0
  0
LINE
  5
A42
330
1F
100
AcDbEntity
  8
Visible (ANSI)
100
AcDbLine
 10
306.1488142928483
 20
2536.93523789021
 30
0.0
 11
262.5913716140458
 21
2596.262106644461
 31
0.0
  0
LINE
  5
A43
330
1F
100
AcDbEntity
  8
Visible (ANSI)
100
AcDbLine
 10
327.1514940388552
 20
2545.493647344776
 30
0.0
 11
290.2031373825839
 21
2595.818693335104
 31
0.0
  0
SPLINE
  5
A44
330
1F
100
AcDbEntity
  8
Visible (ANSI)
100
AcDbSpline
210
0.0
220
0.0
230
1.0
 70
     8
 71
     3
 72
    23
 73
    19
 74
     0
 42
0.000000001
 43
0.0000000001
 40
3.399781518483744
 40
3.399781518483744
 40
3.399781518483744
 40
3.399781518483744
 40
3.603562902885035
 40
3.603562902885035
 40
3.603562902885035
 40
4.419385855722493
 40
4.419385855722493
 40
5.742206607540627
 40
5.742206607540627
 40
6.290532265549933
 40
6.290532265549933
 40
6.776895179950862
 40
6.776895179950862
 40
7.240759932378806
 40
7.240759932378806
 40
7.702724413664375
 40
7.702724413664375
 40
7.93710706101053
 40
7.93710706101053
 40
7.93710706101053
 40
7.93710706101053
 10
330.184561584435
 20
2545.108251804235
 30
0.0
 10
330.0281998529535
 20
2544.741829030646
 30
0.0
 10
329.8714768821201
 20
2544.381714190682
 30
0.0
 10
329.7143120340333
 20
2544.029315377189
 30
0.0
 10
329.0851147654712
 20
2542.618514084202
 30
0.0
 10
328.448835357518
 20
2541.331380561889
 30
0.0
 10
326.6159259007727
 20
2538.142643081304
 30
0.0
 10
325.3701296433428
 20
2536.139407907096
 30
0.0
 10
321.6657867238746
 20
2533.525797164896
 30
0.0
 10
320.3061938251867
 20
2532.831951857432
 30
0.0
 10
317.4694307742338
 20
2532.071948291339
 30
0.0
 10
315.9978873671807
 20
2531.938134317171
 30
0.0
 10
313.1894517277251
 20
2532.219246794239
 30
0.0
 10
311.8184533522635
 20
2532.610952448167
 30
0.0
 10
309.369352790407
 20
2533.80303555194
 30
0.0
 10
308.2639975614748
 20
2534.614399309286
 30
0.0
 10
306.9121295115574
 20
2535.9690213785
 30
0.0
 10
306.5052028682822
 20
2536.449823298812
 30
0.0
 10
306.1488142928483
 20
2536.93523789021
 30
0.0
  0
SPLINE
  5
A45
330
1F
100
AcDbEntity
  8
Visible (ANSI)
100
AcDbSpline
210
0.0
220
0.0
230
1.0
 70
     8
 71
     3
 72
    12
 73
     8
 74
     0
 42
0.000000001
 43
0.0000000001
 40
-6.595758791524183
 40
-6.595758791524183
 40
-6.595758791524183
 40
-6.595758791524183
 40
-6.535213663139277
 40
-6.535213663139277
 40
-6.257599331647335
 40
-6.257599331647335
 40
-5.909452348043237
 40
-5.909452348043237
 40
-5.909452348043237
 40
-5.909452348043237
 10
299.4855392217196
 20
2536.913390879648
 30
0.0
 10
299.6865937163102
 20
2536.903611191284
 30
0.0
 10
299.8881056850714
 20
2536.895038174341
 30
0.0
 10
301.0148222189273
 20
2536.853911950245
 30
0.0
 10
301.9392692810725
 20
2536.845762923377
 30
0.0
 10
303.973670710393
 20
2536.883833543893
 30
0.0
 10
305.0629281968686
 20
2536.944236330177
 30
0.0
 10
306.0710881574505
 20
2537.041102866369
 30
0.0
  0
SPLINE
  5
A46
330
1F
100
AcDbEntity
  8
Visible (ANSI)
100
AcDbSpline
210
0.0
220
0.0
230
1.0
 70
     8
 71
     3
 72
    17
 73
    13
 74
     0
 42
0.000000001
 43
0.0000000001
 40
-8.096778197852287
 40
-8.096778197852287
 40
-8.096778197852287
 40
-8.096778197852287
 40
-8.006011821712446
 40
-8.006011821712446
 40
-7.625243859504492
 40
-7.625243859504492
 40
-7.230717817618786
 40
-7.230717817618786
 40
-6.812557307210894
 40
-6.812557307210894
 40
-6.812557307210894
 40
-6.595758791524183
 40
-6.595758791524183
 40
-6.595758791524183
 40
-6.595758791524183
 10
289.8244562326418
 20
2539.418748225532
 30
0.0
 10
289.8365763019101
 20
2539.349825559496
 30
0.0
 10
289.8621957164305
 20
2539.280499895732
 30
0.0
 10
290.0666013918399
 20
2538.919176199517
 30
0.0
 10
290.4695265357686
 20
2538.630369955008
 30
0.0
 10
291.741960391877
 20
2538.077226656024
 30
0.0
 10
292.610323144645
 20
2537.821706548699
 30
0.0
 10
294.7475104521054
 20
2537.373716434707
 30
0.0
 10
296.009440693173
 20
2537.191654868872
 30
0.0
 10
297.354292967304
 20
2537.064711887374
 30
0.0
 10
298.0515419173898
 20
2536.998897327461
 30
0.0
 10
298.7656079887838
 20
2536.948409055522
 30
0.0
 10
299.4855392217196
 20
2536.913390879648
 30
0.0
  0
ELLIPSE
  5
A47
330
1F
100
AcDbEntity
  8
Visible (ANSI)
100
AcDbEllipse
 10
251.8941551167864
 20
2599.76606260208
 30
0.0
 11
10.93710398539319
 21
-0.1813666947366134
 31
0.0
210
0.0
220
0.0
230
1.0
 40
0.2451251649441994
 41
0.6571846470127741
 42
1.57179486186843
  0
ELLIPSE
  5
A48
330
1F
100
AcDbEntity
  8
Visible (ANSI)
100
AcDbEllipse
 10
251.8941551167864
 20
2599.76606260208
 30
0.0
 11
10.93710398539319
 21
-0.1813666947366134
 31
0.0
210
0.0
220
0.0
230
1.0
 40
0.2451251649441994
 41
1.57179486186843
 42
3.084862901982939
  0
LINE
  5
A49
330
1F
100
AcDbEntity
  8
Visible (ANSI)
100
AcDbLine
 10
310.4486460611734
 20
2533.278944402192
 30
0.0
 11
251.9232020694853
 21
2296.930503050349
 31
0.0
  0
LINE
  5
A4A
330
1F
100
AcDbEntity
  8
Visible (ANSI)
100
AcDbLine
 10
289.8047955983802
 20
2539.530691697542
 30
0.0
 11
230.2691165236965
 21
2300.749863036854
 31
0.0
  0
LINE
  5
A4B
330
1F
100
AcDbEntity
  8
Visible (ANSI)
100
AcDbLine
 10
285.260049350406
 20
2565.386518313562
 30
0.0
 11
289.8244722616309
 21
2539.418747847298
 31
0.0
  0
LINE
  5
A4C
330
1F
100
AcDbEntity
  8
Visible (ANSI)
100
AcDbLine
 10
235.6761243990313
 20
2748.528466557009
 30
0.0
 11
240.0903567674323
 21
2743.938021307835
 31
0.0
  0
SPLINE
  5
A4D
330
1F
100
AcDbEntity
  8
Visible (ANSI)
100
AcDbSpline
210
0.0
220
0.0
230
1.0
 70
     8
 71
     3
 72
    12
 73
     8
 74
     0
 42
0.000000001
 43
0.0000000001
 40
0.0
 40
0.0
 40
0.0
 40
0.0
 40
1.67413403761244
 40
1.67413403761244
 40
3.333523290166618
 40
3.333523290166618
 40
4.087113034721039
 40
4.087113034721039
 40
4.087113034721039
 40
4.087113034721039
 10
215.7672965336242
 20
2737.712135457878
 30
0.0
 10
214.7968580808183
 20
2743.02229702933
 30
0.0
 10
213.9479143762246
 20
2748.183688321619
 30
0.0
 10
212.6275632849329
 20
2757.403301075836
 30
0.0
 10
212.1364158978003
 20
2761.573602392657
 30
0.0
 10
211.7149464660015
 20
2766.708811836871
 30
0.0
 10
211.616729192825
 20
2768.174883153151
 30
0.0
 10
211.5658636797043
 20
2769.549184924142
 30
0.0
  0
SPLINE
  5
A4E
330
1F
100
AcDbEntity
  8
Visible (ANSI)
100
AcDbSpline
210
0.0
220
0.0
230
1.0
 70
     8
 71
     3
 72
    20
 73
    16
 74
     0
 42
0.000000001
 43
0.0000000001
 40
3.111457002328962
 40
3.111457002328962
 40
3.111457002328962
 40
3.111457002328962
 40
3.171167059966556
 40
3.171167059966556
 40
3.642204430127035
 40
3.642204430127035
 40
4.153180635054563
 40
4.153180635054563
 40
5.178239219405082
 40
5.178239219405082
 40
6.463263582958829
 40
6.463263582958829
 40
7.920938975370072
 40
7.920938975370072
 40
8.236350412658305
 40
8.236350412658305
 40
8.236350412658305
 40
8.236350412658305
 10
232.9085032061539
 20
2774.192358010676
 30
0.0
 10
232.9085032061539
 20
2774.192358010676
 30
0.0
 10
232.9080369544936
 20
2774.188877186713
 30
0.0
 10
232.9009148298819
 20
2774.129227840889
 30
0.0
 10
232.8775489978507
 20
2773.878427660129
 30
0.0
 10
232.8524832932871
 20
2773.099096218827
 30
0.0
 10
232.8503166899918
 20
2772.543282449553
 30
0.0
 10
232.9003491007406
 20
2770.551136770351
 30
0.0
 10
233.0099181950272
 20
2768.772197755033
 30
0.0
 10
233.4373984442518
 20
2764.111760362054
 30
0.0
 10
233.804324333425
 20
2761.003685585693
 30
0.0
 10
234.8191753841202
 20
2753.724431031935
 30
0.0
 10
235.5106468522026
 20
2749.374614359852
 30
0.0
 10
236.4789565728515
 20
2743.872182577253
 30
0.0
 10
236.6565119817315
 20
2742.8824336059
 30
0.0
 10
236.8388058965629
 20
2741.884935888816
 30
0.0
  0
LINE
  5
A4F
330
1F
100
AcDbEntity
  8
Visible (ANSI)
100
AcDbLine
 10
236.8388058965629
 20
2741.884935888816
 30
0.0
 11
239.1217444318454
 21
2729.392878875823
 31
0.0
  0
LINE
  5
A50
330
1F
100
AcDbEntity
  8
Visible (ANSI)
100
AcDbLine
 10
215.7672965336242
 20
2737.712135457878
 30
0.0
 11
240.9420138711539
 21
2599.958096351684
 31
0.0
  0
LINE
  5
A51
330
1F
100
AcDbEntity
  8
Visible (ANSI)
100
AcDbLine
 10
262.1733819055807
 20
2596.873952596516
 30
0.0
 11
187.4239412877104
 21
2296.941044768914
 31
0.0
  0
LINE
  5
A52
330
1F
100
AcDbEntity
  8
Visible (ANSI)
100
AcDbLine
 10
240.977166372606
 20
2600.09914612932
 30
0.0
 11
165.4239412877104
 21
2296.941044768914
 31
0.0
  0
LINE
  5
A53
330
1F
100
AcDbEntity
  8
Visible (ANSI)
100
AcDbLine
 10
323.0228286086322
 20
2534.487394809126
 30
0.0
 11
535.3097460923127
 21
2534.487394809126
 31
0.0
  0
LINE
  5
A54
330
1F
100
AcDbEntity
  8
Visible (ANSI)
100
AcDbLine
 10
331.1642481878862
 20
2544.983768309415
 30
0.0
 11
339.3143115550847
 21
2544.983768309415
 31
0.0
  0
LINE
  5
A55
330
1F
100
AcDbEntity
  8
Visible (ANSI)
100
AcDbLine
 10
327.1514940388552
 20
2545.493647344776
 30
0.0
 11
331.1642481878862
 21
2544.983768309415
 31
0.0
  0
LINE
  5
A56
330
1F
100
AcDbEntity
  8
Visible (ANSI)
100
AcDbLine
 10
339.3143115550847
 20
2544.983768462045
 30
0.0
 11
535.3097460923127
 21
2544.983768462045
 31
0.0
  0
ARC
  5
A57
330
1F
100
AcDbEntity
  8
Visible (ANSI)
100
AcDbCircle
 10
2632.429064140586
 20
2870.882005596687
 30
0.0
 40
10.99999999999683
100
AcDbArc
 50
263.3661212654346
 51
274.7263650646768
  0
SPLINE
  5
A58
330
1F
100
AcDbEntity
  8
Visible (ANSI)
100
AcDbSpline
210
0.0
220
0.0
230
1.0
 70
     8
 71
     3
 72
    14
 73
    10
 74
     0
 42
0.000000001
 43
0.0000000001
 40
-13.22320822060724
 40
-13.22320822060724
 40
-13.22320822060724
 40
-13.22320822060724
 40
-13.16413729779368
 40
-13.16413729779368
 40
-12.73396911683318
 40
-12.73396911683318
 40
-12.51926015376633
 40
-12.51926015376633
 40
-12.50746453973542
 40
-12.50746453973542
 40
-12.50746453973542
 40
-12.50746453973542
 10
1921.89387773435
 20
2612.293129391135
 30
0.0
 10
1922.053554354215
 20
2612.405715221491
 30
0.0
 10
1922.216308339401
 20
2612.51406928624
 30
0.0
 10
1923.588440871163
 20
2613.375287716974
 30
0.0
 10
1924.929154031537
 20
2613.887909770145
 30
0.0
 10
1927.026825207826
 20
2614.245874966828
 30
0.0
 10
1927.734905554884
 20
2614.295996422269
 30
0.0
 10
1928.481444874338
 20
2614.275160983587
 30
0.0
 10
1928.520305612797
 20
2614.273865485355
 30
0.0
 10
1928.559148148695
 20
2614.27235989125
 30
0.0
  0
SPLINE
  5
A59
330
1F
100
AcDbEntity
  8
Visible (ANSI)
100
AcDbSpline
210
0.0
220
0.0
230
1.0
 70
     8
 71
     3
 72
     8
 73
     4
 74
     0
 42
0.000000001
 43
0.0000000001
 40
-12.50746453973542
 40
-12.50746453973542
 40
-12.50746453973542
 40
-12.50746453973542
 40
-12.42759307026583
 40
-12.42759307026583
 40
-12.42759307026583
 40
-12.42759307026583
 10
1928.559148148695
 20
2614.27235989125
 30
0.0
 10
1928.82216204466
 20
2614.262165045381
 30
0.0
 10
1929.084341337198
 20
2614.242336986441
 30
0.0
 10
1929.345180965243
 20
2614.212986135132
 30
0.0
  0
SPLINE
  5
A5A
330
1F
100
AcDbEntity
  8
Visible (ANSI)
100
AcDbSpline
210
0.0
220
0.0
230
1.0
 70
     8
 71
     3
 72
    21
 73
    17
 74
     0
 42
0.000000001
 43
0.0000000001
 40
-8.963269346155653
 40
-8.963269346155653
 40
-8.963269346155653
 40
-8.963269346155653
 40
-8.649502124773372
 40
-8.649502124773372
 40
-8.2187818808132
 40
-8.2187818808132
 40
-7.789245615587834
 40
-7.789245615587834
 40
-7.360171499473141
 40
-7.360171499473141
 40
-6.931416933554224
 40
-6.931416933554224
 40
-6.931416933554224
 40
-6.581656925194801
 40
-6.581656925194801
 40
-6.291791287053022
 40
-6.291791287053022
 40
-6.291791287053022
 40
-6.291791287053022
 10
1926.885261583762
 20
2592.35312642271
 30
0.0
 10
1925.86104805324
 20
2592.468375372443
 30
0.0
 10
1924.856454839288
 20
2592.730134204379
 30
0.0
 10
1922.592405033632
 20
2593.683381790197
 30
0.0
 10
1921.401953611987
 20
2594.488393989668
 30
0.0
 10
1919.397959447979
 20
2596.512255310341
 30
0.0
 10
1918.602333085411
 20
2597.710828568582
 30
0.0
 10
1917.512269012077
 20
2600.348877080966
 30
0.0
 10
1917.227844799683
 20
2601.762575806381
 30
0.0
 10
1917.21205190551
 20
2604.621420470595
 30
0.0
 10
1917.480426749913
 20
2606.038737640938
 30
0.0
 10
1918.009663211728
 20
2607.36521013563
 30
0.0
 10
1918.441392140168
 20
2608.44729081234
 30
0.0
 10
1919.040568889863
 20
2609.453521138073
 30
0.0
 10
1920.400892122259
 20
2611.086289389313
 30
0.0
 10
1921.110332842772
 20
2611.740660798104
 30
0.0
 10
1921.89387773435
 20
2612.293129391135
 30
0.0
  0
SPLINE
  5
A5B
330
1F
100
AcDbEntity
  8
Visible (ANSI)
100
AcDbSpline
210
0.0
220
0.0
230
1.0
 70
     8
 71
     3
 72
    12
 73
     8
 74
     0
 42
0.000000001
 43
0.0000000001
 40
-13.74410438741007
 40
-13.74410438741007
 40
-13.74410438741007
 40
-13.74410438741007
 40
-13.65053388909001
 40
-13.65053388909001
 40
-13.40338957501693
 40
-13.40338957501693
 40
-13.08687379378263
 40
-13.08687379378263
 40
-13.08687379378263
 40
-13.08687379378263
 10
1986.378732938983
 20
2605.398920716327
 30
0.0
 10
1986.401911100098
 20
2605.57112663345
 30
0.0
 10
1986.423743341618
 20
2605.732544802832
 30
0.0
 10
1986.498107982781
 20
2606.27930794176
 30
0.0
 10
1986.541885984259
 20
2606.594923148244
 30
0.0
 10
1986.616722121134
 20
2607.116883839886
 30
0.0
 10
1986.640309114075
 20
2607.2645420878
 30
0.0
 10
1986.644955802738
 20
2607.263943626053
 30
0.0
  0
SPLINE
  5
A5C
330
1F
100
AcDbEntity
  8
Visible (ANSI)
100
AcDbSpline
210
0.0
220
0.0
230
1.0
 70
     8
 71
     3
 72
    14
 73
    10
 74
     0
 42
0.000000001
 43
0.0000000001
 40
-13.40742182064279
 40
-13.40742182064279
 40
-13.40742182064279
 40
-13.40742182064279
 40
-13.38045942762627
 40
-13.38045942762627
 40
-12.95090942580096
 40
-12.95090942580096
 40
-12.52119634336164
 40
-12.52119634336164
 40
-12.37865776623793
 40
-12.37865776623793
 40
-12.37865776623793
 40
-12.37865776623793
 10
2598.550871658854
 20
2849.257603885922
 30
0.0
 10
2598.475656967563
 20
2849.271218649359
 30
0.0
 10
2598.400884764313
 20
2849.28436013641
 30
0.0
 10
2597.142672197217
 20
2849.498787416072
 30
0.0
 10
2596.09329567943
 20
2849.576446677452
 30
0.0
 10
2594.380667784124
 20
2849.475138591794
 30
0.0
 10
2593.733800543152
 20
2849.29703792164
 30
0.0
 10
2593.199612156508
 20
2848.903536919103
 30
0.0
 10
2593.09443022142
 20
2848.79322362645
 30
0.0
 10
2593.017420374858
 20
2848.671445821786
 30
0.0
  0
SPLINE
  5
A5D
330
1F
100
AcDbEntity
  8
Visible (ANSI)
100
AcDbSpline
210
0.0
220
0.0
230
1.0
 70
     8
 71
     3
 72
     8
 73
     4
 74
     0
 42
0.000000001
 43
0.0000000001
 40
-12.37865776623793
 40
-12.37865776623793
 40
-12.37865776623793
 40
-12.37865776623793
 40
-12.31627497327148
 40
-12.31627497327148
 40
-12.31627497327148
 40
-12.31627497327148
 10
2593.017420374858
 20
2848.671445821786
 30
0.0
 10
2592.983718416287
 20
2848.618148342326
 30
0.0
 10
2592.955413007832
 20
2848.562654757402
 30
0.0
 10
2592.932529257749
 20
2848.505034879727
 30
0.0
  0
SPLINE
  5
A5E
330
1F
100
AcDbEntity
  8
Visible (ANSI)
100
AcDbSpline
210
0.0
220
0.0
230
1.0
 70
     8
 71
     3
 72
    21
 73
    17
 74
     0
 42
0.000000001
 43
0.0000000001
 40
-8.845534040669463
 40
-8.845534040669463
 40
-8.845534040669463
 40
-8.845534040669463
 40
-8.656630289130275
 40
-8.656630289130275
 40
-8.227102954303061
 40
-8.227102954303061
 40
-7.797617655705471
 40
-7.797617655705471
 40
-7.368629311931442
 40
-7.368629311931442
 40
-6.939315307492775
 40
-6.939315307492775
 40
-6.939315307492775
 40
-6.690045386470692
 40
-6.690045386470692
 40
-6.468106513150014
 40
-6.468106513150014
 40
-6.468106513150014
 40
-6.468106513150014
 10
2613.405691818156
 20
2840.461000553843
 30
0.0
 10
2613.475002263335
 20
2840.635518000125
 30
0.0
 10
2613.494773619663
 20
2840.829597366159
 30
0.0
 10
2613.394241153823
 20
2841.522960528692
 30
0.0
 10
2613.064734112465
 20
2842.087133387369
 30
0.0
 10
2611.921548690995
 20
2843.317956290813
 30
0.0
 10
2611.118846317662
 20
2843.972820087893
 30
0.0
 10
2609.140982816851
 20
2845.287541924783
 30
0.0
 10
2607.985443700826
 20
2845.934630334942
 30
0.0
 10
2605.468303828875
 20
2847.136932091314
 30
0.0
 10
2604.131014348459
 20
2847.680386892881
 30
0.0
 10
2602.790698294263
 20
2848.135449250343
 30
0.0
 10
2602.012478917488
 20
2848.399669277484
 30
0.0
 10
2601.240118150196
 20
2848.631754749387
 30
0.0
 10
2599.819101260244
 20
2849.001398347697
 30
0.0
 10
2599.169995661894
 20
2849.145534970677
 30
0.0
 10
2598.550871658854
 20
2849.257603885922
 30
0.0
  0
SPLINE
  5
A5F
330
1F
100
AcDbEntity
  8
Visible (ANSI)
100
AcDbSpline
210
0.0
220
0.0
230
1.0
 70
     8
 71
     3
 72
     8
 73
     4
 74
     0
 42
0.000000001
 43
0.0000000001
 40
-12.14862792561942
 40
-12.14862792561942
 40
-12.14862792561942
 40
-12.14862792561942
 40
-12.11002851603274
 40
-12.11002851603274
 40
-12.11002851603274
 40
-12.11002851603274
 10
2623.531397449715
 20
2882.02819206555
 30
0.0
 10
2623.407591812084
 20
2882.028148267892
 30
0.0
 10
2623.283708470783
 20
2882.025866603338
 30
0.0
 10
2623.159803376975
 20
2882.021338202809
 30
0.0
  0
SPLINE
  5
A60
330
1F
100
AcDbEntity
  8
Visible (ANSI)
100
AcDbSpline
210
0.0
220
0.0
230
1.0
 70
     8
 71
     3
 72
    25
 73
    21
 74
     0
 42
0.000000001
 43
0.0000000001
 40
-8.522939768515913
 40
-8.522939768515913
 40
-8.522939768515913
 40
-8.522939768515913
 40
-8.230425456631753
 40
-8.230425456631753
 40
-7.799702450308581
 40
-7.799702450308581
 40
-7.370215314763894
 40
-7.370215314763894
 40
-6.941507988452848
 40
-6.941507988452848
 40
-6.941507988452848
 40
-6.698720082744419
 40
-6.698720082744419
 40
-6.455899327167853
 40
-6.455899327167853
 40
-6.025995981983051
 40
-6.025995981983051
 40
-5.594840431077941
 40
-5.594840431077941
 40
-5.207119937166575
 40
-5.207119937166575
 40
-5.207119937166575
 40
-5.207119937166575
 10
2625.043431893953
 20
2860.135717624587
 30
0.0
 10
2625.970148621178
 20
2860.270882583795
 30
0.0
 10
2626.877459060854
 20
2860.532419429634
 30
0.0
 10
2629.013227714982
 20
2861.478611224065
 30
0.0
 10
2630.166885256512
 20
2862.29417408404
 30
0.0
 10
2632.104194629497
 20
2864.335825827546
 30
0.0
 10
2632.870457431993
 20
2865.541314814405
 30
0.0
 10
2633.912869256559
 20
2868.187806654315
 30
0.0
 10
2634.179852358608
 20
2869.602894615029
 30
0.0
 10
2634.177742888849
 20
2871.031892336584
 30
0.0
 10
2634.17654824226
 20
2871.841170235014
 30
0.0
 10
2634.089056699835
 20
2872.647945326837
 30
0.0
 10
2633.744645181371
 20
2874.227275976056
 30
0.0
 10
2633.488773579336
 20
2874.994916333401
 30
0.0
 10
2632.561182820015
 20
2877.021885915609
 30
0.0
 10
2631.729975042822
 20
2878.184693948031
 30
0.0
 10
2629.682244135369
 20
2880.118160125423
 30
0.0
 10
2628.484369024127
 20
2880.869026324645
 30
0.0
 10
2626.010744880146
 20
2881.80325823793
 30
0.0
 10
2624.774991163862
 20
2882.028629880527
 30
0.0
 10
2623.531397449715
 20
2882.02819206555
 30
0.0
  0
LINE
  5
A61
330
1F
100
AcDbEntity
  8
Visible (ANSI)
100
AcDbLine
 10
1940.218788450042
 20
2590.852820719394
 30
0.0
 11
1926.885261419084
 21
2592.353124953602
 31
0.0
  0
LINE
  5
A62
330
1F
100
AcDbEntity
  8
Visible (ANSI)
100
AcDbLine
 10
1942.673271224446
 20
2612.713295021722
 30
0.0
 11
1929.345181117845
 21
2614.212987486769
 31
0.0
  0
SPLINE
  5
A63
330
1F
100
AcDbEntity
  8
Visible (ANSI)
100
AcDbSpline
210
0.0
220
0.0
230
1.0
 70
     8
 71
     3
 72
    14
 73
    10
 74
     0
 42
0.000000001
 43
0.0000000001
 40
0.2603233366646188
 40
0.2603233366646188
 40
0.2603233366646188
 40
0.2603233366646188
 40
1.619592190824811
 40
1.619592190824811
 40
3.20975350083841
 40
3.20975350083841
 40
4.799932264500756
 40
4.799932264500756
 40
6.45771509610368
 40
6.45771509610368
 40
6.45771509610368
 40
6.45771509610368
 10
1981.289767862909
 20
2585.766494363538
 30
0.0
 10
1976.833662702411
 20
2586.326831612974
 30
0.0
 10
1972.440449023699
 20
2586.877809931869
 30
0.0
 10
1963.570742076667
 20
2587.986985310119
 30
0.0
 10
1959.086447544796
 20
2588.545570745451
 30
0.0
 10
1951.384610704024
 20
2589.500292578575
 30
0.0
 10
1948.070492703031
 20
2589.908396819351
 30
0.0
 10
1942.914495707389
 20
2590.53690446417
 30
0.0
 10
1941.043860186979
 20
2590.759982705704
 30
0.0
 10
1940.218788885013
 20
2590.852820670451
 30
0.0
  0
SPLINE
  5
A64
330
1F
100
AcDbEntity
  8
Visible (ANSI)
100
AcDbSpline
210
0.0
220
0.0
230
1.0
 70
     8
 71
     3
 72
    14
 73
    10
 74
     0
 42
0.000000001
 43
0.0000000001
 40
0.0
 40
0.0
 40
0.0
 40
0.0
 40
2.066003338920176
 40
2.066003338920176
 40
3.712767040600346
 40
3.712767040600346
 40
5.30974964258267
 40
5.30974964258267
 40
6.472739099311293
 40
6.472739099311293
 40
6.472739099311293
 40
6.472739099311293
 10
1942.673270792045
 20
2612.713295070376
 30
0.0
 10
1943.938732069546
 20
2612.570903922702
 30
0.0
 10
1946.526547039312
 20
2612.259108768004
 30
0.0
 10
1953.312045182365
 20
2611.427148550426
 30
0.0
 10
1957.125275208968
 20
2610.955744379532
 30
0.0
 10
1965.629049495224
 20
2609.89848282888
 30
0.0
 10
1970.394258928918
 20
2609.303504739256
 30
0.0
 10
1979.013653536138
 20
2608.22346331763
 30
0.0
 10
1982.818932650081
 20
2607.74553688357
 30
0.0
 10
1986.644955077234
 20
2607.263944717205
 30
0.0
  0
LINE
  5
A65
330
1F
100
AcDbEntity
  8
Visible (ANSI)
100
AcDbLine
 10
2439.92952827672
 20
2526.231138639697
 30
0.0
 11
2002.607529110406
 21
2583.00910739488
 31
0.0
  0
LINE
  5
A66
330
1F
100
AcDbEntity
  8
Visible (ANSI)
100
AcDbLine
 10
2442.762243512902
 20
2548.045764062831
 30
0.0
 11
2008.255631445947
 21
2604.458208190702
 31
0.0
  0
LINE
  5
A67
330
1F
100
AcDbEntity
  8
Visible (ANSI)
100
AcDbLine
 10
1986.878482561966
 20
2607.233625603325
 30
0.0
 11
1986.644955928232
 21
2607.263944608404
 31
0.0
  0
SPLINE
  5
A68
330
1F
100
AcDbEntity
  8
Visible (ANSI)
100
AcDbSpline
210
0.0
220
0.0
230
1.0
 70
     8
 71
     3
 72
    10
 73
     6
 74
     0
 42
0.000000001
 43
0.0000000001
 40
0.0
 40
0.0
 40
0.0
 40
0.0
 40
1.961517516736145
 40
1.961517516736145
 40
2.887571350743848
 40
2.887571350743848
 40
2.887571350743848
 40
2.887571350743848
 10
2503.118861904823
 20
2562.772645027412
 30
0.0
 10
2500.750180609299
 20
2556.808603841112
 30
0.0
 10
2497.34186941502
 20
2551.174769806427
 30
0.0
 10
2491.182747131183
 20
2544.009404962073
 30
0.0
 10
2489.011087896557
 20
2541.854464015619
 30
0.0
 10
2486.684248266574
 20
2539.876746846531
 30
0.0
  0
SPLINE
  5
A69
330
1F
100
AcDbEntity
  8
Visible (ANSI)
100
AcDbSpline
210
0.0
220
0.0
230
1.0
 70
     8
 71
     3
 72
    12
 73
     8
 74
     0
 42
0.000000001
 43
0.0000000001
 40
5.133313787371773
 40
5.133313787371773
 40
5.133313787371773
 40
5.133313787371773
 40
5.81708642049173
 40
5.81708642049173
 40
7.753901894332505
 40
7.753901894332505
 40
7.932934809065541
 40
7.932934809065541
 40
7.932934809065541
 40
7.932934809065541
 10
2467.45869451291
 20
2528.965739910152
 30
0.0
 10
2465.313811675558
 20
2528.231742169996
 30
0.0
 10
2463.128257165503
 20
2527.61846776463
 30
0.0
 10
2454.673082179681
 20
2525.760353609535
 30
0.0
 10
2448.104086772079
 20
2525.383384608467
 30
0.0
 10
2441.110642861255
 20
2526.08646319196
 30
0.0
 10
2440.519560840689
 20
2526.154534099917
 30
0.0
 10
2439.92952827672
 20
2526.231138639697
 30
0.0
  0
SPLINE
  5
A6A
330
1F
100
AcDbEntity
  8
Visible (ANSI)
100
AcDbSpline
210
0.0
220
0.0
230
1.0
 70
     8
 71
     3
 72
    10
 73
     6
 74
     0
 42
0.000000001
 43
0.0000000001
 40
0.0
 40
0.0
 40
0.0
 40
0.0
 40
1.258088241854264
 40
1.258088241854264
 40
2.058051092640551
 40
2.058051092640551
 40
2.058051092640551
 40
2.058051092640551
 10
2442.762243512902
 20
2548.045764062831
 30
0.0
 10
2446.891036113811
 20
2547.509718636948
 30
0.0
 10
2451.13577680752
 20
2547.635201295693
 30
0.0
 10
2457.735836659804
 20
2548.897509214919
 30
0.0
 10
2460.257458232305
 20
2549.656799513974
 30
0.0
 10
2462.65960468119
 20
2550.655424717421
 30
0.0
  0
SPLINE
  5
A6B
330
1F
100
AcDbEntity
  8
Visible (ANSI)
100
AcDbSpline
210
0.0
220
0.0
230
1.0
 70
     8
 71
     3
 72
     8
 73
     4
 74
     0
 42
0.000000001
 43
0.0000000001
 40
4.630331606401771
 40
4.630331606401771
 40
4.630331606401771
 40
4.630331606401771
 40
5.096553449912691
 40
5.096553449912691
 40
5.096553449912691
 40
5.096553449912691
 10
2480.774960966028
 20
2566.858494400024
 30
0.0
 10
2481.492241612738
 20
2568.16555305002
 30
0.0
 10
2482.128576244726
 20
2569.51464406735
 30
0.0
 10
2482.675916571259
 20
2570.89277807657
 30
0.0
  0
LINE
  5
A6C
330
1F
100
AcDbEntity
  8
Visible (ANSI)
100
AcDbLine
 10
2613.405694413108
 20
2840.460999568149
 30
0.0
 11
2503.118861904823
 21
2562.772645027412
 31
0.0
  0
LINE
  5
A6D
330
1F
100
AcDbEntity
  8
Visible (ANSI)
100
AcDbLine
 10
2592.93252648932
 20
2848.505035941407
 30
0.0
 11
2482.675916571259
 21
2570.89277807657
 31
0.0
  0
SPLINE
  5
A6E
330
1F
100
AcDbEntity
  8
Visible (ANSI)
100
AcDbSpline
210
0.0
220
0.0
230
1.0
 70
     8
 71
     3
 72
    16
 73
    12
 74
     0
 42
0.000000001
 43
0.0000000001
 40
0.8522304706751736
 40
0.8522304706751736
 40
0.8522304706751736
 40
0.8522304706751736
 40
1.494451215809561
 40
1.494451215809561
 40
2.272096785989029
 40
2.272096785989029
 40
3.209576494873518
 40
3.209576494873518
 40
4.323246755288367
 40
4.323246755288367
 40
4.923257842022064
 40
4.923257842022064
 40
4.923257842022064
 40
4.923257842022064
 10
2625.305633758151
 20
2860.307195472943
 30
0.0
 10
2625.305633758459
 20
2860.307195473101
 30
0.0
 10
2625.049035548766
 20
2860.165588107587
 30
0.0
 10
2624.148237714902
 20
2859.407252722501
 30
0.0
 10
2623.431161160292
 20
2858.694862702366
 30
0.0
 10
2621.67005068452
 20
2856.55155712795
 30
0.0
 10
2620.569208559862
 20
2854.986369413574
 30
0.0
 10
2618.13513084863
 20
2850.943619727926
 30
0.0
 10
2616.766314159517
 20
2848.305104759271
 30
0.0
 10
2614.762111701843
 20
2843.837041717456
 30
0.0
 10
2614.072928784943
 20
2842.183812723417
 30
0.0
 10
2613.408801785645
 20
2840.46892234859
 30
0.0
  0
SPLINE
  5
A6F
330
1F
100
AcDbEntity
  8
Visible (ANSI)
100
AcDbSpline
210
0.0
220
0.0
230
1.0
 70
     8
 71
     3
 72
    14
 73
    10
 74
     0
 42
0.000000001
 43
0.0000000001
 40
0.0004162383620059
 40
0.0004162383620059
 40
0.0004162383620059
 40
0.0004162383620059
 40
1.898423158496356
 40
1.898423158496356
 40
3.83321650096354
 40
3.83321650096354
 40
4.909599882381122
 40
4.909599882381122
 40
6.212927517611192
 40
6.212927517611192
 40
6.212927517611192
 40
6.212927517611192
 10
2592.931085903509
 20
2848.501408727767
 30
0.0
 10
2595.085346454731
 20
2854.052523835609
 30
0.0
 10
2597.519141244211
 20
2859.210055975335
 30
0.0
 10
2602.75200046435
 20
2868.155722853725
 30
0.0
 10
2605.589679928773
 20
2872.023945043033
 30
0.0
 10
2610.524520180367
 20
2876.810410124447
 30
0.0
 10
2612.420014570986
 20
2878.302437048278
 30
0.0
 10
2617.078000383168
 20
2880.916653366041
 30
0.0
 10
2620.048055233994
 20
2881.907612087601
 30
0.0
 10
2623.159803376955
 20
2882.021338202959
 30
0.0
  0
SPLINE
  5
A70
330
1F
100
AcDbEntity
  8
Visible (ANSI)
100
AcDbSpline
210
0.0
220
0.0
230
1.0
 70
     8
 71
     3
 72
    42
 73
    38
 74
     0
 42
0.000000001
 43
0.0000000001
 40
0.0
 40
0.0
 40
0.0
 40
0.0
 40
6.275624979317277
 40
6.275624979317277
 40
8.343229152354222
 40
8.343229152354222
 40
8.863738872520698
 40
8.863738872520698
 40
9.046095398273068
 40
9.046095398273068
 40
9.205135277696019
 40
9.205135277696019
 40
9.363400624736447
 40
9.363400624736447
 40
9.681711362383657
 40
9.681711362383657
 40
9.998242936569679
 40
9.998242936569679
 40
10.34534324704669
 40
10.34534324704669
 40
10.69749400323487
 40
10.69749400323487
 40
11.04995422100697
 40
11.04995422100697
 40
11.40227619103082
 40
11.40227619103082
 40
11.75234017275793
 40
11.75234017275793
 40
11.90978493309713
 40
11.90978493309713
 40
12.06835382268099
 40
12.06835382268099
 40
12.22719464724129
 40
12.22719464724129
 40
12.54488049060516
 40
12.54488049060516
 40
12.86086052737724
 40
12.86086052737724
 40
12.86086052737724
 40
12.86086052737724
 10
2623.589769363744
 20
2882.028046881504
 30
0.0
 10
2627.622177870413
 20
2882.006562001578
 30
0.0
 10
2630.285109688746
 20
2881.982119540692
 30
0.0
 10
2632.317817115339
 20
2881.934676367667
 30
0.0
 10
2632.546954432639
 20
2881.941142870588
 30
0.0
 10
2633.463238574783
 20
2881.870378047528
 30
0.0
 10
2633.66302785273
 20
2881.863302628156
 30
0.0
 10
2634.420868349442
 20
2881.743935557703
 30
0.0
 10
2634.675642877703
 20
2881.700031675611
 30
0.0
 10
2635.316873283437
 20
2881.550938455893
 30
0.0
 10
2635.692591797866
 20
2881.449964887766
 30
0.0
 10
2636.513100389497
 20
2881.168392324971
 30
0.0
 10
2636.961503375113
 20
2880.985945019152
 30
0.0
 10
2638.293901159688
 20
2880.328408206926
 30
0.0
 10
2639.182798802293
 20
2879.730566419897
 30
0.0
 10
2640.724678420315
 20
2878.32228134703
 30
0.0
 10
2641.40475227229
 20
2877.495969206767
 30
0.0
 10
2642.544349622409
 20
2875.613406716206
 30
0.0
 10
2642.990191261512
 20
2874.519139479799
 30
0.0
 10
2643.517259223118
 20
2872.256134047935
 30
0.0
 10
2643.599597146213
 20
2871.058376427989
 30
0.0
 10
2643.385286749239
 20
2868.726228583019
 30
0.0
 10
2643.085597550014
 20
2867.562881420614
 30
0.0
 10
2642.148030512223
 20
2865.4190823438
 30
0.0
 10
2641.498176601499
 20
2864.411721284442
 30
0.0
 10
2639.947842511843
 20
2862.686176243191
 30
0.0
 10
2639.022811163561
 20
2861.942615529886
 30
0.0
 10
2637.621981561297
 20
2861.130023958654
 30
0.0
 10
2637.174252235789
 20
2860.911445737293
 30
0.0
 10
2636.311215965616
 20
2860.554040468029
 30
0.0
 10
2635.889689872411
 20
2860.413675548134
 30
0.0
 10
2635.179568909967
 20
2860.212106768498
 30
0.0
 10
2634.88545920184
 20
2860.147145043217
 30
0.0
 10
2634.197261058762
 20
2860.011039861627
 30
0.0
 10
2633.950883049316
 20
2859.983807877189
 30
0.0
 10
2633.572193140381
 20
2859.939618060279
 30
0.0
 10
2633.444637214012
 20
2859.928439120164
 30
0.0
 10
2633.335432348329
 20
2859.919410252885
 30
0.0
  0
SPLINE
  5
A71
330
1F
100
AcDbEntity
  8
Visible (ANSI)
100
AcDbSpline
210
0.0
220
0.0
230
1.0
 70
     8
 71
     3
 72
    12
 73
     8
 74
     0
 42
0.000000001
 43
0.0000000001
 40
5.121318899182601
 40
5.121318899182601
 40
5.121318899182601
 40
5.121318899182601
 40
6.276429036730312
 40
6.276429036730312
 40
10.2941193051684
 40
10.2941193051684
 40
12.0716554132087
 40
12.0716554132087
 40
12.0716554132087
 40
12.0716554132087
 10
2631.748075554255
 20
2859.939315478786
 30
0.0
 10
2631.748075554266
 20
2859.939315478785
 30
0.0
 10
2631.626303977631
 20
2859.94418546501
 30
0.0
 10
2630.834353154967
 20
2859.964909793114
 30
0.0
 10
2629.517754759419
 20
2859.984127753154
 30
0.0
 10
2626.852011296078
 20
2860.007224172241
 30
0.0
 10
2625.923826247183
 20
2860.013959855657
 30
0.0
 10
2624.887444845168
 20
2860.020314985546
 30
0.0
  0
SPLINE
  5
A74
330
1F
100
AcDbEntity
  8
Visible (ANSI)
100
AcDbSpline
210
0.0
220
0.0
230
1.0
 70
     8
 71
     3
 72
    25
 73
    21
 74
     0
 42
0.000000001
 43
0.0000000001
 40
-9.921631466715366
 40
-9.921631466715366
 40
-9.921631466715366
 40
-9.921631466715366
 40
-9.714880609982703
 40
-9.714880609982703
 40
-9.250860481568606
 40
-9.250860481568606
 40
-8.806870885644741
 40
-8.806870885644741
 40
-8.394066340488947
 40
-8.394066340488947
 40
-8.006011821712446
 40
-8.006011821712446
 40
-7.625243859504492
 40
-7.625243859504492
 40
-7.230717817618786
 40
-7.230717817618786
 40
-6.812557307210894
 40
-6.812557307210894
 40
-6.812557307210894
 40
-6.595758791524183
 40
-6.595758791524183
 40
-6.595758791524183
 40
-6.595758791524183
 10
2487.673184129906
 20
2535.361311778885
 30
0.0
 10
2487.667590239458
 20
2535.383745318766
 30
0.0
 10
2487.601904616175
 20
2535.392134080562
 30
0.0
 10
2487.198997749825
 20
2535.373970081515
 30
0.0
 10
2486.629305539986
 20
2535.291129182739
 30
0.0
 10
2485.022038380894
 20
2535.003265394445
 30
0.0
 10
2484.01456191264
 20
2534.80525432911
 30
0.0
 10
2481.74167854925
 20
2534.330935821555
 30
0.0
 10
2480.51435704564
 20
2534.064225615557
 30
0.0
 10
2477.990456258475
 20
2533.49613714504
 30
0.0
 10
2476.725225749937
 20
2533.202914349319
 30
0.0
 10
2474.257002683136
 20
2532.613786987911
 30
0.0
 10
2473.082415782712
 20
2532.324980743403
 30
0.0
 10
2470.906762882611
 20
2531.771837444419
 30
0.0
 10
2469.943204401465
 20
2531.516317337094
 30
0.0
 10
2468.344701217928
 20
2531.068327223102
 30
0.0
 10
2467.753215287239
 20
2530.886265657267
 30
0.0
 10
2467.409519393172
 20
2530.759322675769
 30
0.0
 10
2467.231327627507
 20
2530.693508115856
 30
0.0
 10
2467.12111415918
 20
2530.643019843917
 30
0.0
 10
2467.077874878722
 20
2530.608001668043
 30
0.0
  0
SPLINE
  5
A75
330
1F
100
AcDbEntity
  8
Visible (ANSI)
100
AcDbSpline
210
0.0
220
0.0
230
1.0
 70
     8
 71
     3
 72
    10
 73
     6
 74
     0
 42
0.000000001
 43
0.0000000001
 40
-6.595758791524183
 40
-6.595758791524183
 40
-6.595758791524183
 40
-6.595758791524183
 40
-6.535213663139277
 40
-6.535213663139277
 40
-6.51601359752382
 40
-6.51601359752382
 40
-6.51601359752382
 40
-6.51601359752382
 10
2467.077874878722
 20
2530.608001668043
 30
0.0
 10
2467.065798647385
 20
2530.598221979679
 30
0.0
 10
2467.058946418231
 20
2530.589648962736
 30
0.0
 10
2467.056772163114
 20
2530.579950524253
 30
0.0
 10
2467.056771835658
 20
2530.577737970636
 30
0.0
 10
2467.057292813783
 20
2530.575647743732
 30
0.0
  0
ELLIPSE
  5
A76
330
1F
100
AcDbEntity
  8
Visible (ANSI)
100
AcDbEllipse
 10
1994.193478571831
 20
2593.460673390475
 30
0.0
 11
10.34025602415506
 21
-2.666468188801268
 31
0.0
210
0.0
220
0.0
230
0.9999999999999998
 40
0.032130916107536
 41
3.084180007265011
 42
3.141908293943033
  0
ELLIPSE
  5
A77
330
1F
100
AcDbEntity
  8
Visible (ANSI)
100
AcDbEllipse
 10
1994.193478571831
 20
2593.460673390475
 30
0.0
 11
10.34025602415506
 21
-2.666468188801268
 31
0.0
210
0.0
220
0.0
230
0.9999999999999998
 40
0.032130916107536
 41
0.0003156403532412
 42
3.084180007265011
  0
LINE
  5
A78
330
1F
100
AcDbEntity
  8
Visible (ANSI)
100
AcDbLine
 10
2487.673171339291
 20
2535.361308754654
 30
0.0
 11
2546.734368509169
 21
2298.483493281661
 31
0.0
  0
LINE
  5
A79
330
1F
100
AcDbEntity
  8
Visible (ANSI)
100
AcDbLine
 10
2467.057293107495
 20
2530.57564781247
 30
0.0
 11
2526.563610855534
 21
2291.91257915753
 31
0.0
  0
LINE
  5
A7A
330
1F
100
AcDbEntity
  8
Visible (ANSI)
100
AcDbLine
 10
2432.193118460211
 20
2689.765100427524
 30
0.0
 11
2467.057207960172
 21
2530.576011502435
 31
0.0
  0
LINE
  5
A7B
330
1F
100
AcDbEntity
  8
Visible (ANSI)
100
AcDbLine
 10
2452.823158324032
 20
2694.486149681242
 30
0.0
 11
2487.67317658315
 21
2535.361309903114
 31
0.0
  0
SPLINE
  5
A7C
330
1F
100
AcDbEntity
  8
Visible (ANSI)
100
AcDbSpline
210
0.0
220
0.0
230
1.0
 70
     8
 71
     3
 72
    14
 73
    10
 74
     0
 42
0.000000001
 43
0.0000000001
 40
0.6080904622513711
 40
0.6080904622513711
 40
0.6080904622513711
 40
0.6080904622513711
 40
1.964569046387445
 40
1.964569046387445
 40
3.891384349481027
 40
3.891384349481027
 40
5.815386704866175
 40
5.815386704866175
 40
7.324181338775288
 40
7.324181338775288
 40
7.324181338775288
 40
7.324181338775288
 10
2408.307190460595
 20
2739.46456167683
 30
0.0
 10
2412.707603603074
 20
2738.436633132135
 30
0.0
 10
2417.002909143234
 20
2736.913652358849
 30
0.0
 10
2426.749520775291
 20
2732.145521434175
 30
0.0
 10
2432.071681469766
 20
2728.375880621039
 30
0.0
 10
2441.114414703738
 20
2719.462543692116
 30
0.0
 10
2444.949848268716
 20
2714.209874333101
 30
0.0
 10
2450.062220424789
 20
2704.113649915349
 30
0.0
 10
2451.75755842688
 20
2699.351668305687
 30
0.0
 10
2452.823158324032
 20
2694.486149681242
 30
0.0
  0
SPLINE
  5
A7D
330
1F
100
AcDbEntity
  8
Visible (ANSI)
100
AcDbSpline
210
0.0
220
0.0
230
1.0
 70
     8
 71
     3
 72
    14
 73
    10
 74
     0
 42
0.000000001
 43
0.0000000001
 40
0.0
 40
0.0
 40
0.0
 40
0.0
 40
1.289352605811096
 40
1.289352605811096
 40
2.55746065865609
 40
2.55746065865609
 40
3.826954913414531
 40
3.826954913414531
 40
3.892326541681352
 40
3.892326541681352
 40
3.892326541681352
 40
3.892326541681352
 10
2432.193118460211
 20
2689.765100427524
 30
0.0
 10
2431.295369309708
 20
2693.86421419764
 30
0.0
 10
2429.693246403413
 20
2697.850279275212
 30
0.0
 10
2425.365977234537
 20
2704.924630491282
 30
0.0
 10
2422.606394173309
 20
2708.115038539628
 30
0.0
 10
2416.265553706137
 20
2713.387066112453
 30
0.0
 10
2412.603857800236
 20
2715.533194487906
 30
0.0
 10
2408.526855059172
 20
2717.100596530315
 30
0.0
 10
2408.326404537433
 20
2717.175723211037
 30
0.0
 10
2408.125206967343
 20
2717.249205747971
 30
0.0
  0
SPLINE
  5
A7E
330
1F
100
AcDbEntity
  8
Visible (ANSI)
100
AcDbSpline
210
0.0
220
0.0
230
1.0
 70
     8
 71
     3
 72
     8
 73
     4
 74
     0
 42
0.000000001
 43
0.0000000001
 40
0.0
 40
0.0
 40
0.0
 40
0.0
 40
1.785912551772991
 40
1.785912551772991
 40
1.785912551772991
 40
1.785912551772991
 10
2022.062644043201
 20
2736.403412606864
 30
0.0
 10
2023.611057893386
 20
2742.088024057065
 30
0.0
 10
2026.046583298561
 20
2747.617830037941
 30
0.0
 10
2029.205232073138
 20
2752.641094834579
 30
0.0
  0
LINE
  5
A7F
330
1F
100
AcDbEntity
  8
Visible (ANSI)
100
AcDbLine
 10
1983.853260862937
 20
2596.127286101353
 30
0.0
 11
2022.062644043201
 21
2736.403412606864
 31
0.0
  0
LINE
  5
A80
330
1F
100
AcDbEntity
  8
Visible (ANSI)
100
AcDbLine
 10
2004.533764031979
 20
2590.794309411277
 30
0.0
 11
2026.387368143474
 21
2671.024312614494
 31
0.0
  0
LINE
  5
A81
330
1F
100
AcDbEntity
  8
Visible (ANSI)
100
AcDbLine
 10
1910.139661423927
 20
2298.200923521561
 30
0.0
 11
1983.853196019947
 21
2596.127036577499
 31
0.0
  0
LINE
  5
A82
330
1F
100
AcDbEntity
  8
Visible (ANSI)
100
AcDbLine
 10
1930.964709499077
 20
2293.452150288579
 30
0.0
 11
2004.533761123715
 21
2590.794310203451
 31
0.0
  0
ARC
  5
A83
330
1F
100
AcDbEntity
  8
0
 62
     7
420
 16777215
100
AcDbCircle
 10
176.4239412877105
 20
2296.941044768914
 30
0.0
 40
11.0
100
AcDbArc
 50
180.0
 51
0.0
  0
ARC
  5
A84
330
1F
100
AcDbEntity
  8
0
 62
     7
420
 16777215
100
AcDbCircle
 10
241.1583686791964
 20
2299.192882788441
 30
0.0
 40
11.0
100
AcDbArc
 50
160.1367599207373
 51
348.1312251530645
  0
ARC
  5
A85
330
1F
100
AcDbEntity
  8
0
 62
     7
420
 16777215
100
AcDbCircle
 10
713.8392740119834
 20
2920.649092059854
 30
0.0
 40
52.60754837132571
100
AcDbArc
 50
316.1899462603487
 51
350.7688946417244
  0
ARC
  5
A86
330
1F
100
AcDbEntity
  8
0
 62
     7
420
 16777215
100
AcDbCircle
 10
-128.788427468703
 20
2993.059109530053
 30
0.0
 40
898.2000616404407
100
AcDbArc
 50
354.835678067452
 51
4.448824142278394
  0
ARC
  5
A87
330
1F
100
AcDbEntity
  8
0
 62
     7
420
 16777215
100
AcDbCircle
 10
679.9818139735889
 20
3061.446932496441
 30
0.0
 40
86.7330661790574
100
AcDbArc
 50
0.8484554803706792
 51
40.11127373998069
  0
ARC
  5
A88
330
1F
100
AcDbEntity
  8
0
 62
     7
420
 16777215
100
AcDbCircle
 10
708.1577373943746
 20
3064.810102474611
 30
0.0
 40
64.91506101084022
100
AcDbArc
 50
53.99896825026246
 51
78.11106202054199
  0
ARC
  5
A89
330
1F
100
AcDbEntity
  8
0
 62
     7
420
 16777215
100
AcDbCircle
 10
637.6779097191647
 20
2692.697556694111
 30
0.0
 40
443.6319637938492
100
AcDbArc
 50
79.10466404930606
 51
86.43395880299788
  0
ARC
  5
A8A
330
1F
100
AcDbEntity
  8
0
 62
     7
420
 16777215
100
AcDbCircle
 10
481.3693520380375
 20
-11266.28764359473
 30
0.0
 40
14402.93230260136
100
AcDbArc
 50
89.26840622151699
 51
89.78643326377669
  0
ARC
  5
A8B
330
1F
100
AcDbEntity
  8
0
 62
     7
420
 16777215
100
AcDbCircle
 10
724.2698673756503
 20
2836.65161461183
 30
0.0
 40
55.04569750530562
100
AcDbArc
 50
9.346274009644901
 51
59.88466795288567
  0
ARC
  5
A8C
330
1F
100
AcDbEntity
  8
0
 62
     7
420
 16777215
100
AcDbCircle
 10
554.5854416521124
 20
2793.215868159667
 30
0.0
 40
230.0410553604245
100
AcDbArc
 50
2.174760575062457
 51
13.1603848037711
  0
ARC
  5
A8D
330
1F
100
AcDbEntity
  8
0
 62
     7
420
 16777215
100
AcDbCircle
 10
532.6494903430366
 20
5045.536569195892
 30
0.0
 40
2172.405461363642
100
AcDbArc
 50
270.0567425565048
 51
275.8035554642209
  0
ARC
  5
A8E
330
1F
100
AcDbEntity
  8
0
 62
     7
420
 16777215
100
AcDbCircle
 10
871.9482683445166
 20
2781.399693486622
 30
0.0
 40
39.06681607413844
100
AcDbArc
 50
15.07861352198088
 51
60.5588605206424
  0
ARC
  5
A8F
330
1F
100
AcDbEntity
  8
0
 62
     7
420
 16777215
100
AcDbCircle
 10
844.2605124512429
 20
2738.033018595571
 30
0.0
 40
90.4857211327504
100
AcDbArc
 50
58.78801551009241
 51
102.5267081892166
  0
ARC
  5
A90
330
1F
100
AcDbEntity
  8
0
 62
     7
420
 16777215
100
AcDbCircle
 10
842.4667852748662
 20
2750.795269354997
 30
0.0
 40
77.64488689775697
100
AcDbArc
 50
103.2772223399789
 51
141.1288198470824
  0
ARC
  5
A91
330
1F
100
AcDbEntity
  8
0
 62
     7
420
 16777215
100
AcDbCircle
 10
857.73961281443
 20
2733.018677104712
 30
0.0
 40
100.7816431477456
100
AcDbArc
 50
138.7088839849312
 51
169.1915240587659
  0
ARC
  5
A92
330
1F
100
AcDbEntity
  8
0
 62
     7
420
 16777215
100
AcDbCircle
 10
995.2177769685404
 20
2702.445238006032
 30
0.0
 40
241.5916018865813
100
AcDbArc
 50
168.1834877112999
 51
179.8477013459384
  0
ARC
  5
A93
330
1F
100
AcDbEntity
  8
0
 62
     7
420
 16777215
100
AcDbCircle
 10
777.8115872661083
 20
2759.634406094259
 30
0.0
 40
135.6689290565278
100
AcDbArc
 50
349.2860874745703
 51
13.61164975509325
  0
ARC
  5
A94
330
1F
100
AcDbEntity
  8
0
 62
     7
420
 16777215
100
AcDbCircle
 10
672.352186718047
 20
2767.300205303136
 30
0.0
 40
241.0176232207561
100
AcDbArc
 50
339.4365770784095
 51
352.1574041150039
  0
ARC
  5
A95
330
1F
100
AcDbEntity
  8
0
 62
     7
420
 16777215
100
AcDbCircle
 10
794.8332806293265
 20
2732.476276216612
 30
0.0
 40
114.5832197035177
100
AcDbArc
 50
294.7019930471165
 51
334.2211668448046
  0
ARC
  5
A96
330
1F
100
AcDbEntity
  8
0
 62
     7
420
 16777215
100
AcDbCircle
 10
830.4046447773508
 20
2660.811777002975
 30
0.0
 40
34.69215345078204
100
AcDbArc
 50
275.9212356808636
 51
290.7883163520754
  0
ARC
  5
A97
330
1F
100
AcDbEntity
  8
0
 62
     7
420
 16777215
100
AcDbCircle
 10
844.0548266876676
 20
2763.061878466761
 30
0.0
 40
15.87591041834339
100
AcDbArc
 50
22.69885788446508
 51
176.8912268907106
  0
ARC
  5
A98
330
1F
100
AcDbEntity
  8
0
 62
     7
420
 16777215
100
AcDbCircle
 10
117.053558346307
 20
2689.154227861689
 30
0.0
 40
715.0684243726075
100
AcDbArc
 50
359.0643927969886
 51
6.001903398773198
  0
ARC
  5
A99
330
1F
100
AcDbEntity
  8
0
 62
     7
420
 16777215
100
AcDbCircle
 10
743.5687391038491
 20
2672.358364089795
 30
0.0
 40
88.60594385713644
100
AcDbArc
 50
317.0551121008624
 51
3.312443032855848
  0
ARC
  5
A9A
330
1F
100
AcDbEntity
  8
0
 62
     7
420
 16777215
100
AcDbCircle
 10
-369.9489142194289
 20
3894.026830424997
 30
0.0
 40
1741.318202551068
100
AcDbArc
 50
312.5029193048067
 51
312.5875561498634
  0
ARC
  5
A9B
330
1F
100
AcDbEntity
  8
0
 62
     7
420
 16777215
100
AcDbCircle
 10
788.118602104143
 20
2650.513242356657
 30
0.0
 40
44.6961671445976
100
AcDbArc
 50
13.29720881527236
 51
67.20687357683566
  0
ARC
  5
A9C
330
1F
100
AcDbEntity
  8
0
 62
     7
420
 16777215
100
AcDbCircle
 10
643.2938948469772
 20
2076.554226387465
 30
0.0
 40
636.1739045675904
100
AcDbArc
 50
75.23424985180072
 51
83.52181681392528
  0
ARC
  5
A9D
330
1F
100
AcDbEntity
  8
0
 62
     7
420
 16777215
100
AcDbCircle
 10
602.8655896934087
 20
-736.0837599616034
 30
0.0
 40
3446.576763625059
100
AcDbArc
 50
88.13438560969109
 51
91.13157841213258
  0
ARC
  5
A9E
330
1F
100
AcDbEntity
  8
0
 62
     7
420
 16777215
100
AcDbCircle
 10
591.8173383664816
 20
-19067.06542936832
 30
0.0
 40
21695.9160012512
100
AcDbArc
 50
89.39797820506136
 51
90.15057229731775
  0
ARC
  5
A9F
330
1F
100
AcDbEntity
  8
0
 62
     7
420
 16777215
100
AcDbCircle
 10
758.4455720761861
 20
2526.184942276284
 30
0.0
 40
146.9986947420546
100
AcDbArc
 50
60.77114895154767
 51
82.26078394772125
  0
ARC
  5
AA0
330
1F
100
AcDbEntity
  8
0
 62
     7
420
 16777215
100
AcDbCircle
 10
519.3451126363225
 20
-1657.398612515174
 30
0.0
 40
4336.977572575961
100
AcDbArc
 50
86.57769278073066
 51
89.79581301241962
  0
SPLINE
  5
AA1
330
1F
100
AcDbEntity
  8
Visible (ANSI)
100
AcDbSpline
210
0.0
220
0.0
230
1.0
 70
     8
 71
     3
 72
    21
 73
    17
 74
     0
 42
0.000000001
 43
0.0000000001
 40
-9.043379414051299
 40
-9.043379414051299
 40
-9.043379414051299
 40
-9.043379414051299
 40
-8.649502124773372
 40
-8.649502124773372
 40
-8.2187818808132
 40
-8.2187818808132
 40
-7.789245615587834
 40
-7.789245615587834
 40
-7.360171499473141
 40
-7.360171499473141
 40
-6.931416933554224
 40
-6.931416933554224
 40
-6.931416933554224
 40
-6.581656925194801
 40
-6.581656925194801
 40
-6.291791287053022
 40
-6.291791287053022
 40
-6.291791287053022
 40
-6.291791287053022
 10
678.2182012670482
 20
2598.599000611359
 30
0.0
 10
678.4108739712555
 20
2598.649227251831
 30
0.0
 10
678.6050454315819
 20
2598.932949857158
 30
0.0
 10
678.9953339720068
 20
2599.988771001802
 30
0.0
 10
679.1861318032797
 20
2600.793783201272
 30
0.0
 10
679.5194666358693
 20
2602.817644521945
 30
0.0
 10
679.6589838768186
 20
2604.016217780187
 30
0.0
 10
679.8682239189638
 20
2606.654266292571
 30
0.0
 10
679.9359965787171
 20
2608.067965017986
 30
0.0
 10
679.9902668079949
 20
2610.9268096822
 30
0.0
 10
679.9762968025606
 20
2612.344126852543
 30
0.0
 10
679.922071783294
 20
2613.670599347235
 30
0.0
 10
679.8778372848191
 20
2614.752680023945
 30
0.0
 10
679.8074444066205
 20
2615.758910349678
 30
0.0
 10
679.6357914517066
 20
2617.391678600918
 30
0.0
 10
679.5426888953698
 20
2618.046050009709
 30
0.0
 10
679.436768566974
 20
2618.59851860274
 30
0.0
  0
SPLINE
  5
AA2
330
1F
100
AcDbEntity
  8
Visible (ANSI)
100
AcDbSpline
210
0.0
220
0.0
230
1.0
 70
     8
 71
     3
 72
    10
 73
     6
 74
     0
 42
0.000000001
 43
0.0000000001
 40
-9.088409567600683
 40
-9.088409567600683
 40
-9.088409567600683
 40
-9.088409567600683
 40
-9.0808837563316
 40
-9.0808837563316
 40
-9.043379414051299
 40
-9.043379414051299
 40
-9.043379414051299
 40
-9.043379414051299
 10
678.1521953786587
 20
2598.590948835384
 30
0.0
 10
678.1558654891841
 20
2598.590885281299
 30
0.0
 10
678.1595377459707
 20
2598.5909073817
 30
0.0
 10
678.1815229044532
 20
2598.591552583815
 30
0.0
 10
678.1998552913319
 20
2598.594218085191
 30
0.0
 10
678.2182012670482
 20
2598.599000611359
 30
0.0
  0
SPLINE
  5
AA3
330
1F
100
AcDbEntity
  8
Visible (ANSI)
100
AcDbSpline
210
0.0
220
0.0
230
1.0
 70
     8
 71
     3
 72
    12
 73
     8
 74
     0
 42
0.000000001
 43
0.0000000001
 40
-13.22320822060724
 40
-13.22320822060724
 40
-13.22320822060724
 40
-13.22320822060724
 40
-13.16413729779368
 40
-13.16413729779368
 40
-12.73396911683318
 40
-12.73396911683318
 40
-12.55242069235486
 40
-12.55242069235486
 40
-12.55242069235486
 40
-12.55242069235486
 10
679.436768566974
 20
2618.59851860274
 30
0.0
 10
679.4151833265959
 20
2618.711104433096
 30
0.0
 10
679.393065795608
 20
2618.819458497845
 30
0.0
 10
679.2056494109265
 20
2619.680676928579
 30
0.0
 10
679.0165502464015
 20
2620.19329898175
 30
0.0
 10
678.7282484177558
 20
2620.532857077441
 30
0.0
 10
678.6407645792096
 20
2620.584256382755
 30
0.0
 10
678.5522542850885
 20
2620.58578926304
 30
0.0
  0
SPLINE
  5
AA4
330
1F
100
AcDbEntity
  8
Visible (ANSI)
100
AcDbSpline
210
0.0
220
0.0
230
1.0
 70
     8
 71
     3
 72
    20
 73
    16
 74
     0
 42
0.000000001
 43
0.0000000001
 40
-9.590407610035537
 40
-9.590407610035537
 40
-9.590407610035537
 40
-9.590407610035537
 40
-9.526236064657203
 40
-9.526236064657203
 40
-9.093216828370731
 40
-9.093216828370731
 40
-8.662954664057728
 40
-8.662954664057728
 40
-8.234947860517646
 40
-8.234947860517646
 40
-7.807494348404872
 40
-7.807494348404872
 40
-7.378862390482089
 40
-7.378862390482089
 40
-7.203539003223192
 40
-7.203539003223192
 40
-7.203539003223192
 40
-7.203539003223192
 10
798.7807954190675
 20
2591.751382993375
 30
0.0
 10
798.9941874448795
 20
2591.755666846621
 30
0.0
 10
799.2076585956947
 20
2591.766044300904
 30
0.0
 10
800.8601368920263
 20
2591.893885700778
 30
0.0
 10
802.2645079671665
 20
2592.281989298005
 30
0.0
 10
804.8356274130227
 20
2593.565561415905
 30
0.0
 10
805.9799910502498
 20
2594.445894861741
 30
0.0
 10
807.8593239481243
 20
2596.586462556856
 30
0.0
 10
808.5783346642893
 20
2597.824141167768
 30
0.0
 10
809.4971770545772
 20
2600.50200217577
 30
0.0
 10
809.6886145357794
 20
2601.915587101916
 30
0.0
 10
809.5142331189226
 20
2604.740443266266
 30
0.0
 10
809.1486067927462
 20
2606.123789959389
 30
0.0
 10
808.2713539951782
 20
2607.920494407488
 30
0.0
 10
807.9757235500137
 20
2608.419829389204
 30
0.0
 10
807.6425114902203
 20
2608.892622994358
 30
0.0
  0
SPLINE
  5
AA5
330
1F
100
AcDbEntity
  8
Visible (ANSI)
100
AcDbSpline
210
0.0
220
0.0
230
1.0
 70
     8
 71
     3
 72
    10
 73
     6
 74
     0
 42
0.000000001
 43
0.0000000001
 40
-10.30112672375376
 40
-10.30112672375376
 40
-10.30112672375376
 40
-10.30112672375376
 40
-9.960551619640712
 40
-9.960551619640712
 40
-9.590407610035537
 40
-9.590407610035537
 40
-9.590407610035537
 40
-9.590407610035537
 10
792.1265673130119
 20
2593.783301641085
 30
0.0
 10
793.0482558614676
 20
2593.132586802879
 30
0.0
 10
794.0671184956518
 20
2592.625327156523
 30
0.0
 10
796.3217201895804
 20
2591.904723414539
 30
0.0
 10
797.5499417128039
 20
2591.726677027645
 30
0.0
 10
798.7807954190675
 20
2591.751382993375
 30
0.0
  0
SPLINE
  5
AA6
330
1F
100
AcDbEntity
  8
Visible (ANSI)
100
AcDbSpline
210
0.0
220
0.0
230
1.0
 70
     8
 71
     3
 72
    10
 73
     6
 74
     0
 42
0.000000001
 43
0.0000000001
 40
0.690444370680273
 40
0.690444370680273
 40
0.690444370680273
 40
0.690444370680273
 40
9.937010866792254
 40
9.937010866792254
 40
15.06528303075206
 40
15.06528303075206
 40
15.06528303075206
 40
15.06528303075206
 10
534.800919655966
 20
2599.870862407988
 30
0.0
 10
565.6241344510008
 20
2599.852074188955
 30
0.0
 10
596.4545711241489
 20
2599.668466860541
 30
0.0
 10
644.1931688339519
 20
2599.127924325667
 30
0.0
 10
661.1971677045712
 20
2598.884546810854
 30
0.0
 10
678.1521953786332
 20
2598.590948833927
 30
0.0
  0
SPLINE
  5
AA7
330
1F
100
AcDbEntity
  8
Visible (ANSI)
100
AcDbSpline
210
0.0
220
0.0
230
1.0
 70
     8
 71
     3
 72
    10
 73
     6
 74
     0
 42
0.000000001
 43
0.0000000001
 40
0.0
 40
0.0
 40
0.0
 40
0.0
 40
9.962297533345347
 40
9.962297533345347
 40
14.41474272123335
 40
14.41474272123335
 40
14.41474272123335
 40
14.41474272123335
 10
678.5522542850848
 20
2620.585789262865
 30
0.0
 10
645.6137368618028
 20
2621.156233559037
 30
0.0
 10
612.478746464395
 20
2621.537617194459
 30
0.0
 10
564.4826308406663
 20
2621.813230221832
 30
0.0
 10
549.642235229554
 20
2621.860321591229
 30
0.0
 10
534.800919655966
 20
2621.869332858955
 30
0.0
  0
LINE
  5
AA8
330
1F
100
AcDbEntity
  8
Visible (ANSI)
100
AcDbLine
 10
757.0097038130342
 20
2597.091133466612
 30
0.0
 11
678.1521953721322
 21
2598.590948492136
 31
0.0
  0
LINE
  5
AA9
330
1F
100
AcDbEntity
  8
Visible (ANSI)
100
AcDbLine
 10
757.4289909881144
 20
2619.085608869879
 30
0.0
 11
678.5526549331125
 21
2620.585781983544
 31
0.0
  0
SPLINE
  5
AAA
330
1F
100
AcDbEntity
  8
Visible (ANSI)
100
AcDbSpline
210
0.0
220
0.0
230
1.0
 70
     8
 71
     3
 72
    16
 73
    12
 74
     0
 42
0.000000001
 43
0.0000000001
 40
0.0
 40
0.0
 40
0.0
 40
0.0
 40
1.530387093388218
 40
1.530387093388218
 40
3.021468450455806
 40
3.021468450455806
 40
4.454216022005002
 40
4.454216022005002
 40
5.05870755269728
 40
5.05870755269728
 40
5.364996490135394
 40
5.364996490135394
 40
5.364996490135394
 40
5.364996490135394
 10
757.0097038331205
 20
2597.09113346623
 30
0.0
 10
762.0345749704829
 20
2596.995564238611
 30
0.0
 10
766.9804395931478
 20
2596.796696033797
 30
0.0
 10
775.8103402464503
 20
2596.234163439336
 30
0.0
 10
779.8366699075095
 20
2595.866338409296
 30
0.0
 10
786.373618309225
 20
2595.046631394177
 30
0.0
 10
789.0530097629053
 20
2594.573484926513
 30
0.0
 10
791.4512434394027
 20
2593.993463336654
 30
0.0
 10
791.9946925415215
 20
2593.830881618568
 30
0.0
 10
792.4326738317449
 20
2593.679604342807
 30
0.0
 10
792.5153910030594
 20
2593.644926830896
 30
0.0
 10
792.5153910030567
 20
2593.644926830897
 30
0.0
  0
SPLINE
  5
AAB
330
1F
100
AcDbEntity
  8
Visible (ANSI)
100
AcDbSpline
210
0.0
220
0.0
230
1.0
 70
     8
 71
     3
 72
    20
 73
    16
 74
     0
 42
0.000000001
 43
0.0000000001
 40
0.0
 40
0.0
 40
0.0
 40
0.0
 40
0.397014693992783
 40
0.397014693992783
 40
0.932624560669412
 40
0.932624560669412
 40
1.695211830634351
 40
1.695211830634351
 40
3.563185967193548
 40
3.563185967193548
 40
4.737063835556075
 40
4.737063835556075
 40
6.581380381292634
 40
6.581380381292634
 40
7.104341594060037
 40
7.104341594060037
 40
7.104341594060037
 40
7.104341594060037
 10
807.6425127547318
 20
2608.892623871601
 30
0.0
 10
807.0287611644708
 20
2609.763478551693
 30
0.0
 10
806.3306109888863
 20
2610.511663126672
 30
0.0
 10
804.6864956324279
 20
2611.963649839418
 30
0.0
 10
803.7347165011723
 20
2612.578620312055
 30
0.0
 10
801.546011430446
 20
2613.76926262643
 30
0.0
 10
800.3238541574182
 20
2614.245974870657
 30
0.0
 10
795.9597746995541
 20
2615.6835931177
 30
0.0
 10
792.4413309867577
 20
2616.367434380482
 30
0.0
 10
785.4651640414958
 20
2617.358279656489
 30
0.0
 10
782.4753405537758
 20
2617.694285807627
 30
0.0
 10
774.2089288229199
 20
2618.429462853763
 30
0.0
 10
768.4769073158313
 20
2618.76224034662
 30
0.0
 10
760.8566441664962
 20
2619.009126284659
 30
0.0
 10
759.1488263396813
 20
2619.052898906305
 30
0.0
 10
757.4289909686004
 20
2619.08560887025
 30
0.0
  0
LINE
  5
AAC
330
1F
100
AcDbEntity
  8
Visible (ANSI)
100
AcDbLine
 10
763.9618514554313
 20
2536.93523789021
 30
0.0
 11
807.5192941342329
 21
2596.262106644461
 31
0.0
  0
LINE
  5
AAD
330
1F
100
AcDbEntity
  8
Visible (ANSI)
100
AcDbLine
 10
742.9591717094235
 20
2545.493647344776
 30
0.0
 11
779.9075283656947
 21
2595.818693335104
 31
0.0
  0
SPLINE
  5
AAE
330
1F
100
AcDbEntity
  8
Visible (ANSI)
100
AcDbSpline
210
0.0
220
0.0
230
1.0
 70
     8
 71
     3
 72
    23
 73
    19
 74
     0
 42
0.000000001
 43
0.0000000001
 40
3.399781518483744
 40
3.399781518483744
 40
3.399781518483744
 40
3.399781518483744
 40
3.603562902885035
 40
3.603562902885035
 40
3.603562902885035
 40
4.419385855722493
 40
4.419385855722493
 40
5.742206607540627
 40
5.742206607540627
 40
6.290532265549933
 40
6.290532265549933
 40
6.776895179950862
 40
6.776895179950862
 40
7.240759932378806
 40
7.240759932378806
 40
7.702724413664375
 40
7.702724413664375
 40
7.93710706101053
 40
7.93710706101053
 40
7.93710706101053
 40
7.93710706101053
 10
739.9261041638437
 20
2545.108251804235
 30
0.0
 10
740.082465895326
 20
2544.741829030646
 30
0.0
 10
740.2391888661586
 20
2544.381714190682
 30
0.0
 10
740.3963537142463
 20
2544.029315377189
 30
0.0
 10
741.0255509828076
 20
2542.618514084202
 30
0.0
 10
741.6618303907608
 20
2541.331380561889
 30
0.0
 10
743.494739847506
 20
2538.142643081304
 30
0.0
 10
744.7405361049359
 20
2536.139407907096
 30
0.0
 10
748.4448790244041
 20
2533.525797164896
 30
0.0
 10
749.804471923092
 20
2532.831951857432
 30
0.0
 10
752.6412349740458
 20
2532.071948291339
 30
0.0
 10
754.1127783810988
 20
2531.938134317171
 30
0.0
 10
756.9212140205536
 20
2532.219246794239
 30
0.0
 10
758.2922123960152
 20
2532.610952448167
 30
0.0
 10
760.7413129578717
 20
2533.80303555194
 30
0.0
 10
761.8466681868048
 20
2534.614399309286
 30
0.0
 10
763.1985362367213
 20
2535.9690213785
 30
0.0
 10
763.6054628799975
 20
2536.449823298812
 30
0.0
 10
763.9618514554313
 20
2536.93523789021
 30
0.0
  0
SPLINE
  5
AAF
330
1F
100
AcDbEntity
  8
Visible (ANSI)
100
AcDbSpline
210
0.0
220
0.0
230
1.0
 70
     8
 71
     3
 72
    12
 73
     8
 74
     0
 42
0.000000001
 43
0.0000000001
 40
-6.595758791524183
 40
-6.595758791524183
 40
-6.595758791524183
 40
-6.595758791524183
 40
-6.535213663139277
 40
-6.535213663139277
 40
-6.257599331647335
 40
-6.257599331647335
 40
-5.909452348043237
 40
-5.909452348043237
 40
-5.909452348043237
 40
-5.909452348043237
 10
770.6251265265591
 20
2536.913390879648
 30
0.0
 10
770.4240720319685
 20
2536.903611191284
 30
0.0
 10
770.2225600632082
 20
2536.895038174341
 30
0.0
 10
769.0958435293514
 20
2536.853911950245
 30
0.0
 10
768.1713964672062
 20
2536.845762923377
 30
0.0
 10
766.1369950378857
 20
2536.883833543893
 30
0.0
 10
765.0477375514101
 20
2536.944236330177
 30
0.0
 10
764.0395775908291
 20
2537.041102866369
 30
0.0
  0
SPLINE
  5
AB0
330
1F
100
AcDbEntity
  8
Visible (ANSI)
100
AcDbSpline
210
0.0
220
0.0
230
1.0
 70
     8
 71
     3
 72
    17
 73
    13
 74
     0
 42
0.000000001
 43
0.0000000001
 40
-8.096778197852287
 40
-8.096778197852287
 40
-8.096778197852287
 40
-8.096778197852287
 40
-8.006011821712446
 40
-8.006011821712446
 40
-7.625243859504492
 40
-7.625243859504492
 40
-7.230717817618786
 40
-7.230717817618786
 40
-6.812557307210894
 40
-6.812557307210894
 40
-6.812557307210894
 40
-6.595758791524183
 40
-6.595758791524183
 40
-6.595758791524183
 40
-6.595758791524183
 10
780.2862095156378
 20
2539.418748225532
 30
0.0
 10
780.2740894463696
 20
2539.349825559496
 30
0.0
 10
780.2484700318482
 20
2539.280499895732
 30
0.0
 10
780.0440643564388
 20
2538.919176199517
 30
0.0
 10
779.6411392125101
 20
2538.630369955008
 30
0.0
 10
778.3687053564017
 20
2538.077226656024
 30
0.0
 10
777.5003426036337
 20
2537.821706548699
 30
0.0
 10
775.3631552961733
 20
2537.373716434707
 30
0.0
 10
774.1012250551057
 20
2537.191654868872
 30
0.0
 10
772.7563727809747
 20
2537.064711887374
 30
0.0
 10
772.0591238308888
 20
2536.998897327461
 30
0.0
 10
771.3450577594949
 20
2536.948409055522
 30
0.0
 10
770.6251265265591
 20
2536.913390879648
 30
0.0
  0
ELLIPSE
  5
AB1
330
1F
100
AcDbEntity
  8
Visible (ANSI)
100
AcDbEllipse
 10
818.2165106314933
 20
2599.76606260208
 30
0.0
 11
-10.93710398539319
 21
-0.1813666947366134
 31
0.0
210
0.0
220
0.0
230
-1.0
 40
0.2451251649441994
 41
0.6571846470127741
 42
1.57179486186843
  0
ELLIPSE
  5
AB2
330
1F
100
AcDbEntity
  8
Visible (ANSI)
100
AcDbEllipse
 10
818.2165106314933
 20
2599.76606260208
 30
0.0
 11
-10.93710398539319
 21
-0.1813666947366134
 31
0.0
210
0.0
220
0.0
230
-1.0
 40
0.2451251649441994
 41
1.57179486186843
 42
3.084862901982939
  0
LINE
  5
AB3
330
1F
100
AcDbEntity
  8
Visible (ANSI)
100
AcDbLine
 10
759.6620196871063
 20
2533.278944402192
 30
0.0
 11
818.1874636787943
 21
2296.930503050349
 31
0.0
  0
LINE
  5
AB4
330
1F
100
AcDbEntity
  8
Visible (ANSI)
100
AcDbLine
 10
780.3058701498985
 20
2539.530691697542
 30
0.0
 11
839.8415492245822
 21
2300.749863036854
 31
0.0
  0
LINE
  5
AB5
330
1F
100
AcDbEntity
  8
Visible (ANSI)
100
AcDbLine
 10
784.8506163978727
 20
2565.386518313562
 30
0.0
 11
780.2861934866487
 21
2539.418747847298
 31
0.0
  0
LINE
  5
AB6
330
1F
100
AcDbEntity
  8
Visible (ANSI)
100
AcDbLine
 10
834.4345413492474
 20
2748.528466557009
 30
0.0
 11
830.0203089808464
 21
2743.938021307835
 31
0.0
  0
SPLINE
  5
AB7
330
1F
100
AcDbEntity
  8
Visible (ANSI)
100
AcDbSpline
210
0.0
220
0.0
230
1.0
 70
     8
 71
     3
 72
    12
 73
     8
 74
     0
 42
0.000000001
 43
0.0000000001
 40
0.0
 40
0.0
 40
0.0
 40
0.0
 40
1.67413403761244
 40
1.67413403761244
 40
3.333523290166618
 40
3.333523290166618
 40
4.087113034721039
 40
4.087113034721039
 40
4.087113034721039
 40
4.087113034721039
 10
854.3433692146555
 20
2737.712135457878
 30
0.0
 10
855.3138076674605
 20
2743.02229702933
 30
0.0
 10
856.1627513720541
 20
2748.183688321619
 30
0.0
 10
857.4831024633459
 20
2757.403301075836
 30
0.0
 10
857.9742498504783
 20
2761.573602392657
 30
0.0
 10
858.3957192822772
 20
2766.708811836871
 30
0.0
 10
858.4939365554538
 20
2768.174883153151
 30
0.0
 10
858.5448020685744
 20
2769.549184924142
 30
0.0
  0
SPLINE
  5
AB8
330
1F
100
AcDbEntity
  8
Visible (ANSI)
100
AcDbSpline
210
0.0
220
0.0
230
1.0
 70
     8
 71
     3
 72
    20
 73
    16
 74
     0
 42
0.000000001
 43
0.0000000001
 40
3.111457002328962
 40
3.111457002328962
 40
3.111457002328962
 40
3.111457002328962
 40
3.171167059966556
 40
3.171167059966556
 40
3.642204430127035
 40
3.642204430127035
 40
4.153180635054563
 40
4.153180635054563
 40
5.178239219405082
 40
5.178239219405082
 40
6.463263582958829
 40
6.463263582958829
 40
7.920938975370072
 40
7.920938975370072
 40
8.236350412658305
 40
8.236350412658305
 40
8.236350412658305
 40
8.236350412658305
 10
837.2021625421249
 20
2774.192358010676
 30
0.0
 10
837.2021625421249
 20
2774.192358010676
 30
0.0
 10
837.2026287937851
 20
2774.188877186713
 30
0.0
 10
837.2097509183968
 20
2774.129227840889
 30
0.0
 10
837.2331167504281
 20
2773.878427660129
 30
0.0
 10
837.2581824549916
 20
2773.099096218827
 30
0.0
 10
837.2603490582879
 20
2772.543282449553
 30
0.0
 10
837.210316647538
 20
2770.551136770351
 30
0.0
 10
837.1007475532515
 20
2768.772197755033
 30
0.0
 10
836.6732673040269
 20
2764.111760362054
 30
0.0
 10
836.3063414148546
 20
2761.003685585693
 30
0.0
 10
835.2914903641586
 20
2753.724431031935
 30
0.0
 10
834.6000188960761
 20
2749.374614359852
 30
0.0
 10
833.6317091754272
 20
2743.872182577253
 30
0.0
 10
833.4541537665472
 20
2742.8824336059
 30
0.0
 10
833.2718598517168
 20
2741.884935888816
 30
0.0
  0
LINE
  5
AB9
330
1F
100
AcDbEntity
  8
Visible (ANSI)
100
AcDbLine
 10
833.2718598517168
 20
2741.884935888816
 30
0.0
 11
830.9889213164334
 21
2729.392878875823
 31
0.0
  0
LINE
  5
ABA
330
1F
100
AcDbEntity
  8
Visible (ANSI)
100
AcDbLine
 10
854.3433692146555
 20
2737.712135457878
 30
0.0
 11
829.1686518771248
 21
2599.958096351684
 31
0.0
  0
LINE
  5
ABB
330
1F
100
AcDbEntity
  8
Visible (ANSI)
100
AcDbLine
 10
807.9372838426989
 20
2596.873952596516
 30
0.0
 11
882.6867244605692
 21
2296.941044768914
 31
0.0
  0
LINE
  5
ABC
330
1F
100
AcDbEntity
  8
Visible (ANSI)
100
AcDbLine
 10
829.1334993756736
 20
2600.09914612932
 30
0.0
 11
904.6867244605691
 21
2296.941044768914
 31
0.0
  0
LINE
  5
ABD
330
1F
100
AcDbEntity
  8
Visible (ANSI)
100
AcDbLine
 10
747.0878371396475
 20
2534.487394809126
 30
0.0
 11
534.800919655966
 21
2534.487394809126
 31
0.0
  0
LINE
  5
ABE
330
1F
100
AcDbEntity
  8
Visible (ANSI)
100
AcDbLine
 10
738.9464175603925
 20
2544.983768309415
 30
0.0
 11
730.796354193194
 21
2544.983768309415
 31
0.0
  0
LINE
  5
ABF
330
1F
100
AcDbEntity
  8
Visible (ANSI)
100
AcDbLine
 10
742.9591717094235
 20
2545.493647344776
 30
0.0
 11
738.9464175603925
 21
2544.983768309415
 31
0.0
  0
LINE
  5
AC0
330
1F
100
AcDbEntity
  8
Visible (ANSI)
100
AcDbLine
 10
730.796354193194
 20
2544.983768462045
 30
0.0
 11
534.800919655966
 21
2544.983768462045
 31
0.0
  0
ARC
  5
AC1
330
1F
100
AcDbEntity
  8
0
 62
     7
420
 16777215
100
AcDbCircle
 10
893.6867244605691
 20
2296.941044768914
 30
0.0
 40
11.0
100
AcDbArc
 50
180.0
 51
0.0
  0
ARC
  5
AC2
330
1F
100
AcDbEntity
  8
0
 62
     7
420
 16777215
100
AcDbCircle
 10
828.9522970690823
 20
2299.192882788441
 30
0.0
 40
11.0
100
AcDbArc
 50
191.8687748469355
 51
19.86324007926268
  0
LINE
  5
AC3
330
1F
100
AcDbEntity
  8
0
 62
     7
420
 16777215
100
AcDbLine
 10
1853.58560439872
 20
2669.871522652665
 30
0.0
 11
1999.509800545738
 21
2653.606328116286
 31
0.0
  0
ARC
  5
ACB
330
1F
100
AcDbEntity
  8
0
100
AcDbCircle
 10
1920.675405175702
 20
2296.366898877757
 30
0.0
 40
10.69418266148209
100
AcDbArc
 50
162.0805922866932
 51
348.0220358078601
  0
ARC
  5
ACC
330
1F
100
AcDbEntity
  8
0
100
AcDbCircle
 10
2536.268215876946
 20
2296.366898877757
 30
0.0
 40
10.67802991153396
100
AcDbArc
 50
204.6546646003795
 51
16.56755797117779
  0
TEXT
  5
AE8
330
1F
100
AcDbEntity
  8
LINE
100
AcDbText
 10
16.12494033494113
 20
5528.657787977961
 30
0.0
 40
230.8930554978323
  1
—
 41
1.000399999999999
100
AcDbText
  0
TEXT
  5
AE9
330
1F
100
AcDbEntity
  8
LINE
100
AcDbText
 10
16.12494033494113
 20
6173.790674915206
 30
0.0
 40
230.8930554978323
  1
JEAN
 41
1.000399999999999
100
AcDbText
  0
LINE
  5
AEA
330
1F
100
AcDbEntity
  8
LINE
370
    20
100
AcDbLine
 10
16.12494033494113
 20
4161.605142106611
 30
0.0
 11
24766.10647101268
 21
4161.605142106611
 31
0.0
  0
TEXT
  5
AEB
330
1F
100
AcDbEntity
  8
LINE
100
AcDbText
 10
40.91100422543786
 20
4772.39731887264
 30
0.0
 40
280.3701388187964
  1
DIMENSIONS
 41
1.000399999999999
100
AcDbText
  0
MTEXT
  5
B62
330
1F
100
AcDbEntity
  8
0
100
AcDbMText
 10
5146.668467472744
 20
2819.202416832547
 30
0.0
 40
192.6907499518273
 41
691.715102794329
 46
0.0
 71
     1
 72
     1
  1
88
 73
     1
 44
1.0
  0
MTEXT
  5
B63
330
1F
100
AcDbEntity
  8
0
100
AcDbMText
 10
2782.577742455178
 20
2735.290563530801
 30
0.0
 40
192.6907499518273
 41
567.9869986014344
 46
0.0
 71
     1
 72
     1
  1
86
 73
     1
 44
1.0
  0
MTEXT
  5
B64
330
1F
100
AcDbEntity
  8
0
100
AcDbMText
 10
378.7173510414868
 20
2143.491161897876
 30
0.0
 40
192.6907499518273
 41
691.715102794329
 46
0.0
 71
     1
 72
     1
  1
74
 73
     1
 44
1.0
  0
VIEWPORT
  5
AF6
102
{ACAD_XDICTIONARY
360
AF7
102
}
330
58
100
AcDbEntity
 67
     1
  8
0
100
AcDbViewport
 10
5.249999639556165
 20
3.999999883606677
 30
0.0
 40
19.85754122937819
 41
8.549658959858174
 68
     1
 69
     1
 12
5.249999639556165
 22
3.999999883606677
 13
0.0
 23
0.0
 14
10.0
 24
10.0
 15
10.0
 25
10.0
 16
0.0
 26
0.0
 36
1.0
 17
0.0
 27
0.0
 37
0.0
 42
50.0
 43
0.0
 44
0.0
 45
8.549658959858174
 50
0.0
 51
0.0
 72
  1000
 90
   819232
  1

281
     0
 71
     1
 74
     0
110
0.0
120
0.0
130
0.0
111
1.0
121
0.0
131
0.0
112
0.0
122
1.0
132
0.0
 79
     0
146
0.0
170
     0
 61
     5
348
9F
292
     1
282
     1
141
0.0
142
0.0
 63
   250
421
  3355443
  0
ENDSEC
  0
SECTION
  2
OBJECTS
  0
DICTIONARY
  5
C
330
0
100
AcDbDictionary
281
     1
  3
ACAD_CIP_PREVIOUS_PRODUCT_INFO
350
1A5
  3
ACAD_COLOR
350
73
  3
ACAD_DETAILVIEWSTYLE
350
1AB
  3
ACAD_FIELDLIST
350
8F4
  3
ACAD_GROUP
350
D
  3
ACAD_LAYOUT
350
1A
  3
ACAD_MATERIAL
350
72
  3
ACAD_MLEADERSTYLE
350
D7
  3
ACAD_MLINESTYLE
350
17
  3
ACAD_PLOTSETTINGS
350
19
  3
ACAD_PLOTSTYLENAME
350
E
  3
ACAD_SCALELIST
350
B6
  3
ACAD_SECTIONVIEWSTYLE
350
1A8
  3
ACAD_TABLESTYLE
350
86
  3
ACAD_VISUALSTYLE
350
99
  3
ACDB_RECOMPOSE_DATA
350
B87
  3
AcDbVariableDictionary
350
66
  3
AcDsDecomposeData
350
B8D
  3
AcmDictionary
350
8AF
  3
AMG
350
883
  3
AMGSNAPSETTINGS
350
9F9
  0
DICTIONARY
  5
18E
330
2
100
AcDbDictionary
280
     1
281
     1
  3
ACAD_LAYERSTATES
360
18F
  0
DICTIONARY
  5
E6
330
10
100
AcDbDictionary
280
     1
281
     1
  0
DICTIONARY
  5
ACF
330
ACE
100
AcDbDictionary
280
     1
281
     1
  0
DICTIONARY
  5
15D
330
1F
100
AcDbDictionary
280
     1
281
     1
  0
DICTIONARY
  5
B38
330
B37
100
AcDbDictionary
280
     1
281
     1
  3
ASDK_XREC_ANNOTATION_SCALE_INFO
360
B39
  0
DICTIONARY
  5
B04
330
B03
100
AcDbDictionary
280
     1
281
     1
  3
ASDK_XREC_ANNOTATION_SCALE_INFO
360
B05
  0
DICTIONARY
  5
AF7
330
AF6
100
AcDbDictionary
280
     1
281
     1
  3
ASDK_XREC_ANNOTATION_SCALE_INFO
360
AF8
  0
XRECORD
  5
1A5
102
{ACAD_REACTORS
330
C
102
}
330
C
100
AcDbXrecord
280
     1
300
AMECH_PP
300
2019
300
AMECH_PP_F_S
  0
DICTIONARY
  5
73
102
{ACAD_REACTORS
330
C
102
}
330
C
100
AcDbDictionary
281
     1
  0
DICTIONARY
  5
1AB
102
{ACAD_REACTORS
330
C
102
}
330
C
100
AcDbDictionary
281
     1
  3
ASME Y14.35 - 1987(1)
350
AD9
  3
Imperial24
350
1AC
  3
Metric50
350
3D7
  0
FIELDLIST
  5
8F4
102
{ACAD_REACTORS
330
C
102
}
330
C
100
AcDbIdSet
 90
       11
330
AD5
330
AD6
330
AD7
330
AD8
330
8F2
330
8F3
330
8F5
330
8F6
330
90D
330
90E
330
90F
100
AcDbFieldList
  0
DICTIONARY
  5
D
102
{ACAD_REACTORS
330
C
102
}
330
C
100
AcDbDictionary
281
     1
  0
DICTIONARY
  5
1A
102
{ACAD_REACTORS
330
C
102
}
330
C
100
AcDbDictionary
281
     1
  3
Layout1
350
59
  3
Layout2
350
5E
  3
Layout3
350
B2A
  3
Model
350
22
  0
DICTIONARY
  5
72
102
{ACAD_REACTORS
330
C
102
}
330
C
100
AcDbDictionary
281
     1
  3
ByBlock
350
97
  3
ByLayer
350
96
  3
Global
350
98
  0
DICTIONARY
  5
D7
102
{ACAD_REACTORS
330
C
102
}
330
C
100
AcDbDictionary
281
     1
  3
Annotative
350
E5
  3
Standard
350
D8
  0
DICTIONARY
  5
17
102
{ACAD_REACTORS
330
C
102
}
330
C
100
AcDbDictionary
281
     1
  3
Standard
350
18
  0
DICTIONARY
  5
19
102
{ACAD_REACTORS
330
C
102
}
330
C
100
AcDbDictionary
281
     1
  0
ACDBDICTIONARYWDFLT
  5
E
102
{ACAD_REACTORS
330
C
102
}
330
C
100
AcDbDictionary
281
     1
  3
ByLayer
350
708
  3
Normal
350
F
100
AcDbDictionaryWithDefault
340
F
  0
DICTIONARY
  5
B6
102
{ACAD_REACTORS
330
C
102
}
330
C
100
AcDbDictionary
281
     1
  3
A0
350
B7
  3
A1
350
124
  3
A2
350
125
  3
A3
350
126
  3
A4
350
127
  3
A5
350
128
  3
A6
350
129
  3
A7
350
12A
  3
A8
350
12B
  3
A9
350
12C
  3
B0
350
12D
  3
B1
350
12E
  3
B2
350
12F
  3
B3
350
130
  3
B4
350
131
  3
B5
350
132
  3
B6
350
133
  3
B7
350
134
  3
B8
350
135
  3
B9
350
136
  3
C0
350
137
  3
C1
350
138
  3
C2
350
139
  3
C3
350
13A
  3
C4
350
13B
  3
C5
350
13C
  3
C6
350
13D
  3
C7
350
13E
  3
C8
350
13F
  3
C9
350
140
  3
D0
350
141
  3
D1
350
142
  3
D2
350
143
  0
DICTIONARY
  5
1A8
102
{ACAD_REACTORS
330
C
102
}
330
C
100
AcDbDictionary
281
     1
  3
ASME Y14.3 - 2003(1)
350
AD2
  3
Imperial24
350
1AA
  3
Metric50
350
3D6
  0
DICTIONARY
  5
86
102
{ACAD_REACTORS
330
C
102
}
330
C
100
AcDbDictionary
281
     1
  3
Standard
350
87
  0
DICTIONARY
  5
99
102
{ACAD_REACTORS
330
C
102
}
330
C
100
AcDbDictionary
281
     1
  3
2dWireframe
350
9F
  3
Basic
350
9E
  3
Brighten
350
A5
  3
ColorChange
350
A9
  3
Conceptual
350
A2
  3
Dim
350
A4
  3
EdgeColorOff
350
175
  3
Facepattern
350
A8
  3
Flat
350
9A
  3
FlatWithEdges
350
9B
  3
Gouraud
350
9C
  3
GouraudWithEdges
350
9D
  3
Hidden
350
A1
  3
JitterOff
350
173
  3
Linepattern
350
A7
  3
OverhangOff
350
174
  3
Realistic
350
A3
  3
Shaded
350
182
  3
Shaded with edges
350
181
  3
Shades of Gray
350
17E
  3
Sketchy
350
17F
  3
Thicken
350
A6
  3
Wireframe
350
A0
  3
X-Ray
350
180
  0
XRECORD
  5
B87
102
{ACAD_REACTORS
330
C
102
}
330
C
100
AcDbXrecord
280
     1
 90
        1
330
87
  0
DICTIONARY
  5
66
102
{ACAD_REACTORS
330
C
102
}
330
C
100
AcDbDictionary
281
     1
  3
CANNOSCALE
350
F0
  3
CMLEADERSTYLE
350
EF
  3
CTABLESTYLE
350
89
  3
CVIEWDETAILSTYLE
350
1B7
  3
CVIEWSECTIONSTYLE
350
1B8
  3
DIMASSOC
350
67
  3
HIDETEXT
350
6B
  3
LAYEREVAL
350
14D
  3
LAYERNOTIFY
350
14E
  0
DICTIONARY
  5
B8D
102
{ACAD_REACTORS
330
C
102
}
330
C
100
AcDbDictionary
281
     1
  3
AcDsRecords
350
B8F
  3
AcDsSchemas
350
B8E
1001
ACAD
1070
     2
  0
DICTIONARY
  5
8AF
102
{ACAD_REACTORS
330
C
102
}
330
C
100
AcDbDictionary
281
     1
  3
AcmStdDictionary
350
8B6
  0
DICTIONARY
  5
883
102
{ACAD_REACTORS
330
C
102
}
330
C
100
AcDbDictionary
281
     1
  0
DICTIONARY
  5
9F9
102
{ACAD_REACTORS
330
C
102
}
330
C
100
AcDbDictionary
281
     1
  0
DICTIONARY
  5
18F
102
{ACAD_REACTORS
330
18E
102
}
330
18E
100
AcDbDictionary
281
     1
  0
XRECORD
  5
B39
102
{ACAD_REACTORS
330
B38
102
}
330
B38
100
AcDbXrecord
280
     1
 90
        1
340
B7
  0
XRECORD
  5
B05
102
{ACAD_REACTORS
330
B04
102
}
330
B04
100
AcDbXrecord
280
     1
 90
        1
340
B7
  0
XRECORD
  5
AF8
102
{ACAD_REACTORS
330
AF7
102
}
330
AF7
100
AcDbXrecord
280
     1
 90
        1
340
B7
  0
ACDBDETAILVIEWSTYLE
  5
AD9
102
{ACAD_XDICTIONARY
360
B99
102
}
102
{ACAD_REACTORS
330
1AB
330
AE3
330
AE4
102
}
330
1AB
100
AcDbModelDocViewStyle
 70
     0
  3

290
     0
100
AcDbDetailViewStyle
 70
     0
 71
     0
 90
        3
 71
     1
340
11
 62
    30
 40
0.24
340
8EA
 62
   256
 40
0.24
300

 40
0.36
280
     2
 71
     2
340
16
 90
       25
 62
   256
 71
     3
340
11
 62
    30
 40
0.24
 90
        1
 40
0.0
 90
        1
300
%<\AcVar ViewType \f "%tc1">% %<\AcVar ViewDetailId>%\PSCALE %<\AcVar ViewScale \f "%sn">%
 71
     4
340
16
 90
       25
 62
   256
340
16
 90
       25
 62
   256
280
     0
  0
ACDBDETAILVIEWSTYLE
  5
1AC
102
{ACAD_XDICTIONARY
360
B92
102
}
102
{ACAD_REACTORS
330
1AB
330
8E3
102
}
330
1AB
100
AcDbModelDocViewStyle
 70
     0
  3
Imperial24
290
     0
100
AcDbDetailViewStyle
 70
     0
 71
     0
 90
        3
 71
     1
340
11
 62
   256
 40
0.24
340
0
 62
   256
 40
0.24
300

 40
0.36
280
     3
 71
     2
340
16
 90
       25
 62
   256
 71
     3
340
11
 62
   256
 40
0.24
 90
        1
 40
0.75
 90
        1
300
%<\AcVar ViewType \f "%tc1">% %<\AcVar ViewDetailId>%\PSCALE %<\AcVar ViewScale \f "%sn">%
 71
     4
340
16
 90
       25
 62
   256
340
16
 90
       25
 62
   256
280
     0
  0
ACDBDETAILVIEWSTYLE
  5
3D7
102
{ACAD_XDICTIONARY
360
B96
102
}
102
{ACAD_REACTORS
330
1AB
330
8E4
102
}
330
1AB
100
AcDbModelDocViewStyle
 70
     0
  3
Metric50
290
     0
100
AcDbDetailViewStyle
 70
     0
 71
     0
 90
        3
 71
     1
340
11
 62
   256
 40
5.0
340
0
 62
   256
 40
5.0
300

 40
0.0
280
     1
 71
     2
340
16
 90
       25
 62
   256
 71
     3
340
11
 62
   256
 40
5.0
 90
        0
 40
15.0
 90
        1
300
%<\AcVar ViewDetailId>% (%<\AcVar ViewScale \f "%sn">%)
 71
     4
340
16
 90
       25
 62
   256
340
16
 90
       25
 62
   256
280
     0
  0
LAYOUT
  5
59
102
{ACAD_REACTORS
330
1A
102
}
330
1A
100
AcDbPlotSettings
  1

  2
None
  4
Letter_(8.50_x_11.00_Inches)
  6

 40
6.349999904632568
 41
6.349999904632568
 42
6.350006103515625
 43
6.350006103515625
 44
215.8999938964844
 45
279.3999938964844
 46
0.0
 47
0.0
 48
0.0
 49
0.0
140
0.0
141
0.0
142
1.0
143
1.0
 70
   688
 72
     0
 73
     1
 74
     5
  7

 75
    16
147
1.0
 76
     0
 77
     2
 78
   300
148
0.0
149
0.0
100
AcDbLayout
  1
Layout1
 70
     1
 71
     1
 10
-0.2500002402958907
 20
-0.2499999962453767
 11
10.74999951940822
 21
8.249999763458733
 12
0.0
 22
0.0
 32
0.0
 14
1.000000000000000E+20
 24
1.000000000000000E+20
 34
1.000000000000000E+20
 15
-1.000000000000000E+20
 25
-1.000000000000000E+20
 35
-1.000000000000000E+20
146
0.0
 13
0.0
 23
0.0
 33
0.0
 16
1.0
 26
0.0
 36
0.0
 17
0.0
 27
1.0
 37
0.0
 76
     0
330
58
331
AF6
1001
ACAD_PSEXT
1000
None
1000
None
1000
Not applicable
1000
The layout will not be plotted unless a new plotter configuration name is selected.
1070
     0
  0
LAYOUT
  5
5E
102
{ACAD_REACTORS
330
1A
102
}
330
1A
100
AcDbPlotSettings
  1

  2
None
  4
Letter_(8.50_x_11.00_Inches)
  6

 40
6.349999904632568
 41
6.349999904632568
 42
6.350006103515625
 43
6.350006103515625
 44
215.8999938964844
 45
279.3999938964844
 46
0.0
 47
0.0
 48
0.0
 49
0.0
140
0.0
141
0.0
142
1.0
143
1.0
 70
   688
 72
     0
 73
     1
 74
     5
  7

 75
    16
147
1.0
 76
     0
 77
     2
 78
   300
148
0.0
149
0.0
100
AcDbLayout
  1
Layout2
 70
     1
 71
     2
 10
-0.2500002402958907
 20
-0.2499999962453767
 11
10.74999951940822
 21
8.249999763458733
 12
0.0
 22
0.0
 32
0.0
 14
1.000000000000000E+20
 24
1.000000000000000E+20
 34
1.000000000000000E+20
 15
-1.000000000000000E+20
 25
-1.000000000000000E+20
 35
-1.000000000000000E+20
146
0.0
 13
0.0
 23
0.0
 33
0.0
 16
1.0
 26
0.0
 36
0.0
 17
0.0
 27
1.0
 37
0.0
 76
     0
330
5D
331
B03
1001
ACAD_PSEXT
1000
None
1000
None
1000
Not applicable
1000
The layout will not be plotted unless a new plotter configuration name is selected.
1070
     0
  0
LAYOUT
  5
B2A
102
{ACAD_REACTORS
330
1A
102
}
330
1A
100
AcDbPlotSettings
  1

  2
\\OMEGA\Melbourne Sharp
  4
A4
  6

 40
5.027082920074462
 41
5.027099609375
 42
5.027069091796875
 43
5.027069091796875
 44
209.9733276367187
 45
296.9259948730469
 46
0.0
 47
0.0
 48
0.0
 49
0.0
140
0.0
141
0.0
142
1.0
143
1.0
 70
   688
 72
     0
 73
     1
 74
     5
  7

 75
    16
147
1.0
 76
     0
 77
     2
 78
   300
148
0.0
149
0.0
100
AcDbLayout
  1
Layout3
 70
     1
 71
     3
 10
-0.1979161059762549
 20
-0.1979166503966324
 11
11.4920836921752
 21
8.068749791993869
 12
0.0
 22
0.0
 32
0.0
 14
1.000000000000000E+20
 24
1.000000000000000E+20
 34
1.000000000000000E+20
 15
-1.000000000000000E+20
 25
-1.000000000000000E+20
 35
-1.000000000000000E+20
146
0.0
 13
0.0
 23
0.0
 33
0.0
 16
1.0
 26
0.0
 36
0.0
 17
0.0
 27
1.0
 37
0.0
 76
     0
330
B29
331
B37
1001
ACAD_PSEXT
1000
\\OMEGA\Melbourne Sharp
1000
SHARP MX-4111N PCL6
1000
\\OMEGA
1000

1070
     0
  0
LAYOUT
  5
22
102
{ACAD_XDICTIONARY
360
194
102
}
102
{ACAD_REACTORS
330
1A
102
}
330
1A
100
AcDbPlotSettings
  1

  2
none_device
  4
ANSI_A_(8.50_x_11.00_Inches)
  6

 40
6.349999904632568
 41
19.04999923706055
 42
6.350006103515625
 43
19.04998779296875
 44
215.8999938964844
 45
279.3999938964844
 46
0.0
 47
0.0
 48
0.0
 49
0.0
140
0.0
141
0.0
142
1.0
143
2.584895464708373
 70
 11952
 72
     0
 73
     1
 74
     0
  7

 75
     0
147
0.3868628397755418
 76
     0
 77
     2
 78
   300
148
0.0
149
0.0
100
AcDbLayout
  1
Model
 70
     1
 71
     0
 10
0.0
 20
0.0
 11
12.0
 21
9.0
 12
0.0
 22
0.0
 32
0.0
 14
0.0
 24
0.0
 34
0.0
 15
0.0
 25
0.0
 35
0.0
146
0.0
 13
0.0
 23
0.0
 33
0.0
 16
1.0
 26
0.0
 36
0.0
 17
0.0
 27
1.0
 37
0.0
 76
     0
330
1F
331
94
  0
MATERIAL
  5
97
102
{ACAD_XDICTIONARY
360
188
102
}
102
{ACAD_REACTORS
330
72
102
}
330
72
100
AcDbMaterial
  1
ByBlock
 94
       63
  0
MATERIAL
  5
96
102
{ACAD_XDICTIONARY
360
186
102
}
102
{ACAD_REACTORS
330
72
102
}
330
72
100
AcDbMaterial
  1
ByLayer
 94
       63
  0
MATERIAL
  5
98
102
{ACAD_XDICTIONARY
360
110
102
}
102
{ACAD_REACTORS
330
72
102
}
330
72
100
AcDbMaterial
  1
Global
 43
0.0208000000566244
 43
0.0
 43
0.0
 43
0.0
 43
0.0
 43
0.0208000000566244
 43
0.0
 43
0.0
 43
0.0
 43
0.0
 43
1.0
 43
0.0
 43
0.0
 43
0.0
 43
0.0
 43
1.0
 49
0.0208000000566244
 49
0.0
 49
0.0
 49
0.0
 49
0.0
 49
0.0208000000566244
 49
0.0
 49
0.0
 49
0.0
 49
0.0
 49
1.0
 49
0.0
 49
0.0
 49
0.0
 49
0.0
 49
1.0
142
0.0208000000566244
142
0.0
142
0.0
142
0.0
142
0.0
142
0.0208000000566244
142
0.0
142
0.0
142
0.0
142
0.0
142
1.0
142
0.0
142
0.0
142
0.0
142
0.0
142
1.0
144
0.0208000000566244
144
0.0
144
0.0
144
0.0
144
0.0
144
0.0208000000566244
144
0.0
144
0.0
144
0.0
144
0.0
144
1.0
144
0.0
144
0.0
144
0.0
144
0.0
144
1.0
 94
       63
1001
ACAD
1070
    -1
1070
     3
1070
     0
1000

1071
        0
1070
     0
  0
MLEADERSTYLE
  5
E5
102
{ACAD_REACTORS
330
D7
102
}
330
D7
100
AcDbMLeaderStyle
179
     2
170
     2
171
     1
172
     0
 90
        2
 40
0.0
 41
0.0
173
     1
 91
-1056964608
340
14
 92
       -2
290
     1
 42
0.09
291
     1
 43
0.36
  3
Standard
 44
0.18
300

342
11
174
     1
178
     1
175
     1
176
     0
 93
-1056964608
 45
0.18
292
     0
297
     0
 46
0.18
 94
-1056964608
 47
1.0
 49
1.0
140
1.0
293
     1
141
0.0
294
     1
177
     0
142
1.0
295
     0
296
     1
143
0.125
271
     0
272
     9
273
     9
298
     0
  0
MLEADERSTYLE
  5
D8
102
{ACAD_REACTORS
330
D7
102
}
330
D7
100
AcDbMLeaderStyle
179
     2
170
     2
171
     1
172
     0
 90
        2
 40
0.0
 41
0.0
173
     1
 91
-1056964608
340
14
 92
       -2
290
     1
 42
0.09
291
     1
 43
0.36
  3
Standard
 44
0.18
300

342
11
174
     1
178
     1
175
     1
176
     0
 93
-1056964608
 45
0.18
292
     0
297
     0
 46
0.18
 94
-1056964608
 47
1.0
 49
1.0
140
1.0
293
     1
141
0.0
294
     1
177
     0
142
1.0
295
     0
296
     0
143
0.125
271
     0
272
     9
273
     9
298
     0
  0
MLINESTYLE
  5
18
102
{ACAD_REACTORS
330
17
102
}
330
17
100
AcDbMlineStyle
  2
STANDARD
 70
     0
  3

 62
   256
 51
90.0
 52
90.0
 71
     2
 49
0.5
 62
   256
  6
BYLAYER
 49
-0.5
 62
   256
  6
BYLAYER
  0
ACDBPLACEHOLDER
  5
708
102
{ACAD_REACTORS
330
E
102
}
330
E
  0
ACDBPLACEHOLDER
  5
F
102
{ACAD_REACTORS
330
E
102
}
330
E
  0
SCALE
  5
B7
102
{ACAD_REACTORS
330
B6
102
}
330
B6
100
AcDbScale
 70
     0
300
1:1
140
1.0
141
1.0
290
     1
  0
SCALE
  5
124
102
{ACAD_REACTORS
330
B6
102
}
330
B6
100
AcDbScale
 70
     0
300
1:2
140
1.0
141
2.0
290
     0
  0
SCALE
  5
125
102
{ACAD_REACTORS
330
B6
102
}
330
B6
100
AcDbScale
 70
     0
300
1:4
140
1.0
141
4.0
290
     0
  0
SCALE
  5
126
102
{ACAD_REACTORS
330
B6
102
}
330
B6
100
AcDbScale
 70
     0
300
1:5
140
1.0
141
5.0
290
     0
  0
SCALE
  5
127
102
{ACAD_REACTORS
330
B6
102
}
330
B6
100
AcDbScale
 70
     0
300
1:8
140
1.0
141
8.0
290
     0
  0
SCALE
  5
128
102
{ACAD_REACTORS
330
B6
102
}
330
B6
100
AcDbScale
 70
     0
300
1:10
140
1.0
141
10.0
290
     0
  0
SCALE
  5
129
102
{ACAD_REACTORS
330
B6
102
}
330
B6
100
AcDbScale
 70
     0
300
1:16
140
1.0
141
16.0
290
     0
  0
SCALE
  5
12A
102
{ACAD_REACTORS
330
B6
102
}
330
B6
100
AcDbScale
 70
     0
300
1:20
140
1.0
141
20.0
290
     0
  0
SCALE
  5
12B
102
{ACAD_REACTORS
330
B6
102
}
330
B6
100
AcDbScale
 70
     0
300
1:30
140
1.0
141
30.0
290
     0
  0
SCALE
  5
12C
102
{ACAD_REACTORS
330
B6
102
}
330
B6
100
AcDbScale
 70
     0
300
1:40
140
1.0
141
40.0
290
     0
  0
SCALE
  5
12D
102
{ACAD_REACTORS
330
B6
102
}
330
B6
100
AcDbScale
 70
     0
300
1:50
140
1.0
141
50.0
290
     0
  0
SCALE
  5
12E
102
{ACAD_REACTORS
330
B6
102
}
330
B6
100
AcDbScale
 70
     0
300
1:100
140
1.0
141
100.0
290
     0
  0
SCALE
  5
12F
102
{ACAD_REACTORS
330
B6
102
}
330
B6
100
AcDbScale
 70
     0
300
2:1
140
2.0
141
1.0
290
     0
  0
SCALE
  5
130
102
{ACAD_REACTORS
330
B6
102
}
330
B6
100
AcDbScale
 70
     0
300
4:1
140
4.0
141
1.0
290
     0
  0
SCALE
  5
131
102
{ACAD_REACTORS
330
B6
102
}
330
B6
100
AcDbScale
 70
     0
300
8:1
140
8.0
141
1.0
290
     0
  0
SCALE
  5
132
102
{ACAD_REACTORS
330
B6
102
}
330
B6
100
AcDbScale
 70
     0
300
10:1
140
10.0
141
1.0
290
     0
  0
SCALE
  5
133
102
{ACAD_REACTORS
330
B6
102
}
330
B6
100
AcDbScale
 70
     0
300
100:1
140
100.0
141
1.0
290
     0
  0
SCALE
  5
134
102
{ACAD_REACTORS
330
B6
102
}
330
B6
100
AcDbScale
 70
     0
300
1/128" = 1'-0"
140
0.0078125
141
12.0
290
     0
  0
SCALE
  5
135
102
{ACAD_REACTORS
330
B6
102
}
330
B6
100
AcDbScale
 70
     0
300
1/64" = 1'-0"
140
0.015625
141
12.0
290
     0
  0
SCALE
  5
136
102
{ACAD_REACTORS
330
B6
102
}
330
B6
100
AcDbScale
 70
     0
300
1/32" = 1'-0"
140
0.03125
141
12.0
290
     0
  0
SCALE
  5
137
102
{ACAD_REACTORS
330
B6
102
}
330
B6
100
AcDbScale
 70
     0
300
1/16" = 1'-0"
140
0.0625
141
12.0
290
     0
  0
SCALE
  5
138
102
{ACAD_REACTORS
330
B6
102
}
330
B6
100
AcDbScale
 70
     0
300
3/32" = 1'-0"
140
0.09375
141
12.0
290
     0
  0
SCALE
  5
139
102
{ACAD_REACTORS
330
B6
102
}
330
B6
100
AcDbScale
 70
     0
300
1/8" = 1'-0"
140
0.125
141
12.0
290
     0
  0
SCALE
  5
13A
102
{ACAD_REACTORS
330
B6
102
}
330
B6
100
AcDbScale
 70
     0
300
3/16" = 1'-0"
140
0.1875
141
12.0
290
     0
  0
SCALE
  5
13B
102
{ACAD_REACTORS
330
B6
102
}
330
B6
100
AcDbScale
 70
     0
300
1/4" = 1'-0"
140
0.25
141
12.0
290
     0
  0
SCALE
  5
13C
102
{ACAD_REACTORS
330
B6
102
}
330
B6
100
AcDbScale
 70
     0
300
3/8" = 1'-0"
140
0.375
141
12.0
290
     0
  0
SCALE
  5
13D
102
{ACAD_REACTORS
330
B6
102
}
330
B6
100
AcDbScale
 70
     0
300
1/2" = 1'-0"
140
0.5
141
12.0
290
     0
  0
SCALE
  5
13E
102
{ACAD_REACTORS
330
B6
102
}
330
B6
100
AcDbScale
 70
     0
300
3/4" = 1'-0"
140
0.75
141
12.0
290
     0
  0
SCALE
  5
13F
102
{ACAD_REACTORS
330
B6
102
}
330
B6
100
AcDbScale
 70
     0
300
1" = 1'-0"
140
1.0
141
12.0
290
     0
  0
SCALE
  5
140
102
{ACAD_REACTORS
330
B6
102
}
330
B6
100
AcDbScale
 70
     0
300
1-1/2" = 1'-0"
140
1.5
141
12.0
290
     0
  0
SCALE
  5
141
102
{ACAD_REACTORS
330
B6
102
}
330
B6
100
AcDbScale
 70
     0
300
3" = 1'-0"
140
3.0
141
12.0
290
     0
  0
SCALE
  5
142
102
{ACAD_REACTORS
330
B6
102
}
330
B6
100
AcDbScale
 70
     0
300
6" = 1'-0"
140
6.0
141
12.0
290
     0
  0
SCALE
  5
143
102
{ACAD_REACTORS
330
B6
102
}
330
B6
100
AcDbScale
 70
     0
300
1'-0" = 1'-0"
140
12.0
141
12.0
290
     0
  0
ACDBSECTIONVIEWSTYLE
  5
AD2
102
{ACAD_XDICTIONARY
360
AD3
102
}
102
{ACAD_REACTORS
330
1A8
330
AE5
330
AE6
102
}
330
1A8
100
AcDbModelDocViewStyle
 70
     0
  3

290
     0
100
AcDbSectionViewStyle
 70
     0
 71
     0
 90
       78
 71
     1
340
11
 62
    30
 40
0.24
340
0
340
0
 62
     7
 40
0.24
300
I,O,Q,S,X,Z
 40
0.4
 90
        3
 40
0.12
 90
        1
 71
     2
340
890
 90
       -1
 62
   256
340
15
 90
       -1
 62
   256
 40
0.4
 40
0.0
 40
0.4
 71
     3
340
11
 62
    30
 40
0.24
 90
        0
 40
0.18
 90
        1
300
%<\AcVar ViewType \f "%tc1">% %<\AcVar ViewSectionStartId>%-%<\AcVar ViewSectionEndId>%
 71
     4
 62
   256
 62
   257
300
ANSI31
 40
1.0
 90
        0
290
     0
290
     0
 90
        6
 40
0.0
 40
1.570796326794896
 40
0.2617993877991494
 40
1.308996938995747
 40
-0.2617993877991494
 40
1.832595714594046
  0
ACDBSECTIONVIEWSTYLE
  5
1AA
102
{ACAD_XDICTIONARY
360
B90
102
}
102
{ACAD_REACTORS
330
1A8
330
8E1
102
}
330
1A8
100
AcDbModelDocViewStyle
 70
     0
  3
Imperial24
290
     0
100
AcDbSectionViewStyle
 70
     0
 71
     0
 90
       78
 71
     1
340
11
 62
   256
 40
0.24
340
0
340
0
 62
   256
 40
0.24
300
I, O, Q, S, X, Z
 40
0.48
 90
        3
 40
0.18
 90
        1
 71
     2
340
16
 90
       25
 62
   256
340
16
 90
       50
 62
   256
 40
0.24
 40
0.0
 40
0.24
 71
     3
340
11
 62
   256
 40
0.24
 90
        1
 40
0.75
 90
        1
300
%<\AcVar ViewType \f "%tc1">% %<\AcVar ViewSectionStartId>%-%<\AcVar ViewSectionEndId>%\PSCALE %<\AcVar ViewScale \f "%sn">%
 71
     4
 62
   256
 62
   257
300
ANSI31
 40
1.0
 90
        0
290
     0
290
     0
 90
        6
 40
0.0
 40
1.570796326794896
 40
0.2617993877991494
 40
1.308996938995747
 40
-0.2617993877991494
 40
1.832595714594046
  0
ACDBSECTIONVIEWSTYLE
  5
3D6
102
{ACAD_XDICTIONARY
360
B94
102
}
102
{ACAD_REACTORS
330
1A8
330
8E2
102
}
330
1A8
100
AcDbModelDocViewStyle
 70
     0
  3
Metric50
290
     0
100
AcDbSectionViewStyle
 70
     0
 71
     0
 90
      102
 71
     1
340
11
 62
   256
 40
5.0
340
0
340
0
 62
   256
 40
5.0
300
I, O, Q, S, X, Z
 40
10.0
 90
        0
 40
2.5
 90
        0
 71
     2
340
16
 90
       25
 62
   256
340
16
 90
       50
 62
   256
 40
5.0
 40
2.5
 40
5.0
 71
     3
340
11
 62
   256
 40
5.0
 90
        0
 40
15.0
 90
        1
300
%<\AcVar ViewSectionStartId>%-%<\AcVar ViewSectionEndId>% (%<\AcVar ViewScale \f "%sn">%)
 71
     4
 62
   256
 62
   257
300
ANSI31
 40
1.0
 90
        0
290
     0
290
     0
 90
        6
 40
0.0
 40
1.570796326794896
 40
0.2617993877991494
 40
1.308996938995747
 40
-0.2617993877991494
 40
1.832595714594046
  0
TABLESTYLE
  5
87
102
{ACAD_XDICTIONARY
360
104
102
}
102
{ACAD_REACTORS
330
86
102
}
330
86
100
AcDbTableStyle
280
     0
  3
Standard
 70
     0
 71
     0
 40
0.06
 41
0.06
280
     0
281
     0
  7
Standard
140
0.18
170
     2
 62
     0
 63
     7
283
     0
 90
      512
 91
        0
  1

274
    -2
284
     1
 64
     0
275
    -2
285
     1
 65
     0
276
    -2
286
     1
 66
     0
277
    -2
287
     1
 67
     0
278
    -2
288
     1
 68
     0
279
    -2
289
     1
 69
     0
  7
Standard
140
0.25
170
     5
 62
     0
 63
     7
283
     0
 90
      512
 91
        0
  1

274
    -2
284
     1
 64
     0
275
    -2
285
     1
 65
     0
276
    -2
286
     1
 66
     0
277
    -2
287
     1
 67
     0
278
    -2
288
     1
 68
     0
279
    -2
289
     1
 69
     0
  7
Standard
140
0.18
170
     5
 62
     0
 63
     7
283
     0
 90
      512
 91
        0
  1

274
    -2
284
     1
 64
     0
275
    -2
285
     1
 65
     0
276
    -2
286
     1
 66
     0
277
    -2
287
     1
 67
     0
278
    -2
288
     1
 68
     0
279
    -2
289
     1
 69
     0
  0
VISUALSTYLE
  5
9F
102
{ACAD_REACTORS
330
99
102
}
330
99
100
AcDbVisualStyle
  2
2dWireframe
 70
     4
177
     3
291
     0
 70
    58
 90
        0
176
     1
 90
        2
176
     1
 90
        1
176
     1
 90
        0
176
     1
 40
0.6
176
     1
 40
30.0
176
     1
 62
     7
420
 16777215
176
     1
 90
        1
176
     1
 90
        4
176
     1
 62
     7
176
     1
 62
   257
176
     1
 90
        1
176
     1
 90
        1
176
     1
 40
1.0
176
     1
 90
        0
176
     1
 62
   257
176
     1
 40
1.0
176
     1
 90
        1
176
     1
 90
        6
176
     1
 90
        2
176
     1
 62
     7
176
     1
 90
        5
176
     1
 90
        0
176
     1
 90
        0
176
     1
290
     0
176
     1
 90
        1
176
     1
 40
0.0
176
     1
 90
        0
176
     1
290
     1
176
     1
290
     1
176
     1
290
     0
176
     1
290
     0
176
     1
290
     0
176
     1
290
     0
176
     1
290
     0
176
     1
290
     0
176
     1
290
     0
176
     1
 90
       50
176
     1
 40
0.0
176
     1
 40
1.0
176
     1
 90
        0
176
     1
 62
    18
420
        0
176
     1
 90
       50
176
     1
 90
        3
176
     1
 62
     5
420
      255
176
     1
290
     0
176
     1
 90
       50
176
     1
 90
       50
176
     1
 90
       50
176
     1
290
     0
176
     1
 90
       50
176
     1
 62
   256
176
     0
 40
1.0
176
     0
 90
        2
176
     1
  1
strokes_ogs.tif
176
     1
290
     0
176
     1
 40
1.0
176
     1
 40
1.0
176
     1
1001
ACAD
1000
AcDbSavedByObjectVersion
1070
     0
  0
VISUALSTYLE
  5
9E
102
{ACAD_REACTORS
330
99
102
}
330
99
100
AcDbVisualStyle
  2
Basic
 70
     7
177
     3
291
     1
 70
    58
 90
        1
176
     1
 90
        0
176
     1
 90
        1
176
     1
 90
        0
176
     1
 40
0.6
176
     1
 40
30.0
176
     1
 62
     7
420
 16777215
176
     1
 90
        0
176
     1
 90
        4
176
     1
 62
     7
176
     1
 62
   257
176
     1
 90
        1
176
     1
 90
        1
176
     1
 40
1.0
176
     1
 90
        8
176
     1
 62
     7
176
     1
 40
1.0
176
     1
 90
        1
176
     1
 90
        6
176
     1
 90
        2
176
     1
 62
     7
176
     1
 90
        5
176
     1
 90
        0
176
     1
 90
        0
176
     1
290
     0
176
     1
 90
        1
176
     1
 40
0.0
176
     1
 90
        0
176
     1
290
     0
176
     1
290
     1
176
     1
290
     1
176
     1
290
     0
176
     1
290
     0
176
     1
290
     0
176
     1
290
     0
176
     1
290
     0
176
     1
290
     0
176
     1
 90
       50
176
     1
 40
0.0
176
     1
 40
1.0
176
     1
 90
        0
176
     1
 62
    18
420
        0
176
     1
 90
       50
176
     1
 90
        3
176
     1
 62
     5
420
      255
176
     1
290
     0
176
     1
 90
       50
176
     1
 90
       50
176
     1
 90
       50
176
     1
290
     0
176
     1
 90
       50
176
     1
 62
   256
176
     0
 40
1.0
176
     0
 90
        2
176
     1
  1
strokes_ogs.tif
176
     1
290
     0
176
     1
 40
1.0
176
     1
 40
1.0
176
     1
1001
ACAD
1000
AcDbSavedByObjectVersion
1070
     0
  0
VISUALSTYLE
  5
A5
102
{ACAD_REACTORS
330
99
102
}
330
99
100
AcDbVisualStyle
  2
Brighten
 70
    12
177
     3
291
     1
 70
    58
 90
        2
176
     1
 90
        2
176
     1
 90
        1
176
     1
 90
        0
176
     1
 40
0.6
176
     1
 40
30.0
176
     1
 62
     7
420
 16777215
176
     1
 90
        1
176
     1
 90
        4
176
     1
 62
     7
176
     1
 62
   257
176
     1
 90
        1
176
     1
 90
        1
176
     1
 40
1.0
176
     1
 90
        8
176
     1
 62
     7
176
     1
 40
1.0
176
     1
 90
        1
176
     1
 90
        6
176
     1
 90
        2
176
     1
 62
     7
176
     1
 90
        5
176
     1
 90
        0
176
     1
 90
        0
176
     1
290
     0
176
     1
 90
        1
176
     1
 40
50.0
176
     1
 90
        0
176
     1
290
     0
176
     1
290
     1
176
     1
290
     1
176
     1
290
     0
176
     1
290
     0
176
     1
290
     0
176
     1
290
     0
176
     1
290
     0
176
     1
290
     0
176
     1
 90
       50
176
     1
 40
0.0
176
     1
 40
1.0
176
     1
 90
        0
176
     1
 62
    18
420
        0
176
     1
 90
       50
176
     1
 90
        3
176
     1
 62
     5
420
      255
176
     1
290
     0
176
     1
 90
       50
176
     1
 90
       50
176
     1
 90
       50
176
     1
290
     0
176
     1
 90
       50
176
     1
 62
   256
176
     0
 40
1.0
176
     0
 90
        2
176
     1
  1
strokes_ogs.tif
176
     1
290
     0
176
     1
 40
1.0
176
     1
 40
1.0
176
     1
1001
ACAD
1000
AcDbSavedByObjectVersion
1070
     0
  0
VISUALSTYLE
  5
A9
102
{ACAD_REACTORS
330
99
102
}
330
99
100
AcDbVisualStyle
  2
ColorChange
 70
    16
177
     3
291
     1
 70
    58
 90
        2
176
     1
 90
        2
176
     1
 90
        3
176
     1
 90
        0
176
     1
 40
0.6
176
     1
 40
30.0
176
     1
 62
     8
420
  8421504
176
     1
 90
        1
176
     1
 90
        4
176
     1
 62
     7
176
     1
 62
   257
176
     1
 90
        1
176
     1
 90
        1
176
     1
 40
1.0
176
     1
 90
        8
176
     1
 62
     8
420
  8421504
176
     1
 40
1.0
176
     1
 90
        1
176
     1
 90
        6
176
     1
 90
        2
176
     1
 62
     7
176
     1
 90
        5
176
     1
 90
        0
176
     1
 90
        0
176
     1
290
     0
176
     1
 90
        1
176
     1
 40
0.0
176
     1
 90
        0
176
     1
290
     0
176
     1
290
     1
176
     1
290
     1
176
     1
290
     0
176
     1
290
     0
176
     1
290
     0
176
     1
290
     0
176
     1
290
     0
176
     1
290
     0
176
     1
 90
       50
176
     1
 40
0.0
176
     1
 40
1.0
176
     1
 90
        0
176
     1
 62
    18
420
        0
176
     1
 90
       50
176
     1
 90
        3
176
     1
 62
     5
420
      255
176
     1
290
     0
176
     1
 90
       50
176
     1
 90
       50
176
     1
 90
       50
176
     1
290
     0
176
     1
 90
       50
176
     1
 62
   256
176
     0
 40
1.0
176
     0
 90
        2
176
     1
  1
strokes_ogs.tif
176
     1
290
     0
176
     1
 40
1.0
176
     1
 40
1.0
176
     1
1001
ACAD
1000
AcDbSavedByObjectVersion
1070
     0
  0
VISUALSTYLE
  5
A2
102
{ACAD_REACTORS
330
99
102
}
330
99
100
AcDbVisualStyle
  2
Conceptual
 70
     9
177
     3
291
     0
 70
    58
 90
        3
176
     1
 90
        2
176
     1
 90
        1
176
     1
 90
        0
176
     1
 40
0.6
176
     1
 40
30.0
176
     1
 62
     7
420
 16777215
176
     1
 90
        2
176
     1
 90
        2
176
     1
 62
     7
176
     1
 62
   257
176
     1
 90
        1
176
     1
 90
        1
176
     1
 40
40.0
176
     1
 90
        8
176
     1
 62
     7
176
     1
 40
1.0
176
     1
 90
        1
176
     1
 90
        6
176
     1
 90
        2
176
     1
 62
     7
176
     1
 90
        3
176
     1
 90
        0
176
     1
 90
        0
176
     1
290
     0
176
     1
 90
        1
176
     1
 40
0.0
176
     1
 90
        0
176
     1
290
     0
176
     1
290
     1
176
     1
290
     1
176
     1
290
     0
176
     1
290
     0
176
     1
290
     0
176
     1
290
     0
176
     1
290
     0
176
     1
290
     0
176
     1
 90
       50
176
     1
 40
0.0
176
     1
 40
1.0
176
     1
 90
        0
176
     1
 62
    18
420
        0
176
     1
 90
       50
176
     1
 90
        3
176
     1
 62
     5
420
      255
176
     1
290
     0
176
     1
 90
       50
176
     1
 90
       50
176
     1
 90
       50
176
     1
290
     0
176
     1
 90
       50
176
     1
 62
   256
176
     0
 40
1.0
176
     0
 90
        2
176
     1
  1
strokes_ogs.tif
176
     1
290
     0
176
     1
 40
1.0
176
     1
 40
1.0
176
     1
1001
ACAD
1000
AcDbSavedByObjectVersion
1070
     0
  0
VISUALSTYLE
  5
A4
102
{ACAD_REACTORS
330
99
102
}
330
99
100
AcDbVisualStyle
  2
Dim
 70
    11
177
     3
291
     1
 70
    58
 90
        2
176
     1
 90
        2
176
     1
 90
        1
176
     1
 90
        0
176
     1
 40
0.6
176
     1
 40
30.0
176
     1
 62
     7
420
 16777215
176
     1
 90
        1
176
     1
 90
        4
176
     1
 62
     7
176
     1
 62
   257
176
     1
 90
        1
176
     1
 90
        1
176
     1
 40
1.0
176
     1
 90
        8
176
     1
 62
     7
176
     1
 40
1.0
176
     1
 90
        1
176
     1
 90
        6
176
     1
 90
        2
176
     1
 62
     7
176
     1
 90
        5
176
     1
 90
        0
176
     1
 90
        0
176
     1
290
     0
176
     1
 90
        1
176
     1
 40
-50.0
176
     1
 90
        0
176
     1
290
     0
176
     1
290
     1
176
     1
290
     1
176
     1
290
     0
176
     1
290
     0
176
     1
290
     0
176
     1
290
     0
176
     1
290
     0
176
     1
290
     0
176
     1
 90
       50
176
     1
 40
0.0
176
     1
 40
1.0
176
     1
 90
        0
176
     1
 62
    18
420
        0
176
     1
 90
       50
176
     1
 90
        3
176
     1
 62
     5
420
      255
176
     1
290
     0
176
     1
 90
       50
176
     1
 90
       50
176
     1
 90
       50
176
     1
290
     0
176
     1
 90
       50
176
     1
 62
   256
176
     0
 40
1.0
176
     0
 90
        2
176
     1
  1
strokes_ogs.tif
176
     1
290
     0
176
     1
 40
1.0
176
     1
 40
1.0
176
     1
1001
ACAD
1000
AcDbSavedByObjectVersion
1070
     0
  0
VISUALSTYLE
  5
175
102
{ACAD_REACTORS
330
99
102
}
330
99
100
AcDbVisualStyle
  2
EdgeColorOff
 70
    22
177
     3
291
     1
 70
    58
 90
        2
176
     0
 90
        2
176
     0
 90
        0
176
     0
 90
        0
176
     0
 40
0.6
176
     0
 40
30.0
176
     0
 62
     7
420
 16777215
176
     0
 90
        1
176
     0
 90
        4
176
     0
 62
     7
176
     0
 62
   257
176
     0
 90
        1
176
     0
 90
        1
176
     0
 40
1.0
176
     0
 90
        8
176
     2
 62
     7
176
     0
 40
1.0
176
     0
 90
        1
176
     0
 90
        6
176
     0
 90
        2
176
     0
 62
     7
176
     0
 90
        5
176
     0
 90
        0
176
     0
 90
        0
176
     0
290
     0
176
     0
 90
        1
176
     0
 40
0.0
176
     0
 90
        0
176
     0
290
     0
176
     1
290
     1
176
     1
290
     1
176
     1
290
     0
176
     1
290
     0
176
     1
290
     0
176
     1
290
     0
176
     1
290
     0
176
     1
290
     0
176
     1
 90
       50
176
     1
 40
0.0
176
     1
 40
1.0
176
     1
 90
        0
176
     1
 62
    18
420
        0
176
     1
 90
       50
176
     1
 90
        3
176
     1
 62
     5
420
      255
176
     1
290
     0
176
     1
 90
       50
176
     1
 90
       50
176
     1
 90
       50
176
     1
290
     0
176
     1
 90
       50
176
     1
 62
   256
176
     0
 40
1.0
176
     0
 90
        2
176
     1
  1
strokes_ogs.tif
176
     1
290
     0
176
     1
 40
1.0
176
     1
 40
1.0
176
     1
1001
ACAD
1000
AcDbSavedByObjectVersion
1070
     0
  0
VISUALSTYLE
  5
A8
102
{ACAD_REACTORS
330
99
102
}
330
99
100
AcDbVisualStyle
  2
Facepattern
 70
    15
177
     3
291
     1
 70
    58
 90
        2
176
     1
 90
        2
176
     1
 90
        1
176
     1
 90
        0
176
     1
 40
0.6
176
     1
 40
30.0
176
     1
 62
     7
420
 16777215
176
     1
 90
        1
176
     1
 90
        4
176
     1
 62
     7
176
     1
 62
   257
176
     1
 90
        1
176
     1
 90
        1
176
     1
 40
1.0
176
     1
 90
        8
176
     1
 62
     7
176
     1
 40
1.0
176
     1
 90
        1
176
     1
 90
        6
176
     1
 90
        2
176
     1
 62
     7
176
     1
 90
        5
176
     1
 90
        0
176
     1
 90
        0
176
     1
290
     0
176
     1
 90
        1
176
     1
 40
0.0
176
     1
 90
        0
176
     1
290
     0
176
     1
290
     1
176
     1
290
     1
176
     1
290
     0
176
     1
290
     0
176
     1
290
     0
176
     1
290
     0
176
     1
290
     0
176
     1
290
     0
176
     1
 90
       50
176
     1
 40
0.0
176
     1
 40
1.0
176
     1
 90
        0
176
     1
 62
    18
420
        0
176
     1
 90
       50
176
     1
 90
        3
176
     1
 62
     5
420
      255
176
     1
290
     0
176
     1
 90
       50
176
     1
 90
       50
176
     1
 90
       50
176
     1
290
     0
176
     1
 90
       50
176
     1
 62
   256
176
     0
 40
1.0
176
     0
 90
        2
176
     1
  1
strokes_ogs.tif
176
     1
290
     0
176
     1
 40
1.0
176
     1
 40
1.0
176
     1
1001
ACAD
1000
AcDbSavedByObjectVersion
1070
     0
  0
VISUALSTYLE
  5
9A
102
{ACAD_REACTORS
330
99
102
}
330
99
100
AcDbVisualStyle
  2
Flat
 70
     0
177
     3
291
     1
 70
    58
 90
        2
176
     1
 90
        1
176
     1
 90
        1
176
     1
 90
        2
176
     1
 40
0.6
176
     1
 40
30.0
176
     1
 62
     7
420
 16777215
176
     1
 90
        0
176
     1
 90
        0
176
     1
 62
     7
176
     1
 62
   257
176
     1
 90
        1
176
     1
 90
        1
176
     1
 40
1.0
176
     1
 90
        8
176
     1
 62
     7
176
     1
 40
1.0
176
     1
 90
        1
176
     1
 90
        6
176
     1
 90
        2
176
     1
 62
     7
176
     1
 90
        5
176
     1
 90
        0
176
     1
 90
        0
176
     1
290
     0
176
     1
 90
       13
176
     1
 40
0.0
176
     1
 90
        0
176
     1
290
     0
176
     1
290
     1
176
     1
290
     1
176
     1
290
     0
176
     1
290
     0
176
     1
290
     0
176
     1
290
     0
176
     1
290
     0
176
     1
290
     0
176
     1
 90
       50
176
     1
 40
0.0
176
     1
 40
1.0
176
     1
 90
        0
176
     1
 62
    18
420
        0
176
     1
 90
       50
176
     1
 90
        3
176
     1
 62
     5
420
      255
176
     1
290
     0
176
     1
 90
       50
176
     1
 90
       50
176
     1
 90
       50
176
     1
290
     0
176
     1
 90
       50
176
     1
 62
   256
176
     0
 40
1.0
176
     0
 90
        2
176
     1
  1
strokes_ogs.tif
176
     1
290
     0
176
     1
 40
1.0
176
     1
 40
1.0
176
     1
1001
ACAD
1000
AcDbSavedByObjectVersion
1070
     0
  0
VISUALSTYLE
  5
9B
102
{ACAD_REACTORS
330
99
102
}
330
99
100
AcDbVisualStyle
  2
FlatWithEdges
 70
     1
177
     3
291
     1
 70
    58
 90
        2
176
     1
 90
        1
176
     1
 90
        1
176
     1
 90
        2
176
     1
 40
0.6
176
     1
 40
30.0
176
     1
 62
     7
420
 16777215
176
     1
 90
        1
176
     1
 90
        0
176
     1
 62
     7
176
     1
 62
   257
176
     1
 90
        1
176
     1
 90
        1
176
     1
 40
1.0
176
     1
 90
        0
176
     1
 62
   257
176
     1
 40
1.0
176
     1
 90
        1
176
     1
 90
        6
176
     1
 90
        2
176
     1
 62
     7
176
     1
 90
        5
176
     1
 90
        0
176
     1
 90
        0
176
     1
290
     0
176
     1
 90
       13
176
     1
 40
0.0
176
     1
 90
        0
176
     1
290
     0
176
     1
290
     1
176
     1
290
     1
176
     1
290
     0
176
     1
290
     0
176
     1
290
     0
176
     1
290
     0
176
     1
290
     0
176
     1
290
     0
176
     1
 90
       50
176
     1
 40
0.0
176
     1
 40
1.0
176
     1
 90
        0
176
     1
 62
    18
420
        0
176
     1
 90
       50
176
     1
 90
        3
176
     1
 62
     5
420
      255
176
     1
290
     0
176
     1
 90
       50
176
     1
 90
       50
176
     1
 90
       50
176
     1
290
     0
176
     1
 90
       50
176
     1
 62
   256
176
     0
 40
1.0
176
     0
 90
        2
176
     1
  1
strokes_ogs.tif
176
     1
290
     0
176
     1
 40
1.0
176
     1
 40
1.0
176
     1
1001
ACAD
1000
AcDbSavedByObjectVersion
1070
     0
  0
VISUALSTYLE
  5
9C
102
{ACAD_REACTORS
330
99
102
}
330
99
100
AcDbVisualStyle
  2
Gouraud
 70
     2
177
     3
291
     1
 70
    58
 90
        2
176
     1
 90
        2
176
     1
 90
        1
176
     1
 90
        2
176
     1
 40
0.6
176
     1
 40
30.0
176
     1
 62
     7
420
 16777215
176
     1
 90
        0
176
     1
 90
        0
176
     1
 62
     7
176
     1
 62
   257
176
     1
 90
        1
176
     1
 90
        1
176
     1
 40
1.0
176
     1
 90
        0
176
     1
 62
     7
176
     1
 40
1.0
176
     1
 90
        1
176
     1
 90
        6
176
     1
 90
        2
176
     1
 62
     7
176
     1
 90
        5
176
     1
 90
        0
176
     1
 90
        0
176
     1
290
     0
176
     1
 90
       13
176
     1
 40
0.0
176
     1
 90
        0
176
     1
290
     0
176
     1
290
     1
176
     1
290
     1
176
     1
290
     0
176
     1
290
     0
176
     1
290
     0
176
     1
290
     0
176
     1
290
     0
176
     1
290
     0
176
     1
 90
       50
176
     1
 40
0.0
176
     1
 40
1.0
176
     1
 90
        0
176
     1
 62
    18
420
        0
176
     1
 90
       50
176
     1
 90
        3
176
     1
 62
     5
420
      255
176
     1
290
     0
176
     1
 90
       50
176
     1
 90
       50
176
     1
 90
       50
176
     1
290
     0
176
     1
 90
       50
176
     1
 62
   256
176
     0
 40
1.0
176
     0
 90
        2
176
     1
  1
strokes_ogs.tif
176
     1
290
     0
176
     1
 40
1.0
176
     1
 40
1.0
176
     1
1001
ACAD
1000
AcDbSavedByObjectVersion
1070
     0
  0
VISUALSTYLE
  5
9D
102
{ACAD_REACTORS
330
99
102
}
330
99
100
AcDbVisualStyle
  2
GouraudWithEdges
 70
     3
177
     3
291
     1
 70
    58
 90
        2
176
     1
 90
        2
176
     1
 90
        1
176
     1
 90
        2
176
     1
 40
0.6
176
     1
 40
30.0
176
     1
 62
     7
420
 16777215
176
     1
 90
        1
176
     1
 90
        0
176
     1
 62
     7
176
     1
 62
   257
176
     1
 90
        1
176
     1
 90
        1
176
     1
 40
1.0
176
     1
 90
        0
176
     1
 62
   257
176
     1
 40
1.0
176
     1
 90
        1
176
     1
 90
        6
176
     1
 90
        2
176
     1
 62
     7
176
     1
 90
        5
176
     1
 90
        0
176
     1
 90
        0
176
     1
290
     0
176
     1
 90
       13
176
     1
 40
0.0
176
     1
 90
        0
176
     1
290
     0
176
     1
290
     1
176
     1
290
     1
176
     1
290
     0
176
     1
290
     0
176
     1
290
     0
176
     1
290
     0
176
     1
290
     0
176
     1
290
     0
176
     1
 90
       50
176
     1
 40
0.0
176
     1
 40
1.0
176
     1
 90
        0
176
     1
 62
    18
420
        0
176
     1
 90
       50
176
     1
 90
        3
176
     1
 62
     5
420
      255
176
     1
290
     0
176
     1
 90
       50
176
     1
 90
       50
176
     1
 90
       50
176
     1
290
     0
176
     1
 90
       50
176
     1
 62
   256
176
     0
 40
1.0
176
     0
 90
        2
176
     1
  1
strokes_ogs.tif
176
     1
290
     0
176
     1
 40
1.0
176
     1
 40
1.0
176
     1
1001
ACAD
1000
AcDbSavedByObjectVersion
1070
     0
  0
VISUALSTYLE
  5
A1
102
{ACAD_REACTORS
330
99
102
}
330
99
100
AcDbVisualStyle
  2
Hidden
 70
     6
177
     3
291
     0
 70
    58
 90
        1
176
     1
 90
        2
176
     1
 90
        2
176
     1
 90
        0
176
     1
 40
0.6
176
     1
 40
30.0
176
     1
 62
     7
420
 16777215
176
     1
 90
        2
176
     1
 90
        2
176
     1
 62
     7
176
     1
 62
   257
176
     1
 90
        2
176
     1
 90
        1
176
     1
 40
40.0
176
     1
 90
        0
176
     1
 62
   257
176
     1
 40
1.0
176
     1
 90
        1
176
     1
 90
        6
176
     1
 90
        2
176
     1
 62
     7
176
     1
 90
        3
176
     1
 90
        0
176
     1
 90
        0
176
     1
290
     0
176
     1
 90
        1
176
     1
 40
0.0
176
     1
 90
        0
176
     1
290
     0
176
     1
290
     1
176
     1
290
     1
176
     1
290
     0
176
     1
290
     0
176
     1
290
     0
176
     1
290
     0
176
     1
290
     0
176
     1
290
     0
176
     1
 90
       50
176
     1
 40
0.0
176
     1
 40
1.0
176
     1
 90
        0
176
     1
 62
    18
420
        0
176
     1
 90
       50
176
     1
 90
        3
176
     1
 62
     5
420
      255
176
     1
290
     0
176
     1
 90
       50
176
     1
 90
       50
176
     1
 90
       50
176
     1
290
     0
176
     1
 90
       50
176
     1
 62
   256
176
     0
 40
1.0
176
     0
 90
        2
176
     1
  1
strokes_ogs.tif
176
     1
290
     0
176
     1
 40
1.0
176
     1
 40
1.0
176
     1
1001
ACAD
1000
AcDbSavedByObjectVersion
1070
     0
  0
VISUALSTYLE
  5
173
102
{ACAD_REACTORS
330
99
102
}
330
99
100
AcDbVisualStyle
  2
JitterOff
 70
    20
177
     3
291
     1
 70
    58
 90
        2
176
     0
 90
        2
176
     0
 90
        0
176
     0
 90
        0
176
     0
 40
0.6
176
     0
 40
30.0
176
     0
 62
     7
420
 16777215
176
     0
 90
        1
176
     0
 90
        4
176
     0
 62
     7
176
     0
 62
   257
176
     0
 90
        1
176
     0
 90
        1
176
     0
 40
1.0
176
     0
 90
       10
176
     2
 62
     7
176
     0
 40
1.0
176
     0
 90
        1
176
     0
 90
        6
176
     0
 90
        2
176
     0
 62
     7
176
     0
 90
        5
176
     0
 90
        0
176
     0
 90
        0
176
     0
290
     0
176
     0
 90
        1
176
     0
 40
0.0
176
     0
 90
        0
176
     0
290
     0
176
     1
290
     1
176
     1
290
     1
176
     1
290
     0
176
     1
290
     0
176
     1
290
     0
176
     1
290
     0
176
     1
290
     0
176
     1
290
     0
176
     1
 90
       50
176
     1
 40
0.0
176
     1
 40
1.0
176
     1
 90
        0
176
     1
 62
    18
420
        0
176
     1
 90
       50
176
     1
 90
        3
176
     1
 62
     5
420
      255
176
     1
290
     0
176
     1
 90
       50
176
     1
 90
       50
176
     1
 90
       50
176
     1
290
     0
176
     1
 90
       50
176
     1
 62
   256
176
     0
 40
1.0
176
     0
 90
        2
176
     1
  1
strokes_ogs.tif
176
     1
290
     0
176
     1
 40
1.0
176
     1
 40
1.0
176
     1
1001
ACAD
1000
AcDbSavedByObjectVersion
1070
     0
  0
VISUALSTYLE
  5
A7
102
{ACAD_REACTORS
330
99
102
}
330
99
100
AcDbVisualStyle
  2
Linepattern
 70
    14
177
     3
291
     1
 70
    58
 90
        2
176
     1
 90
        2
176
     1
 90
        1
176
     1
 90
        0
176
     1
 40
0.6
176
     1
 40
30.0
176
     1
 62
     7
420
 16777215
176
     1
 90
        1
176
     1
 90
        4
176
     1
 62
     7
176
     1
 62
   257
176
     1
 90
        7
176
     1
 90
        7
176
     1
 40
1.0
176
     1
 90
        8
176
     1
 62
     7
176
     1
 40
1.0
176
     1
 90
        1
176
     1
 90
        6
176
     1
 90
        2
176
     1
 62
     7
176
     1
 90
        5
176
     1
 90
        0
176
     1
 90
        0
176
     1
290
     0
176
     1
 90
        1
176
     1
 40
0.0
176
     1
 90
        0
176
     1
290
     0
176
     1
290
     1
176
     1
290
     1
176
     1
290
     0
176
     1
290
     0
176
     1
290
     0
176
     1
290
     0
176
     1
290
     0
176
     1
290
     0
176
     1
 90
       50
176
     1
 40
0.0
176
     1
 40
1.0
176
     1
 90
        0
176
     1
 62
    18
420
        0
176
     1
 90
       50
176
     1
 90
        3
176
     1
 62
     5
420
      255
176
     1
290
     0
176
     1
 90
       50
176
     1
 90
       50
176
     1
 90
       50
176
     1
290
     0
176
     1
 90
       50
176
     1
 62
   256
176
     0
 40
1.0
176
     0
 90
        2
176
     1
  1
strokes_ogs.tif
176
     1
290
     0
176
     1
 40
1.0
176
     1
 40
1.0
176
     1
1001
ACAD
1000
AcDbSavedByObjectVersion
1070
     0
  0
VISUALSTYLE
  5
174
102
{ACAD_REACTORS
330
99
102
}
330
99
100
AcDbVisualStyle
  2
OverhangOff
 70
    21
177
     3
291
     1
 70
    58
 90
        2
176
     0
 90
        2
176
     0
 90
        0
176
     0
 90
        0
176
     0
 40
0.6
176
     0
 40
30.0
176
     0
 62
     7
420
 16777215
176
     0
 90
        1
176
     0
 90
        4
176
     0
 62
     7
176
     0
 62
   257
176
     0
 90
        1
176
     0
 90
        1
176
     0
 40
1.0
176
     0
 90
        9
176
     2
 62
     7
176
     0
 40
1.0
176
     0
 90
        1
176
     0
 90
        6
176
     0
 90
        2
176
     0
 62
     7
176
     0
 90
        5
176
     0
 90
        0
176
     0
 90
        0
176
     0
290
     0
176
     0
 90
        1
176
     0
 40
0.0
176
     0
 90
        0
176
     0
290
     0
176
     1
290
     1
176
     1
290
     1
176
     1
290
     0
176
     1
290
     0
176
     1
290
     0
176
     1
290
     0
176
     1
290
     0
176
     1
290
     0
176
     1
 90
       50
176
     1
 40
0.0
176
     1
 40
1.0
176
     1
 90
        0
176
     1
 62
    18
420
        0
176
     1
 90
       50
176
     1
 90
        3
176
     1
 62
     5
420
      255
176
     1
290
     0
176
     1
 90
       50
176
     1
 90
       50
176
     1
 90
       50
176
     1
290
     0
176
     1
 90
       50
176
     1
 62
   256
176
     0
 40
1.0
176
     0
 90
        2
176
     1
  1
strokes_ogs.tif
176
     1
290
     0
176
     1
 40
1.0
176
     1
 40
1.0
176
     1
1001
ACAD
1000
AcDbSavedByObjectVersion
1070
     0
  0
VISUALSTYLE
  5
A3
102
{ACAD_REACTORS
330
99
102
}
330
99
100
AcDbVisualStyle
  2
Realistic
 70
     8
177
     3
291
     0
 70
    58
 90
        2
176
     1
 90
        3
176
     1
 90
        0
176
     1
 90
        2
176
     1
 40
0.6
176
     1
 40
30.0
176
     1
 62
     7
420
 16777215
176
     1
 90
        0
176
     1
 90
        0
176
     1
 62
     7
176
     1
 62
   257
176
     1
 90
        1
176
     1
 90
        1
176
     1
 40
1.0
176
     1
 90
        8
176
     1
 62
   257
176
     1
 40
1.0
176
     1
 90
        1
176
     1
 90
        6
176
     1
 90
        2
176
     1
 62
     7
176
     1
 90
        3
176
     1
 90
        0
176
     1
 90
        0
176
     1
290
     0
176
     1
 90
       13
176
     1
 40
0.0
176
     1
 90
        0
176
     1
290
     0
176
     1
290
     1
176
     1
290
     1
176
     1
290
     0
176
     1
290
     0
176
     1
290
     0
176
     1
290
     0
176
     1
290
     0
176
     1
290
     0
176
     1
 90
       50
176
     1
 40
0.0
176
     1
 40
1.0
176
     1
 90
        0
176
     1
 62
    18
420
        0
176
     1
 90
       50
176
     1
 90
        3
176
     1
 62
     5
420
      255
176
     1
290
     0
176
     1
 90
       50
176
     1
 90
       50
176
     1
 90
       50
176
     1
290
     0
176
     1
 90
       50
176
     1
 62
   256
176
     0
 40
1.0
176
     0
 90
        2
176
     1
  1
strokes_ogs.tif
176
     1
290
     0
176
     1
 40
1.0
176
     1
 40
1.0
176
     1
1001
ACAD
1000
AcDbSavedByObjectVersion
1070
     0
  0
VISUALSTYLE
  5
182
102
{ACAD_REACTORS
330
99
102
}
330
99
100
AcDbVisualStyle
  2
Shaded
 70
    27
177
     3
291
     0
 70
    58
 90
        2
176
     1
 90
        2
176
     1
 90
        1
176
     1
 90
        2
176
     1
 40
0.6
176
     1
 40
30.0
176
     1
 62
     7
420
 16777215
176
     1
 90
        0
176
     1
 90
        4
176
     1
 62
     7
176
     1
 62
   257
176
     1
 90
        1
176
     1
 90
        1
176
     1
 40
1.0
176
     1
 90
        8
176
     1
 62
   257
176
     1
 40
1.0
176
     1
 90
        1
176
     1
 90
        6
176
     1
 90
        2
176
     1
 62
     8
420
  7895160
176
     1
 90
        3
176
     1
 90
        0
176
     1
 90
        0
176
     1
290
     0
176
     1
 90
        5
176
     1
 40
0.0
176
     1
 90
        0
176
     1
290
     0
176
     1
290
     1
176
     1
290
     1
176
     1
290
     0
176
     1
290
     0
176
     1
290
     0
176
     1
290
     0
176
     1
290
     0
176
     1
290
     0
176
     1
 90
       50
176
     1
 40
0.0
176
     1
 40
1.0
176
     1
 90
        0
176
     1
 62
    18
420
        0
176
     1
 90
       50
176
     1
 90
        3
176
     1
 62
     5
420
      255
176
     1
290
     0
176
     1
 90
       50
176
     1
 90
       50
176
     1
 90
       50
176
     1
290
     0
176
     1
 90
       50
176
     1
 62
   256
176
     0
 40
1.0
176
     0
 90
        2
176
     1
  1
strokes_ogs.tif
176
     1
290
     0
176
     1
 40
1.0
176
     1
 40
1.0
176
     1
1001
ACAD
1000
AcDbSavedByObjectVersion
1070
     0
  0
VISUALSTYLE
  5
181
102
{ACAD_REACTORS
330
99
102
}
330
99
100
AcDbVisualStyle
  2
Shaded with edges
 70
    26
177
     3
291
     0
 70
    58
 90
        2
176
     1
 90
        2
176
     1
 90
        1
176
     1
 90
        2
176
     1
 40
0.6
176
     1
 40
30.0
176
     1
 62
     7
420
 16777215
176
     1
 90
        1
176
     1
 90
        2
176
     1
 62
     7
176
     1
 62
   257
176
     1
 90
        2
176
     1
 90
        1
176
     1
 40
1.0
176
     1
 90
        8
176
     1
 62
   257
176
     1
 40
1.0
176
     1
 90
        1
176
     1
 90
        6
176
     1
 90
        2
176
     1
 62
     7
176
     1
 90
        3
176
     1
 90
        0
176
     1
 90
        0
176
     1
290
     0
176
     1
 90
        5
176
     1
 40
0.0
176
     1
 90
        0
176
     1
290
     0
176
     1
290
     1
176
     1
290
     1
176
     1
290
     0
176
     1
290
     0
176
     1
290
     0
176
     1
290
     0
176
     1
290
     0
176
     1
290
     0
176
     1
 90
       50
176
     1
 40
0.0
176
     1
 40
1.0
176
     1
 90
        0
176
     1
 62
    18
420
        0
176
     1
 90
       50
176
     1
 90
        3
176
     1
 62
     5
420
      255
176
     1
290
     0
176
     1
 90
       50
176
     1
 90
       50
176
     1
 90
       50
176
     1
290
     0
176
     1
 90
       50
176
     1
 62
   256
176
     0
 40
1.0
176
     0
 90
        2
176
     1
  1
strokes_ogs.tif
176
     1
290
     0
176
     1
 40
1.0
176
     1
 40
1.0
176
     1
1001
ACAD
1000
AcDbSavedByObjectVersion
1070
     0
  0
VISUALSTYLE
  5
17E
102
{ACAD_REACTORS
330
99
102
}
330
99
100
AcDbVisualStyle
  2
Shades of Gray
 70
    23
177
     3
291
     0
 70
    58
 90
        2
176
     1
 90
        2
176
     1
 90
        3
176
     1
 90
        0
176
     1
 40
0.6
176
     1
 40
30.0
176
     1
 62
     7
420
 16777215
176
     1
 90
        2
176
     1
 90
        2
176
     1
 62
     7
176
     1
 62
     7
176
     1
 90
        1
176
     1
 90
        1
176
     1
 40
40.0
176
     1
 90
        8
176
     1
 62
     7
176
     1
 40
1.0
176
     1
 90
        1
176
     1
 90
        6
176
     1
 90
        2
176
     1
 62
     7
176
     1
 90
        3
176
     1
 90
        0
176
     1
 90
        0
176
     1
290
     0
176
     1
 90
        1
176
     1
 40
0.0
176
     1
 90
        0
176
     1
290
     0
176
     1
290
     1
176
     1
290
     1
176
     1
290
     0
176
     1
290
     0
176
     1
290
     0
176
     1
290
     0
176
     1
290
     0
176
     1
290
     0
176
     1
 90
       50
176
     1
 40
0.0
176
     1
 40
1.0
176
     1
 90
        0
176
     1
 62
    18
420
        0
176
     1
 90
       50
176
     1
 90
        3
176
     1
 62
     5
420
      255
176
     1
290
     0
176
     1
 90
       50
176
     1
 90
       50
176
     1
 90
       50
176
     1
290
     0
176
     1
 90
       50
176
     1
 62
   256
176
     0
 40
1.0
176
     0
 90
        2
176
     1
  1
strokes_ogs.tif
176
     1
290
     0
176
     1
 40
1.0
176
     1
 40
1.0
176
     1
1001
ACAD
1000
AcDbSavedByObjectVersion
1070
     0
  0
VISUALSTYLE
  5
17F
102
{ACAD_REACTORS
330
99
102
}
330
99
100
AcDbVisualStyle
  2
Sketchy
 70
    24
177
     3
291
     0
 70
    58
 90
        1
176
     1
 90
        2
176
     1
 90
        2
176
     1
 90
        0
176
     1
 40
0.6
176
     1
 40
30.0
176
     1
 62
     7
420
 16777215
176
     1
 90
        2
176
     1
 90
        2
176
     1
 62
     7
176
     1
 62
     7
176
     1
 90
        1
176
     1
 90
        1
176
     1
 40
40.0
176
     1
 90
       11
176
     1
 62
     7
176
     1
 40
1.0
176
     1
 90
        1
176
     1
 90
        6
176
     1
 90
        2
176
     1
 62
     7
176
     1
 90
        6
176
     1
 90
        0
176
     1
 90
        0
176
     1
290
     0
176
     1
 90
        1
176
     1
 40
0.0
176
     1
 90
        0
176
     1
290
     0
176
     1
290
     1
176
     1
290
     1
176
     1
290
     0
176
     1
290
     0
176
     1
290
     0
176
     1
290
     0
176
     1
290
     0
176
     1
290
     0
176
     1
 90
       50
176
     1
 40
0.0
176
     1
 40
1.0
176
     1
 90
        0
176
     1
 62
    18
420
        0
176
     1
 90
       50
176
     1
 90
        3
176
     1
 62
     5
420
      255
176
     1
290
     0
176
     1
 90
       50
176
     1
 90
       50
176
     1
 90
       50
176
     1
290
     0
176
     1
 90
       50
176
     1
 62
   256
176
     0
 40
1.0
176
     0
 90
        2
176
     1
  1
strokes_ogs.tif
176
     1
290
     0
176
     1
 40
1.0
176
     1
 40
1.0
176
     1
1001
ACAD
1000
AcDbSavedByObjectVersion
1070
     0
  0
VISUALSTYLE
  5
A6
102
{ACAD_REACTORS
330
99
102
}
330
99
100
AcDbVisualStyle
  2
Thicken
 70
    13
177
     3
291
     1
 70
    58
 90
        2
176
     1
 90
        2
176
     1
 90
        1
176
     1
 90
        0
176
     1
 40
0.6
176
     1
 40
30.0
176
     1
 62
     7
420
 16777215
176
     1
 90
        1
176
     1
 90
        4
176
     1
 62
     7
176
     1
 62
   257
176
     1
 90
        1
176
     1
 90
        1
176
     1
 40
1.0
176
     1
 90
       12
176
     1
 62
     7
176
     1
 40
1.0
176
     1
 90
        1
176
     1
 90
        6
176
     1
 90
        2
176
     1
 62
     7
176
     1
 90
        5
176
     1
 90
        0
176
     1
 90
        0
176
     1
290
     0
176
     1
 90
        1
176
     1
 40
0.0
176
     1
 90
        0
176
     1
290
     0
176
     1
290
     1
176
     1
290
     1
176
     1
290
     0
176
     1
290
     0
176
     1
290
     0
176
     1
290
     0
176
     1
290
     0
176
     1
290
     0
176
     1
 90
       50
176
     1
 40
0.0
176
     1
 40
1.0
176
     1
 90
        0
176
     1
 62
    18
420
        0
176
     1
 90
       50
176
     1
 90
        3
176
     1
 62
     5
420
      255
176
     1
290
     0
176
     1
 90
       50
176
     1
 90
       50
176
     1
 90
       50
176
     1
290
     0
176
     1
 90
       50
176
     1
 62
   256
176
     0
 40
1.0
176
     0
 90
        2
176
     1
  1
strokes_ogs.tif
176
     1
290
     0
176
     1
 40
1.0
176
     1
 40
1.0
176
     1
1001
ACAD
1000
AcDbSavedByObjectVersion
1070
     0
  0
VISUALSTYLE
  5
A0
102
{ACAD_REACTORS
330
99
102
}
330
99
100
AcDbVisualStyle
  2
Wireframe
 70
     5
177
     3
291
     0
 70
    58
 90
        0
176
     1
 90
        2
176
     1
 90
        0
176
     1
 90
        0
176
     1
 40
0.6
176
     1
 40
30.0
176
     1
 62
     7
420
 16777215
176
     1
 90
        1
176
     1
 90
        4
176
     1
 62
     7
176
     1
 62
   257
176
     1
 90
        1
176
     1
 90
        1
176
     1
 40
1.0
176
     1
 90
        0
176
     1
 62
   257
176
     1
 40
1.0
176
     1
 90
        1
176
     1
 90
        6
176
     1
 90
        2
176
     1
 62
     7
176
     1
 90
        3
176
     1
 90
        0
176
     1
 90
        0
176
     1
290
     0
176
     1
 90
        1
176
     1
 40
0.0
176
     1
 90
        0
176
     1
290
     0
176
     1
290
     1
176
     1
290
     1
176
     1
290
     0
176
     1
290
     0
176
     1
290
     0
176
     1
290
     0
176
     1
290
     0
176
     1
290
     0
176
     1
 90
       50
176
     1
 40
0.0
176
     1
 40
1.0
176
     1
 90
        0
176
     1
 62
    18
420
        0
176
     1
 90
       50
176
     1
 90
        3
176
     1
 62
     5
420
      255
176
     1
290
     0
176
     1
 90
       50
176
     1
 90
       50
176
     1
 90
       50
176
     1
290
     0
176
     1
 90
       50
176
     1
 62
   256
176
     0
 40
1.0
176
     0
 90
        2
176
     1
  1
strokes_ogs.tif
176
     1
290
     0
176
     1
 40
1.0
176
     1
 40
1.0
176
     1
1001
ACAD
1000
AcDbSavedByObjectVersion
1070
     0
  0
VISUALSTYLE
  5
180
102
{ACAD_REACTORS
330
99
102
}
330
99
100
AcDbVisualStyle
  2
X-Ray
 70
    25
177
     3
291
     0
 70
    58
 90
        2
176
     1
 90
        2
176
     1
 90
        1
176
     1
 90
        1
176
     1
 40
0.5
176
     1
 40
30.0
176
     1
 62
     7
420
 16777215
176
     1
 90
        1
176
     1
 90
        0
176
     1
 62
     7
176
     1
 62
   257
176
     1
 90
        1
176
     1
 90
        1
176
     1
 40
1.0
176
     1
 90
        8
176
     1
 62
     7
176
     1
 40
1.0
176
     1
 90
        1
176
     1
 90
        6
176
     1
 90
        2
176
     1
 62
     7
176
     1
 90
        3
176
     1
 90
        0
176
     1
 90
        0
176
     1
290
     0
176
     1
 90
       13
176
     1
 40
0.0
176
     1
 90
        0
176
     1
290
     0
176
     1
290
     1
176
     1
290
     1
176
     1
290
     0
176
     1
290
     0
176
     1
290
     0
176
     1
290
     0
176
     1
290
     0
176
     1
290
     0
176
     1
 90
       50
176
     1
 40
0.0
176
     1
 40
1.0
176
     1
 90
        0
176
     1
 62
    18
420
        0
176
     1
 90
       50
176
     1
 90
        3
176
     1
 62
     5
420
      255
176
     1
290
     0
176
     1
 90
       50
176
     1
 90
       50
176
     1
 90
       50
176
     1
290
     0
176
     1
 90
       50
176
     1
 62
   256
176
     0
 40
1.0
176
     0
 90
        2
176
     1
  1
strokes_ogs.tif
176
     1
290
     0
176
     1
 40
1.0
176
     1
 40
1.0
176
     1
1001
ACAD
1000
AcDbSavedByObjectVersion
1070
     0
  0
DICTIONARYVAR
  5
F0
102
{ACAD_REACTORS
330
66
102
}
330
66
100
DictionaryVariables
280
     0
  1
1:1
  0
DICTIONARYVAR
  5
EF
102
{ACAD_REACTORS
330
66
102
}
330
66
100
DictionaryVariables
280
     0
  1
STANDARD
  0
DICTIONARYVAR
  5
89
102
{ACAD_REACTORS
330
66
102
}
330
66
100
DictionaryVariables
280
     0
  1
STANDARD
  0
DICTIONARYVAR
  5
1B7
102
{ACAD_REACTORS
330
66
102
}
330
66
100
DictionaryVariables
280
     0
  1
Metric50
  0
DICTIONARYVAR
  5
1B8
102
{ACAD_REACTORS
330
66
102
}
330
66
100
DictionaryVariables
280
     0
  1
Metric50
  0
DICTIONARYVAR
  5
67
102
{ACAD_REACTORS
330
66
102
}
330
66
100
DictionaryVariables
280
     0
  1
2
  0
DICTIONARYVAR
  5
6B
102
{ACAD_REACTORS
330
66
102
}
330
66
100
DictionaryVariables
280
     0
  1
1
  0
DICTIONARYVAR
  5
14D
102
{ACAD_REACTORS
330
66
102
}
330
66
100
DictionaryVariables
280
     0
  1
0
  0
DICTIONARYVAR
  5
14E
102
{ACAD_REACTORS
330
66
102
}
330
66
100
DictionaryVariables
280
     0
  1
0
  0
DICTIONARY
  5
B8F
102
{ACAD_REACTORS
330
B8D
102
}
330
B8D
100
AcDbDictionary
281
     1
  0
DICTIONARY
  5
B8E
102
{ACAD_REACTORS
330
B8D
102
}
330
B8D
100
AcDbDictionary
281
     1
  3
1734164772992
350
B88
  3
1734164773008
350
B89
  3
1734164773024
350
B8A
  3
1734164773040
350
B8B
  3
1734164773056
350
B8C
  0
DICTIONARY
  5
8B6
102
{ACAD_REACTORS
330
8AF
102
}
330
8AF
100
AcDbDictionary
281
     1
  0
DICTIONARY
  5
B99
330
AD9
100
AcDbDictionary
280
     1
281
     1
  3
ACAD_XREC_ROUNDTRIP
360
B9A
  0
DICTIONARY
  5
B92
330
1AC
100
AcDbDictionary
280
     1
281
     1
  3
ACAD_XREC_ROUNDTRIP
360
B93
  0
DICTIONARY
  5
B96
330
3D7
100
AcDbDictionary
280
     1
281
     1
  3
ACAD_XREC_ROUNDTRIP
360
B97
  0
DICTIONARY
  5
194
330
22
100
AcDbDictionary
280
     1
281
     1
  0
DICTIONARY
  5
188
330
97
100
AcDbDictionary
280
     1
281
     1
  3
FBXASSET
360
189
  0
DICTIONARY
  5
186
330
96
100
AcDbDictionary
280
     1
281
     1
  3
FBXASSET
360
187
  0
DICTIONARY
  5
110
330
98
100
AcDbDictionary
280
     1
281
     1
  3
BUMPTILE
360
112
  3
DIFFUSETILE
360
111
  3
FBXASSET
360
18A
  3
OPACITYTILE
360
113
  3
REFLECTIONTILE
360
114
  0
DICTIONARY
  5
AD3
330
AD2
100
AcDbDictionary
280
     1
281
     1
  3
ACAD_FIELD
360
AD4
  3
ACAD_XREC_ROUNDTRIP
360
B98
  0
DICTIONARY
  5
B90
330
1AA
100
AcDbDictionary
280
     1
281
     1
  3
ACAD_XREC_ROUNDTRIP
360
B91
  0
DICTIONARY
  5
B94
330
3D6
100
AcDbDictionary
280
     1
281
     1
  3
ACAD_XREC_ROUNDTRIP
360
B95
  0
DICTIONARY
  5
104
330
87
100
AcDbDictionary
280
     1
281
     1
  3
ACAD_ROUNDTRIP_2008_TABLESTYLE_CELLSTYLEMAP
360
B86
  0
XRECORD
  5
B88
102
{ACAD_REACTORS
330
B8E
102
}
330
B8E
100
AcDbXrecord
280
     1
  1
AcDb_Thumbnail_Schema
102
{ATTRRECORD
341
B89
  2
AcDbDs::TreatedAsObjectData
280
     1
291
     1
102
ATTRRECORD}
102
{ATTRRECORD
341
B8A
  2
AcDbDs::Legacy
280
     1
291
     1
102
ATTRRECORD}
  2
AcDbDs::ID
280
    10
 91
        8
102
{ATTRRECORD
341
B8B
  2
AcDs:Indexable
280
     1
291
     1
102
ATTRRECORD}
102
{ATTRRECORD
341
B8C
  2
AcDbDs::HandleAttribute
280
     7
282
     1
102
ATTRRECORD}
  2
Thumbnail_Data
280
    15
 91
        0
  0
XRECORD
  5
B89
102
{ACAD_REACTORS
330
B8E
102
}
330
B8E
100
AcDbXrecord
280
     1
  1
AcDbDs::TreatedAsObjectDataSchema
  2
AcDbDs::TreatedAsObjectData
280
     1
 91
        0
  0
XRECORD
  5
B8A
102
{ACAD_REACTORS
330
B8E
102
}
330
B8E
100
AcDbXrecord
280
     1
  1
AcDbDs::LegacySchema
  2
AcDbDs::Legacy
280
     1
 91
        0
  0
XRECORD
  5
B8B
102
{ACAD_REACTORS
330
B8E
102
}
330
B8E
100
AcDbXrecord
280
     1
  1
AcDbDs::IndexedPropertySchema
  2
AcDs:Indexable
280
     1
 91
        0
  0
XRECORD
  5
B8C
102
{ACAD_REACTORS
330
B8E
102
}
330
B8E
100
AcDbXrecord
280
     1
  1
AcDbDs::HandleAttributeSchema
  2
AcDbDs::HandleAttribute
280
     7
 91
        1
284
     1
  0
XRECORD
  5
B9A
102
{ACAD_REACTORS
330
B99
102
}
330
B99
100
AcDbXrecord
280
     1
102
DISPLAYNAME
  1
ASME Y14.35 - 1987(1)
102
FLAGS
 90
        0
  0
XRECORD
  5
B93
102
{ACAD_REACTORS
330
B92
102
}
330
B92
100
AcDbXrecord
280
     1
102
DISPLAYNAME
  1
Imperial24
102
FLAGS
 90
        0
  0
XRECORD
  5
B97
102
{ACAD_REACTORS
330
B96
102
}
330
B96
100
AcDbXrecord
280
     1
102
DISPLAYNAME
  1
Metric50
102
FLAGS
 90
        0
  0
XRECORD
  5
189
102
{ACAD_REACTORS
330
188
102
}
330
188
100
AcDbXrecord
280
     1
 70
     1
 90
429727718
  1
508B35C9-AEE7-456F-BE74-D52651303AC6
310
504B03040A0000080000B670623B3DEE336E79000000790000001B0000006175746F6465736B2D64657369676E2D7061636B6167652E786D6C3C3F786D6C2076657273696F6E3D22312E302220656E636F64696E673D227574662D3822203F3E3C666F726D6174733E3C666F726D61743E687474703A2F2F736368656D612E
310
6175746F6465736B2E636F6D2F64657369676E2D7061636B6167652F323030393C2F666F726D61743E3C2F666F726D6174733E504B0304140006080800B670623BD486FD9CA0000000F4000000130000005B436F6E74656E745F54797065735D2E786D6C7D8EC10E82300C865F65E91D8A1E8C310C0EEA1BF002731658846E
310
D98AC1B77784ABF1D8FE5FBFBF75BBCE937A534CCEB38643598122B6FEE978D0B0485F9C41B54DDD7D022595594E1A469170414C76A4D9A4D207E29CF43ECE46F218070CC6BECC4078ACAA135ACF422C856C0E68EA1BF5669944DDD7BCDE7B1F8E415D77AECB980613C2E4AC91FC167A2B244592486606FC29C8FD7F045B9A
310
EF7053A7E60B504B0304140006080800B670623B28ED286BEB0000007C01000008000000636F72652E786D6C8D90416EC3201045AF82665B6183218D6D61A254764FD00B204C5C94182C03558F5F9C3852BBEB6A467FFE9B197D71FA9E6FE8CBACC17AD7012D0820E3B41FAD9B3A48F1826B40272956EFE32F1B20A766D3C1
310
268314D3EAD3B24BDABB685CCCAAF3A3D94515828980F42D371D04FD696655A814B3235C8B45E9AB9A4C419F5D8653B2237A1CB163DE672FD6AC209BF3C08E0D1B30EB19C3FC9D72FCC6EB231EFA33EDE96BDD341517E5064B11EDFCBCAF57A3A2194156843498524CAA0FCA5B7268F9E185D42D21A2DCEC7FA0B48CFF8492
310
759155FBBB0F2C80A4F991FB408A72CB22977B50B96EB9C91F504B0304140006080800B670623B55019EA25F0000007C00000007000000636E782E786D6C4DCB3B0E80201045D1AD90E915ED2CF8AC45050C11660C8261F98AB1B07AC9C97D42D718D865D3E909258CFD00CCE24AC6E326A164D74DC0B4128928FF32603847
310
2BA13128B1252AC747C6BAB984FC68F0B87FE8960A5C09FE86CFB69FBA01504B0304140006080800B670623B7BC41AC871010000D40300000C0000006662782F636F72652E786D6CC553ED6E8320147D15C2DF4501B56B6D90A64BBB27D80B50A5CE54C120983EFEAE1F4DD7A56BBA5FF3879273EEE59E7310BE393735EA95
310
ED2AA333CC428A91D2B9292A5D66D8BB63B0C26823B835C67D2BC348CB46657880B1E0A535BE9DA1DC68A7B403549B42CDA0EC3AE530CA6B5864B8CB3F552343E91D5474A7B095F949962A6421D0502778E72C0840D390E18DC5F170E664C205F7BE2A66B62A605A75AC94C522DDEEE3651AEF837817C741F2CE92E02D592D
310
83FD6ECB76EC7595A651C2C9D02CB8AB9A8BBADC2AE954814544691A3016D0E883256BBA58278B17BA5A53CAC9507ED3E4DBE2C9265F691747B3DCA9ADC382819091F8E1162272A8933DE82182932144F88C09DF060D8140C84E1EEA8B8F1340BDCA9DB1093085F157AA97B557309586747CD0EF0B4EA64E983A6E0EAEEFCE
310
889E9EF17847386AA94B30211D2C0FDE0D3AF9A4610EAD5536E8DD1969631B593F67E381C33F5157F17725E5A636F6BF1491F980C8FC7B90E13E8A2F504B0304140006080800B670623B70102A487D0000009D0000000B0000006662782F636E782E786D6C4DCCD10A83201886E15B91FFDC95A5C30335ACCDFB886521330D
310
A76397BF1A1DECE883878F57749FD5A3B74D2F17830472A901D9F088930B8B849267CC01754AA418F3DF0D5018572BE160506249B16C274D761E8BCFBB7A179E27F65CB39A0F14D396184C9921B81F34C3ACA1B4B99ABB6E6F062A25AA5F69DF23ACBE504B0304140006080800B670623B3610CA3329010000120200003100
310
00006662782F42384135303843342D343331462D343546312D424341352D3532343432364645413344462F636F72652E786D6C8D515B6EC32010BC0AE22B55850D0E446E848992B43E412FE000495162B07854397EA176A4F62F3F2C9A9D991D58BEBB8F37F0AD7D30CE76905418026DA553C65E3A98E219B510EC04F7CEC5
310
3F3408EC30EA0E16180A7EF12E4D0B249D8DDAC68C5AA7F4020E21E80881BCE54B0783FCD2E3500D296646B856D320AFC34557A4CAEDCC133C449F0380794839A138B47B86DB2345744D7A44594FD0E1B867883594369BFE63BF7EEF793D0B054FC9A8456E548E63CE46FB674D8A58F068C6477CE9F510B582A2C1F80D1182
310
70F349E816B32D65AFB8DD62CCEB42FF274A937A52948C8DEB66893BCB021484D7734370E5D2E9F608A3EF93F3119479ABA0E50B14B8C298119A43CCC4FCFCECB8A18B6388CEE7EF5D5D4F994BD86CBBA182D76543B9FCAE2FD7B24DF103504B0304140006080800B670623B1B8617914E0100003303000030000000666278
310
2F42384135303843342D343331462D343546312D424341352D3532343432364645413344462F636E782E786D6CD593C16EC32010447F0571AD6CE3D489D20813A9877E410FBD62D82434182CC055F3F75D1292E692438FBD206B7698593D61BEFD1E2DF982108D773D6D6B460938E5B571FB9ECE6957AD29D90A1EBC4F7736
310
4A9C1CA1A759A682EF839FA72269D8C9D92654AD71C72206887E0E0A22CAF926B15E498B01E0AA19451807D01A34B919F16B070157417138917400F2F6FA41FCF0092A45DEE414C19BDC21783E4BD39D891265658C3D8DEA00A3ACE59CBC8678ACB54CB26EEB6BD7839D7E9348BE70AD9C8321B9BCA7F9A4A26C542347DEE0
310
50F09802D22BA6749A800A394DD62899107273365E3C82CFC6A55557BC06C10774B7ABE7AEC3B0F34CF06446280E154026D0542C187BA9DAB6628BF7B6DBB0E5A65B3EB1F58631DE64BBE083F7B65CC218087E22CABB042E51D1F2268F1FE12B3EA24D40D63E9CFE00120194D60B9D5BC67FE6D39CDF37E20AF817881F504B
310
0304140006080800B670623BBFEF2E3B690500003C100000340000006662782F42384135303843342D343331462D343546312D424341352D3532343432364645413344462F6F626A656374732E786D6CAD575D739B3814FD2B0CFB0C98D84E931D4227B6938EA793B6534F3BFB90198F0099B001899144EAECAFDF231018B0
310
D37A3FFC609090EEE7B94757C1FB7D915B2F54C88CB31BDB7727B64559CC938CA53776A576CE956DBD0F03C1B9EA2DB32D460A7A63EB693B0C52C1ABD24C257447AA5C8D66EF177F5832A68CDA569C13296F6C193FD182B8A4523CA1F2D94D88226EBADBBBBEDB2C1C8A4D05299F46424B222853B014F30C52ACC6287F389C
310
D85E1878FA7B18E87FB36AFAF62AAFF667A83F635211161F291B8999FAB3D5DDC5FCDA99CF6653677679E13B8BFBC5CAF1DF4D27CBCBE5F2FAF6EE1A8AA51290642C117467871F101B91C581D77CEA2C36869F3229E68CD1B8F61F1ED6361B89092D294B90C78C4A68EB793D190E7D1D9BDEE7A91E1B95FDE9F3BCEAEFE809
310
6A6D6F9F7D4B79F4275C90E7A04248AA51D5C4C738DAE06F72885AC4796EBE65D22A88A22223B995679120E2D50EB1542F098381188D4EA111AE3DB043FF20AF6F2B4AE3D7D83D65E5AECA730D4D3BAC91BD05FEA992B565D95F549CD6069B90AB2A63EACA38A45E4B6A87D781574F86817E4C2FCCC72690D62E2729520E37
310
9BAF234797BAF6D62B3BFC781FED37BA1E4F2B2F052FA9501A3E80569BB8F6A9A364D4FA67654E6F803383981F82F21591FF84F23D9882BC896C3FDBCF8C162508933B2E0AE4C69DD43F6BD2BE38DDDBF10BF86CB4FA784D37F3AF16075E67EC9030DECA1FC0A55373F5DFF3378C591FA9BDF485C10B0A8C8BA909E5262639
310
A8E72163488806A595734C81CB77D1DE0ED7604A303B76913CEC0272F412782FF88EFF4636D8AA56DF7B322474C4B767303F625997056C7B032C473C592B36CEBD15F3F9FF5233B7ABCDC74D257624A60F8658567497B14CE1EC3C80B76FD02011038F9EE9EB0F2E12387A9C844D3F09855125116D1D731DF8B43D2CF4E0A0
310
79A020C6BE946BCE0B7EA1E1219331CD73C228AF5A2DDD31A4B1DA918CE91350854D40A71723140BFA92E94E62B0626016CEFA5864A50E5977E8753CEDBEE1CBB7F52780D20E17AF0BA0F5F9B02A3AD07DCC732EB6D1EBB661421BE0C39E21BABF0FE16D22EA6929407C8DE596724C88B749B6DB5512BC7B228ADFD7CB7EA6
310
3A22397E690BA8D5D8D4E40CEC8CDA23C2C0B7D5898640101CEC9C6D331CE328CB93CAFBBAC70A642DF70DF95155945B52F08AA973C23469FD69ADEF84F7BB18F983A8F8C90E37F5D35980B2139A1C523540813E824EF83448CF7C72B598CE97D7CEEDDDDD3B6736BFBC771677EF66CE6A7E7139F7A793E9EDF2B2B3A8B624
310
0CDA13AA5F8388264EC4A0129909F3B7F5A16CEDF08128E97D680ACA4B9BE7B7B58BB638F0B00700EF36AE8B32A705658A68F83EE897FC2B41573190D1CCAF0B92D233A47CFEB019D9809933F67DD1A5467F8CF69AD9A5AE859342D45355448C64F968A371DC2D596ADC6E43D93D1B466F877A64E2893E54F23C4B40388995
310
525E5005DA3983ED45412510D3EFCA13737B3863F74BD30F2A12E5B4B5E489A025CE25500DB855B11ACE5BBFA185D35DD48D8DC3CE7DC69F2944DB42AA6F6CF09BCA622ADD08C7A36E7C6AE18000BAB08E040135C2D21C9D75B3A91B77BB746C403F38018DFE6EC939DD92F16B40BC05294B9CDA035AAD6D330AE27FE4786B
310
8E45145EA34A75BE1C263A676A35A8ACC6297337400BF16C54EF515F3F77CB77EB3583889C754FFA29081AA98E2222ADEF05DA3E63D2EDEA8B8756C05A7FB6CABC4A91CBF325398202CC952E70A008A830324BA200D5E5EF8F5F04C75DB4B0EE3340E071C98B823333B83577596BF3849B69F2085AA0FAFA212F26BEFF5877
310
FDE622B28D88A42E49E43326DA82D31E8CB006401E1DA726059ECEC168F97A6599036306A135688F9AD2E61A6EA178F4CD51974A9F2CCB9F36FE5EBD14601068D9C3BF01504B0304140006080000B670623B000000000000000000000000350000006662782F42384135303843342D343331462D343546312D424341352D35
310
32343432364645413344462F76657274696365732E62696E504B0304140006080800B670623BF270F1330600000004000000360000006662782F42384135303843342D343331462D343546312D424341352D3532343432364645413344462F747269616E676C65732E62696E636660600000504B0304140006080000B67062
310
3B000000000000000000000000370000006662782F42384135303843342D343331462D343546312D424341352D3532343432364645413344462F617474726962757465732E62696E504B0304140006080800B670623B08DA0BD19000000041010000360000006662782F42384135303843342D343331462D343546312D4243
310
41352D3532343432364645413344462F6469726563746F72792E786D6C858F410AC3201045AF22B36F53E9A60B35CBEEBAE80D244E44489C6234F4F835464A48035D0DF398FF9F8AF63D0E6CC63039F212F8F9020C7D47C6792B21C5FE7403D62A1188E2E60C98D7234A5830286103A55745067B9D86B8A3CF9C7F90C11DE6
310
07FB144396D7B6A82D282E9A152AD114D5EF2CB866EEE831B8EEA07A7BB5A8D7D61A2BAAEB7FD5F70921FF497D00504B0304140006080800B670623B3B4606F3FE000000A00100003B0000006662782F42384135303843342D343331462D343546312D424341352D3532343432364645413344462F7265736F75726365732F
310
636F72652E786D6C8D504B6E833010BD0A9A6D65B08134808CA354A427E8052C332156828DFCA97AFC9A40A576D7CDCCE87D344F8F9FBEE647F689CE6B6B7A6039850C8DB2A336530F315C4903D94970676DF82583CCC8197B5861107C72362E3BA4AC096842428D1D7107A5F71820538F74F4E0D50D6799CB1892C2DFF345
310
AABB9C306779A2934E701F5C0A906D4FD609C2A1B7D129F4BCD858C163D4E3AED163FAA9AF1A1D88F67CA98E6D35906AA82A52BFB39ABCD5CD915C86331BD86BD3B665CD8BD52C78D0F34F46E550061C419494B6843142CB0F5677F4D0D58717DA7494F26295FF31C565FCA7296A13AA728FBBD93C0896823C09C18BB5AFB4
310
9E65A6BD762BBE01504B010214000A0000080000B670623B3DEE336E79000000790000001B00000000000000000000000000000000006175746F6465736B2D64657369676E2D7061636B6167652E786D6C504B01021400140006080800B670623BD486FD9CA0000000F40000001300000000000000000000000000B2000000
310
5B436F6E74656E745F54797065735D2E786D6C504B01021400140006080800B670623B28ED286BEB0000007C010000080000000000000000000000000083010000636F72652E786D6C504B01021400140006080800B670623B55019EA25F0000007C000000070000000000000000000000000094020000636E782E786D6C50
310
4B01021400140006080800B670623B7BC41AC871010000D40300000C00000000000000000000000000180300006662782F636F72652E786D6C504B01021400140006080800B670623B70102A487D0000009D0000000B00000000000000000000000000B30400006662782F636E782E786D6C504B01021400140006080800B6
310
70623B3610CA3329010000120200003100000000000000000000000000590500006662782F42384135303843342D343331462D343546312D424341352D3532343432364645413344462F636F72652E786D6C504B01021400140006080800B670623B1B8617914E010000330300003000000000000000000000000000D10600
310
006662782F42384135303843342D343331462D343546312D424341352D3532343432364645413344462F636E782E786D6C504B01021400140006080800B670623BBFEF2E3B690500003C10000034000000000000000000000000006D0800006662782F42384135303843342D343331462D343546312D424341352D35323434
310
32364645413344462F6F626A656374732E786D6C504B01021400140006080000B670623B0000000000000000000000003500000000000000000000000000280E00006662782F42384135303843342D343331462D343546312D424341352D3532343432364645413344462F76657274696365732E62696E504B010214001400
310
06080800B670623BF270F133060000000400000036000000000000000000000000007B0E00006662782F42384135303843342D343331462D343546312D424341352D3532343432364645413344462F747269616E676C65732E62696E504B01021400140006080000B670623B00000000000000000000000037000000000000
310
00000000000000D50E00006662782F42384135303843342D343331462D343546312D424341352D3532343432364645413344462F617474726962757465732E62696E504B01021400140006080800B670623B08DA0BD1900000004101000036000000000000000000000000002A0F00006662782F42384135303843342D3433
310
31462D343546312D424341352D3532343432364645413344462F6469726563746F72792E786D6C504B01021400140006080800B670623B3B4606F3FE000000A00100003B000000000000000000000000000E1000006662782F42384135303843342D343331462D343546312D424341352D3532343432364645413344462F72
310
65736F75726365732F636F72652E786D6C504B0506000000000E000E0080040000651100000000
  0
XRECORD
  5
187
102
{ACAD_REACTORS
330
186
102
}
330
186
100
AcDbXrecord
280
     1
 70
     1
 90
429727718
  1
887D55A9-D0DD-414E-B741-A7DCD4DA2B4C
310
504B03040A0000080000B670623B3DEE336E79000000790000001B0000006175746F6465736B2D64657369676E2D7061636B6167652E786D6C3C3F786D6C2076657273696F6E3D22312E302220656E636F64696E673D227574662D3822203F3E3C666F726D6174733E3C666F726D61743E687474703A2F2F736368656D612E
310
6175746F6465736B2E636F6D2F64657369676E2D7061636B6167652F323030393C2F666F726D61743E3C2F666F726D6174733E504B0304140006080800B670623BD486FD9CA0000000F4000000130000005B436F6E74656E745F54797065735D2E786D6C7D8EC10E82300C865F65E91D8A1E8C310C0EEA1BF002731658846E
310
D98AC1B77784ABF1D8FE5FBFBF75BBCE937A534CCEB38643598122B6FEE978D0B0485F9C41B54DDD7D022595594E1A469170414C76A4D9A4D207E29CF43ECE46F218070CC6BECC4078ACAA135ACF422C856C0E68EA1BF5669944DDD7BCDE7B1F8E415D77AECB980613C2E4AC91FC167A2B244592486606FC29C8FD7F045B9A
310
EF7053A7E60B504B0304140006080800B670623BBC1638F5EC0000007C01000008000000636F72652E786D6C8D90416EC3201045AF82665B61836BE2D8C24471DB9CA01740401C94182C03558F5F9C3852BBEB6A467FFE9B197D7EF89E6EE8CB2CC17AD7032D0820E394D7D68D3DA478C67B4007C117EFE32F1B202727D3C3
310
2A83E0E3E2D3BC49CABB685CCCAAF3DA6CA20CC14440EA969B1E82BA98491632C5EC08D76296EA2A4753D06797E194AC468F2356E77DF66CCD02825543D50CACC62D39ED70FDC68EB8FD68F6F8787A6784342D1DDA1D2F5758F068A7E77DB518198D065111D2624A31A93E69DD11D6D5EC85EC3B4278B9DAFF4069D6FF8492
310
75F1B5DADE7D600104CD8FDC0782976B16B9DC83CA75CD4DFC00504B0304140006080800B670623B55019EA25F0000007C00000007000000636E782E786D6C4DCB3B0E80201045D1AD90E915ED2CF8AC45050C11660C8261F98AB1B07AC9C97D42D718D865D3E909258CFD00CCE24AC6E326A164D74DC0B4128928FF326038
310
472BA13128B1252AC747C6BAB984FC68F0B87FE8960A5C09FE86CFB69FBA01504B0304140006080800B670623B3586FFB671010000D40300000C0000006662782F636F72652E786D6CC553ED6E8320147D15C2DF4541A76D6D90A6DDD627D80B50A4CE54C120983EFEAE1F4DD7A55BBA5FF3879273EEE59E7310B6393735EA
310
95ED2AA3731C851423A5A5292A5DE6D8BB63B0C268C39935C67D29C3488B46E578803167A535BE9D2169B453DA01AA4DA16650749D7218C91A1639EEE4876A4428BC838AEE14B6429E44A9C228041AEA38EB9C0501681A32BC313F1ECE8C4C3867DE57C5CC56054CAB8E95B298A7F12E5EEED224C8E87E11242FE936C8DE96
310
AB60BB7F4D295D66D12E5B30323473E6AAE6A24E5A259C2A308F29CD82280A68FC1E256B9AAE93F489AED694323294DF34F9B678B0C957DA3DC7B3DCA9ADC33C022123F1CD2D44E450277AD04338234388F01913BE0D1A0281909D38D4171F27807A259DB1093085F157AA17B557309586747CD0CF0B46A64E983A6E0EAEEF
310
CE881F9EF1FB8E70D44297604238581EBC1B74B249C31C5AAB6CD0BB33D2C636A27ECCC62F0EFF445DC5DF95244D6DEC7F2922F30191F9F720C37DE49F504B0304140006080800B670623B4220A0FF7D0000009D0000000B0000006662782F636E782E786D6C4DCCD10A83201886E15B91FFDCE542CB0335D0EC3E6259C84A
310
C3E9D8E5AF46073BFAE0E1E315DD675BD1DBA5978F41C2FD4600B9F088930F8B849267CC01754AA418F3DF0D50183727E164506249B1EC174D6E1ECB9A0F5D7D785E68DB8151CD286E5A5363CA6B8A39E90D36D40E96B086F55A43A544F52B1D7B86D517504B0304140006080800B670623B2FA3FEDE290100001202000031
310
0000006662782F45374635344235342D363743322D343832342D383044432D4334454645303536354442422F636F72652E786D6C8D515B6EC32010BC0AE22B55850D2E386E848994D7097A0117488A1283C5A3CAF10BB523B57FF961D1ECCCECC0F2ED7DBC816FED8371B687A4C210682B9D32F6D2C314CFA883602BB8772E
310
FEA141608751F7B0C050F08B77695A20E96CD43666D43AA5177008414708E42D5F7A18E4971E876A483133C2B59A06791D2EBA22556E679EE021FA1C00CC43CA09C5717D6274C7286AD7FB06D1AEA1A8C3873DDAD3E3E98859CB0EBB1DAF67A1E02919B5C88DCA71CCD968FFAC49110B1ECDF8882FBD1EA256503418BF2342
310
106E3E08DD60B6A1EC15771B8C795DE8FF4469524F8A92B1F1AD59E2CEB20005E1F5DC105CB9F4797B84D1F7C9F908CABC55D0F2050A5C61CC1AD2F27A26E6E767C7962E8E213A9FBF7775FDCC5CC266DB960A5E970DE5F2BBBE5CCB36C50F504B0304140006080800B670623B1B8617914E01000033030000300000006662
310
782F45374635344235342D363743322D343832342D383044432D4334454645303536354442422F636E782E786D6CD593C16EC32010447F0571AD6CE3D489D20813A9877E410FBD62D82434182CC055F3F75D1292E692438FBD206B7698593D61BEFD1E2DF982108D773D6D6B460938E5B571FB9ECE6957AD29D90A1EBC4F77
310
364A9C1CA1A759A682EF839FA72269D8C9D92654AD71C72206887E0E0A22CAF926B15E498B01E0AA19451807D01A34B919F16B070157417138917400F2F6FA41FCF0092A45DEE414C19BDC21783E4BD39D891265658C3D8DEA00A3ACE59CBC8678ACB54CB26EEB6BD7839D7E9348BE70AD9C8321B9BCA7F9A4A26C542347DE
310
E050F09802D22BA6749A800A394DD62899107273365E3C82CFC6A55557BC06C10774B7ABE7AEC3B0F34CF06446280E154026D0542C187BA9DAB6628BF7B6DBB0E5A65B3EB1F58631DE64BBE083F7B65CC218087E22CABB042E51D1F2268F1FE12B3EA24D40D63E9CFE00120194D60B9D5BC67FE6D39CDF37E20AF817881F50
310
4B0304140006080800B670623B29652116630500003C100000340000006662782F45374635344235342D363743322D343832342D383044432D4334454645303536354442422F6F626A656374732E786D6CAD575D739B3814FD2B0CFB0C989834C90EA1639B24E3E9A6EDD4D3CE3E64C623834CD8006224913AFDF57B040203
310
B65BEF871F0C12D2FD3CF7E8CA7FBFCB33E3957291B2E2D674ED8969D02262715A24B76625B7D6B569BC0F7CCE98EC2D338D82E4F4D654D366E0279C55A59E8AE99654991CCDDECFFF3444440B6A1A514684B83545F44C7362934AB2988A173B2692D8C97667BB76B3702836E1A47C1E092D09A78584A5982F20C5688C7287
310
C389E904BEA3BE07BEFAD7ABA6A75739B53F43FD69212429A20365233153D70BEF2E2E6FAC4BCF9B5ADEBB0BD79ADFCF43CBBD9A4E16EF168B9BD9DD0D140BC921495BC2E9D60C1E101B9E46BED37CEA2CD6861F3329624541A3DA7F7858DBAC25C6B4A4458C3CA654405BCFEBC970E8AAD8F43E4FD558ABEC4F9FE7557F47
310
4F506B7BFBEC5BCA367FC105710E2AB8A00A554D7CB4A30DFE26FBA86D18CBF4B75418399194A72433B274C3097F33032C554B027F2046A1932B842B0FCCC0DDCBEBDB8AD2F835768F59B9ADB24C41D30C6A64AF817F2A456D59FA83F2E3DA60137255A585BCD60EC9B7929AC18DEFD49381AF1ED30BFDB109A4B1CD488294
310
C3CDE6EBC8D185AABD6568061FEE37BB95AAC7E3CA4BCE4ACAA5820FA0D526AE7DAA2869B5EE5999531BE0CC20E6FBA07C41E43FA27CF7A6206F3CDD793B4F6B919C1462CB788EDCD893FA674CDA17AB7B3B7C019F8D561FAEE966FED562DFE98C1D12C6A9FC015C2A35D7FF3D7FC398F591DA4B5FE0BFA2C0189FEA50AE22
310
92817A1ED3020951A03432862970F976B33383259812CC8E5D240BBA801CBCF8CE2BBEE3BF910DB6AAD5F79E05123AE2DB33981FB1ACCB02B69D00CB014FD68AB573A7627EF9BFD4CC2C5C7D58557C4B22FAA88925A4DBB44825CECE3D78FB060D1231F0E885BE7D673C86A3874958F593906B5502D1563157814FDAC3420D
310
F69A070A22EC4B98E23CFF171A1E5311D12C23056555ABA53B8614563B92D17D02AAB009E8F46284624E5F53D5490C560CCCC2591FF1B45421EB0EBD8EA7ED13BE7C5D7E0428CD60FEF60779EB13E6664FF711CB185F6FDED60D139A001FF60CD1FD6D086F1D51474901E26B2CB794A343BC8ED3EDB612E0DD2351FCB65CF4
310
33D511C9E14B5B40ADC6A6263DB0336A8F700DDF56271A024E70B0B3629DE21847591E55DED73D56206AB927E46FAABC5C939C55853C274C93D69FD6FA4E78BF8B11DF898C9ECD60553FAD39283BA6F18984AA23E8884F83F45C5F5F859797B31B2B9C84A1E5B9DE9D35BFF25C6B76152E422F9C5DCC3D847F5801ED09D5AF
310
41441327A25FF15487F9EB725FB666F048A4701E9A827292E6F97569A32DF61DEC01C0BB8DCBBCCC684E0B49147C1FD54BF685A0AB18C868E6973949E819523E3DAC463660E68C7D9F55A9D1EFA3BD7A76A16AE1A810F95CE59B82A4D968A376DC2E8B44BBDD86B27B368CDE0ED548C7137DA860591A83706223A12CA712B4
310
7306DBF39C0A20A6DF95C7FAF670C6EED7A61F946493D1D6926782963813403548A78AE470DEF80D2D9CEAA26E4D1C76F60BFE74219A06527D6B82DF641A51616F703CAAC6A7160E08A00BEB4810A0274592A1B36E3675E36E978A0DE80727A0D6DF2D39A75BD27E0D8837276589537B40ABB56D5A41F48F1C6FCD3188C4EB
310
A6929D2FFB89CE995A4D00AE813BDD032DC48B56BD437DFDDC2DD7AED70C2272D63DE9A72068A45A92F0A4BE17A8A06B9366E16707AD80B1FC649459952097E74BB23805982B55E0401150A165964402AA8BDF9F3E7386BB686EDCA780C0D382E5392BF460A6EFB2C6EA1937D3F809B440D5F5435C4C5CF7A9EEFAF54564BD
310
2182DA24162F98680B4E7930C21A0079709CEAEB99A372305ABE0C0D7D6078105A83F6A0296DAEE1068A47DD1C55A9F4C9B2FC69E3EFD44B81028E963DF81B504B0304140006080000B670623B000000000000000000000000350000006662782F45374635344235342D363743322D343832342D383044432D433445464530
310
3536354442422F76657274696365732E62696E504B0304140006080800B670623BF270F1330600000004000000360000006662782F45374635344235342D363743322D343832342D383044432D4334454645303536354442422F747269616E676C65732E62696E636660600000504B0304140006080000B670623B00000000
310
0000000000000000370000006662782F45374635344235342D363743322D343832342D383044432D4334454645303536354442422F617474726962757465732E62696E504B0304140006080800B670623B08DA0BD19000000041010000360000006662782F45374635344235342D363743322D343832342D383044432D4334
310
454645303536354442422F6469726563746F72792E786D6C858F410AC3201045AF22B36F53E9A60B35CBEEBAE80D244E44489C6234F4F835464A48035D0DF398FF9F8AF63D0E6CC63039F212F8F9020C7D47C6792B21C5FE7403D62A1188E2E60C98D7234A5830286103A55745067B9D86B8A3CF9C7F90C11DE607FB144396
310
D7B6A82D282E9A152AD114D5EF2CB866EEE831B8EEA07A7BB5A8D7D61A2BAAEB7FD5F70921FF497D00504B0304140006080800B670623B6378F24DFF000000A00100003B0000006662782F45374635344235342D363743322D343832342D383044432D4334454645303536354442422F7265736F75726365732F636F72652E
310
786D6C8D504B6E833010BD0A9A6D65B0094E42641C85B639412F6099496225D8C89FAAC7AF09546A77DDCC8CDE47F3F4C4F16B7C149FE88371B603565228D06A37187BED20C50BD9437194C23B177FC9A0B06AC40E6618A4B87A97A615D2CE46B431A3D60DB8822A048C50E8473E3A08FA86A32A558A5911EEE5A4F45D5DB1
310
6465A6B34E8A107D0E502C4FE609D26370C96B0CA25A58295232C3AA3143FE692E063D485EF7F5AEE71BD2D2F39634AFFC44DAF7DD9E9CCE6F9CD25DCBFA762BAAD92C4534E34F46ED51451C40D694B6843142EB0FD61C283F34FC85EE0F948A6A96FF31A569F8A729191B37F51A77B105902C0779125254735F793DCBCC7B
310
EE567E03504B010214000A0000080000B670623B3DEE336E79000000790000001B00000000000000000000000000000000006175746F6465736B2D64657369676E2D7061636B6167652E786D6C504B01021400140006080800B670623BD486FD9CA0000000F40000001300000000000000000000000000B20000005B436F6E
310
74656E745F54797065735D2E786D6C504B01021400140006080800B670623BBC1638F5EC0000007C010000080000000000000000000000000083010000636F72652E786D6C504B01021400140006080800B670623B55019EA25F0000007C000000070000000000000000000000000095020000636E782E786D6C504B010214
310
00140006080800B670623B3586FFB671010000D40300000C00000000000000000000000000190300006662782F636F72652E786D6C504B01021400140006080800B670623B4220A0FF7D0000009D0000000B00000000000000000000000000B40400006662782F636E782E786D6C504B01021400140006080800B670623B2F
310
A3FEDE290100001202000031000000000000000000000000005A0500006662782F45374635344235342D363743322D343832342D383044432D4334454645303536354442422F636F72652E786D6C504B01021400140006080800B670623B1B8617914E010000330300003000000000000000000000000000D2060000666278
310
2F45374635344235342D363743322D343832342D383044432D4334454645303536354442422F636E782E786D6C504B01021400140006080800B670623B29652116630500003C10000034000000000000000000000000006E0800006662782F45374635344235342D363743322D343832342D383044432D4334454645303536
310
354442422F6F626A656374732E786D6C504B01021400140006080000B670623B0000000000000000000000003500000000000000000000000000230E00006662782F45374635344235342D363743322D343832342D383044432D4334454645303536354442422F76657274696365732E62696E504B01021400140006080800
310
B670623BF270F13306000000040000003600000000000000000000000000760E00006662782F45374635344235342D363743322D343832342D383044432D4334454645303536354442422F747269616E676C65732E62696E504B01021400140006080000B670623B0000000000000000000000003700000000000000000000
310
000000D00E00006662782F45374635344235342D363743322D343832342D383044432D4334454645303536354442422F617474726962757465732E62696E504B01021400140006080800B670623B08DA0BD190000000410100003600000000000000000000000000250F00006662782F45374635344235342D363743322D34
310
3832342D383044432D4334454645303536354442422F6469726563746F72792E786D6C504B01021400140006080800B670623B6378F24DFF000000A00100003B00000000000000000000000000091000006662782F45374635344235342D363743322D343832342D383044432D4334454645303536354442422F7265736F75
310
726365732F636F72652E786D6C504B0506000000000E000E0080040000611100000000
  0
XRECORD
  5
112
102
{ACAD_REACTORS
330
110
102
}
330
110
100
AcDbXrecord
280
     1
270
     1
271
     1
  0
XRECORD
  5
111
102
{ACAD_REACTORS
330
110
102
}
330
110
100
AcDbXrecord
280
     1
270
     1
271
     1
  0
XRECORD
  5
18A
102
{ACAD_REACTORS
330
110
102
}
330
110
100
AcDbXrecord
280
     1
 70
     0
 90
1778669749
  1
9BF507EE-FAF7-4A99-A33D-4EE51894BC40
310
504B03040A0000080000B670623B3DEE336E79000000790000001B0000006175746F6465736B2D64657369676E2D7061636B6167652E786D6C3C3F786D6C2076657273696F6E3D22312E302220656E636F64696E673D227574662D3822203F3E3C666F726D6174733E3C666F726D61743E687474703A2F2F736368656D612E
310
6175746F6465736B2E636F6D2F64657369676E2D7061636B6167652F323030393C2F666F726D61743E3C2F666F726D6174733E504B0304140006080800B670623BD486FD9CA0000000F4000000130000005B436F6E74656E745F54797065735D2E786D6C7D8EC10E82300C865F65E91D8A1E8C310C0EEA1BF002731658846E
310
D98AC1B77784ABF1D8FE5FBFBF75BBCE937A534CCEB38643598122B6FEE978D0B0485F9C41B54DDD7D022595594E1A469170414C76A4D9A4D207E29CF43ECE46F218070CC6BECC4078ACAA135ACF422C856C0E68EA1BF5669944DDD7BCDE7B1F8E415D77AECB980613C2E4AC91FC167A2B244592486606FC29C8FD7F045B9A
310
EF7053A7E60B504B0304140006080800B670623BCA089DFFEC0000007C01000008000000636F72652E786D6C8D90416E83301045AF62CDB632D8402020E32882F604BD80653BC44AB011B6AB1EBF262152BBEB6A467FFE9B197D76FA9EEFE84BAFDE38DB03CD08206DA553C64E3DC470C1474027CE56E7C22F1B202B66DDC3
310
260367D3EAE2B24BD2D9A06D48AA754AEFA2F05E0740F29E9A1EBCBCEA59642286E4F0B76C11F226269DD15797E0188D42CF2346A57DE662F40ABCAEC77628C6120F654571D50C04B7F5B9C1E3997CD4F550BE3745C3F20DE62C98F9755FAE5A04AD801784B498524C8A4F5A75E4D055873772EC0861F966FF03C545FD138A
310
C686B2D8DF7D621E384D8F3C069CE55B16A93C824A75CB8DFF00504B0304140006080800B670623B55019EA25F0000007C00000007000000636E782E786D6C4DCB3B0E80201045D1AD90E915ED2CF8AC45050C11660C8261F98AB1B07AC9C97D42D718D865D3E909258CFD00CCE24AC6E326A164D74DC0B4128928FF326038
310
472BA13128B1252AC747C6BAB984FC68F0B87FE8960A5C09FE86CFB69FBA01504B0304140006080800B670623B68FC0B7272010000D40300000C0000006662782F636F72652E786D6CC5535B6E833010BC8AE5DF0A6C1E8124328E22D29EA01770C0A128602363A31CBFCB234A53A555FA553EC09AD9F5CE8C31DB5DDA060D
310
D2F4B556190E7C8A9154852E6B5565D8D993B7C668C799D1DA7E29C3488956667884316795D1AE5BA0422B2B950554E9522EA0E87B69312A1A5864B82F3E642B7CE12C54F467BF13C55954D20F7CA0A18EB3DE1A1080E621E31BF3D3F1C2C88C73E65C5D2E6C5DC2B4FA544B8379921C36797888BC3C8A032F4E73EA6D927D
310
EA1DF6F42D49F2E8350D5346C666CE6CDD5ED515460A2B4BCC434A375E1078347C0FE22D5D6DE3D50B5D6F2965642CBF6B725DF96493AB958DC245EEDCD6631E809089F8E61622B2A81703E8219C913144F84C09DF070D8140C8561C9BAB8F3340832CAC363130A576376A108D933095FA747AD0CF0B46E64E983A6D0EAE1F
310
CE089F9EF1FB8E70D44255604258581E9D1D75B259C3125A278D37D80B52DAB4A279CEC62F0EFF44DDC43F9454E8469BFF5244960322CBEF41C6FBC83F01504B0304140006080800B670623B0F71DDB67E0000009D0000000B0000006662782F636E782E786D6C4DCCD10A83201886E15B91FFDCA54DB73F502386BB8F5816
310
32D3703976F9ABD1C18E3E78F87855FB990379BBFCF2296AE02706C4C5471A7C9C349475A408A4352AA7B4FEDD80C47E761A7606A3A69CCA72D0E0C6BE8475D3E0E3F3409428EA6B27A84079A782899AA2EC1A7AE3ECCC2FD858CB2D544655BFD2B67BD87C01504B0304140006080800B670623BE134B4FB28010000120200
310
00310000006662782F38353834323741342D343835462D343034322D383541392D4331303331363839454531452F636F72652E786D6C8D515B6EC32010BC0AE22B55850D0EA424C24451959EA0172086A42831583CAA1CBF503B52FB971F16CDCECC0EACD8DFC71BF836215AEF7A481A0C817183D7D65D7A98D3197108F652
310
04EFD31F1A044E8DA6871586525C82CFD3020DDE25E352419DD76601558C264130DCCAA58771F832A36A544E8511AFCDA486ABBA988634A55D7852C4144A00300FA927949C71DABD1D28A29C7D208A6987383B6CD13BC16BB2E1DBE3911C453B0BA5C8D9EA456E758963CFD684674DAA588A64C747FC2118958C86B2C3788B
310
0841B8FB247487D98EB257CC77188BB6D2FF89F2A49F1465EBD2BA5BE2CEB2082511EDDC9042FB7CBA3DC298FBE4430275DE2A9AE1054ADC60CC08E3A29D89E5F9C5714317C7987C28DFBBBA9E0A97B0D97643A568EB864AF95D5FA9759BF207504B0304140006080800B670623B1B8617914E010000330300003000000066
310
62782F38353834323741342D343835462D343034322D383541392D4331303331363839454531452F636E782E786D6CD593C16EC32010447F0571AD6CE3D489D20813A9877E410FBD62D82434182CC055F3F75D1292E692438FBD206B7698593D61BEFD1E2DF982108D773D6D6B460938E5B571FB9ECE6957AD29D90A1EBC4F
310
77364A9C1CA1A759A682EF839FA72269D8C9D92654AD71C72206887E0E0A22CAF926B15E498B01E0AA19451807D01A34B919F16B070157417138917400F2F6FA41FCF0092A45DEE414C19BDC21783E4BD39D891265658C3D8DEA00A3ACE59CBC8678ACB54CB26EEB6BD7839D7E9348BE70AD9C8321B9BCA7F9A4A26C542347
310
DEE050F09802D22BA6749A800A394DD62899107273365E3C82CFC6A55557BC06C10774B7ABE7AEC3B0F34CF06446280E154026D0542C187BA9DAB6628BF7B6DBB0E5A65B3EB1F58631DE64BBE083F7B65CC218087E22CABB042E51D1F2268F1FE12B3EA24D40D63E9CFE00120194D60B9D5BC67FE6D39CDF37E20AF817881F
310
504B0304140006080800B670623B5933D422630500003B100000340000006662782F38353834323741342D343835462D343034322D383541392D4331303331363839454531452F6F626A656374732E786D6CAD575B6FA33814FE2B887D0642934E9B156594264D158D3A534DD4D13E548A0C38942D60649B4EBABF7E3F8321
310
40924EF6928780CDF1B97EE762EFF32E4B8D37CA45C2F21BD3B547A641F39045491EDF98A5DC5AD7A6F1D9F73863B243661A39C9E88DA9B64DDF8B392B0BBD15D12D295339D85DDEFE618890E6D434C2940871638AF08566C426A5641115AF764424B1E3EDCE76ED9AB0CF36E6A47819302D08A7B984A6D8CFC1C5A89572FB
310
CB91E9F89EA3BEFB9EFAD754E3D3544E654F5F7E920B49F2F040D880CDD89D2CEE2E2EA7D6E56432B6269F2E5CEB7679BBB0DCABF168FE693E9FCEEEA6102C240727AD09A75BD3BF876F78127A4EFDA9D5582B7E4CA590E5390D2BFB6161A5B3E618D182E611E2985001691DAB47FDA5AB7CD3F93C566B2DB2BB7D9E55DD13
310
1D468DEECDB3AB290BFE8409E21C54704115AA6AFF68436BFC8DF65E0B184BF5B74418199194272435D224E084BF9B3E481589EFF5D828747285706581E9BB7B7E5D5D911ABFC6EE312DB7659A2A689A7E85EC0DF04FA5A8344BFEA2FCB834E8845895492EAFB541F2BDA0A63FF59C6AD3F7D4637CA13FD68E34B629891172
310
98597F1D183A57B9B75A98FE9765B05BAB7C3C2EBCE0ACA05C2AF8005A4DE09AA7F29216EB9E15397500C6F47CBE77CA7778FE2BD277AF0AE2C693DD6437D1522427B9D8329E2136F6A8FA19A3E6C56ADF0E5F50CF06D48734EDCEBF22F69C56D97EC138153F804B85E6FABFC7AFEFB32E523BE1F3BD372418E363EDCA7548
310
52949E8724474014288D94610BB57C1BEC4C7F854A89CA8E5324F55B871CBC78CE1BBEE3BFE68D6A5589EF3C730474506FCFA8FCF0659516D0ED04580EEA6425581B77CAE797FF4BCECC16EB2FEB926F49481F746159D06D922712BD730FDEAE42BD40F42C7AA5EF3F198F60E86110D6DD20645A9480B795CF95E3E3A659A8
310
C55E724F408873315335CFFB8584874484344D494E59D94869DB90C26A5B64F49C802CAC1D3ABE18A098D3B7444D123D8A9E5AE8F5214F0AE5B2B6E9B575DA3E61CBD3EA2B4009FA940524DD1305FB6A1FB294F14DF0BEA90BA109ECE1481FDC3FFAE8D60E75141700BE82725371B4873751B2DD960265F788137FACE6DD40
310
B575E4F0A5C99F46629D92131467A41EE11ABD8D4CCC039CA0AFB37C93A08B232B8F0AEFCA1E0A1015DF13FC83322B362463652ECF71D3A8B1A7D1BE65DE1D62C44F22C317D35F574FEB16153BA2D13E543D10A80E74C4A65E78A6B7CBCBD1D5DD9DB59C2DAFACC96C3AB566E3F1C29ADCDD5DBAD7D3C9ED7C822ED74F80A6
310
41755310DE4443F44A9E68373FADF6596BFA0F440AE7BECE2727AE9F4F2B1B53B1E7E00CF0DD1E5C65454A339A4BA2D0FBA05ED2EF0443458F47BDBFCA484CCFE0F2ED7E3DD0013B679C7B5499467F0ECEEADDB9CA85A34CE44B99053949D2C1416DB85DE4B136BB7165FBAC0B7AB3542BED4F8CA182A549847A1319316519
310
95A83A67147B9E5101C47487F2485F1ECE38FD568F839204296D3479219888530154036E6528FBFBC66F98E0D4107563A2D7D9AFF8D389681A08F58D89F22693900A3B407754734FC51C10C010D6D640809EE4718AC1BA3ED4AEDB53CA37283F68805A7E4B72CEB0A4EDEAD5DD8C14059A76AFAA56BA6901E13F32BC51C720
310
12AF41295B5BF61BAD3195181FB506E6B40F4C10AF5AF40EF9F5B159AE5DD1F43C72D635E94310D45C2D49785C5D0B94D3B54AB3C5A38349C0587D338AB48C11CBF339599C02CCA54A70A008A8D03C0B2201D5F9EFCF8F9CE12A9A19CB0410789EB32C63B95ECCF455D658BFE0621A3DA32C5075FB101723D77DAE867E7D0F
310
D90444509B44E2151B4DC2290B065803200FBAA9BE9D392A0603F2D5C2D00D6302A615680F66D2FA166E2079D4C551A54AB758161FCEFD4E450A14704CECFEDF504B0304140006080000B670623B000000000000000000000000350000006662782F38353834323741342D343835462D343034322D383541392D4331303331
310
363839454531452F76657274696365732E62696E504B0304140006080800B670623BF270F1330600000004000000360000006662782F38353834323741342D343835462D343034322D383541392D4331303331363839454531452F747269616E676C65732E62696E636660600000504B0304140006080000B670623B000000
310
000000000000000000370000006662782F38353834323741342D343835462D343034322D383541392D4331303331363839454531452F617474726962757465732E62696E504B0304140006080800B670623B08DA0BD19000000041010000360000006662782F38353834323741342D343835462D343034322D383541392D43
310
31303331363839454531452F6469726563746F72792E786D6C858F410AC3201045AF22B36F53E9A60B35CBEEBAE80D244E44489C6234F4F835464A48035D0DF398FF9F8AF63D0E6CC63039F212F8F9020C7D47C6792B21C5FE7403D62A1188E2E60C98D7234A5830286103A55745067B9D86B8A3CF9C7F90C11DE607FB1443
310
96D7B6A82D282E9A152AD114D5EF2CB866EEE831B8EEA07A7BB5A8D7D61A2BAAEB7FD5F70921FF497D00504B0304140006080800B670623BD9A3B367FE000000A00100003B0000006662782F38353834323741342D343835462D343034322D383541392D4331303331363839454531452F7265736F75726365732F636F7265
310
2E786D6C8D504B6E833010BD0A9A6D65B01D0201194711694FD00B586642AD043BF2A7EAF16B122AB5BB6E6646EFA3797AE2F8B5DC8A4FF4C1383B002B291468B59B8C9D0748F1420E501CA5F0CEC55F3228AC5A708015062966EFD27D83B4B3116DCCA875136EA00A012314FA968F0182FEC045952AC5AC08D7F2AEF455CD
310
58B232D3592745883E07289E4FD609D26370C96B0CA27AB252A464A64D63A6FCD35C0C7A904D73EE467EE664DCD58CD4ED4849D79C5A723ED1B7A61977AF2D6F45B59AA58866F9C9A83DAA8813484E6947182394BFB3BAA7FBBEDEBFD0434FA9A856F91F53BA4FFF342563E38E6F719FB60092E5200F428A6AED2BAF479979
310
AFDDCA6F504B010214000A0000080000B670623B3DEE336E79000000790000001B00000000000000000000000000000000006175746F6465736B2D64657369676E2D7061636B6167652E786D6C504B01021400140006080800B670623BD486FD9CA0000000F40000001300000000000000000000000000B20000005B436F6E
310
74656E745F54797065735D2E786D6C504B01021400140006080800B670623BCA089DFFEC0000007C010000080000000000000000000000000083010000636F72652E786D6C504B01021400140006080800B670623B55019EA25F0000007C000000070000000000000000000000000095020000636E782E786D6C504B010214
310
00140006080800B670623B68FC0B7272010000D40300000C00000000000000000000000000190300006662782F636F72652E786D6C504B01021400140006080800B670623B0F71DDB67E0000009D0000000B00000000000000000000000000B50400006662782F636E782E786D6C504B01021400140006080800B670623BE1
310
34B4FB280100001202000031000000000000000000000000005C0500006662782F38353834323741342D343835462D343034322D383541392D4331303331363839454531452F636F72652E786D6C504B01021400140006080800B670623B1B8617914E010000330300003000000000000000000000000000D3060000666278
310
2F38353834323741342D343835462D343034322D383541392D4331303331363839454531452F636E782E786D6C504B01021400140006080800B670623B5933D422630500003B10000034000000000000000000000000006F0800006662782F38353834323741342D343835462D343034322D383541392D4331303331363839
310
454531452F6F626A656374732E786D6C504B01021400140006080000B670623B0000000000000000000000003500000000000000000000000000240E00006662782F38353834323741342D343835462D343034322D383541392D4331303331363839454531452F76657274696365732E62696E504B01021400140006080800
310
B670623BF270F13306000000040000003600000000000000000000000000770E00006662782F38353834323741342D343835462D343034322D383541392D4331303331363839454531452F747269616E676C65732E62696E504B01021400140006080000B670623B0000000000000000000000003700000000000000000000
310
000000D10E00006662782F38353834323741342D343835462D343034322D383541392D4331303331363839454531452F617474726962757465732E62696E504B01021400140006080800B670623B08DA0BD190000000410100003600000000000000000000000000260F00006662782F38353834323741342D343835462D34
310
3034322D383541392D4331303331363839454531452F6469726563746F72792E786D6C504B01021400140006080800B670623BD9A3B367FE000000A00100003B000000000000000000000000000A1000006662782F38353834323741342D343835462D343034322D383541392D4331303331363839454531452F7265736F75
310
726365732F636F72652E786D6C504B0506000000000E000E0080040000611100000000
  0
XRECORD
  5
113
102
{ACAD_REACTORS
330
110
102
}
330
110
100
AcDbXrecord
280
     1
270
     1
271
     1
  0
XRECORD
  5
114
102
{ACAD_REACTORS
330
110
102
}
330
110
100
AcDbXrecord
280
     1
270
     1
271
     1
  0
DICTIONARY
  5
AD4
102
{ACAD_REACTORS
330
AD3
102
}
330
AD3
100
AcDbDictionary
280
     1
281
     1
  3
TEXT
360
AD5
  0
XRECORD
  5
B98
102
{ACAD_REACTORS
330
AD3
102
}
330
AD3
100
AcDbXrecord
280
     1
102
DISPLAYNAME
  1
ASME Y14.3 - 2003(1)
102
FLAGS
 90
        0
  0
XRECORD
  5
B91
102
{ACAD_REACTORS
330
B90
102
}
330
B90
100
AcDbXrecord
280
     1
102
DISPLAYNAME
  1
Imperial24
102
FLAGS
 90
        0
  0
XRECORD
  5
B95
102
{ACAD_REACTORS
330
B94
102
}
330
B94
100
AcDbXrecord
280
     1
102
DISPLAYNAME
  1
Metric50
102
FLAGS
 90
        0
  0
CELLSTYLEMAP
  5
B86
102
{ACAD_REACTORS
330
104
102
}
330
104
100
AcDbCellStyleMap
 90
        3
300
CELLSTYLE
  1
TABLEFORMAT_BEGIN
 90
        5
170
     1
 91
        0
 92
    32768
 62
   257
 93
        1
300
CONTENTFORMAT
  1
CONTENTFORMAT_BEGIN
 90
        0
 91
        0
 92
      512
 93
        0
300

 40
0.0
140
1.0
 94
        5
 62
     0
340
11
144
0.25
309
CONTENTFORMAT_END
171
     1
301
MARGIN
  1
CELLMARGIN_BEGIN
 40
0.06
 40
0.06
 40
0.06
 40
0.06
 40
0.18
 40
0.18
309
CELLMARGIN_END
 94
        6
 95
        1
302
GRIDFORMAT
  1
GRIDFORMAT_BEGIN
 90
        0
 91
        1
 62
     0
 92
       -2
340
0
 93
        0
 40
0.045
309
GRIDFORMAT_END
 95
        2
302
GRIDFORMAT
  1
GRIDFORMAT_BEGIN
 90
        0
 91
        1
 62
     0
 92
       -2
340
0
 93
        0
 40
0.045
309
GRIDFORMAT_END
 95
        4
302
GRIDFORMAT
  1
GRIDFORMAT_BEGIN
 90
        0
 91
        1
 62
     0
 92
       -2
340
0
 93
        0
 40
0.045
309
GRIDFORMAT_END
 95
        8
302
GRIDFORMAT
  1
GRIDFORMAT_BEGIN
 90
        0
 91
        1
 62
     0
 92
       -2
340
0
 93
        0
 40
0.045
309
GRIDFORMAT_END
 95
       16
302
GRIDFORMAT
  1
GRIDFORMAT_BEGIN
 90
        0
 91
        1
 62
     0
 92
       -2
340
0
 93
        0
 40
0.045
309
GRIDFORMAT_END
 95
       32
302
GRIDFORMAT
  1
GRIDFORMAT_BEGIN
 90
        0
 91
        1
 62
     0
 92
       -2
340
0
 93
        0
 40
0.045
309
GRIDFORMAT_END
309
TABLEFORMAT_END
  1
CELLSTYLE_BEGIN
 90
        1
 91
        1
300
_TITLE
309
CELLSTYLE_END
300
CELLSTYLE
  1
TABLEFORMAT_BEGIN
 90
        5
170
     1
 91
        0
 92
        0
 62
   257
 93
        1
300
CONTENTFORMAT
  1
CONTENTFORMAT_BEGIN
 90
        0
 91
        0
 92
      512
 93
        0
300

 40
0.0
140
1.0
 94
        5
 62
     0
340
11
144
0.18
309
CONTENTFORMAT_END
171
     1
301
MARGIN
  1
CELLMARGIN_BEGIN
 40
0.06
 40
0.06
 40
0.06
 40
0.06
 40
0.18
 40
0.18
309
CELLMARGIN_END
 94
        6
 95
        1
302
GRIDFORMAT
  1
GRIDFORMAT_BEGIN
 90
        0
 91
        1
 62
     0
 92
       -2
340
0
 93
        0
 40
0.045
309
GRIDFORMAT_END
 95
        2
302
GRIDFORMAT
  1
GRIDFORMAT_BEGIN
 90
        0
 91
        1
 62
     0
 92
       -2
340
0
 93
        0
 40
0.045
309
GRIDFORMAT_END
 95
        4
302
GRIDFORMAT
  1
GRIDFORMAT_BEGIN
 90
        0
 91
        1
 62
     0
 92
       -2
340
0
 93
        0
 40
0.045
309
GRIDFORMAT_END
 95
        8
302
GRIDFORMAT
  1
GRIDFORMAT_BEGIN
 90
        0
 91
        1
 62
     0
 92
       -2
340
0
 93
        0
 40
0.045
309
GRIDFORMAT_END
 95
       16
302
GRIDFORMAT
  1
GRIDFORMAT_BEGIN
 90
        0
 91
        1
 62
     0
 92
       -2
340
0
 93
        0
 40
0.045
309
GRIDFORMAT_END
 95
       32
302
GRIDFORMAT
  1
GRIDFORMAT_BEGIN
 90
        0
 91
        1
 62
     0
 92
       -2
340
0
 93
        0
 40
0.045
309
GRIDFORMAT_END
309
TABLEFORMAT_END
  1
CELLSTYLE_BEGIN
 90
        2
 91
        1
300
_HEADER
309
CELLSTYLE_END
300
CELLSTYLE
  1
TABLEFORMAT_BEGIN
 90
        5
170
     1
 91
        0
 92
        0
 62
   257
 93
        1
300
CONTENTFORMAT
  1
CONTENTFORMAT_BEGIN
 90
        0
 91
        0
 92
      512
 93
        0
300

 40
0.0
140
1.0
 94
        2
 62
     0
340
11
144
0.18
309
CONTENTFORMAT_END
171
     1
301
MARGIN
  1
CELLMARGIN_BEGIN
 40
0.06
 40
0.06
 40
0.06
 40
0.06
 40
0.18
 40
0.18
309
CELLMARGIN_END
 94
        6
 95
        1
302
GRIDFORMAT
  1
GRIDFORMAT_BEGIN
 90
        0
 91
        1
 62
     0
 92
       -2
340
0
 93
        0
 40
0.045
309
GRIDFORMAT_END
 95
        2
302
GRIDFORMAT
  1
GRIDFORMAT_BEGIN
 90
        0
 91
        1
 62
     0
 92
       -2
340
0
 93
        0
 40
0.045
309
GRIDFORMAT_END
 95
        4
302
GRIDFORMAT
  1
GRIDFORMAT_BEGIN
 90
        0
 91
        1
 62
     0
 92
       -2
340
0
 93
        0
 40
0.045
309
GRIDFORMAT_END
 95
        8
302
GRIDFORMAT
  1
GRIDFORMAT_BEGIN
 90
        0
 91
        1
 62
     0
 92
       -2
340
0
 93
        0
 40
0.045
309
GRIDFORMAT_END
 95
       16
302
GRIDFORMAT
  1
GRIDFORMAT_BEGIN
 90
        0
 91
        1
 62
     0
 92
       -2
340
0
 93
        0
 40
0.045
309
GRIDFORMAT_END
 95
       32
302
GRIDFORMAT
  1
GRIDFORMAT_BEGIN
 90
        0
 91
        1
 62
     0
 92
       -2
340
0
 93
        0
 40
0.045
309
GRIDFORMAT_END
309
TABLEFORMAT_END
  1
CELLSTYLE_BEGIN
 90
        3
 91
        2
300
_DATA
309
CELLSTYLE_END
  0
FIELD
  5
AD5
102
{ACAD_REACTORS
330
AD4
102
}
330
AD4
100
AcDbField
  1
_text
  2
%<\_FldIdx 0>% %<\_FldIdx 1>%-%<\_FldIdx 2>%
 90
        3
360
AD6
360
AD7
360
AD8
 97
        0
 91
       63
 92
        0
 94
        9
 95
        2
 96
        0
300

 93
        0
  7
ACFD_FIELD_VALUE
 93
        3
 90
        0
 94
        0
300

302

304
ACVALUE_END
301

 98
        0
  0
FIELD
  5
AD6
330
AD5
100
AcDbField
  1
AcVar
  2
\AcVar ViewType \f "%tc1"
 90
        0
 97
        0
 91
       63
 92
        0
 94
       43
 95
        2
 96
        0
300

 93
        1
  6
Variable
 93
        2
 90
        4
  1
ViewType
 94
        0
300

302

304
ACVALUE_END
  7
ACFD_FIELD_VALUE
 93
        1
 90
        0
 94
        0
300
%tc1
302

304
ACVALUE_END
301
----
 98
        4
  0
FIELD
  5
AD7
330
AD5
100
AcDbField
  1
AcVar
  2
\AcVar ViewSectionStartId
 90
        0
 97
        0
 91
       63
 92
        0
 94
       43
 95
        2
 96
        0
300

 93
        1
  6
Variable
 93
        2
 90
        4
  1
ViewSectionStartId
 94
        0
300

302

304
ACVALUE_END
  7
ACFD_FIELD_VALUE
 93
        1
 90
        0
 94
        0
300

302

304
ACVALUE_END
301
----
 98
        4
  0
FIELD
  5
AD8
330
AD5
100
AcDbField
  1
AcVar
  2
\AcVar ViewSectionEndId
 90
        0
 97
        0
 91
       63
 92
        0
 94
       43
 95
        2
 96
        0
300

 93
        1
  6
Variable
 93
        2
 90
        4
  1
ViewSectionEndId
 94
        0
300

302

304
ACVALUE_END
  7
ACFD_FIELD_VALUE
 93
        1
 90
        0
 94
        0
300

302

304
ACVALUE_END
301
----
 98
        4
  0
ENDSEC
  0
SECTION
  2
ACDSDATA
 70
     2
 71
     8
  0
ACDSSCHEMA
 90
        0
  1
AcDb_Thumbnail_Schema
  2
AcDbDs::ID
280
    10
 91
        8
  2
Thumbnail_Data
280
    15
 91
        0
101
ACDSRECORD
 95
        0
 90
        1
  2
AcDbDs::TreatedAsObjectData
280
     1
291
     1
101
ACDSRECORD
 95
        0
 90
        2
  2
AcDbDs::Legacy
280
     1
291
     1
101
ACDSRECORD
  1
AcDbDs::ID
 90
        3
  2
AcDs:Indexable
280
     1
291
     1
101
ACDSRECORD
  1
AcDbDs::ID
 90
        4
  2
AcDbDs::HandleAttribute
280
     7
282
     1
  0
ACDSSCHEMA
 90
        1
  1
AcDbDs::TreatedAsObjectDataSchema
  2
AcDbDs::TreatedAsObjectData
280
     1
 91
        0
  0
ACDSSCHEMA
 90
        2
  1
AcDbDs::LegacySchema
  2
AcDbDs::Legacy
280
     1
 91
        0
  0
ACDSSCHEMA
 90
        3
  1
AcDbDs::IndexedPropertySchema
  2
AcDs:Indexable
280
     1
 91
        0
  0
ACDSSCHEMA
 90
        4
  1
AcDbDs::HandleAttributeSchema
  2
AcDbDs::HandleAttribute
280
     7
 91
        1
284
     1
  0
ACDSRECORD
 90
        0
  2
AcDbDs::ID
280
    10
320
59
  2
Thumbnail_Data
280
    15
 94
     1128
310
89504E470D0A1A0A0000000D4948445200000100000000C508030000008CFEDCE700000300504C5445FFFFFFFFFFFFFFFFFF0000000000000000000000000000000000000000000000000000330000660000990000CC0000FF0033000033330033660033990033CC0033FF0066000066330066660066990066CC0066FF0099
310
000099330099660099990099CC0099FF00CC0000CC3300CC6600CC9900CCCC00CCFF00FF0000FF3300FF6600FF9900FFCC00FFFF3300003300333300663300993300CC3300FF3333003333333333663333993333CC3333FF3366003366333366663366993366CC3366FF3399003399333399663399993399CC3399FF33CC00
310
33CC3333CC6633CC9933CCCC33CCFF33FF0033FF3333FF6633FF9933FFCC33FFFF6600006600336600666600996600CC6600FF6633006633336633666633996633CC6633FF6666006666336666666666996666CC6666FF6699006699336699666699996699CC6699FF66CC0066CC3366CC6666CC9966CCCC66CCFF66FF0066
310
FF3366FF6666FF9966FFCC66FFFF9900009900339900669900999900CC9900FF9933009933339933669933999933CC9933FF9966009966339966669966999966CC9966FF9999009999339999669999999999CC9999FF99CC0099CC3399CC6699CC9999CCCC99CCFF99FF0099FF3399FF6699FF9999FFCC99FFFFCC0000CC00
310
33CC0066CC0099CC00CCCC00FFCC3300CC3333CC3366CC3399CC33CCCC33FFCC6600CC6633CC6666CC6699CC66CCCC66FFCC9900CC9933CC9966CC9999CC99CCCC99FFCCCC00CCCC33CCCC66CCCC99CCCCCCCCCCFFCCFF00CCFF33CCFF66CCFF99CCFFCCCCFFFFFF0000FF0033FF0066FF0099FF00CCFF00FFFF3300FF3333
310
FF3366FF3399FF33CCFF33FFFF6600FF6633FF6666FF6699FF66CCFF66FFFF9900FF9933FF9966FF9999FF99CCFF99FFFFCC00FFCC33FFCC66FFCC99FFCCCCFFCCFFFFFF00FFFF33FFFF66FFFF99FFFFCCFFFFFF0000000D0D0D1A1A1A2828283535354343435050505D5D5D6B6B6B787878868686939393A1A1A1AEAEAEBB
310
BBBBC9C9C9D6D6D6E4E4E4F1F1F1FFFFFF000000000000000000000000000000000000000000000000000000000000AD4AB4E4000001234944415478DAEDDA210E80301000C1FBFF33AB79042138D2E06167550535534493EB1CF1A61C00000000DCABF568F3F17AEF6B3B9E00B5B307000000000000000000000000000000
310
82010000000000000000980C010000000000000000D401160000000000000000008048A6C300000000000000000000000000000000000000000048030C000000000000000000805400000000000000000000BC14050000000000000000C8643A0C00000000000000000000000000000000000000008034C000000000000000
310
0000004805000000000000000000C04B510000000000000000804CA6C300000000000000000000000000000000000000000048030C00000000000000000080540000000000000080EB5EF0DEEE26F1871DFE000000000038E2E5014EDCF861086E0C82020000000049454E44AE426082
  0
ACDSRECORD
 90
        0
  2
AcDbDs::ID
280
    10
320
5E
  2
Thumbnail_Data
280
    15
 94
     1128
310
89504E470D0A1A0A0000000D4948445200000100000000C508030000008CFEDCE700000300504C5445FFFFFFFFFFFFFFFFFF0000000000000000000000000000000000000000000000000000330000660000990000CC0000FF0033000033330033660033990033CC0033FF0066000066330066660066990066CC0066FF0099
310
000099330099660099990099CC0099FF00CC0000CC3300CC6600CC9900CCCC00CCFF00FF0000FF3300FF6600FF9900FFCC00FFFF3300003300333300663300993300CC3300FF3333003333333333663333993333CC3333FF3366003366333366663366993366CC3366FF3399003399333399663399993399CC3399FF33CC00
310
33CC3333CC6633CC9933CCCC33CCFF33FF0033FF3333FF6633FF9933FFCC33FFFF6600006600336600666600996600CC6600FF6633006633336633666633996633CC6633FF6666006666336666666666996666CC6666FF6699006699336699666699996699CC6699FF66CC0066CC3366CC6666CC9966CCCC66CCFF66FF0066
310
FF3366FF6666FF9966FFCC66FFFF9900009900339900669900999900CC9900FF9933009933339933669933999933CC9933FF9966009966339966669966999966CC9966FF9999009999339999669999999999CC9999FF99CC0099CC3399CC6699CC9999CCCC99CCFF99FF0099FF3399FF6699FF9999FFCC99FFFFCC0000CC00
310
33CC0066CC0099CC00CCCC00FFCC3300CC3333CC3366CC3399CC33CCCC33FFCC6600CC6633CC6666CC6699CC66CCCC66FFCC9900CC9933CC9966CC9999CC99CCCC99FFCCCC00CCCC33CCCC66CCCC99CCCCCCCCCCFFCCFF00CCFF33CCFF66CCFF99CCFFCCCCFFFFFF0000FF0033FF0066FF0099FF00CCFF00FFFF3300FF3333
310
FF3366FF3399FF33CCFF33FFFF6600FF6633FF6666FF6699FF66CCFF66FFFF9900FF9933FF9966FF9999FF99CCFF99FFFFCC00FFCC33FFCC66FFCC99FFCCCCFFCCFFFFFF00FFFF33FFFF66FFFF99FFFFCCFFFFFF0000000D0D0D1A1A1A2828283535354343435050505D5D5D6B6B6B787878868686939393A1A1A1AEAEAEBB
310
BBBBC9C9C9D6D6D6E4E4E4F1F1F1FFFFFF000000000000000000000000000000000000000000000000000000000000AD4AB4E4000001234944415478DAEDDA210E80301000C1FBFF33AB79042138D2E06167550535534493EB1CF1A61C00000000DCABF568F3F17AEF6B3B9E00B5B307000000000000000000000000000000
310
82010000000000000000980C010000000000000000D401160000000000000000008048A6C300000000000000000000000000000000000000000048030C000000000000000000805400000000000000000000BC14050000000000000000C8643A0C00000000000000000000000000000000000000008034C000000000000000
310
0000004805000000000000000000C04B510000000000000000804CA6C300000000000000000000000000000000000000000048030C00000000000000000080540000000000000080EB5EF0DEEE26F1871DFE000000000038E2E5014EDCF861086E0C82020000000049454E44AE426082
  0
ACDSRECORD
 90
        0
  2
AcDbDs::ID
280
    10
320
B2A
  2
Thumbnail_Data
280
    15
 94
     1116
310
89504E470D0A1A0A0000000D4948445200000100000000B5080300000087DCD12600000300504C5445FFFFFFFFFFFFFFFFFF0000000000000000000000000000000000000000000000000000330000660000990000CC0000FF0033000033330033660033990033CC0033FF0066000066330066660066990066CC0066FF0099
310
000099330099660099990099CC0099FF00CC0000CC3300CC6600CC9900CCCC00CCFF00FF0000FF3300FF6600FF9900FFCC00FFFF3300003300333300663300993300CC3300FF3333003333333333663333993333CC3333FF3366003366333366663366993366CC3366FF3399003399333399663399993399CC3399FF33CC00
310
33CC3333CC6633CC9933CCCC33CCFF33FF0033FF3333FF6633FF9933FFCC33FFFF6600006600336600666600996600CC6600FF6633006633336633666633996633CC6633FF6666006666336666666666996666CC6666FF6699006699336699666699996699CC6699FF66CC0066CC3366CC6666CC9966CCCC66CCFF66FF0066
310
FF3366FF6666FF9966FFCC66FFFF9900009900339900669900999900CC9900FF9933009933339933669933999933CC9933FF9966009966339966669966999966CC9966FF9999009999339999669999999999CC9999FF99CC0099CC3399CC6699CC9999CCCC99CCFF99FF0099FF3399FF6699FF9999FFCC99FFFFCC0000CC00
310
33CC0066CC0099CC00CCCC00FFCC3300CC3333CC3366CC3399CC33CCCC33FFCC6600CC6633CC6666CC6699CC66CCCC66FFCC9900CC9933CC9966CC9999CC99CCCC99FFCCCC00CCCC33CCCC66CCCC99CCCCCCCCCCFFCCFF00CCFF33CCFF66CCFF99CCFFCCCCFFFFFF0000FF0033FF0066FF0099FF00CCFF00FFFF3300FF3333
310
FF3366FF3399FF33CCFF33FFFF6600FF6633FF6666FF6699FF66CCFF66FFFF9900FF9933FF9966FF9999FF99CCFF99FFFFCC00FFCC33FFCC66FFCC99FFCCCCFFCCFFFFFF00FFFF33FFFF66FFFF99FFFFCCFFFFFF0000000D0D0D1A1A1A2828283535354343435050505D5D5D6B6B6B787878868686939393A1A1A1AEAEAEBB
310
BBBBC9C9C9D6D6D6E4E4E4F1F1F1FFFFFF000000000000000000000000000000000000000000000000000000000000AD4AB4E4000001174944415478DAEDDA210EC0201045C1BDFF3191844334014105C1B77F9E2E669A20D8AD115E8D1EDC04A8E0000058006D77F8AADDFBEC893740E2DF07000000000000000000000000
310
000000D21F44000000100D5000000000000000000000000000000040460D000000000C460000000000000000000000000000000000000000000000000000000064040000000096A400000000000000000000000000004050D6E501000060300200000000000000000000000000000000000000000000000000000020240000
310
0000B02405000000000000000000000000000082B22E0F000000831100000000000000000000000000000000000000000000000000000000210100006001DC3BDD20FF3861490A00801A3DB80910DE035841099552F931790000000049454E44AE426082
  0
ACDSRECORD
 90
        0
  2
AcDbDs::ID
280
    10
320
22
  2
Thumbnail_Data
280
    15
 94
     1312
310
89504E470D0A1A0A0000000D49484452000001000000006E0803000000FF253DCA00000300504C5445212830FFFFFF2128300000000000000000000000000000000000000000000000000000330000660000990000CC0000FF0033000033330033660033990033CC0033FF0066000066330066660066990066CC0066FF0099
310
000099330099660099990099CC0099FF00CC0000CC3300CC6600CC9900CCCC00CCFF00FF0000FF3300FF6600FF9900FFCC00FFFF3300003300333300663300993300CC3300FF3333003333333333663333993333CC3333FF3366003366333366663366993366CC3366FF3399003399333399663399993399CC3399FF33CC00
310
33CC3333CC6633CC9933CCCC33CCFF33FF0033FF3333FF6633FF9933FFCC33FFFF6600006600336600666600996600CC6600FF6633006633336633666633996633CC6633FF6666006666336666666666996666CC6666FF6699006699336699666699996699CC6699FF66CC0066CC3366CC6666CC9966CCCC66CCFF66FF0066
310
FF3366FF6666FF9966FFCC66FFFF9900009900339900669900999900CC9900FF9933009933339933669933999933CC9933FF9966009966339966669966999966CC9966FF9999009999339999669999999999CC9999FF99CC0099CC3399CC6699CC9999CCCC99CCFF99FF0099FF3399FF6699FF9999FFCC99FFFFCC0000CC00
310
33CC0066CC0099CC00CCCC00FFCC3300CC3333CC3366CC3399CC33CCCC33FFCC6600CC6633CC6666CC6699CC66CCCC66FFCC9900CC9933CC9966CC9999CC99CCCC99FFCCCC00CCCC33CCCC66CCCC99CCCCCCCCCCFFCCFF00CCFF33CCFF66CCFF99CCFFCCCCFFFFFF0000FF0033FF0066FF0099FF00CCFF00FFFF3300FF3333
310
FF3366FF3399FF33CCFF33FFFF6600FF6633FF6666FF6699FF66CCFF66FFFF9900FF9933FF9966FF9999FF99CCFF99FFFFCC00FFCC33FFCC66FFCC99FFCCCCFFCCFFFFFF00FFFF33FFFF66FFFF99FFFFCCFFFFFF0000000D0D0D1A1A1A2828283535354343435050505D5D5D6B6B6B787878868686939393A1A1A1AEAEAEBB
310
BBBBC9C9C9D6D6D6E4E4E4F1F1F1FFFFFF0000000000000000000000000000000000000000000000000000000000002E4550F1000001DB4944415478DAED9CDB7283300C05F5FFFFABF74E03D892218EEC341DC5EC3EA4503CA9757433A48E08BC87FEB2FD28A7FBEF64BB500EECD9F6B28C006A75A80A94237BF0B0BD68B4
310
8200D5EF251EF688703A5C88B59E002E00D4E9525591AAC16A02D4EC3F8CACA1E0C2426AD15842801A00A6188A5C56829A11CB08601DDD7601AF8C9606B05011040000000000B823FAEDE042000000000000000000008094A879CD38BD990F1A46C6977FB5CB6A7E7310156DCCFF696340A79C1A1F6C07A60C8239FF844DC9
310
FF91DE94000309ED4CD6452260C0956ED785248C80A9F08C8FB61B0C72B6025FA3E2C11254CB0B95AE08E8797E81D13A5D02D2B581C6E2BE00DBE48FCD33F29600591A829F466F52F6DA50263F8900D51C1D21DAA5ADDBEDEE1A7D55D7DBABFB9B0C65D17F2AD0EBFB75C390A9EBB302A42987E1655AB3AFB258F3C291ED7B
310
A65B08C4D7A97E7BA9C452402FCA6CBA3E186B02F5D2900DCDD8743703A775C05F2FE99B3F200905082E53E604683A66BEBB81538486FB79FC564BFD1387CCF64B6F2130F738C457DA947782B11A7D2E66B2026DD2778A80764F01E09B2B81DE3CA775A1AFC6991780B2FEC95EBB7F03CD4D13ED10E0B689A6E501D82D136D
310
8F7C4A0C0000000000000000000000000000004CF0035292CF6573738A960000000049454E44AE426082
  0
ENDSEC
  0
EOF
