  0
SECTION
  2
HEADER
  9
$ACADVER
  1
AC1032
  9
$ACADMAINTVER
 90
        4
  9
$DWGCODEPAGE
  3
ANSI_1252
  9
$LASTSAVEDBY
  1
jesse.cowley
  9
$REQUIREDVERSIONS
160
                 0
  9
$INSBASE
 10
0.0
 20
0.0
 30
0.0
  9
$EXTMIN
 10
-5486.297247063969
 20
-3155.547761088647
 30
0.0
  9
$EXTMAX
 10
6284.060257202288
 20
2576.59256653691
 30
0.0
  9
$LIMMIN
 10
0.0
 20
0.0
  9
$LIMMAX
 10
12.0
 20
9.0
  9
$ORTHOMODE
 70
     0
  9
$REGENMODE
 70
     1
  9
$FILLMODE
 70
     1
  9
$QTEXTMODE
 70
     0
  9
$MIRRTEXT
 70
     1
  9
$LTSCALE
 40
1.0
  9
$ATTMODE
 70
     1
  9
$TEXTSIZE
 40
0.2
  9
$TRACEWID
 40
0.05
  9
$TEXTSTYLE
  7
Standard
  9
$CLAYER
  8
0
  9
$CELTYPE
  6
ByLayer
  9
$CECOLOR
 62
   256
  9
$CELTSCALE
 40
1.0
  9
$DISPSILH
 70
     0
  9
$DIMSCALE
 40
1.0
  9
$DIMASZ
 40
0.18
  9
$DIMEXO
 40
0.0625
  9
$DIMDLI
 40
0.38
  9
$DIMRND
 40
0.0
  9
$DIMDLE
 40
0.0
  9
$DIMEXE
 40
0.18
  9
$DIMTP
 40
0.0
  9
$DIMTM
 40
0.0
  9
$DIMTXT
 40
0.18
  9
$DIMCEN
 40
0.09
  9
$DIMTSZ
 40
0.0
  9
$DIMTOL
 70
     0
  9
$DIMLIM
 70
     0
  9
$DIMTIH
 70
     1
  9
$DIMTOH
 70
     1
  9
$DIMSE1
 70
     0
  9
$DIMSE2
 70
     0
  9
$DIMTAD
 70
     0
  9
$DIMZIN
 70
     0
  9
$DIMBLK
  1

  9
$DIMASO
 70
     1
  9
$DIMSHO
 70
     1
  9
$DIMPOST
  1

  9
$DIMAPOST
  1

  9
$DIMALT
 70
     0
  9
$DIMALTD
 70
     2
  9
$DIMALTF
 40
25.4
  9
$DIMLFAC
 40
1.0
  9
$DIMTOFL
 70
     0
  9
$DIMTVP
 40
0.0
  9
$DIMTIX
 70
     0
  9
$DIMSOXD
 70
     0
  9
$DIMSAH
 70
     0
  9
$DIMBLK1
  1

  9
$DIMBLK2
  1

  9
$DIMSTYLE
  2
Standard
  9
$DIMCLRD
 70
     0
  9
$DIMCLRE
 70
     0
  9
$DIMCLRT
 70
     0
  9
$DIMTFAC
 40
1.0
  9
$DIMGAP
 40
0.09
  9
$DIMJUST
 70
     0
  9
$DIMSD1
 70
     0
  9
$DIMSD2
 70
     0
  9
$DIMTOLJ
 70
     1
  9
$DIMTZIN
 70
     0
  9
$DIMALTZ
 70
     0
  9
$DIMALTTZ
 70
     0
  9
$DIMUPT
 70
     0
  9
$DIMDEC
 70
     4
  9
$DIMTDEC
 70
     4
  9
$DIMALTU
 70
     2
  9
$DIMALTTD
 70
     2
  9
$DIMTXSTY
  7
Standard
  9
$DIMAUNIT
 70
     0
  9
$DIMADEC
 70
     0
  9
$DIMALTRND
 40
0.0
  9
$DIMAZIN
 70
     0
  9
$DIMDSEP
 70
    46
  9
$DIMATFIT
 70
     3
  9
$DIMFRAC
 70
     0
  9
$DIMLDRBLK
  1

  9
$DIMLUNIT
 70
     2
  9
$DIMLWD
 70
    -2
  9
$DIMLWE
 70
    -2
  9
$DIMTMOVE
 70
     0
  9
$DIMFXL
 40
1.0
  9
$DIMFXLON
 70
     0
  9
$DIMJOGANG
 40
0.7853981633974483
  9
$DIMTFILL
 70
     0
  9
$DIMTFILLCLR
 70
     0
  9
$DIMARCSYM
 70
     0
  9
$DIMLTYPE
  6

  9
$DIMLTEX1
  6

  9
$DIMLTEX2
  6

  9
$DIMTXTDIRECTION
 70
     0
  9
$LUNITS
 70
     2
  9
$LUPREC
 70
     4
  9
$SKETCHINC
 40
0.1
  9
$FILLETRAD
 40
0.5
  9
$AUNITS
 70
     0
  9
$AUPREC
 70
     0
  9
$MENU
  1
.
  9
$ELEVATION
 40
0.0
  9
$PELEVATION
 40
0.0
  9
$THICKNESS
 40
0.0
  9
$LIMCHECK
 70
     0
  9
$CHAMFERA
 40
0.5
  9
$CHAMFERB
 40
0.5
  9
$CHAMFERC
 40
1.0
  9
$CHAMFERD
 40
0.0
  9
$SKPOLY
 70
     0
  9
$TDCREATE
 40
2456463.567268519
  9
$TDUCREATE
 40
2456463.150607072
  9
$TDUPDATE
 40
2458442.443495371
  9
$TDUUPDATE
 40
2458441.985162037
  9
$TDINDWG
 40
0.0058711343
  9
$TDUSRTIMER
 40
0.0058711343
  9
$USRTIMER
 70
     1
  9
$ANGBASE
 50
0.0
  9
$ANGDIR
 70
     0
  9
$PDMODE
 70
     0
  9
$PDSIZE
 40
0.0
  9
$PLINEWID
 40
0.0
  9
$SPLFRAME
 70
     0
  9
$SPLINETYPE
 70
     6
  9
$SPLINESEGS
 70
     8
  9
$HANDSEED
  5
407
  9
$SURFTAB1
 70
     6
  9
$SURFTAB2
 70
     6
  9
$SURFTYPE
 70
     6
  9
$SURFU
 70
     6
  9
$SURFV
 70
     6
  9
$UCSBASE
  2

  9
$UCSNAME
  2

  9
$UCSORG
 10
0.0
 20
0.0
 30
0.0
  9
$UCSXDIR
 10
1.0
 20
0.0
 30
0.0
  9
$UCSYDIR
 10
0.0
 20
1.0
 30
0.0
  9
$UCSORTHOREF
  2

  9
$UCSORTHOVIEW
 70
     0
  9
$UCSORGTOP
 10
0.0
 20
0.0
 30
0.0
  9
$UCSORGBOTTOM
 10
0.0
 20
0.0
 30
0.0
  9
$UCSORGLEFT
 10
0.0
 20
0.0
 30
0.0
  9
$UCSORGRIGHT
 10
0.0
 20
0.0
 30
0.0
  9
$UCSORGFRONT
 10
0.0
 20
0.0
 30
0.0
  9
$UCSORGBACK
 10
0.0
 20
0.0
 30
0.0
  9
$PUCSBASE
  2

  9
$PUCSNAME
  2

  9
$PUCSORG
 10
0.0
 20
0.0
 30
0.0
  9
$PUCSXDIR
 10
1.0
 20
0.0
 30
0.0
  9
$PUCSYDIR
 10
0.0
 20
1.0
 30
0.0
  9
$PUCSORTHOREF
  2

  9
$PUCSORTHOVIEW
 70
     0
  9
$PUCSORGTOP
 10
0.0
 20
0.0
 30
0.0
  9
$PUCSORGBOTTOM
 10
0.0
 20
0.0
 30
0.0
  9
$PUCSORGLEFT
 10
0.0
 20
0.0
 30
0.0
  9
$PUCSORGRIGHT
 10
0.0
 20
0.0
 30
0.0
  9
$PUCSORGFRONT
 10
0.0
 20
0.0
 30
0.0
  9
$PUCSORGBACK
 10
0.0
 20
0.0
 30
0.0
  9
$USERI1
 70
     0
  9
$USERI2
 70
     0
  9
$USERI3
 70
     0
  9
$USERI4
 70
     0
  9
$USERI5
 70
     0
  9
$USERR1
 40
0.0
  9
$USERR2
 40
0.0
  9
$USERR3
 40
0.0
  9
$USERR4
 40
0.0
  9
$USERR5
 40
0.0
  9
$WORLDVIEW
 70
     1
  9
$SHADEDGE
 70
     3
  9
$SHADEDIF
 70
    70
  9
$TILEMODE
 70
     1
  9
$MAXACTVP
 70
    64
  9
$PINSBASE
 10
0.0
 20
0.0
 30
0.0
  9
$PLIMCHECK
 70
     0
  9
$PEXTMIN
 10
1.000000000000000E+20
 20
1.000000000000000E+20
 30
1.000000000000000E+20
  9
$PEXTMAX
 10
-1.000000000000000E+20
 20
-1.000000000000000E+20
 30
-1.000000000000000E+20
  9
$PLIMMIN
 10
0.0
 20
0.0
  9
$PLIMMAX
 10
12.0
 20
9.0
  9
$UNITMODE
 70
     0
  9
$VISRETAIN
 70
     1
  9
$PLINEGEN
 70
     0
  9
$PSLTSCALE
 70
     1
  9
$TREEDEPTH
 70
  3020
  9
$CMLSTYLE
  2
Standard
  9
$CMLJUST
 70
     0
  9
$CMLSCALE
 40
1.0
  9
$PROXYGRAPHICS
 70
     1
  9
$MEASUREMENT
 70
     0
  9
$CELWEIGHT
370
    -1
  9
$ENDCAPS
280
     0
  9
$JOINSTYLE
280
     0
  9
$LWDISPLAY
290
     1
  9
$INSUNITS
 70
     1
  9
$HYPERLINKBASE
  1

  9
$STYLESHEET
  1

  9
$XEDIT
290
     1
  9
$CEPSNTYPE
380
     0
  9
$PSTYLEMODE
290
     1
  9
$FINGERPRINTGUID
  2
{B8D1C950-1AF2-4D61-9BC8-69ACAFB95EC4}
  9
$VERSIONGUID
  2
{AD145DD3-52CB-F847-B07E-AA3562E4A376}
  9
$EXTNAMES
290
     1
  9
$PSVPSCALE
 40
0.0
  9
$OLESTARTUP
290
     0
  9
$SORTENTS
280
   127
  9
$INDEXCTL
280
     0
  9
$HIDETEXT
280
     1
  9
$XCLIPFRAME
280
     0
  9
$HALOGAP
280
     0
  9
$OBSCOLOR
 70
   257
  9
$OBSLTYPE
280
     0
  9
$INTERSECTIONDISPLAY
280
     0
  9
$INTERSECTIONCOLOR
 70
   257
  9
$DIMASSOC
280
     2
  9
$PROJECTNAME
  1

  9
$CAMERADISPLAY
290
     0
  9
$LENSLENGTH
 40
50.0
  9
$CAMERAHEIGHT
 40
0.0
  9
$STEPSPERSEC
 40
2.0
  9
$STEPSIZE
 40
6.0
  9
$3DDWFPREC
 40
2.0
  9
$PSOLWIDTH
 40
0.25
  9
$PSOLHEIGHT
 40
4.0
  9
$LOFTANG1
 40
1.570796326794896
  9
$LOFTANG2
 40
1.570796326794896
  9
$LOFTMAG1
 40
0.0
  9
$LOFTMAG2
 40
0.0
  9
$LOFTPARAM
 70
     7
  9
$LOFTNORMALS
280
     1
  9
$LATITUDE
 40
37.795
  9
$LONGITUDE
 40
-122.394
  9
$NORTHDIRECTION
 40
0.0
  9
$TIMEZONE
 70
 -8000
  9
$LIGHTGLYPHDISPLAY
280
     1
  9
$TILEMODELIGHTSYNCH
280
     1
  9
$CMATERIAL
347
11C
  9
$SOLIDHIST
280
     1
  9
$SHOWHIST
280
     1
  9
$DWFFRAME
280
     2
  9
$DGNFRAME
280
     0
  9
$REALWORLDSCALE
290
     1
  9
$INTERFERECOLOR
 62
     1
  9
$INTERFEREOBJVS
345
33
  9
$INTERFEREVPVS
346
2CD
  9
$CSHADOW
280
     0
  9
$SHADOWPLANELOCATION
 40
0.0
  0
ENDSEC
  0
SECTION
  2
CLASSES
  0
CLASS
  1
ACDBDICTIONARYWDFLT
  2
AcDbDictionaryWithDefault
  3
ObjectDBX Classes
 90
        0
 91
        1
280
     0
281
     0
  0
CLASS
  1
VISUALSTYLE
  2
AcDbVisualStyle
  3
ObjectDBX Classes
 90
     4095
 91
       26
280
     0
281
     0
  0
CLASS
  1
MATERIAL
  2
AcDbMaterial
  3
ObjectDBX Classes
 90
     1153
 91
        3
280
     0
281
     0
  0
CLASS
  1
TABLESTYLE
  2
AcDbTableStyle
  3
ObjectDBX Classes
 90
     4095
 91
        1
280
     0
281
     0
  0
CLASS
  1
SCALE
  2
AcDbScale
  3
ObjectDBX Classes
 90
     1153
 91
       33
280
     0
281
     0
  0
CLASS
  1
MLEADERSTYLE
  2
AcDbMLeaderStyle
  3
ACDB_MLEADERSTYLE_CLASS
 90
     4095
 91
        1
280
     0
281
     0
  0
CLASS
  1
ACME_DOCUMENT
  2
AcMeDbDoc
  3
AcMeServices
 90
     1024
 91
        0
280
     0
281
     0
  0
CLASS
  1
AMGSETTINGSOBJ
  2
AmgSettingsObj
  3
"AcadM|Product Description: AutoCAD Mechanical|Company: Autodesk, Inc."
 90
     1024
 91
        2
280
     0
281
     0
  0
CLASS
  1
ACMESCOPE
  2
AcMeScope
  3
AcMeServices
 90
     1024
 91
        1
280
     0
281
     0
  0
CLASS
  1
ACMECOMMANDHISTORY
  2
AcMeCommandHistory
  3
AcMeServices
 90
     1024
 91
        1
280
     0
281
     0
  0
CLASS
  1
ACIMSYSVARMAN
  2
AcImSysVarManager
  3
AcMeServices
 90
     1024
 91
        5
280
     0
281
     0
  0
CLASS
  1
ACIMINTSYSVAR
  2
AcImIntSysVar
  3
AcMeServices
 90
     1024
 91
       27
280
     0
281
     0
  0
CLASS
  1
ACMEDRAWINGMAN
  2
AcMeDrawingMan
  3
AcMeServices
 90
     1024
 91
        1
280
     0
281
     0
  0
CLASS
  1
ACMEVIEW
  2
AcMeView
  3
AcMeServices
 90
     1024
 91
        1
280
     0
281
     0
  0
CLASS
  1
ACDBENTITYCACHE
  2
AcMeEntityCache
  3
AcMeServices
 90
     1024
 91
        0
280
     0
281
     0
  0
CLASS
  1
ACMESTATEMGR
  2
AcMeStateMgr
  3
AcMeServices
 90
     1024
 91
        1
280
     0
281
     0
  0
CLASS
  1
ACGREFMASTER
  2
AcGrefMaster
  3
AcAttribServices
 90
     1024
 91
        1
280
     0
281
     0
  0
CLASS
  1
AM_DRAWING_MGR
  2
AcDmDwgMgr
  3
AcMechDwgViewMgmt
 90
     1024
 91
        1
280
     0
281
     0
  0
CLASS
  1
AM_DWG_DOCUMENT
  2
AcDmDwgDocument
  3
AcMechDwgViewMgmt
 90
     1024
 91
        1
280
     0
281
     0
  0
CLASS
  1
AM_DWG_SHEET
  2
AcDmSheet
  3
AcMechDwgViewMgmt
 90
     1024
 91
        2
280
     0
281
     0
  0
CLASS
  1
AM_VIEWDIMPARMAP
  2
AcDmViewDimParMap
  3
AcMechDwgViewMgmt
 90
     1024
 91
        2
280
     0
281
     0
  0
CLASS
  1
AMDTINTERNALREACTOR
  2
AmdtInternalReactor
  3
AcMeServices
 90
     1024
 91
        0
280
     0
281
     0
  0
CLASS
  1
ACIMREALSYSVAR
  2
AcImRealSysVar
  3
AcMeServices
 90
     1024
 91
        1
280
     0
281
     0
  0
CLASS
  1
AM_DWGMGR_NAME
  2
AcDmDwgMgrName
  3
AcMechDwgViewMgmt
 90
     1024
 91
        1
280
     0
281
     0
  0
CLASS
  1
ACME_DATABASE
  2
AcMeDbDatabase
  3
AcMeServices
 90
     1024
 91
        0
280
     0
281
     0
  0
CLASS
  1
ACRFINSADJUSTERMGR
  2
AcRfInsAdjusterMgr
  3
AcMeServices
 90
     1024
 91
        0
280
     0
281
     0
  0
CLASS
  1
ACGREFACADMASTER
  2
AcGrefacadMaster
  3
AcGrefServices
 90
     1024
 91
        1
280
     0
281
     0
  0
CLASS
  1
AMDTMENUSTATEMGR
  2
AmdtMenuStateMgr
  3
McadcomServices
 90
     1024
 91
        0
280
     0
281
     0
  0
CLASS
  1
AMDTMCOMMENUSTATE
  2
AmdtMcomMenuState
  3
McadcomServices
 90
     1024
 91
        0
280
     0
281
     0
  0
CLASS
  1
AMIMASTER
  2
AmiMaster
  3
AmiServices
 90
     1024
 91
        1
280
     0
281
     0
  0
CLASS
  1
MAPIAMMOUDLE
  2
MApiAmModule
  3
MApiAmServices
 90
     1024
 91
        1
280
     0
281
     0
  0
CLASS
  1
ACIMSTRSYSVAR
  2
AcImStrSysVar
  3
AcMeServices
 90
     1024
 91
        5
280
     0
281
     0
  0
CLASS
  1
AMDTADMENUSTATE
  2
AmdtAdMenuState
  3
DesignerServices
 90
     1024
 91
        0
280
     0
281
     0
  0
CLASS
  1
ADAPPL
  2
AcAdAppl
  3
DesignerServices
 90
     1024
 91
        1
280
     0
281
     0
  0
CLASS
  1
DEPMGR
  2
AcAdDepMgr
  3
DesignerServices
 90
     1024
 91
        1
280
     0
281
     0
  0
CLASS
  1
PARAMMGR
  2
AcAdParamMgr
  3
DesignerServices
 90
     1024
 91
        1
280
     0
281
     0
  0
CLASS
  1
PARAMSCOPE
  2
AcAdParamScope
  3
DesignerServices
 90
     1024
 91
        1
280
     0
281
     0
  0
CLASS
  1
NAMEDAPPL
  2
AcAdNamedAppl
  3
DesignerServices
 90
     1024
 91
        1
280
     0
281
     0
  0
CLASS
  1
AMDTDMMENUSTATE
  2
AmdtDmMenuState
  3
AcMechDwgViewMgmt
 90
     1024
 91
        0
280
     0
281
     0
  0
CLASS
  1
AMDTAMMENUSTATE
  2
AmdtAmMenuState
  3
DesignerAssemblies
 90
     1024
 91
        0
280
     0
281
     0
  0
CLASS
  1
ACAMPROJECT
  2
AcAmProject
  3
DesignerAssemblies
 90
     1024
 91
        1
280
     0
281
     0
  0
CLASS
  1
ACAMGRCOMPDEF
  2
AcAmGrCompDef
  3
DesignerAssemblies
 90
     1024
 91
        1
280
     0
281
     0
  0
CLASS
  1
ACAMCOMPDEF
  2
AcAmCompDef
  3
DesignerAssemblies
 90
     1024
 91
        1
280
     0
281
     0
  0
CLASS
  1
ACAMCOMPDEFMGR
  2
AcAmCompDefMgr
  3
DesignerAssemblies
 90
     1024
 91
        1
280
     0
281
     0
  0
CLASS
  1
AMCONTEXTMGR
  2
AcAmContextMgr
  3
DesignerAssemblies
 90
     1024
 91
        1
280
     0
281
     0
  0
CLASS
  1
ACAMCONTEXTMODELER
  2
AcAmContextModeler
  3
DesignerAssemblies
 90
     1024
 91
        1
280
     0
281
     0
  0
CLASS
  1
ACMDATADICTIONARY
  2
AcmDataDictionary
  3
"AcmSymBB|Product Description: AutoCAD Mechanical|Company: Autodesk, Inc."
 90
     1024
 91
        1
280
     0
281
     0
  0
CLASS
  1
CATALOGSTATE
  2
AcAmCatalogState
  3
DesignerAssemblies
 90
     1024
 91
        1
280
     0
281
     0
  0
CLASS
  1
ACAMGRCOMPDEFSET
  2
AcAmGrCompDefSet
  3
DesignerAssemblies
 90
     1024
 91
        0
280
     0
281
     0
  0
CLASS
  1
AMDTBROWSERDBTAB
  2
AmdtBrowserDbTab
  3
McadcomServices
 90
     1024
 91
        0
280
     0
281
     0
  0
CLASS
  1
CBROWSERAPPOBJECT
  2
CBrowserAppObject
  3
McadcomServices
 90
     1024
 91
        0
280
     0
281
     0
  0
CLASS
  1
DM_PLACEHOLDER
  2
AcDmSelsetPlaceholder
  3
AcMechDwgViewMgmt
 90
     1024
 91
        0
280
     0
281
     0
  0
CLASS
  1
EXACXREFPANELOBJECT
  2
ExAcXREFPanelObject
  3
EXAC_ESW
 90
     1025
 91
        1
280
     0
281
     0
  0
CLASS
  1
NPOCOLLECTION
  2
AcDbImpNonPersistentObjectsCollection
  3
ObjectDBX Classes
 90
     1153
 91
        1
280
     0
281
     0
  0
CLASS
  1
ACMSTANDARDANSI
  2
AcmStandardANSI
  3
"Amdt_StdImp|Product Description: AutoCAD Mechanical|Company: Autodesk, Inc."
 90
     1024
 91
        1
280
     0
281
     0
  0
CLASS
  1
ACMSURFSTANDARDANSI
  2
AcmSurfTextStdANSI
  3
"Amdt_StdImp|Product Description: AutoCAD Mechanical|Company: Autodesk, Inc."
 90
     1024
 91
        1
280
     0
281
     0
  0
CLASS
  1
ACMFCFSTANDARDANSI
  2
AcmFCFStdANSI
  3
"Amdt_StdImp|Product Description: AutoCAD Mechanical|Company: Autodesk, Inc."
 90
     1024
 91
        1
280
     0
281
     0
  0
CLASS
  1
ACMWELDSTANDARDANSI
  2
AcmWeldingStdANSI
  3
"Amdt_StdImp|Product Description: AutoCAD Mechanical|Company: Autodesk, Inc."
 90
     1024
 91
        1
280
     0
281
     0
  0
CLASS
  1
ACMIDSTANDARDANSI
  2
AcmIdStdANSI
  3
"Amdt_StdImp|Product Description: AutoCAD Mechanical|Company: Autodesk, Inc."
 90
     1024
 91
        1
280
     0
281
     0
  0
CLASS
  1
ACMDATUMSTANDARDANSI
  2
AcmDatumStdANSI
  3
"Amdt_StdImp|Product Description: AutoCAD Mechanical|Company: Autodesk, Inc."
 90
     1024
 91
        1
280
     0
281
     0
  0
CLASS
  1
ACMBOMSTANDARDANSI
  2
AcmBOMStdANSI
  3
"Amdt_StdImp|Product Description: AutoCAD Mechanical|Company: Autodesk, Inc."
 90
     1024
 91
        1
280
     0
281
     0
  0
CLASS
  1
ACMDETAILSTANDARDANSI
  2
AmdtDetailSymStdANSI
  3
"Amdt_StdImp|Product Description: AutoCAD Mechanical|Company: Autodesk, Inc."
 90
     1024
 91
        1
280
     0
281
     0
  0
CLASS
  1
ACMSECTIONSTANDARDANSI
  2
AmdtSectionSymStdANSI
  3
"Amdt_StdImp|Product Description: AutoCAD Mechanical|Company: Autodesk, Inc."
 90
     1024
 91
        1
280
     0
281
     0
  0
CLASS
  1
ACMCENTERLINESTANDARDANSI
  2
AmdtCenterLineStdANSI
  3
"Amdt_StdImp|Product Description: AutoCAD Mechanical|Company: Autodesk, Inc."
 90
     1024
 91
        1
280
     0
281
     0
  0
CLASS
  1
ACMTHREADLINESTANDARDANSI
  2
AmdtThreadLineStdANSI
  3
"Amdt_StdImp|Product Description: AutoCAD Mechanical|Company: Autodesk, Inc."
 90
     1024
 91
        1
280
     0
281
     0
  0
CLASS
  1
ACMNOTESTANDARDANSI
  2
AmdtNoteStdANSI
  3
"Amdt_StdImp|Product Description: AutoCAD Mechanical|Company: Autodesk, Inc."
 90
     1024
 91
        1
280
     0
281
     0
  0
CLASS
  1
ACMTAPERSTANDARDANSI
  2
AcmTaperStdANSI
  3
"Amdt_StdImp|Product Description: AutoCAD Mechanical|Company: Autodesk, Inc."
 90
     1024
 91
        1
280
     0
281
     0
  0
CLASS
  1
ACMANOOTATIONVIEWSTANDARDANSI
  2
AmdtAnViewStdANSI
  3
"Amdt_StdImp|Product Description: AutoCAD Mechanical|Company: Autodesk, Inc."
 90
     1024
 91
        1
280
     0
281
     0
  0
CLASS
  1
ACAMGLAYSTD
  2
AcAmgLayStd
  3
"AmgLay|Product Description: AutoCAD Mechanical|Company: Autodesk, Inc."
 90
     1024
 91
        1
280
     0
281
     0
  0
CLASS
  1
ACAMGDIMSTD
  2
AcAmgDimStd
  3
"AmgDim|Product Description: AutoCAD Mechanical|Company: Autodesk, Inc."
 90
     1024
 91
        1
280
     0
281
     0
  0
CLASS
  1
AMGOBJPROPCFG
  2
AmgObjPropCfg
  3
"AmgLay|Product Description: AutoCAD Mechanical|Company: Autodesk, Inc."
 90
     1025
 91
        1
280
     0
281
     0
  0
CLASS
  1
ACAMGHOLECHARTSTDANSI
  2
AcAmgHoleChartStdANSI
  3
AmgDim|Product Description: AutoCAD Mechanical|Company: Autodesk, Inc.
 90
     1024
 91
        1
280
     0
281
     0
  0
CLASS
  1
ACAMGTITLESTD
  2
AcAmgTitleStd
  3
"AmgTitle|Product Description: AutoCAD Mechanical|Company: Autodesk, Inc."
 90
     4095
 91
        1
280
     0
281
     0
  0
CLASS
  1
AMDTNOTETEMPLATEDB
  2
AmdtNoteTemplateDB
  3
AcmSymBB|Product Description: AutoCAD Mechanical|Company: Autodesk, Inc.
 90
     1024
 91
        6
280
     0
281
     0
  0
CLASS
  1
CAMSSTRUCTBTNSTATE
  2
StructBtnState
  3
DesignerAssemblies
 90
     1024
 91
        1
280
     0
281
     0
  0
CLASS
  1
DICTIONARYVAR
  2
AcDbDictionaryVar
  3
ObjectDBX Classes
 90
        0
 91
        9
280
     0
281
     0
  0
CLASS
  1
SORTENTSTABLE
  2
AcDbSortentsTable
  3
ObjectDBX Classes
 90
        0
 91
        3
280
     0
281
     0
  0
CLASS
  1
ACDBSECTIONVIEWSTYLE
  2
AcDbSectionViewStyle
  3
ObjectDBX Classes
 90
     1025
 91
        1
280
     0
281
     0
  0
CLASS
  1
ACDBDETAILVIEWSTYLE
  2
AcDbDetailViewStyle
  3
ObjectDBX Classes
 90
     1025
 91
        1
280
     0
281
     0
  0
CLASS
  1
CELLSTYLEMAP
  2
AcDbCellStyleMap
  3
ObjectDBX Classes
 90
     1152
 91
        1
280
     0
281
     0
  0
ENDSEC
  0
SECTION
  2
TABLES
  0
TABLE
  2
VPORT
  5
8
330
0
100
AcDbSymbolTable
 70
     1
  0
VPORT
  5
29
330
8
100
AcDbSymbolTableRecord
100
AcDbViewportTableRecord
  2
*Active
 70
     0
 10
0.0
 20
0.0
 11
1.0
 21
1.0
 12
-5765.988552458473
 22
-32.75971514803678
 13
0.0
 23
0.0
 14
0.5
 24
0.5
 15
0.5
 25
0.5
 16
0.0
 26
0.0
 36
1.0
 17
148.4999796178229
 27
-105.0008259828643
 37
0.0
 40
12451.61876926955
 41
2.292712066905615
 42
50.0
 43
0.0
 44
0.0
 50
0.0
 51
0.0
 71
     0
 72
   100
 73
     1
 74
     3
 75
     0
 76
     0
 77
     0
 78
     0
281
     0
 65
     1
110
0.0
120
0.0
130
0.0
111
1.0
121
0.0
131
0.0
112
0.0
122
1.0
132
0.0
 79
     0
146
0.0
348
2F
 60
     3
 61
     5
292
     1
282
     1
141
0.0
142
0.0
 63
   250
421
  3355443
1001
ACAD_NAV_VCDISPLAY
1070
     3
  0
ENDTAB
  0
TABLE
  2
LTYPE
  5
5
330
0
100
AcDbSymbolTable
 70
    16
  0
LTYPE
  5
14
330
5
100
AcDbSymbolTableRecord
100
AcDbLinetypeTableRecord
  2
ByBlock
 70
     0
  3

 72
    65
 73
     0
 40
0.0
  0
LTYPE
  5
15
330
5
100
AcDbSymbolTableRecord
100
AcDbLinetypeTableRecord
  2
ByLayer
 70
     0
  3

 72
    65
 73
     0
 40
0.0
  0
LTYPE
  5
16
330
5
100
AcDbSymbolTableRecord
100
AcDbLinetypeTableRecord
  2
Continuous
 70
     0
  3
Solid line
 72
    65
 73
     0
 40
0.0
  0
LTYPE
  5
193
330
5
100
AcDbSymbolTableRecord
100
AcDbLinetypeTableRecord
  2
HIDDEN
 70
     0
  3
Hidden __ __ __ __ __ __ __ __ __ __ __ __ __ _
 72
    65
 73
     2
 40
0.375
 49
0.25
 74
     0
 49
-0.125
 74
     0
  0
LTYPE
  5
194
330
5
100
AcDbSymbolTableRecord
100
AcDbLinetypeTableRecord
  2
PHANTOM2
 70
     0
  3
Phantom (.5x) ___ _ _ ___ _ _ ___ _ _ ___ _ _
 72
    65
 73
     6
 40
1.25
 49
0.625
 74
     0
 49
-0.125
 74
     0
 49
0.125
 74
     0
 49
-0.125
 74
     0
 49
0.125
 74
     0
 49
-0.125
 74
     0
  0
LTYPE
  5
195
330
5
100
AcDbSymbolTableRecord
100
AcDbLinetypeTableRecord
  2
CENTER
 70
     0
  3
Center ____ _ ____ _ ____ _ ____ _ ____ _ ____
 72
    65
 73
     4
 40
2.0
 49
1.25
 74
     0
 49
-0.25
 74
     0
 49
0.25
 74
     0
 49
-0.25
 74
     0
  0
LTYPE
  5
1DC
330
5
100
AcDbSymbolTableRecord
100
AcDbLinetypeTableRecord
  2
AM_ISO02W050
 70
     0
  3
__ __ __ __ __ __ __ __ __ __ __ __ __ __ __
 72
    65
 73
     2
 40
7.5
 49
6.0
 74
     0
 49
-1.5
 74
     0
  0
LTYPE
  5
1DD
330
5
100
AcDbSymbolTableRecord
100
AcDbLinetypeTableRecord
  2
AM_ISO08W050
 70
     0
  3
____ . ____ . ____ . ____ . ____ . ____ . ____
 72
    65
 73
     4
 40
18.0
 49
12.0
 74
     0
 49
-1.5
 74
     0
 49
3.0
 74
     0
 49
-1.5
 74
     0
  0
LTYPE
  5
1DE
330
5
100
AcDbSymbolTableRecord
100
AcDbLinetypeTableRecord
  2
AM_ISO09W050
 70
     0
  3
_____ . . _____ . . _____ . . ____ .. ____
 72
    65
 73
     6
 40
22.5
 49
12.0
 74
     0
 49
-1.5
 74
     0
 49
3.0
 74
     0
 49
-1.5
 74
     0
 49
3.0
 74
     0
 49
-1.5
 74
     0
  0
LTYPE
  5
1DF
330
5
100
AcDbSymbolTableRecord
100
AcDbLinetypeTableRecord
  2
Amconstr
 70
     0
  3
_______________________
 72
    65
 73
     2
 40
9999.0
 49
9999.0
 74
     0
 49
0.0
 74
     0
  0
LTYPE
  5
1E0
330
5
100
AcDbSymbolTableRecord
100
AcDbLinetypeTableRecord
  2
AM_ISO08W050x2
 70
     0
  3
__ . __ . __ . __ . __ . __
 72
    65
 73
     4
 40
9.0
 49
6.0
 74
     0
 49
-0.75
 74
     0
 49
1.5
 74
     0
 49
-0.75
 74
     0
  0
LTYPE
  5
1E1
330
5
100
AcDbSymbolTableRecord
100
AcDbLinetypeTableRecord
  2
AM_ISO02W050x2
 70
     0
  3
 _ _ _ _ _ _ _ _ _ _ _ _
 72
    65
 73
     2
 40
3.75
 49
3.0
 74
     0
 49
-0.75
 74
     0
  0
LTYPE
  5
1E4
330
5
100
AcDbSymbolTableRecord
100
AcDbLinetypeTableRecord
  2
Amzigzag
 70
     0
  3
/\/-/\/-/\/-/\/-/\/-/\/
 72
    65
 73
     2
 40
11.0001
 49
0.0001
 74
     4
 75
   136
340
1E3
 46
0.04
 50
0.0
 44
0.0
 45
0.0
 49
-11.0
 74
     0
  0
LTYPE
  5
1E5
330
5
100
AcDbSymbolTableRecord
100
AcDbLinetypeTableRecord
  2
CENTER2
 70
     0
  3
Center (.5x) ___ _ ___ _ ___ _ ___ _ ___ _ ___
 72
    65
 73
     4
 40
1.125
 49
0.75
 74
     0
 49
-0.125
 74
     0
 49
0.125
 74
     0
 49
-0.125
 74
     0
  0
LTYPE
  5
1E6
330
5
100
AcDbSymbolTableRecord
100
AcDbLinetypeTableRecord
  2
HIDDEN2
 70
     0
  3
Hidden (.5x) _ _ _ _ _ _ _ _ _ _ _ _ _ _ _ _ _
 72
    65
 73
     2
 40
0.1875
 49
0.125
 74
     0
 49
-0.0625
 74
     0
  0
LTYPE
  5
1E7
330
5
100
AcDbSymbolTableRecord
100
AcDbLinetypeTableRecord
  2
Amzigzag2
 70
     0
  3
/\/-/\/-/\/-/\/-/\/-/\/
 72
    65
 73
     2
 40
0.4401
 49
0.0001
 74
     4
 75
   136
340
1E3
 46
0.0016
 50
0.0
 44
0.0
 45
0.0
 49
-0.4400000000000001
 74
     0
  0
LTYPE
  5
1F5
330
5
100
AcDbSymbolTableRecord
100
AcDbLinetypeTableRecord
  2
ACANSTGB
 70
     0
  3
__ . . __ . .
 72
    65
 73
     6
 40
0.35433070866
 49
0.15748031496
 74
     0
 49
-0.03937007874
 74
     0
 49
0.03937007874
 74
     0
 49
-0.03937007874
 74
     0
 49
0.03937007874
 74
     0
 49
-0.03937007874
 74
     0
  0
LTYPE
  5
1F6
330
5
100
AcDbSymbolTableRecord
100
AcDbLinetypeTableRecord
  2
ACANSTGL
 70
     0
  3
_ _ _ _ _
 72
    65
 73
     2
 40
0.11811023622
 49
0.07874015748
 74
     0
 49
-0.03937007874
 74
     0
  0
ENDTAB
  0
TABLE
  2
LAYER
  5
2
102
{ACAD_XDICTIONARY
360
207
102
}
330
0
100
AcDbSymbolTable
 70
     5
  0
LAYER
  5
10
102
{ACAD_XDICTIONARY
360
1FF
102
}
330
2
100
AcDbSymbolTableRecord
100
AcDbLayerTableRecord
  2
0
 70
     0
 62
     7
  6
Continuous
370
    -3
390
F
347
12C
348
0
  0
LAYER
  5
3B
102
{ACAD_XDICTIONARY
360
201
102
}
330
2
100
AcDbSymbolTableRecord
100
AcDbLayerTableRecord
  2
Layer 1
 70
     0
 62
     7
  6
Continuous
370
    -3
390
F
347
12C
348
0
  0
LAYER
  5
2E1
330
2
100
AcDbSymbolTableRecord
100
AcDbLayerTableRecord
  2
Dimensions
 70
     0
 62
     7
  6
Continuous
370
    -3
390
F
347
12C
348
0
1001
AcAecLayerStandard
1000

1000

1001
AcCmTransparency
1071
        0
  0
LAYER
  5
2E4
330
2
100
AcDbSymbolTableRecord
100
AcDbLayerTableRecord
  2
Text
 70
     0
 62
     7
  6
Continuous
370
    -3
390
F
347
12C
348
0
1001
AcAecLayerStandard
1000

1000

1001
AcCmTransparency
1071
        0
  0
LAYER
  5
2E5
330
2
100
AcDbSymbolTableRecord
100
AcDbLayerTableRecord
  2
Furniture
 70
     0
 62
     7
  6
Continuous
370
    -3
390
F
347
12C
348
0
1001
AcAecLayerStandard
1000

1000

1001
AcCmTransparency
1071
        0
  0
ENDTAB
  0
TABLE
  2
STYLE
  5
3
330
0
100
AcDbSymbolTable
 70
     4
  0
STYLE
  5
11
330
3
100
AcDbSymbolTableRecord
100
AcDbTextStyleTableRecord
  2
Standard
 70
     0
 40
0.0
 41
1.00001
 50
0.0
 71
     0
 42
0.2
  3
apercu_regular-webfont.ttf
  4

1001
ACAD
1000
Apercu
1071
        2
  0
STYLE
  5
1E3
330
3
100
AcDbSymbolTableRecord
100
AcDbTextStyleTableRecord
  2

 70
     1
 40
0.0
 41
1.0
 50
0.0
 71
     0
 42
0.2
  3
genltshp.shx
  4

  0
STYLE
  5
1F3
330
3
100
AcDbSymbolTableRecord
100
AcDbTextStyleTableRecord
  2
ACANSTS
 70
     0
 40
1.0
 41
1.0
 50
0.0
 71
     0
 42
0.2
  3
romans.shx
  4

  0
STYLE
  5
1F4
330
3
100
AcDbSymbolTableRecord
100
AcDbTextStyleTableRecord
  2
ACANSGDT
 70
     0
 40
0.0
 41
1.0
 50
0.0
 71
     0
 42
0.2
  3
amgdt.shx
  4

  0
ENDTAB
  0
TABLE
  2
VIEW
  5
6
330
0
100
AcDbSymbolTable
 70
     1
  0
ENDTAB
  0
TABLE
  2
UCS
  5
7
330
0
100
AcDbSymbolTable
 70
     0
  0
ENDTAB
  0
TABLE
  2
APPID
  5
9
330
0
100
AcDbSymbolTable
 70
    15
  0
APPID
  5
12
330
9
100
AcDbSymbolTableRecord
100
AcDbRegAppTableRecord
  2
ACAD
 70
     0
  0
APPID
  5
166
330
9
100
AcDbSymbolTableRecord
100
AcDbRegAppTableRecord
  2
MCAD_NO_VIS
 70
     0
  0
APPID
  5
167
330
9
100
AcDbSymbolTableRecord
100
AcDbRegAppTableRecord
  2
ACAD_TEMP_GRAPHIC
 70
     0
  0
APPID
  5
197
330
9
100
AcDbSymbolTableRecord
100
AcDbRegAppTableRecord
  2
AD_DRAW
 70
     0
  0
APPID
  5
19A
330
9
100
AcDbSymbolTableRecord
100
AcDbRegAppTableRecord
  2
ACATTRIBSERVICES
 70
     0
  0
APPID
  5
1BA
330
9
100
AcDbSymbolTableRecord
100
AcDbRegAppTableRecord
  2
DESIGNERASSEMBLIES
 70
     0
  0
APPID
  5
1C0
330
9
100
AcDbSymbolTableRecord
100
AcDbRegAppTableRecord
  2
ACADM_DIM_EDIT
 70
     0
  0
APPID
  5
1C1
330
9
100
AcDbSymbolTableRecord
100
AcDbRegAppTableRecord
  2
AMDT_DM_ADJ
 70
     0
  0
APPID
  5
1D9
330
9
100
AcDbSymbolTableRecord
100
AcDbRegAppTableRecord
  2
ACAD_DSTYLE_DIMJAG
 70
     0
  0
APPID
  5
1DA
330
9
100
AcDbSymbolTableRecord
100
AcDbRegAppTableRecord
  2
ACAD_DSTYLE_DIMBREAK
 70
     0
  0
APPID
  5
22C
330
9
100
AcDbSymbolTableRecord
100
AcDbRegAppTableRecord
  2
ACAD_EXEMPT_FROM_CAD_STANDARDS
 70
     0
  0
APPID
  5
2E2
330
9
100
AcDbSymbolTableRecord
100
AcDbRegAppTableRecord
  2
AcAecLayerStandard
 70
     0
  0
APPID
  5
2E3
330
9
100
AcDbSymbolTableRecord
100
AcDbRegAppTableRecord
  2
AcCmTransparency
 70
     0
  0
APPID
  5
2ED
330
9
100
AcDbSymbolTableRecord
100
AcDbRegAppTableRecord
  2
ACAD_NAV_VCDISPLAY
 70
     0
  0
APPID
  5
350
330
9
100
AcDbSymbolTableRecord
100
AcDbRegAppTableRecord
  2
AcadAnnoPO
 70
     0
  0
ENDTAB
  0
TABLE
  2
DIMSTYLE
  5
A
330
0
100
AcDbSymbolTable
 70
     7
100
AcDbDimStyleTable
 71
     1
340
27
  0
DIMSTYLE
105
27
330
A
100
AcDbSymbolTableRecord
100
AcDbDimStyleTableRecord
  2
Standard
 70
     0
340
11
  0
DIMSTYLE
105
1D8
102
{ACAD_REACTORS
330
1C8
102
}
330
A
100
AcDbSymbolTableRecord
100
AcDbDimStyleTableRecord
  2
AM_ANSI
 70
     0
  4
mm
 41
0.12
 42
0.05
 43
0.5
 44
0.1
 47
0.1
 48
0.1
 78
     7
 79
     2
 90
     1
140
0.12
141
0.0
146
0.71
147
0.06
176
   256
177
   256
178
   140
274
     4
284
     7
340
11
345
14
346
14
347
14
371
    -1
372
    -1
1001
ACAD_DSTYLE_DIMJAG
1070
   388
1040
1.5
1001
ACAD_DSTYLE_DIMBREAK
1070
   391
1040
0.125
  0
DIMSTYLE
105
1E8
330
A
100
AcDbSymbolTableRecord
100
AcDbDimStyleTableRecord
  2
AM_ANSI$3
 70
     0
  4
mm
 41
0.12
 42
0.05
 43
0.5
 44
0.1
 47
0.1
 48
0.1
 78
     7
 79
     2
 90
     1
140
0.12
141
0.0
146
0.71
147
0.06
176
   256
177
   256
178
   140
274
     4
284
     7
288
     1
289
     0
340
11
345
14
346
14
347
14
371
    -1
372
    -1
1001
ACAD_DSTYLE_DIMBREAK
1070
   391
1040
0.125
1001
ACAD_DSTYLE_DIMJAG
1070
   388
1040
1.5
  0
DIMSTYLE
105
1E9
330
A
100
AcDbSymbolTableRecord
100
AcDbDimStyleTableRecord
  2
AM_ANSI$4
 70
     0
  4
mm
 41
0.12
 42
0.05
 43
0.5
 44
0.1
 47
0.1
 48
0.1
 78
     7
 79
     2
 90
     1
140
0.12
141
0.0
146
0.71
147
0.06
176
   256
177
   256
178
   140
274
     4
284
     7
288
     1
289
     0
340
11
345
14
346
14
347
14
371
    -1
372
    -1
1001
ACAD_DSTYLE_DIMBREAK
1070
   391
1040
0.125
1001
ACAD_DSTYLE_DIMJAG
1070
   388
1040
1.5
  0
DIMSTYLE
105
1EA
330
A
100
AcDbSymbolTableRecord
100
AcDbDimStyleTableRecord
  2
AM_ANSI$7
 70
     0
  4
mm
 41
0.12
 42
0.05
 43
0.5
 44
0.1
 47
0.1
 48
0.1
 78
     7
 79
     2
 90
     1
140
0.12
141
0.0
146
0.71
147
0.06
176
   256
177
   256
178
   140
274
     4
284
     7
340
11
345
14
346
14
347
14
371
    -1
372
    -1
1001
ACAD_DSTYLE_DIMBREAK
1070
   391
1040
0.125
1001
ACAD_DSTYLE_DIMJAG
1070
   388
1040
1.5
  0
DIMSTYLE
105
1EB
330
A
100
AcDbSymbolTableRecord
100
AcDbDimStyleTableRecord
  2
AM_ANSI$SF
 70
     0
  4
mm
 41
0.12
 42
0.05
 43
0.5
 44
0.1
 47
0.1
 48
0.1
 75
     1
 76
     1
 78
     7
 79
     2
 90
     1
140
0.12
141
0.0
146
0.71
147
0.06
176
   256
177
   256
178
   140
274
     4
284
     7
340
11
345
14
346
14
347
14
371
    -1
372
    -1
1001
ACAD_DSTYLE_DIMBREAK
1070
   391
1040
0.125
1001
ACAD_DSTYLE_DIMJAG
1070
   388
1040
1.5
  0
DIMSTYLE
105
1F0
330
A
100
AcDbSymbolTableRecord
100
AcDbDimStyleTableRecord
  2
AM_ANSI$SH
 70
     0
  4
mm
 41
0.12
 42
0.05
 43
0.5
 44
0.1
 47
0.1
 48
0.1
 75
     1
 76
     1
 78
     7
 79
     2
 90
     1
140
0.12
141
0.0
146
0.71
147
0.06
173
     1
176
   256
177
   256
178
   140
274
     4
284
     7
340
11
343
1EC
345
14
346
14
347
14
371
    -1
372
    -1
1001
ACAD_DSTYLE_DIMBREAK
1070
   391
1040
0.125
1001
ACAD_DSTYLE_DIMJAG
1070
   388
1040
1.5
  0
ENDTAB
  0
TABLE
  2
BLOCK_RECORD
  5
1
330
0
100
AcDbSymbolTable
 70
    21
  0
BLOCK_RECORD
  5
1F
102
{ACAD_XDICTIONARY
360
25F
102
}
330
1
100
AcDbSymbolTableRecord
100
AcDbBlockTableRecord
  2
*Model_Space
340
22
 70
     0
280
     1
281
     0
  0
BLOCK_RECORD
  5
1B
330
1
100
AcDbSymbolTableRecord
100
AcDbBlockTableRecord
  2
*Paper_Space
340
1E
 70
     0
280
     1
281
     0
  0
BLOCK_RECORD
  5
23
330
1
100
AcDbSymbolTableRecord
100
AcDbBlockTableRecord
  2
*Paper_Space0
340
26
 70
     0
280
     1
281
     0
  0
BLOCK_RECORD
  5
3C
330
1
100
AcDbSymbolTableRecord
100
AcDbBlockTableRecord
  2
block 2
340
0
102
{BLKREFS
331
3D
102
}
 70
     0
280
     1
281
     0
  0
BLOCK_RECORD
  5
40
330
1
100
AcDbSymbolTableRecord
100
AcDbBlockTableRecord
  2
block 3
340
0
102
{BLKREFS
331
41
102
}
 70
     0
280
     1
281
     0
  0
BLOCK_RECORD
  5
44
330
1
100
AcDbSymbolTableRecord
100
AcDbBlockTableRecord
  2
block 4
340
0
102
{BLKREFS
331
45
102
}
 70
     0
280
     1
281
     0
  0
BLOCK_RECORD
  5
48
330
1
100
AcDbSymbolTableRecord
100
AcDbBlockTableRecord
  2
block 5
340
0
102
{BLKREFS
331
49
102
}
 70
     0
280
     1
281
     0
  0
BLOCK_RECORD
  5
4C
330
1
100
AcDbSymbolTableRecord
100
AcDbBlockTableRecord
  2
block 6
340
0
102
{BLKREFS
331
4D
102
}
 70
     0
280
     1
281
     0
  0
BLOCK_RECORD
  5
50
330
1
100
AcDbSymbolTableRecord
100
AcDbBlockTableRecord
  2
block 7
340
0
102
{BLKREFS
331
51
102
}
 70
     0
280
     1
281
     0
  0
BLOCK_RECORD
  5
54
330
1
100
AcDbSymbolTableRecord
100
AcDbBlockTableRecord
  2
block 8
340
0
102
{BLKREFS
331
55
102
}
 70
     0
280
     1
281
     0
  0
BLOCK_RECORD
  5
58
330
1
100
AcDbSymbolTableRecord
100
AcDbBlockTableRecord
  2
block 9
340
0
102
{BLKREFS
331
59
102
}
 70
     0
280
     1
281
     0
  0
BLOCK_RECORD
  5
66
330
1
100
AcDbSymbolTableRecord
100
AcDbBlockTableRecord
  2
block 10
340
0
 70
     0
280
     1
281
     0
  0
BLOCK_RECORD
  5
7F
330
1
100
AcDbSymbolTableRecord
100
AcDbBlockTableRecord
  2
block 11
340
0
 70
     0
280
     1
281
     0
  0
BLOCK_RECORD
  5
9C
330
1
100
AcDbSymbolTableRecord
100
AcDbBlockTableRecord
  2
block 12
340
0
 70
     0
280
     1
281
     0
  0
BLOCK_RECORD
  5
AB
330
1
100
AcDbSymbolTableRecord
100
AcDbBlockTableRecord
  2
block 13
340
0
 70
     0
280
     1
281
     0
  0
BLOCK_RECORD
  5
BA
330
1
100
AcDbSymbolTableRecord
100
AcDbBlockTableRecord
  2
block 14
340
0
 70
     0
280
     1
281
     0
  0
BLOCK_RECORD
  5
CB
330
1
100
AcDbSymbolTableRecord
100
AcDbBlockTableRecord
  2
block 15
340
0
 70
     0
280
     1
281
     0
  0
BLOCK_RECORD
  5
D9
330
1
100
AcDbSymbolTableRecord
100
AcDbBlockTableRecord
  2
block 16
340
0
 70
     0
280
     1
281
     0
  0
BLOCK_RECORD
  5
F0
330
1
100
AcDbSymbolTableRecord
100
AcDbBlockTableRecord
  2
block 17
340
0
 70
     0
280
     1
281
     0
  0
BLOCK_RECORD
  5
1B2
330
1
100
AcDbSymbolTableRecord
100
AcDbBlockTableRecord
  2
*U17
340
0
 70
     0
280
     1
281
     0
  0
BLOCK_RECORD
  5
1EC
330
1
100
AcDbSymbolTableRecord
100
AcDbBlockTableRecord
  2
GENAXEH
340
0
 70
     0
280
     1
281
     0
  0
BLOCK_RECORD
  5
33B
102
{ACAD_XDICTIONARY
360
340
102
}
330
1
100
AcDbSymbolTableRecord
100
AcDbBlockTableRecord
  2
A$C15804854
340
0
 70
     1
280
     1
281
     0
  0
BLOCK_RECORD
  5
345
102
{ACAD_XDICTIONARY
360
349
102
}
330
1
100
AcDbSymbolTableRecord
100
AcDbBlockTableRecord
  2
A$C48F966A4
340
0
 70
     1
280
     1
281
     0
  0
ENDTAB
  0
ENDSEC
  0
SECTION
  2
BLOCKS
  0
BLOCK
  5
20
330
1F
100
AcDbEntity
  8
0
100
AcDbBlockBegin
  2
*Model_Space
 70
     0
 10
0.0
 20
0.0
 30
0.0
  3
*Model_Space
  1

  0
ENDBLK
  5
21
330
1F
100
AcDbEntity
  8
0
100
AcDbBlockEnd
  0
BLOCK
  5
1C
330
1B
100
AcDbEntity
 67
     1
  8
0
100
AcDbBlockBegin
  2
*Paper_Space
 70
     0
 10
0.0
 20
0.0
 30
0.0
  3
*Paper_Space
  1

  0
ENDBLK
  5
1D
330
1B
100
AcDbEntity
 67
     1
  8
0
100
AcDbBlockEnd
  0
BLOCK
  5
24
330
23
100
AcDbEntity
 67
     1
  8
0
100
AcDbBlockBegin
  2
*Paper_Space0
 70
     0
 10
0.0
 20
0.0
 30
0.0
  3
*Paper_Space0
  1

  0
ENDBLK
  5
25
330
23
100
AcDbEntity
 67
     1
  8
0
100
AcDbBlockEnd
  0
BLOCK
  5
3E
330
3C
100
AcDbEntity
  8
0
100
AcDbBlockBegin
  2
block 2
 70
     0
 10
0.0
 20
0.0
 30
0.0
  3
block 2
  1

  0
ENDBLK
  5
3F
330
3C
100
AcDbEntity
  8
0
100
AcDbBlockEnd
  0
BLOCK
  5
42
330
40
100
AcDbEntity
  8
0
100
AcDbBlockBegin
  2
block 3
 70
     0
 10
0.0
 20
0.0
 30
0.0
  3
block 3
  1

  0
ENDBLK
  5
43
330
40
100
AcDbEntity
  8
0
100
AcDbBlockEnd
  0
BLOCK
  5
46
330
44
100
AcDbEntity
  8
0
100
AcDbBlockBegin
  2
block 4
 70
     0
 10
0.0
 20
0.0
 30
0.0
  3
block 4
  1

  0
INSERT
  5
49
330
44
100
AcDbEntity
  8
Layer 1
100
AcDbBlockReference
  2
block 5
 10
0.0
 20
0.0
 30
0.0
  0
INSERT
  5
4D
330
44
100
AcDbEntity
  8
Layer 1
100
AcDbBlockReference
  2
block 6
 10
0.0
 20
0.0
 30
0.0
  0
ENDBLK
  5
47
330
44
100
AcDbEntity
  8
0
100
AcDbBlockEnd
  0
BLOCK
  5
4A
330
48
100
AcDbEntity
  8
0
100
AcDbBlockBegin
  2
block 5
 70
     0
 10
0.0
 20
0.0
 30
0.0
  3
block 5
  1

  0
ENDBLK
  5
4B
330
48
100
AcDbEntity
  8
0
100
AcDbBlockEnd
  0
BLOCK
  5
4E
330
4C
100
AcDbEntity
  8
0
100
AcDbBlockBegin
  2
block 6
 70
     0
 10
0.0
 20
0.0
 30
0.0
  3
block 6
  1

  0
ENDBLK
  5
4F
330
4C
100
AcDbEntity
  8
0
100
AcDbBlockEnd
  0
BLOCK
  5
52
330
50
100
AcDbEntity
  8
0
100
AcDbBlockBegin
  2
block 7
 70
     0
 10
0.0
 20
0.0
 30
0.0
  3
block 7
  1

  0
INSERT
  5
55
330
50
100
AcDbEntity
  8
Layer 1
100
AcDbBlockReference
  2
block 8
 10
0.0
 20
0.0
 30
0.0
  0
INSERT
  5
59
330
50
100
AcDbEntity
  8
Layer 1
100
AcDbBlockReference
  2
block 9
 10
0.0
 20
0.0
 30
0.0
  0
ENDBLK
  5
53
330
50
100
AcDbEntity
  8
0
100
AcDbBlockEnd
  0
BLOCK
  5
56
330
54
100
AcDbEntity
  8
0
100
AcDbBlockBegin
  2
block 8
 70
     0
 10
0.0
 20
0.0
 30
0.0
  3
block 8
  1

  0
ENDBLK
  5
57
330
54
100
AcDbEntity
  8
0
100
AcDbBlockEnd
  0
BLOCK
  5
5A
330
58
100
AcDbEntity
  8
0
100
AcDbBlockBegin
  2
block 9
 70
     0
 10
0.0
 20
0.0
 30
0.0
  3
block 9
  1

  0
ENDBLK
  5
5B
330
58
100
AcDbEntity
  8
0
100
AcDbBlockEnd
  0
BLOCK
  5
68
330
66
100
AcDbEntity
  8
0
100
AcDbBlockBegin
  2
block 10
 70
     0
 10
0.0
 20
0.0
 30
0.0
  3
block 10
  1

  0
SPLINE
  5
6A
330
66
100
AcDbEntity
  8
Layer 1
 62
   250
370
     9
100
AcDbSpline
210
0.0
220
0.0
230
1.0
 70
     9
 71
     3
 72
    44
 73
    40
 74
     0
 42
0.000000001
 43
0.0000000001
 40
0.0
 40
0.0
 40
0.0
 40
0.0
 40
1.0
 40
1.0
 40
1.0
 40
2.0
 40
2.0
 40
2.0
 40
3.0
 40
3.0
 40
3.0
 40
4.0
 40
4.0
 40
4.0
 40
5.0
 40
5.0
 40
5.0
 40
6.0
 40
6.0
 40
6.0
 40
7.0
 40
7.0
 40
7.0
 40
8.0
 40
8.0
 40
8.0
 40
9.0
 40
9.0
 40
9.0
 40
10.0
 40
10.0
 40
10.0
 40
11.0
 40
11.0
 40
11.0
 40
12.0
 40
12.0
 40
12.0
 40
13.0
 40
13.0
 40
13.0
 40
13.0
 10
111.1007120490477
 20
-53.71145018188464
 30
0.0
 10
111.1007120490477
 20
-53.71145018188464
 30
0.0
 10
110.6004841845894
 20
-53.95260686585213
 30
0.0
 10
110.2819851069781
 20
-53.71145018188464
 30
0.0
 10
110.2819851069781
 20
-53.71145018188464
 30
0.0
 10
110.1571003956378
 20
-53.56038274485643
 30
0.0
 10
108.9857679306528
 20
-53.55039196794921
 30
0.0
 10
108.9857679306528
 20
-53.55039196794921
 30
0.0
 10
102.3451741280595
 20
-53.55039196794921
 30
0.0
 10
102.3451741280595
 20
-53.55039196794921
 30
0.0
 10
102.3451741280595
 20
-53.55039196794921
 30
0.0
 10
102.1419134944298
 20
-53.54281275788166
 30
0.0
 10
101.792925321774
 20
-53.6895738255533
 30
0.0
 10
101.792925321774
 20
-53.6895738255533
 30
0.0
 10
101.5703721534268
 20
-53.84994302039168
 30
0.0
 10
101.0713500723884
 20
-53.68440618232543
 30
0.0
 10
101.0713500723884
 20
-53.68440618232543
 30
0.0
 10
100.8579264070772
 20
-53.64203150785685
 30
0.0
 10
100.8782524704401
 20
-53.05774331355848
 30
0.0
 10
100.8782524704401
 20
-53.05774331355848
 30
0.0
 10
100.8524142543008
 20
-51.61080320975354
 30
0.0
 10
100.8593044452713
 20
-49.21077743995425
 30
0.0
 10
100.8593044452713
 20
-49.21077743995425
 30
0.0
 10
100.7733493129143
 20
-47.30529512706256
 30
0.0
 10
101.6399630822289
 20
-47.10668537233791
 30
0.0
 10
101.6399630822289
 20
-47.10668537233791
 30
0.0
 10
101.9917073312729
 20
-47.04984129683128
 30
0.0
 10
108.9272013074036
 20
-46.53100991675266
 30
0.0
 10
108.9272013074036
 20
-46.53100991675266
 30
0.0
 10
110.4048027610272
 20
-46.34221868416097
 30
0.0
 10
110.6320068082795
 20
-46.94562715840248
 30
0.0
 10
110.6320068082795
 20
-46.94562715840248
 30
0.0
 10
111.0641940369041
 20
-47.44861109924896
 30
0.0
 10
111.0895154887207
 20
-48.98529594044465
 30
0.0
 10
111.0895154887207
 20
-48.98529594044465
 30
0.0
 10
111.2621147725317
 20
-51.58341470064581
 30
0.0
 10
111.2598754604663
 20
-52.70565455496595
 30
0.0
 10
111.2598754604663
 20
-52.70565455496595
 30
0.0
 10
111.2939819057702
 20
-53.3593614232921
 30
0.0
 10
111.1007120490477
 20
-53.71145018188464
 30
0.0
  0
POLYLINE
  5
6B
330
66
100
AcDbEntity
  8
Layer 1
 62
   250
370
     9
100
AcDb2dPolyline
 66
     1
 10
0.0
 20
0.0
 30
0.0
  0
VERTEX
  5
6C
330
6B
100
AcDbEntity
  8
Layer 1
 62
   250
370
     9
100
AcDbVertex
100
AcDb2dVertex
 10
100.9018513745141
 20
-52.13428546873727
 30
0.0
  0
VERTEX
  5
113
330
6B
100
AcDbEntity
  8
0
100
AcDbVertex
100
AcDb2dVertex
 10
100.9018513745141
 20
-52.13428546873727
 30
0.0
  0
SEQEND
  5
6D
330
6B
100
AcDbEntity
  8
Layer 1
370
     9
  0
POLYLINE
  5
6E
330
66
100
AcDbEntity
  8
Layer 1
 62
   250
370
     9
100
AcDb2dPolyline
 66
     1
 10
0.0
 20
0.0
 30
0.0
  0
VERTEX
  5
6F
330
6E
100
AcDbEntity
  8
Layer 1
 62
   250
370
     9
100
AcDbVertex
100
AcDb2dVertex
 10
107.9241617568731
 20
-52.13428546873727
 30
0.0
  0
VERTEX
  5
114
330
6E
100
AcDbEntity
  8
0
100
AcDbVertex
100
AcDb2dVertex
 10
107.9241617568731
 20
-52.13428546873727
 30
0.0
  0
SEQEND
  5
70
330
6E
100
AcDbEntity
  8
Layer 1
370
     9
  0
POLYLINE
  5
71
330
66
100
AcDbEntity
  8
Layer 1
 62
   250
370
     9
100
AcDb2dPolyline
 66
     1
 10
0.0
 20
0.0
 30
0.0
  0
VERTEX
  5
72
330
71
100
AcDbEntity
  8
Layer 1
 62
   250
370
     9
100
AcDbVertex
100
AcDb2dVertex
 10
111.1789157165629
 20
-53.51559650354818
 30
0.0
  0
VERTEX
  5
73
330
71
100
AcDbEntity
  8
Layer 1
 62
   250
370
     9
100
AcDbVertex
100
AcDb2dVertex
 10
111.2602199700148
 20
-57.76529403937813
 30
0.0
  0
VERTEX
  5
74
330
71
100
AcDbEntity
  8
Layer 1
 62
   250
370
     9
100
AcDbVertex
100
AcDb2dVertex
 10
110.7529296598118
 20
-57.76529403937813
 30
0.0
  0
VERTEX
  5
75
330
71
100
AcDbEntity
  8
Layer 1
 62
   250
370
     9
100
AcDbVertex
100
AcDb2dVertex
 10
110.4371866585886
 20
-53.79947237153277
 30
0.0
  0
SEQEND
  5
76
330
71
100
AcDbEntity
  8
Layer 1
370
     9
  0
POLYLINE
  5
77
330
66
100
AcDbEntity
  8
Layer 1
 62
   250
370
     9
100
AcDb2dPolyline
 66
     1
 10
0.0
 20
0.0
 30
0.0
  0
VERTEX
  5
78
330
77
100
AcDbEntity
  8
Layer 1
 62
   250
370
     9
100
AcDbVertex
100
AcDb2dVertex
 10
101.5162841543084
 20
-53.75882024480683
 30
0.0
  0
VERTEX
  5
79
330
77
100
AcDbEntity
  8
Layer 1
 62
   250
370
     9
100
AcDbVertex
100
AcDb2dVertex
 10
101.2100151656697
 20
-57.76529403937813
 30
0.0
  0
VERTEX
  5
7A
330
77
100
AcDbEntity
  8
Layer 1
 62
   250
370
     9
100
AcDbVertex
100
AcDb2dVertex
 10
100.693078588108
 20
-57.76529403937813
 30
0.0
  0
VERTEX
  5
7B
330
77
100
AcDbEntity
  8
Layer 1
 62
   250
370
     9
100
AcDbVertex
100
AcDb2dVertex
 10
100.9018513745141
 20
-53.41017658169953
 30
0.0
  0
SEQEND
  5
7C
330
77
100
AcDbEntity
  8
Layer 1
370
     9
  0
ENDBLK
  5
69
330
66
100
AcDbEntity
  8
0
100
AcDbBlockEnd
  0
BLOCK
  5
81
330
7F
100
AcDbEntity
  8
0
100
AcDbBlockBegin
  2
block 11
 70
     0
 10
0.0
 20
0.0
 30
0.0
  3
block 11
  1

  0
POLYLINE
  5
83
330
7F
100
AcDbEntity
  8
Layer 1
 62
   250
370
     9
100
AcDb2dPolyline
 66
     1
 10
0.0
 20
0.0
 30
0.0
  0
VERTEX
  5
84
330
83
100
AcDbEntity
  8
Layer 1
 62
   250
370
     9
100
AcDbVertex
100
AcDb2dVertex
 10
149.9412353140772
 20
-49.0920939004874
 30
0.0
  0
VERTEX
  5
115
330
83
100
AcDbEntity
  8
0
100
AcDbVertex
100
AcDb2dVertex
 10
149.9412353140772
 20
-49.0920939004874
 30
0.0
  0
SEQEND
  5
85
330
83
100
AcDbEntity
  8
Layer 1
370
     9
  0
SPLINE
  5
86
330
7F
100
AcDbEntity
  8
Layer 1
 62
   250
370
     9
100
AcDbSpline
210
0.0
220
0.0
230
1.0
 70
     8
 71
     3
 72
    26
 73
    22
 74
     0
 42
0.000000001
 43
0.0000000001
 40
0.0
 40
0.0
 40
0.0
 40
0.0
 40
1.0
 40
1.0
 40
1.0
 40
2.0
 40
2.0
 40
2.0
 40
3.0
 40
3.0
 40
3.0
 40
4.0
 40
4.0
 40
4.0
 40
5.0
 40
5.0
 40
5.0
 40
6.0
 40
6.0
 40
6.0
 40
7.0
 40
7.0
 40
7.0
 40
7.0
 10
145.8594861831532
 20
-46.31190184389078
 30
0.0
 10
145.8594861831532
 20
-46.31190184389078
 30
0.0
 10
142.0147596216143
 20
-46.31190184389078
 30
0.0
 10
141.8077093829508
 20
-46.93201903123575
 30
0.0
 10
141.8077093829508
 20
-46.93201903123575
 30
0.0
 10
141.3326307155349
 20
-47.22140705199673
 30
0.0
 10
141.0432426947739
 20
-48.86454534368664
 30
0.0
 10
141.0432426947739
 20
-48.86454534368664
 30
0.0
 10
141.0019015489509
 20
-51.91345484813275
 30
0.0
 10
140.8882133979377
 20
-53.01933049889795
 30
0.0
 10
140.8882133979377
 20
-53.01933049889795
 30
0.0
 10
140.6753064969492
 20
-53.30355087643106
 30
0.0
 10
140.8675428250261
 20
-53.72195772311465
 30
0.0
 10
140.8675428250261
 20
-53.72195772311465
 30
0.0
 10
141.0887179551792
 20
-53.97878959154002
 30
0.0
 10
141.6116834498401
 20
-53.72195772311465
 30
0.0
 10
141.6116834498401
 20
-53.72195772311465
 30
0.0
 10
141.7253716008534
 20
-53.56692842627841
 30
0.0
 10
142.7899061057956
 20
-53.55693764937118
 30
0.0
 10
142.7899061057956
 20
-53.55693764937118
 30
0.0
 10
145.8977267430394
 20
-53.55693764937118
 30
0.0
 10
145.8977267430394
 20
-53.55693764937118
 30
0.0
  0
SPLINE
  5
87
330
7F
100
AcDbEntity
  8
Layer 1
 62
   250
370
     9
100
AcDbSpline
210
0.0
220
0.0
230
1.0
 70
     8
 71
     3
 72
     8
 73
     4
 74
     0
 42
0.000000001
 43
0.0000000001
 40
0.0
 40
0.0
 40
0.0
 40
0.0
 40
1.0
 40
1.0
 40
1.0
 40
1.0
 10
142.2958794132108
 20
-46.65021022054231
 30
0.0
 10
142.2958794132108
 20
-46.65021022054231
 30
0.0
 10
143.0503553244804
 20
-48.8619615220727
 30
0.0
 10
142.8539848818212
 20
-51.74516193367829
 30
0.0
  0
SPLINE
  5
88
330
7F
100
AcDbEntity
  8
Layer 1
 62
   250
370
     9
100
AcDbSpline
210
0.0
220
0.0
230
1.0
 70
     8
 71
     3
 72
     8
 73
     4
 74
     0
 42
0.000000001
 43
0.0000000001
 40
0.0
 40
0.0
 40
0.0
 40
0.0
 40
1.0
 40
1.0
 40
1.0
 40
1.0
 10
141.9010714706011
 20
-52.37837048386722
 30
0.0
 10
141.9010714706011
 20
-52.37837048386722
 30
0.0
 10
141.6798963404481
 20
-52.6975585805756
 30
0.0
 10
141.8211452553433
 20
-53.63875866714586
 30
0.0
  0
POLYLINE
  5
89
330
7F
100
AcDbEntity
  8
Layer 1
 62
   250
370
     9
100
AcDb2dPolyline
 66
     1
 10
0.0
 20
0.0
 30
0.0
  0
VERTEX
  5
8A
330
89
100
AcDbEntity
  8
Layer 1
 62
   250
370
     9
100
AcDbVertex
100
AcDb2dVertex
 10
141.6564696911484
 20
-52.21111109805834
 30
0.0
  0
VERTEX
  5
8B
330
89
100
AcDbEntity
  8
Layer 1
 62
   250
370
     9
100
AcDbVertex
100
AcDb2dVertex
 10
145.8563855972164
 20
-52.21111109805834
 30
0.0
  0
SEQEND
  5
8C
330
89
100
AcDbEntity
  8
Layer 1
370
     9
  0
SPLINE
  5
8D
330
7F
100
AcDbEntity
  8
Layer 1
 62
   250
370
     9
100
AcDbSpline
210
0.0
220
0.0
230
1.0
 70
     8
 71
     3
 72
    14
 73
    10
 74
     0
 42
0.000000001
 43
0.0000000001
 40
0.0
 40
0.0
 40
0.0
 40
0.0
 40
1.0
 40
1.0
 40
1.0
 40
2.0
 40
2.0
 40
2.0
 40
3.0
 40
3.0
 40
3.0
 40
3.0
 10
140.9708956895836
 20
-53.83220077864264
 30
0.0
 10
140.9708956895836
 20
-53.83220077864264
 30
0.0
 10
140.8882133979377
 20
-57.65952960798095
 30
0.0
 10
140.8882133979377
 20
-57.65952960798095
 30
0.0
 10
140.8882133979377
 20
-57.65952960798095
 30
0.0
 10
141.1669216226944
 20
-57.89741345123745
 30
0.0
 10
141.4359835800924
 20
-57.65952960798095
 30
0.0
 10
141.4359835800924
 20
-57.65952960798095
 30
0.0
 10
141.6116834498401
 20
-53.72195772311465
 30
0.0
 10
141.6116834498401
 20
-53.72195772311465
 30
0.0
  0
SPLINE
  5
8E
330
7F
100
AcDbEntity
  8
Layer 1
 62
   250
370
     9
100
AcDbSpline
210
0.0
220
0.0
230
1.0
 70
     8
 71
     3
 72
    26
 73
    22
 74
     0
 42
0.000000001
 43
0.0000000001
 40
0.0
 40
0.0
 40
0.0
 40
0.0
 40
1.0
 40
1.0
 40
1.0
 40
2.0
 40
2.0
 40
2.0
 40
3.0
 40
3.0
 40
3.0
 40
4.0
 40
4.0
 40
4.0
 40
5.0
 40
5.0
 40
5.0
 40
6.0
 40
6.0
 40
6.0
 40
7.0
 40
7.0
 40
7.0
 40
7.0
 10
145.8188340564272
 20
-46.31190184389078
 30
0.0
 10
145.8188340564272
 20
-46.31190184389078
 30
0.0
 10
149.663560617966
 20
-46.31190184389078
 30
0.0
 10
149.870266347081
 20
-46.93201903123575
 30
0.0
 10
149.870266347081
 20
-46.93201903123575
 30
0.0
 10
150.3450005049485
 20
-47.22140705199673
 30
0.0
 10
150.6343885257094
 20
-48.86454534368664
 30
0.0
 10
150.6343885257094
 20
-48.86454534368664
 30
0.0
 10
150.6757296715324
 20
-51.91345484813275
 30
0.0
 10
150.7894178225457
 20
-53.01933049889795
 30
0.0
 10
150.7894178225457
 20
-53.01933049889795
 30
0.0
 10
151.0030137426312
 20
-53.30355087643106
 30
0.0
 10
150.8107774145542
 20
-53.72195772311465
 30
0.0
 10
150.8107774145542
 20
-53.72195772311465
 30
0.0
 10
150.5889132653041
 20
-53.97878959154002
 30
0.0
 10
150.0659477706432
 20
-53.72195772311465
 30
0.0
 10
150.0659477706432
 20
-53.72195772311465
 30
0.0
 10
149.952948638727
 20
-53.56692842627841
 30
0.0
 10
148.8884141337848
 20
-53.55693764937118
 30
0.0
 10
148.8884141337848
 20
-53.55693764937118
 30
0.0
 10
145.7802489869924
 20
-53.55693764937118
 30
0.0
 10
145.7802489869924
 20
-53.55693764937118
 30
0.0
  0
SPLINE
  5
8F
330
7F
100
AcDbEntity
  8
Layer 1
 62
   250
370
     9
100
AcDbSpline
210
0.0
220
0.0
230
1.0
 70
     8
 71
     3
 72
     8
 73
     4
 74
     0
 42
0.000000001
 43
0.0000000001
 40
0.0
 40
0.0
 40
0.0
 40
0.0
 40
1.0
 40
1.0
 40
1.0
 40
1.0
 10
149.3824408263696
 20
-46.65021022054231
 30
0.0
 10
149.3824408263696
 20
-46.65021022054231
 30
0.0
 10
148.6279649151
 20
-48.8619615220727
 30
0.0
 10
148.8243353577592
 20
-51.74516193367829
 30
0.0
  0
SPLINE
  5
90
330
7F
100
AcDbEntity
  8
Layer 1
 62
   250
370
     9
100
AcDbSpline
210
0.0
220
0.0
230
1.0
 70
     8
 71
     3
 72
     8
 73
     4
 74
     0
 42
0.000000001
 43
0.0000000001
 40
0.0
 40
0.0
 40
0.0
 40
0.0
 40
1.0
 40
1.0
 40
1.0
 40
1.0
 10
149.7772487689793
 20
-52.37837048386722
 30
0.0
 10
149.7772487689793
 20
-52.37837048386722
 30
0.0
 10
149.9977348800353
 20
-52.6975585805756
 30
0.0
 10
149.85648596514
 20
-53.63875866714586
 30
0.0
  0
SPLINE
  5
91
330
7F
100
AcDbEntity
  8
Layer 1
 62
   250
370
     9
100
AcDbSpline
210
0.0
220
0.0
230
1.0
 70
     8
 71
     3
 72
    38
 73
    34
 74
     0
 42
0.000000001
 43
0.0000000001
 40
0.0
 40
0.0
 40
0.0
 40
0.0
 40
1.0
 40
1.0
 40
1.0
 40
2.0
 40
2.0
 40
2.0
 40
3.0
 40
3.0
 40
3.0
 40
4.0
 40
4.0
 40
4.0
 40
5.0
 40
5.0
 40
5.0
 40
6.0
 40
6.0
 40
6.0
 40
7.0
 40
7.0
 40
7.0
 40
8.0
 40
8.0
 40
8.0
 40
9.0
 40
9.0
 40
9.0
 40
10.0
 40
10.0
 40
10.0
 40
11.0
 40
11.0
 40
11.0
 40
11.0
 10
145.6768961224349
 20
-52.59971786879452
 30
0.0
 10
147.2375243772531
 20
-52.59558375421222
 30
0.0
 10
149.0847845764441
 20
-52.55424260838921
 30
0.0
 10
149.0847845764441
 20
-52.55424260838921
 30
0.0
 10
150.0969536300105
 20
-52.34736462449997
 30
0.0
 10
150.0659477706432
 20
-52.13049586370349
 30
0.0
 10
150.0659477706432
 20
-52.13049586370349
 30
0.0
 10
150.1906602272093
 20
-52.09931774956197
 30
0.0
 10
149.7131699929536
 20
-51.94859482208229
 30
0.0
 10
149.7131699929536
 20
-51.94859482208229
 30
0.0
 10
149.3617702534582
 20
-51.85506047965777
 30
0.0
 10
148.7702473586407
 20
-51.77634004781981
 30
0.0
 10
148.7702473586407
 20
-51.77634004781981
 30
0.0
 10
148.1342827320636
 20
-51.71518960295662
 30
0.0
 10
146.2305229669146
 20
-51.7832302387903
 30
0.0
 10
146.2305229669146
 20
-51.7832302387903
 30
0.0
 10
146.2305229669146
 20
-51.7832302387903
 30
0.0
 10
145.4474527631173
 20
-51.7832302387903
 30
0.0
 10
145.4474527631173
 20
-51.7832302387903
 30
0.0
 10
145.4474527631173
 20
-51.7832302387903
 30
0.0
 10
143.5436929979682
 20
-51.71518960295662
 30
0.0
 10
142.9077283713911
 20
-51.77634004781981
 30
0.0
 10
142.9077283713911
 20
-51.77634004781981
 30
0.0
 10
142.3165499861222
 20
-51.85506047965777
 30
0.0
 10
141.9651502466267
 20
-51.94859482208229
 30
0.0
 10
141.9651502466267
 20
-51.94859482208229
 30
0.0
 10
141.4876600123711
 20
-52.09931774956197
 30
0.0
 10
141.6116834498401
 20
-52.13049586370349
 30
0.0
 10
141.6116834498401
 20
-52.13049586370349
 30
0.0
 10
141.5806775904729
 20
-52.34736462449997
 30
0.0
 10
142.5935356631363
 20
-52.55424260838921
 30
0.0
 10
142.5935356631363
 20
-52.55424260838921
 30
0.0
 10
144.2754312790353
 20
-52.59558375421222
 30
0.0
 10
145.8357150243049
 20
-52.59971786879452
 30
0.0
  0
POLYLINE
  5
92
330
7F
100
AcDbEntity
  8
Layer 1
 62
   250
370
     9
100
AcDb2dPolyline
 66
     1
 10
0.0
 20
0.0
 30
0.0
  0
VERTEX
  5
93
330
92
100
AcDbEntity
  8
Layer 1
 62
   250
370
     9
100
AcDbVertex
100
AcDb2dVertex
 10
150.021161529335
 20
-52.21111109805834
 30
0.0
  0
VERTEX
  5
94
330
92
100
AcDbEntity
  8
Layer 1
 62
   250
370
     9
100
AcDbVertex
100
AcDb2dVertex
 10
145.8215901328154
 20
-52.21111109805834
 30
0.0
  0
SEQEND
  5
95
330
92
100
AcDbEntity
  8
Layer 1
370
     9
  0
SPLINE
  5
96
330
7F
100
AcDbEntity
  8
Layer 1
 62
   250
370
     9
100
AcDbSpline
210
0.0
220
0.0
230
1.0
 70
     8
 71
     3
 72
    14
 73
    10
 74
     0
 42
0.000000001
 43
0.0000000001
 40
0.0
 40
0.0
 40
0.0
 40
0.0
 40
1.0
 40
1.0
 40
1.0
 40
2.0
 40
2.0
 40
2.0
 40
3.0
 40
3.0
 40
3.0
 40
3.0
 10
150.7074245499967
 20
-53.83220077864264
 30
0.0
 10
150.7074245499967
 20
-53.83220077864264
 30
0.0
 10
150.7894178225457
 20
-57.65952960798095
 30
0.0
 10
150.7894178225457
 20
-57.65952960798095
 30
0.0
 10
150.7894178225457
 20
-57.65952960798095
 30
0.0
 10
150.5103650882404
 20
-57.89741345123745
 30
0.0
 10
150.242336659488
 20
-57.65952960798095
 30
0.0
 10
150.242336659488
 20
-57.65952960798095
 30
0.0
 10
150.0659477706432
 20
-53.72195772311465
 30
0.0
 10
150.0659477706432
 20
-53.72195772311465
 30
0.0
  0
ENDBLK
  5
82
330
7F
100
AcDbEntity
  8
0
100
AcDbBlockEnd
  0
BLOCK
  5
9E
330
9C
100
AcDbEntity
  8
0
100
AcDbBlockBegin
  2
block 12
 70
     0
 10
0.0
 20
0.0
 30
0.0
  3
block 12
  1

  0
SPLINE
  5
A0
330
9C
100
AcDbEntity
  8
Layer 1
 62
   250
370
     9
100
AcDbSpline
210
0.0
220
0.0
230
1.0
 70
     8
 71
     3
 72
     8
 73
     4
 74
     0
 42
0.000000001
 43
0.0000000001
 40
0.0
 40
0.0
 40
0.0
 40
0.0
 40
1.0
 40
1.0
 40
1.0
 40
1.0
 10
179.5414957233438
 20
-48.23495414375724
 30
0.0
 10
179.5414957233438
 20
-48.23495414375724
 30
0.0
 10
180.2849473290607
 20
-48.37344698226427
 30
0.0
 10
180.2849473290607
 20
-49.93631454914787
 30
0.0
  0
SPLINE
  5
A1
330
9C
100
AcDbEntity
  8
Layer 1
 62
   250
370
     9
100
AcDbSpline
210
0.0
220
0.0
230
1.0
 70
     9
 71
     3
 72
    47
 73
    43
 74
     0
 42
0.000000001
 43
0.0000000001
 40
0.0
 40
0.0
 40
0.0
 40
0.0
 40
1.0
 40
1.0
 40
1.0
 40
2.0
 40
2.0
 40
2.0
 40
3.0
 40
3.0
 40
3.0
 40
4.0
 40
4.0
 40
4.0
 40
5.0
 40
5.0
 40
5.0
 40
6.0
 40
6.0
 40
6.0
 40
7.0
 40
7.0
 40
7.0
 40
8.0
 40
8.0
 40
8.0
 40
9.0
 40
9.0
 40
9.0
 40
10.0
 40
10.0
 40
10.0
 40
11.0
 40
11.0
 40
11.0
 40
12.0
 40
12.0
 40
12.0
 40
13.0
 40
13.0
 40
13.0
 40
14.0
 40
14.0
 40
14.0
 40
14.0
 10
183.6955918594581
 20
-49.3368679347144
 30
0.0
 10
186.1533229786353
 20
-49.37631427802051
 30
0.0
 10
186.672843377811
 20
-49.71410589034925
 30
0.0
 10
186.672843377811
 20
-49.71410589034925
 30
0.0
 10
187.4011365633928
 20
-50.22122394577802
 30
0.0
 10
187.3611734557639
 20
-51.1164320076202
 30
0.0
 10
187.3611734557639
 20
-51.1164320076202
 30
0.0
 10
187.3611734557639
 20
-51.1164320076202
 30
0.0
 10
187.8083468497493
 20
-56.62496743376042
 30
0.0
 10
188.1749050093799
 20
-57.10745305646966
 30
0.0
 10
188.5407741499134
 20
-57.59028318872744
 30
0.0
 10
188.6517062245384
 20
-57.10745305646966
 30
0.0
 10
188.6517062245384
 20
-57.10745305646966
 30
0.0
 10
188.8721923355944
 20
-56.57122394419053
 30
0.0
 10
188.1032470232867
 20
-48.9598022338538
 30
0.0
 10
188.1032470232867
 20
-48.9598022338538
 30
0.0
 10
188.0157415979613
 20
-47.2169284278659
 30
0.0
 10
183.6156656442002
 20
-47.19660236450294
 30
0.0
 10
183.6156656442002
 20
-47.19660236450294
 30
0.0
 10
183.6156656442002
 20
-47.19660236450294
 30
0.0
 10
183.6638969809937
 20
-47.19660236450294
 30
0.0
 10
183.6638969809937
 20
-47.19660236450294
 30
0.0
 10
183.6638969809937
 20
-47.19660236450294
 30
0.0
 10
179.2631320081356
 20
-47.2169284278659
 30
0.0
 10
179.1756265828102
 20
-48.9598022338538
 30
0.0
 10
179.1756265828102
 20
-48.9598022338538
 30
0.0
 10
178.4073702895995
 20
-56.57122394419053
 30
0.0
 10
178.6278564006555
 20
-57.10745305646966
 30
0.0
 10
178.6278564006555
 20
-57.10745305646966
 30
0.0
 10
178.7387884752806
 20
-57.59028318872744
 30
0.0
 10
179.1046576158141
 20
-57.10745305646966
 30
0.0
 10
179.4712157754447
 20
-56.62496743376042
 30
0.0
 10
179.9177001503331
 20
-51.1164320076202
 30
0.0
 10
179.9177001503331
 20
-51.1164320076202
 30
0.0
 10
179.9177001503331
 20
-51.1164320076202
 30
0.0
 10
179.8784260618012
 20
-50.22122394577802
 30
0.0
 10
180.606719247383
 20
-49.71410589034925
 30
0.0
 10
180.606719247383
 20
-49.71410589034925
 30
0.0
 10
181.1255506274616
 20
-49.37631427802051
 30
0.0
 10
183.5839707657359
 20
-49.3368679347144
 30
0.0
 10
183.5839707657359
 20
-49.3368679347144
 30
0.0
 10
183.6955918594581
 20
-49.3368679347144
 30
0.0
 10
183.6955918594581
 20
-49.3368679347144
 30
0.0
  0
SPLINE
  5
A2
330
9C
100
AcDbEntity
  8
Layer 1
 62
   250
370
     9
100
AcDbSpline
210
0.0
220
0.0
230
1.0
 70
     8
 71
     3
 72
     8
 73
     4
 74
     0
 42
0.000000001
 43
0.0000000001
 40
0.0
 40
0.0
 40
0.0
 40
0.0
 40
1.0
 40
1.0
 40
1.0
 40
1.0
 10
187.7373778827531
 20
-48.23495414375724
 30
0.0
 10
187.7373778827531
 20
-48.23495414375724
 30
0.0
 10
186.9939262770362
 20
-48.48058945185555
 30
0.0
 10
186.9939262770362
 20
-49.93631454914787
 30
0.0
  0
SPLINE
  5
A3
330
9C
100
AcDbEntity
  8
Layer 1
 62
   250
370
     9
100
AcDbSpline
210
0.0
220
0.0
230
1.0
 70
     8
 71
     3
 72
    26
 73
    22
 74
     0
 42
0.000000001
 43
0.0000000001
 40
0.0
 40
0.0
 40
0.0
 40
0.0
 40
1.0
 40
1.0
 40
1.0
 40
2.0
 40
2.0
 40
2.0
 40
3.0
 40
3.0
 40
3.0
 40
4.0
 40
4.0
 40
4.0
 40
5.0
 40
5.0
 40
5.0
 40
6.0
 40
6.0
 40
6.0
 40
7.0
 40
7.0
 40
7.0
 40
7.0
 10
188.0267659035141
 20
-56.6480495735116
 30
0.0
 10
188.0267659035141
 20
-56.6480495735116
 30
0.0
 10
188.1004909468985
 20
-57.17428790888352
 30
0.0
 10
188.1425211118185
 20
-57.31484780468171
 30
0.0
 10
188.1425211118185
 20
-57.31484780468171
 30
0.0
 10
188.1707708947976
 20
-57.49778237494847
 30
0.0
 10
187.9185899052773
 20
-57.49778237494847
 30
0.0
 10
187.666408915757
 20
-57.49778237494847
 30
0.0
 10
186.0444579613014
 20
-57.76529403937813
 30
0.0
 10
183.6638969809937
 20
-57.76529403937813
 30
0.0
 10
183.6638969809937
 20
-57.76529403937813
 30
0.0
 10
183.6156656442002
 20
-57.76529403937813
 30
0.0
 10
183.6156656442002
 20
-57.76529403937813
 30
0.0
 10
181.2351046638926
 20
-57.76529403937813
 30
0.0
 10
179.613153709437
 20
-57.49778237494847
 30
0.0
 10
179.3609727199167
 20
-57.49778237494847
 30
0.0
 10
179.1087917303964
 20
-57.49778237494847
 30
0.0
 10
179.1370415133754
 20
-57.31484780468171
 30
0.0
 10
179.1370415133754
 20
-57.31484780468171
 30
0.0
 10
179.1790716782955
 20
-57.17428790888352
 30
0.0
 10
179.2527967216798
 20
-56.6480495735116
 30
0.0
 10
179.2527967216798
 20
-56.6480495735116
 30
0.0
  0
SPLINE
  5
A4
330
9C
100
AcDbEntity
  8
Layer 1
 62
   250
370
     9
100
AcDbSpline
210
0.0
220
0.0
230
1.0
 70
     9
 71
     3
 72
    17
 73
    13
 74
     0
 42
0.000000001
 43
0.0000000001
 40
0.0
 40
0.0
 40
0.0
 40
0.0
 40
1.0
 40
1.0
 40
1.0
 40
2.0
 40
2.0
 40
2.0
 40
3.0
 40
3.0
 40
3.0
 40
4.0
 40
4.0
 40
4.0
 40
4.0
 10
181.915855531778
 20
-51.54155679050003
 30
0.0
 10
181.915855531778
 20
-51.399791111282
 30
0.0
 10
181.8028563998618
 20
-51.28489717684892
 30
0.0
 10
181.6636745422577
 20
-51.28489717684892
 30
0.0
 10
181.5244926846536
 20
-51.28489717684892
 30
0.0
 10
181.4114935527374
 20
-51.399791111282
 30
0.0
 10
181.4114935527374
 20
-51.54155679050003
 30
0.0
 10
181.4114935527374
 20
-51.68366697926658
 30
0.0
 10
181.5244926846536
 20
-51.79856091369966
 30
0.0
 10
181.6636745422577
 20
-51.79856091369966
 30
0.0
 10
181.8028563998618
 20
-51.79856091369966
 30
0.0
 10
181.915855531778
 20
-51.68366697926658
 30
0.0
 10
181.915855531778
 20
-51.54155679050003
 30
0.0
  0
SPLINE
  5
A5
330
9C
100
AcDbEntity
  8
Layer 1
 62
   250
370
     9
100
AcDbSpline
210
0.0
220
0.0
230
1.0
 70
     9
 71
     3
 72
    17
 73
    13
 74
     0
 42
0.000000001
 43
0.0000000001
 40
0.0
 40
0.0
 40
0.0
 40
0.0
 40
1.0
 40
1.0
 40
1.0
 40
2.0
 40
2.0
 40
2.0
 40
3.0
 40
3.0
 40
3.0
 40
4.0
 40
4.0
 40
4.0
 40
4.0
 10
181.915855531778
 20
-55.9440443111008
 30
0.0
 10
181.915855531778
 20
-55.80227863188277
 30
0.0
 10
181.8028563998618
 20
-55.68738469744968
 30
0.0
 10
181.6636745422577
 20
-55.68738469744968
 30
0.0
 10
181.5244926846536
 20
-55.68738469744968
 30
0.0
 10
181.4114935527374
 20
-55.80227863188277
 30
0.0
 10
181.4114935527374
 20
-55.9440443111008
 30
0.0
 10
181.4114935527374
 20
-56.08615449986736
 30
0.0
 10
181.5244926846536
 20
-56.20087617952616
 30
0.0
 10
181.6636745422577
 20
-56.20087617952616
 30
0.0
 10
181.8028563998618
 20
-56.20087617952616
 30
0.0
 10
181.915855531778
 20
-56.08615449986736
 30
0.0
 10
181.915855531778
 20
-55.9440443111008
 30
0.0
  0
SPLINE
  5
A6
330
9C
100
AcDbEntity
  8
Layer 1
 62
   250
370
     9
100
AcDbSpline
210
0.0
220
0.0
230
1.0
 70
     9
 71
     3
 72
    17
 73
    13
 74
     0
 42
0.000000001
 43
0.0000000001
 40
0.0
 40
0.0
 40
0.0
 40
0.0
 40
1.0
 40
1.0
 40
1.0
 40
2.0
 40
2.0
 40
2.0
 40
3.0
 40
3.0
 40
3.0
 40
4.0
 40
4.0
 40
4.0
 40
4.0
 10
185.3457925968927
 20
-51.54155679050003
 30
0.0
 10
185.3457925968927
 20
-51.399791111282
 30
0.0
 10
185.4581027097118
 20
-51.28489717684892
 30
0.0
 10
185.597973586413
 20
-51.28489717684892
 30
0.0
 10
185.73646642492
 20
-51.28489717684892
 30
0.0
 10
185.8494655568362
 20
-51.399791111282
 30
0.0
 10
185.8494655568362
 20
-51.54155679050003
 30
0.0
 10
185.8494655568362
 20
-51.68366697926658
 30
0.0
 10
185.73646642492
 20
-51.79856091369966
 30
0.0
 10
185.597973586413
 20
-51.79856091369966
 30
0.0
 10
185.4581027097118
 20
-51.79856091369966
 30
0.0
 10
185.3457925968927
 20
-51.68366697926658
 30
0.0
 10
185.3457925968927
 20
-51.54155679050003
 30
0.0
  0
SPLINE
  5
A7
330
9C
100
AcDbEntity
  8
Layer 1
 62
   250
370
     9
100
AcDbSpline
210
0.0
220
0.0
230
1.0
 70
     9
 71
     3
 72
    17
 73
    13
 74
     0
 42
0.000000001
 43
0.0000000001
 40
0.0
 40
0.0
 40
0.0
 40
0.0
 40
1.0
 40
1.0
 40
1.0
 40
2.0
 40
2.0
 40
2.0
 40
3.0
 40
3.0
 40
3.0
 40
4.0
 40
4.0
 40
4.0
 40
4.0
 10
185.3457925968927
 20
-55.9440443111008
 30
0.0
 10
185.3457925968927
 20
-55.80227863188277
 30
0.0
 10
185.4581027097118
 20
-55.68738469744968
 30
0.0
 10
185.597973586413
 20
-55.68738469744968
 30
0.0
 10
185.7371554440171
 20
-55.68738469744968
 30
0.0
 10
185.8494655568362
 20
-55.80227863188277
 30
0.0
 10
185.8494655568362
 20
-55.9440443111008
 30
0.0
 10
185.8494655568362
 20
-56.08615449986736
 30
0.0
 10
185.7371554440171
 20
-56.20087617952616
 30
0.0
 10
185.597973586413
 20
-56.20087617952616
 30
0.0
 10
185.4581027097118
 20
-56.20087617952616
 30
0.0
 10
185.3457925968927
 20
-56.08615449986736
 30
0.0
 10
185.3457925968927
 20
-55.9440443111008
 30
0.0
  0
ENDBLK
  5
9F
330
9C
100
AcDbEntity
  8
0
100
AcDbBlockEnd
  0
BLOCK
  5
AD
330
AB
100
AcDbEntity
  8
0
100
AcDbBlockBegin
  2
block 13
 70
     0
 10
0.0
 20
0.0
 30
0.0
  3
block 13
  1

  0
SPLINE
  5
AF
330
AB
100
AcDbEntity
  8
Layer 1
 62
   250
370
     9
100
AcDbSpline
210
0.0
220
0.0
230
1.0
 70
     8
 71
     3
 72
     8
 73
     4
 74
     0
 42
0.000000001
 43
0.0000000001
 40
0.0
 40
0.0
 40
0.0
 40
0.0
 40
1.0
 40
1.0
 40
1.0
 40
1.0
 10
179.5414957233438
 20
-80.45917152936437
 30
0.0
 10
179.5414957233438
 20
-80.45917152936437
 30
0.0
 10
180.2849473290607
 20
-80.59766436787141
 30
0.0
 10
180.2849473290607
 20
-82.16053193475501
 30
0.0
  0
SPLINE
  5
B0
330
AB
100
AcDbEntity
  8
Layer 1
 62
   250
370
     9
100
AcDbSpline
210
0.0
220
0.0
230
1.0
 70
     8
 71
     3
 72
     8
 73
     4
 74
     0
 42
0.000000001
 43
0.0000000001
 40
0.0
 40
0.0
 40
0.0
 40
0.0
 40
1.0
 40
1.0
 40
1.0
 40
1.0
 10
187.7373778827531
 20
-80.45917152936437
 30
0.0
 10
187.7373778827531
 20
-80.45917152936437
 30
0.0
 10
186.9939262770362
 20
-80.7048068374627
 30
0.0
 10
186.9939262770362
 20
-82.16053193475501
 30
0.0
  0
SPLINE
  5
B1
330
AB
100
AcDbEntity
  8
Layer 1
 62
   250
370
     9
100
AcDbSpline
210
0.0
220
0.0
230
1.0
 70
     8
 71
     3
 72
    26
 73
    22
 74
     0
 42
0.000000001
 43
0.0000000001
 40
0.0
 40
0.0
 40
0.0
 40
0.0
 40
1.0
 40
1.0
 40
1.0
 40
2.0
 40
2.0
 40
2.0
 40
3.0
 40
3.0
 40
3.0
 40
4.0
 40
4.0
 40
4.0
 40
5.0
 40
5.0
 40
5.0
 40
6.0
 40
6.0
 40
6.0
 40
7.0
 40
7.0
 40
7.0
 40
7.0
 10
188.0267659035141
 20
-88.87226695911875
 30
0.0
 10
188.0267659035141
 20
-88.87226695911875
 30
0.0
 10
188.1004909468985
 20
-89.39850529449065
 30
0.0
 10
188.1425211118185
 20
-89.53906519028885
 30
0.0
 10
188.1425211118185
 20
-89.53906519028885
 30
0.0
 10
188.1707708947976
 20
-89.72199976055561
 30
0.0
 10
187.9185899052773
 20
-89.72199976055561
 30
0.0
 10
187.666408915757
 20
-89.72199976055561
 30
0.0
 10
186.0444579613014
 20
-89.989339170211
 30
0.0
 10
183.6638969809937
 20
-89.989339170211
 30
0.0
 10
183.6638969809937
 20
-89.989339170211
 30
0.0
 10
183.6156656442002
 20
-89.989339170211
 30
0.0
 10
183.6156656442002
 20
-89.989339170211
 30
0.0
 10
181.2351046638926
 20
-89.989339170211
 30
0.0
 10
179.613153709437
 20
-89.72199976055561
 30
0.0
 10
179.3609727199167
 20
-89.72199976055561
 30
0.0
 10
179.1087917303964
 20
-89.72199976055561
 30
0.0
 10
179.1370415133754
 20
-89.53906519028885
 30
0.0
 10
179.1370415133754
 20
-89.53906519028885
 30
0.0
 10
179.1790716782955
 20
-89.39850529449065
 30
0.0
 10
179.2527967216798
 20
-88.87226695911875
 30
0.0
 10
179.2527967216798
 20
-88.87226695911875
 30
0.0
  0
SPLINE
  5
B2
330
AB
100
AcDbEntity
  8
Layer 1
 62
   250
370
     9
100
AcDbSpline
210
0.0
220
0.0
230
1.0
 70
    11
 71
     3
 72
    17
 73
    13
 74
     0
 42
0.000000001
 43
0.0000000001
 40
0.0
 40
0.0
 40
0.0
 40
0.0
 40
1.0
 40
1.0
 40
1.0
 40
2.0
 40
2.0
 40
2.0
 40
3.0
 40
3.0
 40
3.0
 40
4.0
 40
4.0
 40
4.0
 40
4.0
 10
181.915855531778
 20
-83.76577417610716
 30
0.0
 10
181.915855531778
 20
-83.62383624211487
 30
0.0
 10
181.8028563998618
 20
-83.50911456245606
 30
0.0
 10
181.6636745422577
 20
-83.50911456245606
 30
0.0
 10
181.5244926846536
 20
-83.50911456245606
 30
0.0
 10
181.4114935527374
 20
-83.62383624211487
 30
0.0
 10
181.4114935527374
 20
-83.76577417610716
 30
0.0
 10
181.4114935527374
 20
-83.90771211009946
 30
0.0
 10
181.5244926846536
 20
-84.0227782993068
 30
0.0
 10
181.6636745422577
 20
-84.0227782993068
 30
0.0
 10
181.8028563998618
 20
-84.0227782993068
 30
0.0
 10
181.915855531778
 20
-83.90771211009946
 30
0.0
 10
181.915855531778
 20
-83.76577417610716
 30
0.0
  0
SPLINE
  5
B3
330
AB
100
AcDbEntity
  8
Layer 1
 62
   250
370
     9
100
AcDbSpline
210
0.0
220
0.0
230
1.0
 70
     9
 71
     3
 72
    17
 73
    13
 74
     0
 42
0.000000001
 43
0.0000000001
 40
0.0
 40
0.0
 40
0.0
 40
0.0
 40
1.0
 40
1.0
 40
1.0
 40
2.0
 40
2.0
 40
2.0
 40
3.0
 40
3.0
 40
3.0
 40
4.0
 40
4.0
 40
4.0
 40
4.0
 10
181.915855531778
 20
-88.16808944193367
 30
0.0
 10
181.915855531778
 20
-88.0264960174899
 30
0.0
 10
181.8028563998618
 20
-87.9112575735083
 30
0.0
 10
181.6636745422577
 20
-87.9112575735083
 30
0.0
 10
181.5244926846536
 20
-87.9112575735083
 30
0.0
 10
181.4114935527374
 20
-88.0264960174899
 30
0.0
 10
181.4114935527374
 20
-88.16808944193367
 30
0.0
 10
181.4114935527374
 20
-88.31037188547449
 30
0.0
 10
181.5244926846536
 20
-88.4250935651333
 30
0.0
 10
181.6636745422577
 20
-88.4250935651333
 30
0.0
 10
181.8028563998618
 20
-88.4250935651333
 30
0.0
 10
181.915855531778
 20
-88.31037188547449
 30
0.0
 10
181.915855531778
 20
-88.16808944193367
 30
0.0
  0
SPLINE
  5
B4
330
AB
100
AcDbEntity
  8
Layer 1
 62
   250
370
     9
100
AcDbSpline
210
0.0
220
0.0
230
1.0
 70
    11
 71
     3
 72
    17
 73
    13
 74
     0
 42
0.000000001
 43
0.0000000001
 40
0.0
 40
0.0
 40
0.0
 40
0.0
 40
1.0
 40
1.0
 40
1.0
 40
2.0
 40
2.0
 40
2.0
 40
3.0
 40
3.0
 40
3.0
 40
4.0
 40
4.0
 40
4.0
 40
4.0
 10
185.3457925968927
 20
-83.76577417610716
 30
0.0
 10
185.3457925968927
 20
-83.62383624211487
 30
0.0
 10
185.4581027097118
 20
-83.50911456245606
 30
0.0
 10
185.597973586413
 20
-83.50911456245606
 30
0.0
 10
185.73646642492
 20
-83.50911456245606
 30
0.0
 10
185.8494655568362
 20
-83.62383624211487
 30
0.0
 10
185.8494655568362
 20
-83.76577417610716
 30
0.0
 10
185.8494655568362
 20
-83.90771211009946
 30
0.0
 10
185.73646642492
 20
-84.0227782993068
 30
0.0
 10
185.597973586413
 20
-84.0227782993068
 30
0.0
 10
185.4581027097118
 20
-84.0227782993068
 30
0.0
 10
185.3457925968927
 20
-83.90771211009946
 30
0.0
 10
185.3457925968927
 20
-83.76577417610716
 30
0.0
  0
SPLINE
  5
B5
330
AB
100
AcDbEntity
  8
Layer 1
 62
   250
370
     9
100
AcDbSpline
210
0.0
220
0.0
230
1.0
 70
     9
 71
     3
 72
    17
 73
    13
 74
     0
 42
0.000000001
 43
0.0000000001
 40
0.0
 40
0.0
 40
0.0
 40
0.0
 40
1.0
 40
1.0
 40
1.0
 40
2.0
 40
2.0
 40
2.0
 40
3.0
 40
3.0
 40
3.0
 40
4.0
 40
4.0
 40
4.0
 40
4.0
 10
185.3457925968927
 20
-88.16808944193367
 30
0.0
 10
185.3457925968927
 20
-88.0264960174899
 30
0.0
 10
185.4581027097118
 20
-87.9112575735083
 30
0.0
 10
185.597973586413
 20
-87.9112575735083
 30
0.0
 10
185.7371554440171
 20
-87.9112575735083
 30
0.0
 10
185.8494655568362
 20
-88.0264960174899
 30
0.0
 10
185.8494655568362
 20
-88.16808944193367
 30
0.0
 10
185.8494655568362
 20
-88.31037188547449
 30
0.0
 10
185.7371554440171
 20
-88.4250935651333
 30
0.0
 10
185.597973586413
 20
-88.4250935651333
 30
0.0
 10
185.4581027097118
 20
-88.4250935651333
 30
0.0
 10
185.3457925968927
 20
-88.31037188547449
 30
0.0
 10
185.3457925968927
 20
-88.16808944193367
 30
0.0
  0
SPLINE
  5
B6
330
AB
100
AcDbEntity
  8
Layer 1
 62
   250
370
     9
100
AcDbSpline
210
0.0
220
0.0
230
1.0
 70
    11
 71
     3
 72
    71
 73
    67
 74
     0
 42
0.000000001
 43
0.0000000001
 40
0.0
 40
0.0
 40
0.0
 40
0.0
 40
1.0
 40
1.0
 40
1.0
 40
2.0
 40
2.0
 40
2.0
 40
3.0
 40
3.0
 40
3.0
 40
4.0
 40
4.0
 40
4.0
 40
5.0
 40
5.0
 40
5.0
 40
6.0
 40
6.0
 40
6.0
 40
7.0
 40
7.0
 40
7.0
 40
8.0
 40
8.0
 40
8.0
 40
9.0
 40
9.0
 40
9.0
 40
10.0
 40
10.0
 40
10.0
 40
11.0
 40
11.0
 40
11.0
 40
12.0
 40
12.0
 40
12.0
 40
13.0
 40
13.0
 40
13.0
 40
14.0
 40
14.0
 40
14.0
 40
15.0
 40
15.0
 40
15.0
 40
16.0
 40
16.0
 40
16.0
 40
17.0
 40
17.0
 40
17.0
 40
18.0
 40
18.0
 40
18.0
 40
19.0
 40
19.0
 40
19.0
 40
20.0
 40
20.0
 40
20.0
 40
21.0
 40
21.0
 40
21.0
 40
22.0
 40
22.0
 40
22.0
 40
22.0
 10
188.0929117368309
 20
-81.08824596497099
 30
0.0
 10
188.0929117368309
 20
-81.08824596497099
 30
0.0
 10
187.9985161205351
 20
-80.62333032923653
 30
0.0
 10
187.6919026223479
 20
-80.27279186361235
 30
0.0
 10
187.5237819626677
 20
-80.08090004508394
 30
0.0
 10
187.4245632126925
 20
-79.61305607818701
 30
0.0
 10
187.4245632126925
 20
-79.61305607818701
 30
0.0
 10
187.4245632126925
 20
-79.61305607818701
 30
0.0
 10
187.2764241068267
 20
-78.96141626715202
 30
0.0
 10
186.7383001920307
 20
-78.87167152976125
 30
0.0
 10
186.7383001920307
 20
-78.87167152976125
 30
0.0
 10
186.0913112599008
 20
-78.64946287096263
 30
0.0
 10
183.6480495417616
 20
-78.64946287096263
 30
0.0
 10
183.6480495417616
 20
-78.64946287096263
 30
0.0
 10
183.639781312597
 20
-78.64946287096263
 30
0.0
 10
183.639781312597
 20
-78.64946287096263
 30
0.0
 10
181.1965195944578
 20
-78.64946287096263
 30
0.0
 10
180.5495306623279
 20
-78.87167152976125
 30
0.0
 10
180.5495306623279
 20
-78.87167152976125
 30
0.0
 10
180.0114067475319
 20
-78.96141626715202
 30
0.0
 10
179.8384629541723
 20
-79.62494165761113
 30
0.0
 10
179.8384629541723
 20
-79.62494165761113
 30
0.0
 10
179.8384629541723
 20
-79.62494165761113
 30
0.0
 10
179.7633598725939
 20
-80.08090004508394
 30
0.0
 10
179.5952392129137
 20
-80.27279186361235
 30
0.0
 10
179.2886257147264
 20
-80.62333032923653
 30
0.0
 10
179.1949191175277
 20
-81.08824596497099
 30
0.0
 10
179.1949191175277
 20
-81.08824596497099
 30
0.0
 10
179.1949191175277
 20
-81.08824596497099
 30
0.0
 10
179.1756265828102
 20
-81.18401961946094
 30
0.0
 10
179.1756265828102
 20
-81.18401961946094
 30
0.0
 10
179.1756265828102
 20
-81.18401961946094
 30
0.0
 10
178.4073702895995
 20
-88.79544132979766
 30
0.0
 10
178.6278564006555
 20
-89.33167044207682
 30
0.0
 10
178.6278564006555
 20
-89.33167044207682
 30
0.0
 10
178.7387884752806
 20
-89.81450057433457
 30
0.0
 10
179.1046576158141
 20
-89.33167044207682
 30
0.0
 10
179.4712157754447
 20
-88.84918481936756
 30
0.0
 10
179.9177001503331
 20
-83.34064939322734
 30
0.0
 10
179.9177001503331
 20
-83.34064939322734
 30
0.0
 10
179.9177001503331
 20
-83.34064939322734
 30
0.0
 10
179.8784260618012
 20
-82.44544133138516
 30
0.0
 10
180.606719247383
 20
-81.93797876640786
 30
0.0
 10
180.606719247383
 20
-81.93797876640786
 30
0.0
 10
181.1255506274616
 20
-81.60018715407913
 30
0.0
 10
183.5839707657359
 20
-81.56108532032154
 30
0.0
 10
183.5839707657359
 20
-81.56108532032154
 30
0.0
 10
183.6955918594581
 20
-81.56108532032154
 30
0.0
 10
183.6955918594581
 20
-81.56108532032154
 30
0.0
 10
186.1533229786353
 20
-81.60018715407913
 30
0.0
 10
186.672843377811
 20
-81.93797876640786
 30
0.0
 10
186.672843377811
 20
-81.93797876640786
 30
0.0
 10
187.4011365633928
 20
-82.44544133138516
 30
0.0
 10
187.3611734557639
 20
-83.34064939322734
 30
0.0
 10
187.3611734557639
 20
-83.34064939322734
 30
0.0
 10
187.3611734557639
 20
-83.34064939322734
 30
0.0
 10
187.8083468497493
 20
-88.84918481936756
 30
0.0
 10
188.1749050093799
 20
-89.33167044207682
 30
0.0
 10
188.5407741499134
 20
-89.81450057433457
 30
0.0
 10
188.6517062245384
 20
-89.33167044207682
 30
0.0
 10
188.6517062245384
 20
-89.33167044207682
 30
0.0
 10
188.8721923355944
 20
-88.79544132979766
 30
0.0
 10
188.1032470232867
 20
-81.18401961946094
 30
0.0
 10
188.1032470232867
 20
-81.18401961946094
 30
0.0
 10
188.1032470232867
 20
-81.18401961946094
 30
0.0
 10
188.0929117368309
 20
-81.08824596497099
 30
0.0
 10
188.0929117368309
 20
-81.08824596497099
 30
0.0
  0
ENDBLK
  5
AE
330
AB
100
AcDbEntity
  8
0
100
AcDbBlockEnd
  0
BLOCK
  5
BC
330
BA
100
AcDbEntity
  8
0
100
AcDbBlockBegin
  2
block 14
 70
     0
 10
0.0
 20
0.0
 30
0.0
  3
block 14
  1

  0
SPLINE
  5
BE
330
BA
100
AcDbEntity
  8
Layer 1
 62
   250
370
     9
100
AcDbSpline
210
0.0
220
0.0
230
1.0
 70
     8
 71
     3
 72
     8
 73
     4
 74
     0
 42
0.000000001
 43
0.0000000001
 40
0.0
 40
0.0
 40
0.0
 40
0.0
 40
1.0
 40
1.0
 40
1.0
 40
1.0
 10
217.4499484048389
 20
-48.23495414375724
 30
0.0
 10
217.4499484048389
 20
-48.23495414375724
 30
0.0
 10
218.1934000105558
 20
-48.37344698226427
 30
0.0
 10
218.1934000105558
 20
-49.93631454914787
 30
0.0
  0
SPLINE
  5
BF
330
BA
100
AcDbEntity
  8
Layer 1
 62
   250
370
     9
100
AcDbSpline
210
0.0
220
0.0
230
1.0
 70
     9
 71
     3
 72
    17
 73
    13
 74
     0
 42
0.000000001
 43
0.0000000001
 40
0.0
 40
0.0
 40
0.0
 40
0.0
 40
1.0
 40
1.0
 40
1.0
 40
2.0
 40
2.0
 40
2.0
 40
3.0
 40
3.0
 40
3.0
 40
4.0
 40
4.0
 40
4.0
 40
4.0
 10
220.5911864682897
 20
-51.54155679050003
 30
0.0
 10
220.5911864682897
 20
-51.399791111282
 30
0.0
 10
220.4795653745676
 20
-51.28489717684892
 30
0.0
 10
220.3396944978665
 20
-51.28489717684892
 30
0.0
 10
220.2005126402624
 20
-51.28489717684892
 30
0.0
 10
220.0875135083462
 20
-51.399791111282
 30
0.0
 10
220.0875135083462
 20
-51.54155679050003
 30
0.0
 10
220.0875135083462
 20
-51.68366697926658
 30
0.0
 10
220.2005126402624
 20
-51.79856091369966
 30
0.0
 10
220.3396944978665
 20
-51.79856091369966
 30
0.0
 10
220.4795653745676
 20
-51.79856091369966
 30
0.0
 10
220.5911864682897
 20
-51.68366697926658
 30
0.0
 10
220.5911864682897
 20
-51.54155679050003
 30
0.0
  0
SPLINE
  5
C0
330
BA
100
AcDbEntity
  8
Layer 1
 62
   250
370
     9
100
AcDbSpline
210
0.0
220
0.0
230
1.0
 70
     9
 71
     3
 72
    17
 73
    13
 74
     0
 42
0.000000001
 43
0.0000000001
 40
0.0
 40
0.0
 40
0.0
 40
0.0
 40
1.0
 40
1.0
 40
1.0
 40
2.0
 40
2.0
 40
2.0
 40
3.0
 40
3.0
 40
3.0
 40
4.0
 40
4.0
 40
4.0
 40
4.0
 10
227.15891650137
 20
-51.54155679050003
 30
0.0
 10
227.15891650137
 20
-51.399791111282
 30
0.0
 10
227.0466063885509
 20
-51.28489717684892
 30
0.0
 10
226.9067355118497
 20
-51.28489717684892
 30
0.0
 10
226.7675536542456
 20
-51.28489717684892
 30
0.0
 10
226.6545545223294
 20
-51.399791111282
 30
0.0
 10
226.6545545223294
 20
-51.54155679050003
 30
0.0
 10
226.6545545223294
 20
-51.68366697926658
 30
0.0
 10
226.7675536542456
 20
-51.79856091369966
 30
0.0
 10
226.9067355118497
 20
-51.79856091369966
 30
0.0
 10
227.0466063885509
 20
-51.79856091369966
 30
0.0
 10
227.15891650137
 20
-51.68366697926658
 30
0.0
 10
227.15891650137
 20
-51.54155679050003
 30
0.0
  0
SPLINE
  5
C1
330
BA
100
AcDbEntity
  8
Layer 1
 62
   250
370
     9
100
AcDbSpline
210
0.0
220
0.0
230
1.0
 70
     9
 71
     3
 72
    17
 73
    13
 74
     0
 42
0.000000001
 43
0.0000000001
 40
0.0
 40
0.0
 40
0.0
 40
0.0
 40
1.0
 40
1.0
 40
1.0
 40
2.0
 40
2.0
 40
2.0
 40
3.0
 40
3.0
 40
3.0
 40
4.0
 40
4.0
 40
4.0
 40
4.0
 10
227.15891650137
 20
-55.9440443111008
 30
0.0
 10
227.15891650137
 20
-55.80227863188277
 30
0.0
 10
227.0466063885509
 20
-55.68738469744968
 30
0.0
 10
226.9067355118497
 20
-55.68738469744968
 30
0.0
 10
226.7675536542456
 20
-55.68738469744968
 30
0.0
 10
226.6545545223294
 20
-55.80227863188277
 30
0.0
 10
226.6545545223294
 20
-55.9440443111008
 30
0.0
 10
226.6545545223294
 20
-56.08598224509309
 30
0.0
 10
226.7675536542456
 20
-56.20087617952616
 30
0.0
 10
226.9067355118497
 20
-56.20087617952616
 30
0.0
 10
227.0466063885509
 20
-56.20087617952616
 30
0.0
 10
227.15891650137
 20
-56.08598224509309
 30
0.0
 10
227.15891650137
 20
-55.9440443111008
 30
0.0
  0
SPLINE
  5
C2
330
BA
100
AcDbEntity
  8
Layer 1
 62
   250
370
     9
100
AcDbSpline
210
0.0
220
0.0
230
1.0
 70
     9
 71
     3
 72
    17
 73
    13
 74
     0
 42
0.000000001
 43
0.0000000001
 40
0.0
 40
0.0
 40
0.0
 40
0.0
 40
1.0
 40
1.0
 40
1.0
 40
2.0
 40
2.0
 40
2.0
 40
3.0
 40
3.0
 40
3.0
 40
4.0
 40
4.0
 40
4.0
 40
4.0
 10
220.5918754873868
 20
-55.9440443111008
 30
0.0
 10
220.5918754873868
 20
-55.80227863188277
 30
0.0
 10
220.4788763554706
 20
-55.68738469744968
 30
0.0
 10
220.3396944978665
 20
-55.68738469744968
 30
0.0
 10
220.2005126402624
 20
-55.68738469744968
 30
0.0
 10
220.0875135083462
 20
-55.80227863188277
 30
0.0
 10
220.0875135083462
 20
-55.9440443111008
 30
0.0
 10
220.0875135083462
 20
-56.08615449986736
 30
0.0
 10
220.2005126402624
 20
-56.20087617952616
 30
0.0
 10
220.3396944978665
 20
-56.20087617952616
 30
0.0
 10
220.4788763554706
 20
-56.20087617952616
 30
0.0
 10
220.5918754873868
 20
-56.08615449986736
 30
0.0
 10
220.5918754873868
 20
-55.9440443111008
 30
0.0
  0
SPLINE
  5
C3
330
BA
100
AcDbEntity
  8
Layer 1
 62
   250
370
     9
100
AcDbSpline
210
0.0
220
0.0
230
1.0
 70
     8
 71
     3
 72
     8
 73
     4
 74
     0
 42
0.000000001
 43
0.0000000001
 40
0.0
 40
0.0
 40
0.0
 40
0.0
 40
1.0
 40
1.0
 40
1.0
 40
1.0
 10
236.3635226188605
 20
-48.23495414375724
 30
0.0
 10
236.3635226188605
 20
-48.23495414375724
 30
0.0
 10
235.6193819940465
 20
-48.37344698226427
 30
0.0
 10
235.6193819940465
 20
-49.93631454914787
 30
0.0
  0
SPLINE
  5
C4
330
BA
100
AcDbEntity
  8
Layer 1
 62
   250
370
     9
100
AcDbSpline
210
0.0
220
0.0
230
1.0
 70
    11
 71
     3
 72
    53
 73
    49
 74
     0
 42
0.000000001
 43
0.0000000001
 40
0.0
 40
0.0
 40
0.0
 40
0.0
 40
1.0
 40
1.0
 40
1.0
 40
2.0
 40
2.0
 40
2.0
 40
3.0
 40
3.0
 40
3.0
 40
4.0
 40
4.0
 40
4.0
 40
5.0
 40
5.0
 40
5.0
 40
6.0
 40
6.0
 40
6.0
 40
7.0
 40
7.0
 40
7.0
 40
8.0
 40
8.0
 40
8.0
 40
9.0
 40
9.0
 40
9.0
 40
10.0
 40
10.0
 40
10.0
 40
11.0
 40
11.0
 40
11.0
 40
12.0
 40
12.0
 40
12.0
 40
13.0
 40
13.0
 40
13.0
 40
14.0
 40
14.0
 40
14.0
 40
15.0
 40
15.0
 40
15.0
 40
16.0
 40
16.0
 40
16.0
 40
16.0
 10
232.2893526980041
 20
-47.19660236450294
 30
0.0
 10
232.2893526980041
 20
-47.19660236450294
 30
0.0
 10
236.6411973149717
 20
-47.2169284278659
 30
0.0
 10
236.729391759394
 20
-48.9598022338538
 30
0.0
 10
236.729391759394
 20
-48.9598022338538
 30
0.0
 10
237.4983370717018
 20
-56.57122394419053
 30
0.0
 10
237.2771619415487
 20
-57.10745305646966
 30
0.0
 10
237.2771619415487
 20
-57.10745305646966
 30
0.0
 10
237.1662298669237
 20
-57.59028318872744
 30
0.0
 10
236.7996717072931
 20
-57.10745305646966
 30
0.0
 10
236.4344915858567
 20
-56.62496743376042
 30
0.0
 10
235.9866291727742
 20
-51.1164320076202
 30
0.0
 10
235.9866291727742
 20
-51.1164320076202
 30
0.0
 10
235.9866291727742
 20
-51.1164320076202
 30
0.0
 10
236.025903261306
 20
-50.22122394577802
 30
0.0
 10
235.2982990948213
 20
-49.71410589034925
 30
0.0
 10
235.2982990948213
 20
-49.71410589034925
 30
0.0
 10
234.7794677147426
 20
-49.37631427802051
 30
0.0
 10
232.3210475764684
 20
-49.3368679347144
 30
0.0
 10
232.3210475764684
 20
-49.3368679347144
 30
0.0
 10
232.2094264827462
 20
-49.3368679347144
 30
0.0
 10
232.2094264827462
 20
-49.3368679347144
 30
0.0
 10
232.2094264827462
 20
-49.3368679347144
 30
0.0
 10
221.6033555218561
 20
-49.3368679347144
 30
0.0
 10
221.6033555218561
 20
-49.3368679347144
 30
0.0
 10
221.6033555218561
 20
-49.3368679347144
 30
0.0
 10
221.491734428134
 20
-49.3368679347144
 30
0.0
 10
221.491734428134
 20
-49.3368679347144
 30
0.0
 10
219.0340033089568
 20
-49.37631427802051
 30
0.0
 10
218.5151719288782
 20
-49.71410589034925
 30
0.0
 10
218.5151719288782
 20
-49.71410589034925
 30
0.0
 10
217.7868787432963
 20
-50.22122394577802
 30
0.0
 10
217.8268418509252
 20
-51.1164320076202
 30
0.0
 10
217.8268418509252
 20
-51.1164320076202
 30
0.0
 10
217.8268418509252
 20
-51.1164320076202
 30
0.0
 10
217.3796684569398
 20
-56.62496743376042
 30
0.0
 10
217.0131102973092
 20
-57.10745305646966
 30
0.0
 10
216.6472411567757
 20
-57.59028318872744
 30
0.0
 10
216.5356200630536
 20
-57.10745305646966
 30
0.0
 10
216.5356200630536
 20
-57.10745305646966
 30
0.0
 10
216.3151339519976
 20
-56.57122394419053
 30
0.0
 10
217.0840792643054
 20
-48.9598022338538
 30
0.0
 10
217.0840792643054
 20
-48.9598022338538
 30
0.0
 10
217.1715846896307
 20
-47.2169284278659
 30
0.0
 10
221.5241183256954
 20
-47.19660236450294
 30
0.0
 10
221.5241183256954
 20
-47.19660236450294
 30
0.0
 10
221.5241183256954
 20
-47.19660236450294
 30
0.0
 10
232.2893526980041
 20
-47.19660236450294
 30
0.0
 10
232.2893526980041
 20
-47.19660236450294
 30
0.0
  0
SPLINE
  5
C5
330
BA
100
AcDbEntity
  8
Layer 1
 62
   250
370
     9
100
AcDbSpline
210
0.0
220
0.0
230
1.0
 70
     8
 71
     3
 72
    32
 73
    28
 74
     0
 42
0.000000001
 43
0.0000000001
 40
0.0
 40
0.0
 40
0.0
 40
0.0
 40
1.0
 40
1.0
 40
1.0
 40
2.0
 40
2.0
 40
2.0
 40
3.0
 40
3.0
 40
3.0
 40
4.0
 40
4.0
 40
4.0
 40
5.0
 40
5.0
 40
5.0
 40
6.0
 40
6.0
 40
6.0
 40
7.0
 40
7.0
 40
7.0
 40
8.0
 40
8.0
 40
8.0
 40
9.0
 40
9.0
 40
9.0
 40
9.0
 10
217.160560384078
 20
-56.6480495735116
 30
0.0
 10
217.160560384078
 20
-56.6480495735116
 30
0.0
 10
217.0868353406936
 20
-57.17428790888352
 30
0.0
 10
217.0448051757735
 20
-57.31484780468171
 30
0.0
 10
217.0448051757735
 20
-57.31484780468171
 30
0.0
 10
217.0172444118915
 20
-57.49778237494847
 30
0.0
 10
217.2687363823147
 20
-57.49778237494847
 30
0.0
 10
217.520917371835
 20
-57.49778237494847
 30
0.0
 10
219.1428683262907
 20
-57.76529403937813
 30
0.0
 10
221.5241183256954
 20
-57.76529403937813
 30
0.0
 10
221.5241183256954
 20
-57.76529403937813
 30
0.0
 10
221.5716606433918
 20
-57.76529403937813
 30
0.0
 10
221.5716606433918
 20
-57.76529403937813
 30
0.0
 10
221.5716606433918
 20
-57.76529403937813
 30
0.0
 10
232.2411213612106
 20
-57.76529403937813
 30
0.0
 10
232.2411213612106
 20
-57.76529403937813
 30
0.0
 10
232.2411213612106
 20
-57.76529403937813
 30
0.0
 10
232.2893526980041
 20
-57.76529403937813
 30
0.0
 10
232.2893526980041
 20
-57.76529403937813
 30
0.0
 10
234.6699136783117
 20
-57.76529403937813
 30
0.0
 10
236.2925536518644
 20
-57.49778237494847
 30
0.0
 10
236.5440456222876
 20
-57.49778237494847
 30
0.0
 10
236.7962266118079
 20
-57.49778237494847
 30
0.0
 10
236.7686658479259
 20
-57.31484780468171
 30
0.0
 10
236.7686658479259
 20
-57.31484780468171
 30
0.0
 10
236.7259466639088
 20
-57.17428790888352
 30
0.0
 10
236.6522216205245
 20
-56.6480495735116
 30
0.0
 10
236.6522216205245
 20
-56.6480495735116
 30
0.0
  0
SPLINE
  5
C6
330
BA
100
AcDbEntity
  8
Layer 1
 62
   250
370
     9
100
AcDbSpline
210
0.0
220
0.0
230
1.0
 70
     9
 71
     3
 72
    17
 73
    13
 74
     0
 42
0.000000001
 43
0.0000000001
 40
0.0
 40
0.0
 40
0.0
 40
0.0
 40
1.0
 40
1.0
 40
1.0
 40
2.0
 40
2.0
 40
2.0
 40
3.0
 40
3.0
 40
3.0
 40
4.0
 40
4.0
 40
4.0
 40
4.0
 10
233.2215955363126
 20
-51.54155679050003
 30
0.0
 10
233.2215955363126
 20
-51.399791111282
 30
0.0
 10
233.3345946682289
 20
-51.28489717684892
 30
0.0
 10
233.4730875067359
 20
-51.28489717684892
 30
0.0
 10
233.612958383437
 20
-51.28489717684892
 30
0.0
 10
233.7259575153532
 20
-51.399791111282
 30
0.0
 10
233.7259575153532
 20
-51.54155679050003
 30
0.0
 10
233.7259575153532
 20
-51.68366697926658
 30
0.0
 10
233.612958383437
 20
-51.79856091369966
 30
0.0
 10
233.4730875067359
 20
-51.79856091369966
 30
0.0
 10
233.3345946682289
 20
-51.79856091369966
 30
0.0
 10
233.2215955363126
 20
-51.68366697926658
 30
0.0
 10
233.2215955363126
 20
-51.54155679050003
 30
0.0
  0
SPLINE
  5
C7
330
BA
100
AcDbEntity
  8
Layer 1
 62
   250
370
     9
100
AcDbSpline
210
0.0
220
0.0
230
1.0
 70
     9
 71
     3
 72
    17
 73
    13
 74
     0
 42
0.000000001
 43
0.0000000001
 40
0.0
 40
0.0
 40
0.0
 40
0.0
 40
1.0
 40
1.0
 40
1.0
 40
2.0
 40
2.0
 40
2.0
 40
3.0
 40
3.0
 40
3.0
 40
4.0
 40
4.0
 40
4.0
 40
4.0
 10
233.2215955363126
 20
-55.9440443111008
 30
0.0
 10
233.2215955363126
 20
-55.80227863188277
 30
0.0
 10
233.3345946682289
 20
-55.68738469744968
 30
0.0
 10
233.4730875067359
 20
-55.68738469744968
 30
0.0
 10
233.61226936434
 20
-55.68738469744968
 30
0.0
 10
233.7259575153532
 20
-55.80227863188277
 30
0.0
 10
233.7259575153532
 20
-55.9440443111008
 30
0.0
 10
233.7259575153532
 20
-56.08615449986736
 30
0.0
 10
233.61226936434
 20
-56.20087617952616
 30
0.0
 10
233.4730875067359
 20
-56.20087617952616
 30
0.0
 10
233.3345946682289
 20
-56.20087617952616
 30
0.0
 10
233.2215955363126
 20
-56.08615449986736
 30
0.0
 10
233.2215955363126
 20
-55.9440443111008
 30
0.0
  0
ENDBLK
  5
BD
330
BA
100
AcDbEntity
  8
0
100
AcDbBlockEnd
  0
BLOCK
  5
CD
330
CB
100
AcDbEntity
  8
0
100
AcDbBlockBegin
  2
block 15
 70
     0
 10
0.0
 20
0.0
 30
0.0
  3
block 15
  1

  0
SPLINE
  5
CF
330
CB
100
AcDbEntity
  8
Layer 1
 62
   250
370
     9
100
AcDbSpline
210
0.0
220
0.0
230
1.0
 70
     8
 71
     3
 72
     8
 73
     4
 74
     0
 42
0.000000001
 43
0.0000000001
 40
0.0
 40
0.0
 40
0.0
 40
0.0
 40
1.0
 40
1.0
 40
1.0
 40
1.0
 10
217.4499484048389
 20
-80.45917152936437
 30
0.0
 10
217.4499484048389
 20
-80.45917152936437
 30
0.0
 10
218.1934000105558
 20
-80.59766436787141
 30
0.0
 10
218.1934000105558
 20
-82.16053193475501
 30
0.0
  0
SPLINE
  5
D0
330
CB
100
AcDbEntity
  8
Layer 1
 62
   250
370
     9
100
AcDbSpline
210
0.0
220
0.0
230
1.0
 70
    11
 71
     3
 72
    17
 73
    13
 74
     0
 42
0.000000001
 43
0.0000000001
 40
0.0
 40
0.0
 40
0.0
 40
0.0
 40
1.0
 40
1.0
 40
1.0
 40
2.0
 40
2.0
 40
2.0
 40
3.0
 40
3.0
 40
3.0
 40
4.0
 40
4.0
 40
4.0
 40
4.0
 10
220.5911864682897
 20
-83.76577417610716
 30
0.0
 10
220.5911864682897
 20
-83.62383624211487
 30
0.0
 10
220.4795653745676
 20
-83.50911456245606
 30
0.0
 10
220.3396944978665
 20
-83.50911456245606
 30
0.0
 10
220.2005126402624
 20
-83.50911456245606
 30
0.0
 10
220.0875135083462
 20
-83.62383624211487
 30
0.0
 10
220.0875135083462
 20
-83.76577417610716
 30
0.0
 10
220.0875135083462
 20
-83.90771211009946
 30
0.0
 10
220.2005126402624
 20
-84.0227782993068
 30
0.0
 10
220.3396944978665
 20
-84.0227782993068
 30
0.0
 10
220.4795653745676
 20
-84.0227782993068
 30
0.0
 10
220.5911864682897
 20
-83.90771211009946
 30
0.0
 10
220.5911864682897
 20
-83.76577417610716
 30
0.0
  0
SPLINE
  5
D1
330
CB
100
AcDbEntity
  8
Layer 1
 62
   250
370
     9
100
AcDbSpline
210
0.0
220
0.0
230
1.0
 70
    11
 71
     3
 72
    17
 73
    13
 74
     0
 42
0.000000001
 43
0.0000000001
 40
0.0
 40
0.0
 40
0.0
 40
0.0
 40
1.0
 40
1.0
 40
1.0
 40
2.0
 40
2.0
 40
2.0
 40
3.0
 40
3.0
 40
3.0
 40
4.0
 40
4.0
 40
4.0
 40
4.0
 10
227.15891650137
 20
-83.76577417610716
 30
0.0
 10
227.15891650137
 20
-83.62383624211487
 30
0.0
 10
227.0466063885509
 20
-83.50911456245606
 30
0.0
 10
226.9067355118497
 20
-83.50911456245606
 30
0.0
 10
226.7675536542456
 20
-83.50911456245606
 30
0.0
 10
226.6545545223294
 20
-83.62383624211487
 30
0.0
 10
226.6545545223294
 20
-83.76577417610716
 30
0.0
 10
226.6545545223294
 20
-83.90771211009946
 30
0.0
 10
226.7675536542456
 20
-84.0227782993068
 30
0.0
 10
226.9067355118497
 20
-84.0227782993068
 30
0.0
 10
227.0466063885509
 20
-84.0227782993068
 30
0.0
 10
227.15891650137
 20
-83.90771211009946
 30
0.0
 10
227.15891650137
 20
-83.76577417610716
 30
0.0
  0
SPLINE
  5
D2
330
CB
100
AcDbEntity
  8
Layer 1
 62
   250
370
     9
100
AcDbSpline
210
0.0
220
0.0
230
1.0
 70
     9
 71
     3
 72
    17
 73
    13
 74
     0
 42
0.000000001
 43
0.0000000001
 40
0.0
 40
0.0
 40
0.0
 40
0.0
 40
1.0
 40
1.0
 40
1.0
 40
2.0
 40
2.0
 40
2.0
 40
3.0
 40
3.0
 40
3.0
 40
4.0
 40
4.0
 40
4.0
 40
4.0
 10
227.15891650137
 20
-88.16808944193367
 30
0.0
 10
227.15891650137
 20
-88.02632376271565
 30
0.0
 10
227.0466063885509
 20
-87.9112575735083
 30
0.0
 10
226.9067355118497
 20
-87.9112575735083
 30
0.0
 10
226.7675536542456
 20
-87.9112575735083
 30
0.0
 10
226.6545545223294
 20
-88.02632376271565
 30
0.0
 10
226.6545545223294
 20
-88.16808944193367
 30
0.0
 10
226.6545545223294
 20
-88.31002737592596
 30
0.0
 10
226.7675536542456
 20
-88.4250935651333
 30
0.0
 10
226.9067355118497
 20
-88.4250935651333
 30
0.0
 10
227.0466063885509
 20
-88.4250935651333
 30
0.0
 10
227.15891650137
 20
-88.31002737592596
 30
0.0
 10
227.15891650137
 20
-88.16808944193367
 30
0.0
  0
SPLINE
  5
D3
330
CB
100
AcDbEntity
  8
Layer 1
 62
   250
370
     9
100
AcDbSpline
210
0.0
220
0.0
230
1.0
 70
     9
 71
     3
 72
    17
 73
    13
 74
     0
 42
0.000000001
 43
0.0000000001
 40
0.0
 40
0.0
 40
0.0
 40
0.0
 40
1.0
 40
1.0
 40
1.0
 40
2.0
 40
2.0
 40
2.0
 40
3.0
 40
3.0
 40
3.0
 40
4.0
 40
4.0
 40
4.0
 40
4.0
 10
220.5918754873868
 20
-88.16808944193367
 30
0.0
 10
220.5918754873868
 20
-88.0264960174899
 30
0.0
 10
220.4788763554706
 20
-87.9112575735083
 30
0.0
 10
220.3396944978665
 20
-87.9112575735083
 30
0.0
 10
220.2005126402624
 20
-87.9112575735083
 30
0.0
 10
220.0875135083462
 20
-88.0264960174899
 30
0.0
 10
220.0875135083462
 20
-88.16808944193367
 30
0.0
 10
220.0875135083462
 20
-88.31037188547449
 30
0.0
 10
220.2005126402624
 20
-88.4250935651333
 30
0.0
 10
220.3396944978665
 20
-88.4250935651333
 30
0.0
 10
220.4788763554706
 20
-88.4250935651333
 30
0.0
 10
220.5918754873868
 20
-88.31037188547449
 30
0.0
 10
220.5918754873868
 20
-88.16808944193367
 30
0.0
  0
SPLINE
  5
D4
330
CB
100
AcDbEntity
  8
Layer 1
 62
   250
370
     9
100
AcDbSpline
210
0.0
220
0.0
230
1.0
 70
     8
 71
     3
 72
     8
 73
     4
 74
     0
 42
0.000000001
 43
0.0000000001
 40
0.0
 40
0.0
 40
0.0
 40
0.0
 40
1.0
 40
1.0
 40
1.0
 40
1.0
 10
236.3635226188605
 20
-80.45917152936437
 30
0.0
 10
236.3635226188605
 20
-80.45917152936437
 30
0.0
 10
235.6193819940465
 20
-80.59766436787141
 30
0.0
 10
235.6193819940465
 20
-82.16053193475501
 30
0.0
  0
SPLINE
  5
D5
330
CB
100
AcDbEntity
  8
Layer 1
 62
   250
370
     9
100
AcDbSpline
210
0.0
220
0.0
230
1.0
 70
     8
 71
     3
 72
    32
 73
    28
 74
     0
 42
0.000000001
 43
0.0000000001
 40
0.0
 40
0.0
 40
0.0
 40
0.0
 40
1.0
 40
1.0
 40
1.0
 40
2.0
 40
2.0
 40
2.0
 40
3.0
 40
3.0
 40
3.0
 40
4.0
 40
4.0
 40
4.0
 40
5.0
 40
5.0
 40
5.0
 40
6.0
 40
6.0
 40
6.0
 40
7.0
 40
7.0
 40
7.0
 40
8.0
 40
8.0
 40
8.0
 40
9.0
 40
9.0
 40
9.0
 40
9.0
 10
217.160560384078
 20
-88.87226695911875
 30
0.0
 10
217.160560384078
 20
-88.87226695911875
 30
0.0
 10
217.0868353406936
 20
-89.39850529449065
 30
0.0
 10
217.0448051757735
 20
-89.53906519028885
 30
0.0
 10
217.0448051757735
 20
-89.53906519028885
 30
0.0
 10
217.0172444118915
 20
-89.72199976055561
 30
0.0
 10
217.2687363823147
 20
-89.72199976055561
 30
0.0
 10
217.520917371835
 20
-89.72199976055561
 30
0.0
 10
219.1428683262907
 20
-89.989339170211
 30
0.0
 10
221.5241183256954
 20
-89.989339170211
 30
0.0
 10
221.5241183256954
 20
-89.989339170211
 30
0.0
 10
221.5716606433918
 20
-89.989339170211
 30
0.0
 10
221.5716606433918
 20
-89.989339170211
 30
0.0
 10
221.5716606433918
 20
-89.989339170211
 30
0.0
 10
232.2411213612106
 20
-89.989339170211
 30
0.0
 10
232.2411213612106
 20
-89.989339170211
 30
0.0
 10
232.2411213612106
 20
-89.989339170211
 30
0.0
 10
232.2893526980041
 20
-89.989339170211
 30
0.0
 10
232.2893526980041
 20
-89.989339170211
 30
0.0
 10
234.6699136783117
 20
-89.989339170211
 30
0.0
 10
236.2925536518644
 20
-89.72199976055561
 30
0.0
 10
236.5440456222876
 20
-89.72199976055561
 30
0.0
 10
236.7962266118079
 20
-89.72199976055561
 30
0.0
 10
236.7686658479259
 20
-89.53906519028885
 30
0.0
 10
236.7686658479259
 20
-89.53906519028885
 30
0.0
 10
236.7259466639088
 20
-89.39850529449065
 30
0.0
 10
236.6522216205245
 20
-88.87226695911875
 30
0.0
 10
236.6522216205245
 20
-88.87226695911875
 30
0.0
  0
SPLINE
  5
D6
330
CB
100
AcDbEntity
  8
Layer 1
 62
   250
370
     9
100
AcDbSpline
210
0.0
220
0.0
230
1.0
 70
    11
 71
     3
 72
    17
 73
    13
 74
     0
 42
0.000000001
 43
0.0000000001
 40
0.0
 40
0.0
 40
0.0
 40
0.0
 40
1.0
 40
1.0
 40
1.0
 40
2.0
 40
2.0
 40
2.0
 40
3.0
 40
3.0
 40
3.0
 40
4.0
 40
4.0
 40
4.0
 40
4.0
 10
233.2215955363126
 20
-83.76577417610716
 30
0.0
 10
233.2215955363126
 20
-83.62383624211487
 30
0.0
 10
233.3345946682289
 20
-83.50911456245606
 30
0.0
 10
233.4730875067359
 20
-83.50911456245606
 30
0.0
 10
233.612958383437
 20
-83.50911456245606
 30
0.0
 10
233.7259575153532
 20
-83.62383624211487
 30
0.0
 10
233.7259575153532
 20
-83.76577417610716
 30
0.0
 10
233.7259575153532
 20
-83.90771211009946
 30
0.0
 10
233.612958383437
 20
-84.0227782993068
 30
0.0
 10
233.4730875067359
 20
-84.0227782993068
 30
0.0
 10
233.3345946682289
 20
-84.0227782993068
 30
0.0
 10
233.2215955363126
 20
-83.90771211009946
 30
0.0
 10
233.2215955363126
 20
-83.76577417610716
 30
0.0
  0
SPLINE
  5
D7
330
CB
100
AcDbEntity
  8
Layer 1
 62
   250
370
     9
100
AcDbSpline
210
0.0
220
0.0
230
1.0
 70
     9
 71
     3
 72
    17
 73
    13
 74
     0
 42
0.000000001
 43
0.0000000001
 40
0.0
 40
0.0
 40
0.0
 40
0.0
 40
1.0
 40
1.0
 40
1.0
 40
2.0
 40
2.0
 40
2.0
 40
3.0
 40
3.0
 40
3.0
 40
4.0
 40
4.0
 40
4.0
 40
4.0
 10
233.2215955363126
 20
-88.16808944193367
 30
0.0
 10
233.2215955363126
 20
-88.0264960174899
 30
0.0
 10
233.3345946682289
 20
-87.9112575735083
 30
0.0
 10
233.4730875067359
 20
-87.9112575735083
 30
0.0
 10
233.61226936434
 20
-87.9112575735083
 30
0.0
 10
233.7259575153532
 20
-88.0264960174899
 30
0.0
 10
233.7259575153532
 20
-88.16808944193367
 30
0.0
 10
233.7259575153532
 20
-88.31037188547449
 30
0.0
 10
233.61226936434
 20
-88.4250935651333
 30
0.0
 10
233.4730875067359
 20
-88.4250935651333
 30
0.0
 10
233.3345946682289
 20
-88.4250935651333
 30
0.0
 10
233.2215955363126
 20
-88.31037188547449
 30
0.0
 10
233.2215955363126
 20
-88.16808944193367
 30
0.0
  0
SPLINE
  5
D8
330
CB
100
AcDbEntity
  8
Layer 1
 62
   250
370
     9
100
AcDbSpline
210
0.0
220
0.0
230
1.0
 70
    11
 71
     3
 72
    71
 73
    67
 74
     0
 42
0.000000001
 43
0.0000000001
 40
0.0
 40
0.0
 40
0.0
 40
0.0
 40
1.0
 40
1.0
 40
1.0
 40
2.0
 40
2.0
 40
2.0
 40
3.0
 40
3.0
 40
3.0
 40
4.0
 40
4.0
 40
4.0
 40
5.0
 40
5.0
 40
5.0
 40
6.0
 40
6.0
 40
6.0
 40
7.0
 40
7.0
 40
7.0
 40
8.0
 40
8.0
 40
8.0
 40
9.0
 40
9.0
 40
9.0
 40
10.0
 40
10.0
 40
10.0
 40
11.0
 40
11.0
 40
11.0
 40
12.0
 40
12.0
 40
12.0
 40
13.0
 40
13.0
 40
13.0
 40
14.0
 40
14.0
 40
14.0
 40
15.0
 40
15.0
 40
15.0
 40
16.0
 40
16.0
 40
16.0
 40
17.0
 40
17.0
 40
17.0
 40
18.0
 40
18.0
 40
18.0
 40
19.0
 40
19.0
 40
19.0
 40
20.0
 40
20.0
 40
20.0
 40
21.0
 40
21.0
 40
21.0
 40
22.0
 40
22.0
 40
22.0
 40
22.0
 10
236.7190564729383
 20
-81.08824596497099
 30
0.0
 10
236.7190564729383
 20
-81.08824596497099
 30
0.0
 10
236.6246608566425
 20
-80.62333032923653
 30
0.0
 10
236.3180473584552
 20
-80.27279186361235
 30
0.0
 10
236.149926698775
 20
-80.08090004508394
 30
0.0
 10
236.0500189297028
 20
-79.61305607818701
 30
0.0
 10
236.0500189297028
 20
-79.61305607818701
 30
0.0
 10
236.0500189297028
 20
-79.61305607818701
 30
0.0
 10
235.9025688429341
 20
-78.96141626715202
 30
0.0
 10
235.3644449281381
 20
-78.87167152976125
 30
0.0
 10
235.3644449281381
 20
-78.87167152976125
 30
0.0
 10
234.7174559960081
 20
-78.64946287096263
 30
0.0
 10
232.2735052587719
 20
-78.64946287096263
 30
0.0
 10
232.2735052587719
 20
-78.64946287096263
 30
0.0
 10
221.5475449749951
 20
-78.64946287096263
 30
0.0
 10
221.5475449749951
 20
-78.64946287096263
 30
0.0
 10
219.1042832568559
 20
-78.64946287096263
 30
0.0
 10
218.457294324726
 20
-78.87167152976125
 30
0.0
 10
218.457294324726
 20
-78.87167152976125
 30
0.0
 10
217.919859429027
 20
-78.96141626715202
 30
0.0
 10
217.7469156356675
 20
-79.62494165761113
 30
0.0
 10
217.7469156356675
 20
-79.62494165761113
 30
0.0
 10
217.7469156356675
 20
-79.62494165761113
 30
0.0
 10
217.671812554089
 20
-80.08090004508394
 30
0.0
 10
217.5036918944088
 20
-80.27279186361235
 30
0.0
 10
217.1970783962215
 20
-80.62333032923653
 30
0.0
 10
217.1033717990228
 20
-81.08824596497099
 30
0.0
 10
217.1033717990228
 20
-81.08824596497099
 30
0.0
 10
217.1033717990228
 20
-81.08824596497099
 30
0.0
 10
217.0840792643054
 20
-81.18401961946094
 30
0.0
 10
217.0840792643054
 20
-81.18401961946094
 30
0.0
 10
217.0840792643054
 20
-81.18401961946094
 30
0.0
 10
216.3151339519976
 20
-88.79544132979766
 30
0.0
 10
216.5356200630536
 20
-89.33167044207682
 30
0.0
 10
216.5356200630536
 20
-89.33167044207682
 30
0.0
 10
216.6472411567757
 20
-89.81450057433457
 30
0.0
 10
217.0131102973092
 20
-89.33167044207682
 30
0.0
 10
217.3796684569398
 20
-88.84918481936756
 30
0.0
 10
217.8268418509252
 20
-83.34064939322734
 30
0.0
 10
217.8268418509252
 20
-83.34064939322734
 30
0.0
 10
217.8268418509252
 20
-83.34064939322734
 30
0.0
 10
217.7868787432963
 20
-82.44544133138516
 30
0.0
 10
218.5151719288782
 20
-81.93797876640786
 30
0.0
 10
218.5151719288782
 20
-81.93797876640786
 30
0.0
 10
219.0340033089568
 20
-81.60018715407913
 30
0.0
 10
221.491734428134
 20
-81.56108532032154
 30
0.0
 10
221.491734428134
 20
-81.56108532032154
 30
0.0
 10
232.3210475764684
 20
-81.56108532032154
 30
0.0
 10
232.3210475764684
 20
-81.56108532032154
 30
0.0
 10
234.7794677147426
 20
-81.60018715407913
 30
0.0
 10
235.2982990948213
 20
-81.93797876640786
 30
0.0
 10
235.2982990948213
 20
-81.93797876640786
 30
0.0
 10
236.0265922804031
 20
-82.44544133138516
 30
0.0
 10
235.9866291727742
 20
-83.34064939322734
 30
0.0
 10
235.9866291727742
 20
-83.34064939322734
 30
0.0
 10
235.9866291727742
 20
-83.34064939322734
 30
0.0
 10
236.4344915858567
 20
-88.84918481936756
 30
0.0
 10
236.8003607263902
 20
-89.33167044207682
 30
0.0
 10
237.1662298669237
 20
-89.81450057433457
 30
0.0
 10
237.2771619415487
 20
-89.33167044207682
 30
0.0
 10
237.2771619415487
 20
-89.33167044207682
 30
0.0
 10
237.4983370717018
 20
-88.79544132979766
 30
0.0
 10
236.729391759394
 20
-81.18401961946094
 30
0.0
 10
236.729391759394
 20
-81.18401961946094
 30
0.0
 10
236.729391759394
 20
-81.18401961946094
 30
0.0
 10
236.7190564729383
 20
-81.08824596497099
 30
0.0
 10
236.7190564729383
 20
-81.08824596497099
 30
0.0
  0
ENDBLK
  5
CE
330
CB
100
AcDbEntity
  8
0
100
AcDbBlockEnd
  0
BLOCK
  5
DB
330
D9
100
AcDbEntity
  8
0
100
AcDbBlockBegin
  2
block 16
 70
     0
 10
0.0
 20
0.0
 30
0.0
  3
block 16
  1

  0
POLYLINE
  5
DD
330
D9
100
AcDbEntity
  8
Layer 1
 62
   250
370
     9
100
AcDb2dPolyline
 66
     1
 10
0.0
 20
0.0
 30
0.0
  0
VERTEX
  5
DE
330
DD
100
AcDbEntity
  8
Layer 1
 62
   250
370
     9
100
AcDbVertex
100
AcDb2dVertex
 10
100.5097995082927
 20
-84.34334443420929
 30
0.0
  0
VERTEX
  5
116
330
DD
100
AcDbEntity
  8
0
100
AcDbVertex
100
AcDb2dVertex
 10
100.5097995082927
 20
-84.34334443420929
 30
0.0
  0
SEQEND
  5
DF
330
DD
100
AcDbEntity
  8
Layer 1
370
     9
  0
POLYLINE
  5
E0
330
D9
100
AcDbEntity
  8
Layer 1
 62
   250
370
     9
100
AcDb2dPolyline
 66
     1
 10
0.0
 20
0.0
 30
0.0
  0
VERTEX
  5
E1
330
E0
100
AcDbEntity
  8
Layer 1
 62
   250
370
     9
100
AcDbVertex
100
AcDb2dVertex
 10
107.5219468589702
 20
-84.34334443420929
 30
0.0
  0
VERTEX
  5
117
330
E0
100
AcDbEntity
  8
0
100
AcDbVertex
100
AcDb2dVertex
 10
107.5219468589702
 20
-84.34334443420929
 30
0.0
  0
SEQEND
  5
E2
330
E0
100
AcDbEntity
  8
Layer 1
370
     9
  0
POLYLINE
  5
E3
330
D9
100
AcDbEntity
  8
Layer 1
 62
   250
370
     9
100
AcDb2dPolyline
 66
     1
 10
0.0
 20
0.0
 30
0.0
  0
VERTEX
  5
E4
330
E3
100
AcDbEntity
  8
Layer 1
 62
   250
370
     9
100
AcDbVertex
100
AcDb2dVertex
 10
111.3806260572243
 20
-85.70295136746315
 30
0.0
  0
VERTEX
  5
E5
330
E3
100
AcDbEntity
  8
Layer 1
 62
   250
370
     9
100
AcDbVertex
100
AcDb2dVertex
 10
111.6536498744303
 20
-89.96384546362016
 30
0.0
  0
VERTEX
  5
E6
330
E3
100
AcDbEntity
  8
Layer 1
 62
   250
370
     9
100
AcDbVertex
100
AcDb2dVertex
 10
111.1472208380986
 20
-89.96384546362016
 30
0.0
  0
VERTEX
  5
E7
330
E3
100
AcDbEntity
  8
Layer 1
 62
   250
370
     9
100
AcDbVertex
100
AcDb2dVertex
 10
110.6399305278956
 20
-85.9878607640933
 30
0.0
  0
SEQEND
  5
E8
330
E3
100
AcDbEntity
  8
Layer 1
370
     9
  0
POLYLINE
  5
E9
330
D9
100
AcDbEntity
  8
Layer 1
 62
   250
370
     9
100
AcDb2dPolyline
 66
     1
 10
0.0
 20
0.0
 30
0.0
  0
VERTEX
  5
EA
330
E9
100
AcDbEntity
  8
Layer 1
 62
   250
370
     9
100
AcDbVertex
100
AcDb2dVertex
 10
101.1233710142157
 20
-85.97218557963543
 30
0.0
  0
VERTEX
  5
EB
330
E9
100
AcDbEntity
  8
Layer 1
 62
   250
370
     9
100
AcDbVertex
100
AcDb2dVertex
 10
100.8176187898997
 20
-89.989339170211
 30
0.0
  0
VERTEX
  5
EC
330
E9
100
AcDbEntity
  8
Layer 1
 62
   250
370
     9
100
AcDbVertex
100
AcDb2dVertex
 10
100.3015434862093
 20
-89.989339170211
 30
0.0
  0
VERTEX
  5
ED
330
E9
100
AcDbEntity
  8
Layer 1
 62
   250
370
     9
100
AcDbVertex
100
AcDb2dVertex
 10
100.5097995082927
 20
-85.62268064265683
 30
0.0
  0
SEQEND
  5
EE
330
E9
100
AcDbEntity
  8
Layer 1
370
     9
  0
SPLINE
  5
EF
330
D9
100
AcDbEntity
  8
Layer 1
 62
   250
370
     9
100
AcDbSpline
210
0.0
220
0.0
230
1.0
 70
     9
 71
     3
 72
    50
 73
    46
 74
     0
 42
0.000000001
 43
0.0000000001
 40
0.0
 40
0.0
 40
0.0
 40
0.0
 40
1.0
 40
1.0
 40
1.0
 40
2.0
 40
2.0
 40
2.0
 40
3.0
 40
3.0
 40
3.0
 40
4.0
 40
4.0
 40
4.0
 40
5.0
 40
5.0
 40
5.0
 40
6.0
 40
6.0
 40
6.0
 40
7.0
 40
7.0
 40
7.0
 40
8.0
 40
8.0
 40
8.0
 40
9.0
 40
9.0
 40
9.0
 40
10.0
 40
10.0
 40
10.0
 40
11.0
 40
11.0
 40
11.0
 40
12.0
 40
12.0
 40
12.0
 40
13.0
 40
13.0
 40
13.0
 40
14.0
 40
14.0
 40
14.0
 40
15.0
 40
15.0
 40
15.0
 40
15.0
 10
108.8105848252279
 20
-78.74385848725848
 30
0.0
 10
108.8105848252279
 20
-78.74385848725848
 30
0.0
 10
109.2896253524519
 20
-78.70906302285746
 30
0.0
 10
109.4093424205643
 20
-78.03210176000587
 30
0.0
 10
109.4959865720183
 20
-77.54203692722907
 30
0.0
 10
109.5791856279871
 20
-75.60124238561359
 30
0.0
 10
110.3228094884783
 20
-75.60864934090687
 30
0.0
 10
110.3228094884783
 20
-75.60864934090687
 30
0.0
 10
110.9368977587241
 20
-75.4959947185392
 30
0.0
 10
110.9985649679101
 20
-76.48284232028901
 30
0.0
 10
110.9985649679101
 20
-76.48284232028901
 30
0.0
 10
111.2700384921478
 20
-81.18591442197782
 30
0.0
 10
111.2700384921478
 20
-81.18591442197782
 30
0.0
 10
111.2700384921478
 20
-81.18591442197782
 30
0.0
 10
111.4424655211845
 20
-83.79109562792375
 30
0.0
 10
111.4400539543448
 20
-84.91643606818062
 30
0.0
 10
111.4400539543448
 20
-84.91643606818062
 30
0.0
 10
111.4743326544231
 20
-85.57169322947514
 30
0.0
 10
111.2812350524748
 20
-85.92447100716473
 30
0.0
 10
111.2812350524748
 20
-85.92447100716473
 30
0.0
 10
110.7816962071136
 20
-86.16648896500352
 30
0.0
 10
110.463713893825
 20
-85.92447100716473
 30
0.0
 10
110.463713893825
 20
-85.92447100716473
 30
0.0
 10
110.3388291824847
 20
-85.77323131536225
 30
0.0
 10
109.1693915200167
 20
-85.76324053845501
 30
0.0
 10
109.1693915200167
 20
-85.76324053845501
 30
0.0
 10
101.9510552045469
 20
-85.76324053845501
 30
0.0
 10
101.9510552045469
 20
-85.76324053845501
 30
0.0
 10
101.9510552045469
 20
-85.76324053845501
 30
0.0
 10
101.7481390804657
 20
-85.75566132838748
 30
0.0
 10
101.399839926907
 20
-85.90276690560765
 30
0.0
 10
101.399839926907
 20
-85.90276690560765
 30
0.0
 10
101.1776312681083
 20
-86.06365286476881
 30
0.0
 10
100.679298206167
 20
-85.89759926237977
 30
0.0
 10
100.679298206167
 20
-85.89759926237977
 30
0.0
 10
100.4662190504042
 20
-85.85522458791119
 30
0.0
 10
100.486372858993
 20
-85.26921384587019
 30
0.0
 10
100.486372858993
 20
-85.26921384587019
 30
0.0
 10
100.5464897752106
 20
-83.58680146564845
 30
0.0
 10
100.5533799661811
 20
-81.18040226920143
 30
0.0
 10
100.5533799661811
 20
-81.18040226920143
 30
0.0
 10
100.6059176723311
 20
-80.01079235195911
 30
0.0
 10
101.2987263744149
 20
-79.76153969360128
 30
0.0
 10
101.2987263744149
 20
-79.76153969360128
 30
0.0
 10
101.9131591542092
 20
-79.46233315070734
 30
0.0
 10
108.8105848252279
 20
-78.74385848725848
 30
0.0
  0
ENDBLK
  5
DC
330
D9
100
AcDbEntity
  8
0
100
AcDbBlockEnd
  0
BLOCK
  5
F2
330
F0
100
AcDbEntity
  8
0
100
AcDbBlockBegin
  2
block 17
 70
     0
 10
0.0
 20
0.0
 30
0.0
  3
block 17
  1

  0
POLYLINE
  5
F4
330
F0
100
AcDbEntity
  8
Layer 1
 62
   250
370
     9
100
AcDb2dPolyline
 66
     1
 10
0.0
 20
0.0
 30
0.0
  0
VERTEX
  5
F5
330
F4
100
AcDbEntity
  8
Layer 1
 62
   250
370
     9
100
AcDbVertex
100
AcDb2dVertex
 10
149.9412353140772
 20
-81.31613903132027
 30
0.0
  0
VERTEX
  5
118
330
F4
100
AcDbEntity
  8
0
100
AcDbVertex
100
AcDb2dVertex
 10
149.9412353140772
 20
-81.31613903132027
 30
0.0
  0
SEQEND
  5
F6
330
F4
100
AcDbEntity
  8
Layer 1
370
     9
  0
SPLINE
  5
F7
330
F0
100
AcDbEntity
  8
Layer 1
 62
   250
370
     9
100
AcDbSpline
210
0.0
220
0.0
230
1.0
 70
     8
 71
     3
 72
    26
 73
    22
 74
     0
 42
0.000000001
 43
0.0000000001
 40
0.0
 40
0.0
 40
0.0
 40
0.0
 40
1.0
 40
1.0
 40
1.0
 40
2.0
 40
2.0
 40
2.0
 40
3.0
 40
3.0
 40
3.0
 40
4.0
 40
4.0
 40
4.0
 40
5.0
 40
5.0
 40
5.0
 40
6.0
 40
6.0
 40
6.0
 40
7.0
 40
7.0
 40
7.0
 40
7.0
 10
142.2924343177255
 20
-78.85823565736878
 30
0.0
 10
142.0285400035553
 20
-78.93678383443248
 30
0.0
 10
141.8483615096768
 20
-79.0344522914393
 30
0.0
 10
141.8077093829508
 20
-79.15606416206863
 30
0.0
 10
141.8077093829508
 20
-79.15606416206863
 30
0.0
 10
141.3326307155349
 20
-79.44545218282961
 30
0.0
 10
141.0432426947739
 20
-81.08859047451952
 30
0.0
 10
141.0432426947739
 20
-81.08859047451952
 30
0.0
 10
141.0019015489509
 20
-84.13749997896564
 30
0.0
 10
140.8882133979377
 20
-85.24337562973082
 30
0.0
 10
140.8882133979377
 20
-85.24337562973082
 30
0.0
 10
140.6753064969492
 20
-85.52759600726394
 30
0.0
 10
140.8675428250261
 20
-85.94600285394752
 30
0.0
 10
140.8675428250261
 20
-85.94600285394752
 30
0.0
 10
141.0887179551792
 20
-86.20283472237291
 30
0.0
 10
141.6116834498401
 20
-85.94600285394752
 30
0.0
 10
141.6116834498401
 20
-85.94600285394752
 30
0.0
 10
141.7253716008534
 20
-85.79097355711128
 30
0.0
 10
142.7899061057956
 20
-85.7808105254298
 30
0.0
 10
142.7899061057956
 20
-85.7808105254298
 30
0.0
 10
145.8977267430394
 20
-85.7808105254298
 30
0.0
 10
145.8977267430394
 20
-85.7808105254298
 30
0.0
  0
SPLINE
  5
F8
330
F0
100
AcDbEntity
  8
Layer 1
 62
   250
370
     9
100
AcDbSpline
210
0.0
220
0.0
230
1.0
 70
     8
 71
     3
 72
     8
 73
     4
 74
     0
 42
0.000000001
 43
0.0000000001
 40
0.0
 40
0.0
 40
0.0
 40
0.0
 40
1.0
 40
1.0
 40
1.0
 40
1.0
 10
142.2958794132108
 20
-78.87425535137518
 30
0.0
 10
142.2958794132108
 20
-78.87425535137518
 30
0.0
 10
143.0503553244804
 20
-81.08583439813132
 30
0.0
 10
142.8539848818212
 20
-83.96920706451117
 30
0.0
  0
SPLINE
  5
F9
330
F0
100
AcDbEntity
  8
Layer 1
 62
   250
370
     9
100
AcDbSpline
210
0.0
220
0.0
230
1.0
 70
     8
 71
     3
 72
     8
 73
     4
 74
     0
 42
0.000000001
 43
0.0000000001
 40
0.0
 40
0.0
 40
0.0
 40
0.0
 40
1.0
 40
1.0
 40
1.0
 40
1.0
 10
141.9010714706011
 20
-84.60241561470009
 30
0.0
 10
141.9010714706011
 20
-84.60241561470009
 30
0.0
 10
141.6798963404481
 20
-84.92160371140849
 30
0.0
 10
141.8211452553433
 20
-85.86280379797875
 30
0.0
  0
POLYLINE
  5
FA
330
F0
100
AcDbEntity
  8
Layer 1
 62
   250
370
     9
100
AcDb2dPolyline
 66
     1
 10
0.0
 20
0.0
 30
0.0
  0
VERTEX
  5
FB
330
FA
100
AcDbEntity
  8
Layer 1
 62
   250
370
     9
100
AcDbVertex
100
AcDb2dVertex
 10
141.6564696911484
 20
-84.43515622889121
 30
0.0
  0
VERTEX
  5
FC
330
FA
100
AcDbEntity
  8
Layer 1
 62
   250
370
     9
100
AcDbVertex
100
AcDb2dVertex
 10
145.8563855972164
 20
-84.43515622889121
 30
0.0
  0
SEQEND
  5
FD
330
FA
100
AcDbEntity
  8
Layer 1
370
     9
  0
SPLINE
  5
FE
330
F0
100
AcDbEntity
  8
Layer 1
 62
   250
370
     9
100
AcDbSpline
210
0.0
220
0.0
230
1.0
 70
     8
 71
     3
 72
    14
 73
    10
 74
     0
 42
0.000000001
 43
0.0000000001
 40
0.0
 40
0.0
 40
0.0
 40
0.0
 40
1.0
 40
1.0
 40
1.0
 40
2.0
 40
2.0
 40
2.0
 40
3.0
 40
3.0
 40
3.0
 40
3.0
 10
140.9708956895836
 20
-86.05624590947552
 30
0.0
 10
140.9708956895836
 20
-86.05624590947552
 30
0.0
 10
140.8882133979377
 20
-89.88357473881384
 30
0.0
 10
140.8882133979377
 20
-89.88357473881384
 30
0.0
 10
140.8882133979377
 20
-89.88357473881384
 30
0.0
 10
141.1669216226944
 20
-90.12145858207032
 30
0.0
 10
141.4359835800924
 20
-89.88357473881384
 30
0.0
 10
141.4359835800924
 20
-89.88357473881384
 30
0.0
 10
141.6116834498401
 20
-85.94600285394752
 30
0.0
 10
141.6116834498401
 20
-85.94600285394752
 30
0.0
  0
SPLINE
  5
FF
330
F0
100
AcDbEntity
  8
Layer 1
 62
   250
370
     9
100
AcDbSpline
210
0.0
220
0.0
230
1.0
 70
     8
 71
     3
 72
    26
 73
    22
 74
     0
 42
0.000000001
 43
0.0000000001
 40
0.0
 40
0.0
 40
0.0
 40
0.0
 40
1.0
 40
1.0
 40
1.0
 40
2.0
 40
2.0
 40
2.0
 40
3.0
 40
3.0
 40
3.0
 40
4.0
 40
4.0
 40
4.0
 40
5.0
 40
5.0
 40
5.0
 40
6.0
 40
6.0
 40
6.0
 40
7.0
 40
7.0
 40
7.0
 40
7.0
 10
149.4499646978806
 20
-78.87838946595748
 30
0.0
 10
149.6780300190041
 20
-78.95332029276167
 30
0.0
 10
149.8330593158403
 20
-79.0446153231208
 30
0.0
 10
149.870266347081
 20
-79.15606416206863
 30
0.0
 10
149.870266347081
 20
-79.15606416206863
 30
0.0
 10
150.3450005049485
 20
-79.44545218282961
 30
0.0
 10
150.6343885257094
 20
-81.08859047451952
 30
0.0
 10
150.6343885257094
 20
-81.08859047451952
 30
0.0
 10
150.6757296715324
 20
-84.13749997896564
 30
0.0
 10
150.7894178225457
 20
-85.24337562973082
 30
0.0
 10
150.7894178225457
 20
-85.24337562973082
 30
0.0
 10
151.0030137426312
 20
-85.52759600726394
 30
0.0
 10
150.8107774145542
 20
-85.94600285394752
 30
0.0
 10
150.8107774145542
 20
-85.94600285394752
 30
0.0
 10
150.5889132653041
 20
-86.20283472237291
 30
0.0
 10
150.0659477706432
 20
-85.94600285394752
 30
0.0
 10
150.0659477706432
 20
-85.94600285394752
 30
0.0
 10
149.952948638727
 20
-85.79097355711128
 30
0.0
 10
148.8884141337848
 20
-85.7808105254298
 30
0.0
 10
148.8884141337848
 20
-85.7808105254298
 30
0.0
 10
145.7802489869924
 20
-85.7808105254298
 30
0.0
 10
145.7802489869924
 20
-85.7808105254298
 30
0.0
  0
SPLINE
  5
100
330
F0
100
AcDbEntity
  8
Layer 1
 62
   250
370
     9
100
AcDbSpline
210
0.0
220
0.0
230
1.0
 70
     8
 71
     3
 72
     8
 73
     4
 74
     0
 42
0.000000001
 43
0.0000000001
 40
0.0
 40
0.0
 40
0.0
 40
0.0
 40
1.0
 40
1.0
 40
1.0
 40
1.0
 10
149.3824408263696
 20
-78.87425535137518
 30
0.0
 10
149.3824408263696
 20
-78.87425535137518
 30
0.0
 10
148.6279649151
 20
-81.08583439813132
 30
0.0
 10
148.8243353577592
 20
-83.96920706451117
 30
0.0
  0
SPLINE
  5
101
330
F0
100
AcDbEntity
  8
Layer 1
 62
   250
370
     9
100
AcDbSpline
210
0.0
220
0.0
230
1.0
 70
     8
 71
     3
 72
     8
 73
     4
 74
     0
 42
0.000000001
 43
0.0000000001
 40
0.0
 40
0.0
 40
0.0
 40
0.0
 40
1.0
 40
1.0
 40
1.0
 40
1.0
 10
149.7772487689793
 20
-84.60241561470009
 30
0.0
 10
149.7772487689793
 20
-84.60241561470009
 30
0.0
 10
149.9977348800353
 20
-84.92160371140849
 30
0.0
 10
149.85648596514
 20
-85.86280379797875
 30
0.0
  0
SPLINE
  5
102
330
F0
100
AcDbEntity
  8
Layer 1
 62
   250
370
     9
100
AcDbSpline
210
0.0
220
0.0
230
1.0
 70
     8
 71
     3
 72
    38
 73
    34
 74
     0
 42
0.000000001
 43
0.0000000001
 40
0.0
 40
0.0
 40
0.0
 40
0.0
 40
1.0
 40
1.0
 40
1.0
 40
2.0
 40
2.0
 40
2.0
 40
3.0
 40
3.0
 40
3.0
 40
4.0
 40
4.0
 40
4.0
 40
5.0
 40
5.0
 40
5.0
 40
6.0
 40
6.0
 40
6.0
 40
7.0
 40
7.0
 40
7.0
 40
8.0
 40
8.0
 40
8.0
 40
9.0
 40
9.0
 40
9.0
 40
10.0
 40
10.0
 40
10.0
 40
11.0
 40
11.0
 40
11.0
 40
11.0
 10
145.6768961224349
 20
-84.82376299962739
 30
0.0
 10
147.2375243772531
 20
-84.8196288850451
 30
0.0
 10
149.0847845764441
 20
-84.7782877392221
 30
0.0
 10
149.0847845764441
 20
-84.7782877392221
 30
0.0
 10
150.0969536300105
 20
-84.57140975533285
 30
0.0
 10
150.0659477706432
 20
-84.35454099453636
 30
0.0
 10
150.0659477706432
 20
-84.35454099453636
 30
0.0
 10
150.1906602272093
 20
-84.32353513516913
 30
0.0
 10
149.7131699929536
 20
-84.17263995291518
 30
0.0
 10
149.7131699929536
 20
-84.17263995291518
 30
0.0
 10
149.3617702534582
 20
-84.0792778652649
 30
0.0
 10
148.7702473586407
 20
-84.00038517865269
 30
0.0
 10
148.7702473586407
 20
-84.00038517865269
 30
0.0
 10
148.1342827320636
 20
-83.93906247901524
 30
0.0
 10
146.2305229669146
 20
-84.00727536962319
 30
0.0
 10
146.2305229669146
 20
-84.00727536962319
 30
0.0
 10
146.2305229669146
 20
-84.00727536962319
 30
0.0
 10
145.4474527631173
 20
-84.00727536962319
 30
0.0
 10
145.4474527631173
 20
-84.00727536962319
 30
0.0
 10
145.4474527631173
 20
-84.00727536962319
 30
0.0
 10
143.5436929979682
 20
-83.93906247901524
 30
0.0
 10
142.9077283713911
 20
-84.00038517865269
 30
0.0
 10
142.9077283713911
 20
-84.00038517865269
 30
0.0
 10
142.3165499861222
 20
-84.0792778652649
 30
0.0
 10
141.9651502466267
 20
-84.17263995291518
 30
0.0
 10
141.9651502466267
 20
-84.17263995291518
 30
0.0
 10
141.4876600123711
 20
-84.32353513516913
 30
0.0
 10
141.6116834498401
 20
-84.35454099453636
 30
0.0
 10
141.6116834498401
 20
-84.35454099453636
 30
0.0
 10
141.5806775904729
 20
-84.57140975533285
 30
0.0
 10
142.5935356631363
 20
-84.7782877392221
 30
0.0
 10
142.5935356631363
 20
-84.7782877392221
 30
0.0
 10
144.2754312790353
 20
-84.8196288850451
 30
0.0
 10
145.8357150243049
 20
-84.82376299962739
 30
0.0
  0
POLYLINE
  5
103
330
F0
100
AcDbEntity
  8
Layer 1
 62
   250
370
     9
100
AcDb2dPolyline
 66
     1
 10
0.0
 20
0.0
 30
0.0
  0
VERTEX
  5
104
330
103
100
AcDbEntity
  8
Layer 1
 62
   250
370
     9
100
AcDbVertex
100
AcDb2dVertex
 10
150.021161529335
 20
-84.43515622889121
 30
0.0
  0
VERTEX
  5
105
330
103
100
AcDbEntity
  8
Layer 1
 62
   250
370
     9
100
AcDbVertex
100
AcDb2dVertex
 10
145.8215901328154
 20
-84.43515622889121
 30
0.0
  0
SEQEND
  5
106
330
103
100
AcDbEntity
  8
Layer 1
370
     9
  0
SPLINE
  5
107
330
F0
100
AcDbEntity
  8
Layer 1
 62
   250
370
     9
100
AcDbSpline
210
0.0
220
0.0
230
1.0
 70
     8
 71
     3
 72
    14
 73
    10
 74
     0
 42
0.000000001
 43
0.0000000001
 40
0.0
 40
0.0
 40
0.0
 40
0.0
 40
1.0
 40
1.0
 40
1.0
 40
2.0
 40
2.0
 40
2.0
 40
3.0
 40
3.0
 40
3.0
 40
3.0
 10
150.7074245499967
 20
-86.05624590947552
 30
0.0
 10
150.7074245499967
 20
-86.05624590947552
 30
0.0
 10
150.7894178225457
 20
-89.88357473881384
 30
0.0
 10
150.7894178225457
 20
-89.88357473881384
 30
0.0
 10
150.7894178225457
 20
-89.88357473881384
 30
0.0
 10
150.5103650882404
 20
-90.12145858207032
 30
0.0
 10
150.242336659488
 20
-89.88357473881384
 30
0.0
 10
150.242336659488
 20
-89.88357473881384
 30
0.0
 10
150.0659477706432
 20
-85.94600285394752
 30
0.0
 10
150.0659477706432
 20
-85.94600285394752
 30
0.0
  0
SPLINE
  5
108
330
F0
100
AcDbEntity
  8
Layer 1
 62
   250
370
     9
100
AcDbSpline
210
0.0
220
0.0
230
1.0
 70
     8
 71
     3
 72
    26
 73
    22
 74
     0
 42
0.000000001
 43
0.0000000001
 40
0.0
 40
0.0
 40
0.0
 40
0.0
 40
1.0
 40
1.0
 40
1.0
 40
2.0
 40
2.0
 40
2.0
 40
3.0
 40
3.0
 40
3.0
 40
4.0
 40
4.0
 40
4.0
 40
5.0
 40
5.0
 40
5.0
 40
6.0
 40
6.0
 40
6.0
 40
7.0
 40
7.0
 40
7.0
 40
7.0
 10
142.2958794132108
 20
-78.87838946595748
 30
0.0
 10
142.3158609670252
 20
-78.87167152976125
 30
0.0
 10
142.3372205590337
 20
-78.86512584833927
 30
0.0
 10
142.3585801510423
 20
-78.85875242169156
 30
0.0
 10
142.4119791310636
 20
-78.84273272768516
 30
0.0
 10
142.658303458259
 20
-76.0635741997341
 30
0.0
 10
143.3521456889883
 20
-75.77969833174953
 30
0.0
 10
143.761423032636
 20
-75.61192218161785
 30
0.0
 10
145.7175482491609
 20
-75.52751734222923
 30
0.0
 10
145.7175482491609
 20
-75.52751734222923
 30
0.0
 10
145.7175482491609
 20
-75.52751734222923
 30
0.0
 10
145.961116499968
 20
-75.52751734222923
 30
0.0
 10
145.961116499968
 20
-75.52751734222923
 30
0.0
 10
145.961116499968
 20
-75.52751734222923
 30
0.0
 10
147.9837320593582
 20
-75.61192218161785
 30
0.0
 10
148.3936984221029
 20
-75.77969833174953
 30
0.0
 10
149.0868516337352
 20
-76.0635741997341
 30
0.0
 10
149.3335204704791
 20
-78.84273272768516
 30
0.0
 10
149.386574940952
 20
-78.85875242169156
 30
0.0
 10
149.4086235520575
 20
-78.86512584833927
 30
0.0
 10
149.429294124969
 20
-78.87167152976125
 30
0.0
 10
149.4499646978806
 20
-78.87838946595748
 30
0.0
  0
ENDBLK
  5
F3
330
F0
100
AcDbEntity
  8
0
100
AcDbBlockEnd
  0
BLOCK
  5
1B3
330
1B2
100
AcDbEntity
  8
0
100
AcDbBlockBegin
  2
*U17
 70
     1
 10
0.0
 20
0.0
 30
0.0
  3
*U17
  1

  0
ENDBLK
  5
1B4
330
1B2
100
AcDbEntity
  8
0
100
AcDbBlockEnd
  0
BLOCK
  5
1EE
330
1EC
100
AcDbEntity
  8
0
100
AcDbBlockBegin
  2
GENAXEH
 70
     0
 10
0.0
 20
0.0
 30
0.0
  3
GENAXEH
  1

  0
LINE
  5
1ED
330
1EC
100
AcDbEntity
  8
0
100
AcDbLine
 10
-1.0
 20
0.0
 30
0.0
 11
1.0
 21
0.0
 31
0.0
  0
ENDBLK
  5
1EF
330
1EC
100
AcDbEntity
  8
0
100
AcDbBlockEnd
  0
BLOCK
  5
342
330
33B
100
AcDbEntity
  8
0
100
AcDbBlockBegin
  2
A$C15804854
 70
     0
 10
0.0
 20
0.0
 30
0.0
  3
A$C15804854
  1

  0
POLYLINE
  5
33C
330
33B
100
AcDbEntity
  8
Text
370
     9
100
AcDb2dPolyline
 66
     1
 10
0.0
 20
0.0
 30
0.0
  0
VERTEX
  5
33D
330
33C
100
AcDbEntity
  8
Text
370
     9
100
AcDbVertex
100
AcDb2dVertex
 10
0.0000056757307902
 20
0.0000029833199733
 30
0.0
  0
VERTEX
  5
33E
330
33C
100
AcDbEntity
  8
Text
370
     9
100
AcDbVertex
100
AcDb2dVertex
 10
12168.23755593352
 20
0.0000029833199733
 30
0.0
  0
SEQEND
  5
33F
330
33C
100
AcDbEntity
  8
Text
370
     9
  0
ENDBLK
  5
343
330
33B
100
AcDbEntity
  8
0
100
AcDbBlockEnd
  0
BLOCK
  5
34B
330
345
100
AcDbEntity
  8
0
100
AcDbBlockBegin
  2
A$C48F966A4
 70
     0
 10
0.0
 20
0.0
 30
0.0
  3
A$C48F966A4
  1

  0
TEXT
  5
346
330
345
100
AcDbEntity
  8
Text
100
AcDbText
 10
37.97365555480008
 20
1375.715559658655
 30
0.0
 40
192.6907499518273
  1
HUXLEY
 41
1.000399999999999
100
AcDbText
  0
TEXT
  5
347
330
345
100
AcDbEntity
  8
Text
100
AcDbText
 10
37.97365555480008
 20
773.0925913034516
 30
0.0
 40
192.6907499518273
  1
—
 41
1.000399999999999
100
AcDbText
  0
TEXT
  5
348
330
345
100
AcDbEntity
  8
Text
100
AcDbText
 10
37.97365555480015
 20
98.122075424988
 30
0.0
 40
233.9816249415046
  1
DIMENSIONS
 41
1.000399999999999
100
AcDbText
  0
ENDBLK
  5
34C
330
345
100
AcDbEntity
  8
0
100
AcDbBlockEnd
  0
ENDSEC
  0
SECTION
  2
ENTITIES
  0
INSERT
  5
3D
330
1F
100
AcDbEntity
  8
Layer 1
100
AcDbBlockReference
  2
block 2
 10
-166.0251564888477
 20
50.63536893652198
 30
0.0
 41
1.067812103134911
 42
1.067812103134911
 43
1.067812103134911
  0
INSERT
  5
41
330
1F
100
AcDbEntity
  8
Layer 1
100
AcDbBlockReference
  2
block 3
 10
-166.0251564888477
 20
50.63536893652198
 30
0.0
 41
1.067812103134911
 42
1.067812103134911
 43
1.067812103134911
  0
INSERT
  5
45
330
1F
100
AcDbEntity
  8
Layer 1
100
AcDbBlockReference
  2
block 4
 10
-166.0251564888477
 20
50.63536893652198
 30
0.0
 41
1.067812103134911
 42
1.067812103134911
 43
1.067812103134911
  0
INSERT
  5
51
330
1F
100
AcDbEntity
  8
Layer 1
100
AcDbBlockReference
  2
block 7
 10
-166.0251564888477
 20
50.63536893652198
 30
0.0
 41
1.067812103134911
 42
1.067812103134911
 43
1.067812103134911
  0
POLYLINE
  5
5C
330
1F
100
AcDbEntity
  8
Text
100
AcDb2dPolyline
 66
     1
 10
0.0
 20
0.0
 30
0.0
  0
VERTEX
  5
5D
330
5C
100
AcDbEntity
  8
Text
100
AcDbVertex
100
AcDb2dVertex
 10
-5468.032277370113
 20
552.5978204310133
 30
0.0
  0
VERTEX
  5
5E
330
5C
100
AcDbEntity
  8
Text
100
AcDbVertex
100
AcDb2dVertex
 10
6284.060257202288
 20
552.5978204310133
 30
0.0
  0
SEQEND
  5
5F
330
5C
100
AcDbEntity
  8
Text
  0
MTEXT
  5
61
330
1F
100
AcDbEntity
  8
Text
100
AcDbMText
 10
-5468.032277370113
 20
87.91824867252783
 30
0.0
 40
133.1288191567057
 41
0.0
 46
0.0
 71
     7
 72
     1
  1
\fApercu|b0|i0|c0|p34;\W1.0004;Sofas and 
 73
     1
 44
1.0
  0
MTEXT
  5
62
330
1F
100
AcDbEntity
  8
Text
100
AcDbMText
 10
-5468.032277370113
 20
-147.0194601719167
 30
0.0
 40
133.1288191567057
 41
0.0
 46
0.0
 71
     7
 72
     1
  1
\fApercu|b0|i0|c0|p34;\W1.0004;Armchairs 
 73
     1
 44
1.0
  0
MTEXT
  5
63
330
1F
100
AcDbEntity
  8
Text
100
AcDbMText
 10
-5468.032277370113
 20
-1811.062221112163
 30
0.0
 40
133.1288191567057
 41
0.0
 46
0.0
 71
     7
 72
     1
  1
\fApercu|b0|i0|c0|p34;\W1.0004;Sofas and 
 73
     1
 44
1.0
  0
MTEXT
  5
64
330
1F
100
AcDbEntity
  8
Text
100
AcDbMText
 10
-5468.032277370113
 20
-2045.999929956607
 30
0.0
 40
133.1288191567057
 41
0.0
 46
0.0
 71
     7
 72
     1
  1
\fApercu|b0|i0|c0|p34;\W1.0004;Armchairs 
 73
     1
 44
1.0
  0
MTEXT
  5
65
330
1F
100
AcDbEntity
  8
Text
100
AcDbMText
 10
-5468.032277370113
 20
-2280.937638801052
 30
0.0
 40
133.1288191567057
 41
0.0
 46
0.0
 71
     7
 72
     1
  1
\fApercu|b0|i0|c0|p34;\W1.0004;high back (H)
 73
     1
 44
1.0
  0
MTEXT
  5
7D
330
1F
100
AcDbEntity
  8
Dimensions
100
AcDbMText
 10
-2708.621970794521
 20
87.91824867252783
 30
0.0
 40
101.8043911198338
 41
0.0
 46
0.0
 71
     7
 72
     1
  1
\fApercu|b0|i0|c0|p34;\W1.0004;69
 73
     1
 44
1.0
  0
MTEXT
  5
7E
330
1F
100
AcDbEntity
  8
Dimensions
100
AcDbMText
 10
-2177.284869102047
 20
-425.0984352263798
 30
0.0
 40
101.8043911198338
 41
0.0
 46
0.0
 71
     7
 72
     1
  1
\fApercu|b0|i0|c0|p34;\W1.0004;70
 73
     1
 44
1.0
  0
MTEXT
  5
97
330
1F
100
AcDbEntity
  8
Dimensions
100
AcDbMText
 10
-2702.931282394556
 20
-1810.16250753114
 30
0.0
 40
101.8043911198338
 41
0.0
 46
0.0
 71
     7
 72
     1
  1
\fApercu|b0|i0|c0|p34;\W1.0004;74
 73
     1
 44
1.0
  0
MTEXT
  5
98
330
1F
100
AcDbEntity
  8
Dimensions
100
AcDbMText
 10
-2151.373117968605
 20
-2427.051124359071
 30
0.0
 40
101.8043911198338
 41
0.0
 46
0.0
 71
     7
 72
     1
  1
\fApercu|b0|i0|c0|p34;\W1.0004;89
 73
     1
 44
1.0
  0
MTEXT
  5
99
330
1F
100
AcDbEntity
  8
Dimensions
100
AcDbMText
 10
2361.893857772783
 20
41.78543480560988
 30
0.0
 40
101.8043911198338
 41
0.0
 46
0.0
 71
     7
 72
     1
  1
\fApercu|b0|i0|c0|p34;\W1.0004;66
 73
     1
 44
1.0
  0
MTEXT
  5
9A
330
1F
100
AcDbEntity
  8
Dimensions
100
AcDbMText
 10
2873.763406855886
 20
-447.7262317890905
 30
0.0
 40
101.8043911198338
 41
0.0
 46
0.0
 71
     7
 72
     1
  1
\fApercu|b0|i0|c0|p34;\W1.0004;69
 73
     1
 44
1.0
  0
MTEXT
  5
9B
330
1F
100
AcDbEntity
  8
Text
100
AcDbMText
 10
2257.144704102261
 20
-1018.504527589629
 30
0.0
 40
101.8043911198338
 41
0.0
 46
0.0
 71
     7
 72
     1
  1
\fApercu|b1|i0|c0|p34;\W1.0004;JV66 
 73
     1
 44
1.0
  0
MTEXT
  5
A8
330
1F
100
AcDbEntity
  8
Dimensions
100
AcDbMText
 10
2361.893857772783
 20
-2012.148206470643
 30
0.0
 40
101.8043911198338
 41
0.0
 46
0.0
 71
     7
 72
     1
  1
\fApercu|b0|i0|c0|p34;\W1.0004;66
 73
     1
 44
1.0
  0
MTEXT
  5
A9
330
1F
100
AcDbEntity
  8
Dimensions
100
AcDbMText
 10
2875.247934264573
 20
-2526.446982222509
 30
0.0
 40
101.8043911198338
 41
0.0
 46
0.0
 71
     7
 72
     1
  1
\fApercu|b0|i0|c0|p34;\W1.0004;74
 73
     1
 44
1.0
  0
MTEXT
  5
AA
330
1F
100
AcDbEntity
  8
Text
100
AcDbMText
 10
2203.206874919976
 20
-3121.225137796817
 30
0.0
 40
101.8043911198338
 41
0.0
 46
0.0
 71
     7
 72
     1
  1
\fApercu|b1|i0|c0|p34;\W1.0004;JV66H 
 73
     1
 44
1.0
  0
MTEXT
  5
B7
330
1F
100
AcDbEntity
  8
Dimensions
100
AcDbMText
 10
5158.541060182933
 20
41.78543480560988
 30
0.0
 40
101.8043911198338
 41
0.0
 46
0.0
 71
     7
 72
     1
  1
\fApercu|b0|i0|c0|p34;\W1.0004;136
 73
     1
 44
1.0
  0
MTEXT
  5
B8
330
1F
100
AcDbEntity
  8
Dimensions
100
AcDbMText
 10
6054.97068663449
 20
-447.7262317890905
 30
0.0
 40
101.8043911198338
 41
0.0
 46
0.0
 71
     7
 72
     1
  1
\fApercu|b0|i0|c0|p34;\W1.0004;69
 73
     1
 44
1.0
  0
MTEXT
  5
B9
330
1F
100
AcDbEntity
  8
Text
100
AcDbMText
 10
5051.295201325076
 20
-1018.504527589629
 30
0.0
 40
101.8043911198338
 41
0.0
 46
0.0
 71
     7
 72
     1
  1
\fApercu|b1|i0|c0|p34;\W1.0004;JV136 
 73
     1
 44
1.0
  0
MTEXT
  5
C8
330
1F
100
AcDbEntity
  8
Dimensions
100
AcDbMText
 10
5158.541060182933
 20
-2015.769553634259
 30
0.0
 40
101.8043911198338
 41
0.0
 46
0.0
 71
     7
 72
     1
  1
\fApercu|b0|i0|c0|p34;\W1.0004;136
 73
     1
 44
1.0
  0
MTEXT
  5
C9
330
1F
100
AcDbEntity
  8
Dimensions
100
AcDbMText
 10
6054.97068663449
 20
-2540.617471123609
 30
0.0
 40
101.8043911198338
 41
0.0
 46
0.0
 71
     7
 72
     1
  1
\fApercu|b0|i0|c0|p34;\W1.0004;74
 73
     1
 44
1.0
  0
MTEXT
  5
CA
330
1F
100
AcDbEntity
  8
Text
100
AcDbMText
 10
4997.379864982315
 20
-3121.225137796817
 30
0.0
 40
101.8043911198338
 41
0.0
 46
0.0
 71
     7
 72
     1
  1
\fApercu|b1|i0|c0|p34;\W1.0004;JV136H 
 73
     1
 44
1.0
  0
POLYLINE
  5
109
330
1F
100
AcDbEntity
  8
Text
100
AcDb2dPolyline
 66
     1
 10
0.0
 20
0.0
 30
0.0
  0
VERTEX
  5
10A
330
109
100
AcDbEntity
  8
Text
100
AcDbVertex
100
AcDb2dVertex
 10
-5468.032277370113
 20
-1344.684439969497
 30
0.0
  0
VERTEX
  5
10B
330
109
100
AcDbEntity
  8
Text
100
AcDbVertex
100
AcDb2dVertex
 10
6284.060257202288
 20
-1344.684439969497
 30
0.0
  0
SEQEND
  5
10C
330
109
100
AcDbEntity
  8
Text
  0
MTEXT
  5
111
330
1F
100
AcDbEntity
  8
Dimensions
100
AcDbMText
 10
406.4338679394183
 20
-610.7993183493801
 30
0.0
 40
101.8043911198338
 41
0.0
 46
0.0
 71
     7
 72
     1
  1
\fApercu|b0|i0|c0|p34;\W1.0004;48
 73
     1
 44
1.0
  0
MTEXT
  5
112
330
1F
100
AcDbEntity
  8
Dimensions
100
AcDbMText
 10
406.4338679394183
 20
-2714.464627816641
 30
0.0
 40
101.8043911198338
 41
0.0
 46
0.0
 71
     7
 72
     1
  1
\fApercu|b0|i0|c0|p34;\W1.0004;48
 73
     1
 44
1.0
  0
SPLINE
  5
24A
330
1F
100
AcDbEntity
  8
Furniture
100
AcDbSpline
210
0.0
220
0.0
230
1.0
 70
     9
 71
     3
 72
    44
 73
    40
 74
     0
 42
0.000000001
 43
0.0000000001
 40
0.0
 40
0.0
 40
0.0
 40
0.0
 40
1.0
 40
1.0
 40
1.0
 40
2.0
 40
2.0
 40
2.0
 40
3.0
 40
3.0
 40
3.0
 40
4.0
 40
4.0
 40
4.0
 40
5.0
 40
5.0
 40
5.0
 40
6.0
 40
6.0
 40
6.0
 40
7.0
 40
7.0
 40
7.0
 40
8.0
 40
8.0
 40
8.0
 40
9.0
 40
9.0
 40
9.0
 40
10.0
 40
10.0
 40
10.0
 40
11.0
 40
11.0
 40
11.0
 40
12.0
 40
12.0
 40
12.0
 40
13.0
 40
13.0
 40
13.0
 40
13.0
 10
-2287.724711172534
 20
-482.0278120655648
 30
0.0
 10
-2287.724711172534
 20
-482.0278120655648
 30
0.0
 10
-2320.384314163644
 20
-497.7727997334546
 30
0.0
 10
-2341.178944305021
 20
-482.0278120655648
 30
0.0
 10
-2341.178944305021
 20
-482.0278120655648
 30
0.0
 10
-2349.332598633035
 20
-472.1647019336078
 30
0.0
 10
-2425.808253019929
 20
-471.5124095873671
 30
0.0
 10
-2425.808253019929
 20
-471.5124095873671
 30
0.0
 10
-2859.368981294807
 20
-471.5124095873671
 30
0.0
 10
-2859.368981294807
 20
-471.5124095873671
 30
0.0
 10
-2859.368981294807
 20
-471.5124095873671
 30
0.0
 10
-2872.639756614886
 20
-471.0175671178048
 30
0.0
 10
-2895.425003054274
 20
-480.5995167556921
 30
0.0
 10
-2895.425003054274
 20
-480.5995167556921
 30
0.0
 10
-2909.955377387785
 20
-491.0699335548388
 30
0.0
 10
-2942.536255440555
 20
-480.2621241628089
 30
0.0
 10
-2942.536255440555
 20
-480.2621241628089
 30
0.0
 10
-2956.470569526637
 20
-477.4955049011651
 30
0.0
 10
-2955.143491994629
 20
-439.3476490658204
 30
0.0
 10
-2955.143491994629
 20
-439.3476490658204
 30
0.0
 10
-2956.830454959045
 20
-344.8777230584801
 30
0.0
 10
-2956.380598168534
 20
-188.1813565036859
 30
0.0
 10
-2956.380598168534
 20
-188.1813565036859
 30
0.0
 10
-2961.992561630161
 20
-63.77346108782922
 30
0.0
 10
-2905.411823803622
 20
-50.80633910134565
 30
0.0
 10
-2905.411823803622
 20
-50.80633910134565
 30
0.0
 10
-2882.446634648029
 20
-47.09502057962845
 30
0.0
 10
-2429.632035739274
 20
-13.22080425413969
 30
0.0
 10
-2429.632035739274
 20
-13.22080425413969
 30
0.0
 10
-2333.16024701416
 20
-0.8947281941341316
 30
0.0
 10
-2318.326219347055
 20
-40.2909366231479
 30
0.0
 10
-2318.326219347055
 20
-40.2909366231479
 30
0.0
 10
-2290.108952162242
 20
-73.13048233046083
 30
0.0
 10
-2288.455728457115
 20
-173.4597930342088
 30
0.0
 10
-2288.455728457115
 20
-173.4597930342088
 30
0.0
 10
-2277.186815854809
 20
-343.0895423161983
 30
0.0
 10
-2277.333019311726
 20
-416.3599670707007
 30
0.0
 10
-2277.333019311726
 20
-416.3599670707007
 30
0.0
 10
-2275.106228198696
 20
-459.0401300704456
 30
0.0
 10
-2287.724711172534
 20
-482.0278120655648
 30
0.0
  0
POLYLINE
  5
24B
330
1F
100
AcDbEntity
  8
Furniture
100
AcDb2dPolyline
 66
     1
 10
0.0
 20
0.0
 30
0.0
  0
VERTEX
  5
24C
330
24B
100
AcDbEntity
  8
Furniture
100
AcDbVertex
100
AcDb2dVertex
 10
-2953.602732487129
 20
-379.0555927175646
 30
0.0
  0
VERTEX
  5
24D
330
24B
100
AcDbEntity
  8
Furniture
100
AcDbVertex
100
AcDb2dVertex
 10
-2953.602732487129
 20
-379.0555927175646
 30
0.0
  0
SEQEND
  5
24E
330
24B
100
AcDbEntity
  8
Furniture
  0
POLYLINE
  5
253
330
1F
100
AcDbEntity
  8
Furniture
100
AcDb2dPolyline
 66
     1
 10
0.0
 20
0.0
 30
0.0
  0
VERTEX
  5
254
330
253
100
AcDbEntity
  8
Furniture
100
AcDbVertex
100
AcDb2dVertex
 10
-2282.618836600232
 20
-469.2406327952858
 30
0.0
  0
VERTEX
  5
255
330
253
100
AcDbEntity
  8
Furniture
100
AcDbVertex
100
AcDb2dVertex
 10
-2277.310526472201
 20
-746.7010547627965
 30
0.0
  0
VERTEX
  5
256
330
253
100
AcDbEntity
  8
Furniture
100
AcDbVertex
100
AcDb2dVertex
 10
-2310.431232673584
 20
-746.7010547627965
 30
0.0
  0
VERTEX
  5
257
330
253
100
AcDbEntity
  8
Furniture
100
AcDbVertex
100
AcDb2dVertex
 10
-2331.045920098756
 20
-487.7747325643449
 30
0.0
  0
SEQEND
  5
258
330
253
100
AcDbEntity
  8
Furniture
  0
POLYLINE
  5
259
330
1F
100
AcDbEntity
  8
Furniture
100
AcDb2dPolyline
 66
     1
 10
0.0
 20
0.0
 30
0.0
  0
VERTEX
  5
25A
330
259
100
AcDbEntity
  8
Furniture
100
AcDbVertex
100
AcDb2dVertex
 10
-2913.486753193297
 20
-485.1205775003291
 30
0.0
  0
VERTEX
  5
25B
330
259
100
AcDbEntity
  8
Furniture
100
AcDbVertex
100
AcDb2dVertex
 10
-2933.482887531518
 20
-746.7010547627965
 30
0.0
  0
VERTEX
  5
25C
330
259
100
AcDbEntity
  8
Furniture
100
AcDbVertex
100
AcDb2dVertex
 10
-2967.233393239616
 20
-746.7010547627965
 30
0.0
  0
VERTEX
  5
25D
330
259
100
AcDbEntity
  8
Furniture
100
AcDbVertex
100
AcDb2dVertex
 10
-2953.602732487129
 20
-462.357823900465
 30
0.0
  0
SEQEND
  5
25E
330
259
100
AcDbEntity
  8
Furniture
  0
SPLINE
  5
265
330
1F
100
AcDbEntity
  8
Furniture
100
AcDbSpline
210
0.0
220
0.0
230
1.0
 70
     8
 71
     3
 72
    26
 73
    22
 74
     0
 42
0.000000001
 43
0.0000000001
 40
0.0
 40
0.0
 40
0.0
 40
0.0
 40
1.0
 40
1.0
 40
1.0
 40
2.0
 40
2.0
 40
2.0
 40
3.0
 40
3.0
 40
3.0
 40
4.0
 40
4.0
 40
4.0
 40
5.0
 40
5.0
 40
5.0
 40
6.0
 40
6.0
 40
6.0
 40
7.0
 40
7.0
 40
7.0
 40
7.0
 10
-18.34340650073136
 20
1.084641684114558
 30
0.0
 10
-18.34340650073136
 20
1.084641684114558
 30
0.0
 10
-269.3634956059504
 20
1.084641684114558
 30
0.0
 10
-282.8816921608086
 20
-39.40246946188791
 30
0.0
 10
-282.8816921608086
 20
-39.40246946188791
 30
0.0
 10
-313.8993178665514
 20
-58.29645466335614
 30
0.0
 10
-332.7933030680215
 20
-165.5760527805009
 30
0.0
 10
-332.7933030680215
 20
-165.5760527805009
 30
0.0
 10
-335.4924438110884
 20
-364.6376825816824
 30
0.0
 10
-342.91508085452
 20
-436.8396974587207
 30
0.0
 10
-342.91508085452
 20
-436.8396974587207
 30
0.0
 10
-356.8156556813137
 20
-455.3962900673054
 30
0.0
 10
-344.2646512260544
 20
-482.7138436710943
 30
0.0
 10
-344.2646512260544
 20
-482.7138436710943
 30
0.0
 10
-329.8242482506466
 20
-499.4822555373976
 30
0.0
 10
-295.6801178508504
 20
-482.7138436710943
 30
0.0
 10
-295.6801178508504
 20
-482.7138436710943
 30
0.0
 10
-288.2574808074169
 20
-472.5920658845939
 30
0.0
 10
-218.7546066734449
 20
-471.9397735383527
 30
0.0
 10
-218.7546066734449
 20
-471.9397735383527
 30
0.0
 10
-15.84670131339407
 20
-471.9397735383527
 30
0.0
 10
-15.84670131339407
 20
-471.9397735383527
 30
0.0
  0
SPLINE
  5
266
330
1F
100
AcDbEntity
  8
Furniture
100
AcDbSpline
210
0.0
220
0.0
230
1.0
 70
     8
 71
     3
 72
     8
 73
     4
 74
     0
 42
0.000000001
 43
0.0000000001
 40
0.0
 40
0.0
 40
0.0
 40
0.0
 40
1.0
 40
1.0
 40
1.0
 40
1.0
 10
-251.0093385530945
 20
-21.00332672998229
 30
0.0
 10
-251.0093385530945
 20
-21.00332672998229
 30
0.0
 10
-201.7500199921232
 20
-165.4073564840591
 30
0.0
 10
-214.5709385216924
 20
-353.6499304734475
 30
0.0
  0
SPLINE
  5
267
330
1F
100
AcDbEntity
  8
Furniture
100
AcDbSpline
210
0.0
220
0.0
230
1.0
 70
     8
 71
     3
 72
     8
 73
     4
 74
     0
 42
0.000000001
 43
0.0000000001
 40
0.0
 40
0.0
 40
0.0
 40
0.0
 40
1.0
 40
1.0
 40
1.0
 40
1.0
 10
-276.7861326493839
 20
-394.9917695214212
 30
0.0
 10
-276.7861326493839
 20
-394.9917695214212
 30
0.0
 10
-291.2265356247899
 20
-415.8313853418499
 30
0.0
 10
-282.0044714193118
 20
-477.2818229256722
 30
0.0
  0
POLYLINE
  5
268
330
1F
100
AcDbEntity
  8
Furniture
100
AcDb2dPolyline
 66
     1
 10
0.0
 20
0.0
 30
0.0
  0
VERTEX
  5
269
330
268
100
AcDbEntity
  8
Furniture
100
AcDbVertex
100
AcDb2dVertex
 10
-292.7560487125283
 20
-384.0714959317638
 30
0.0
  0
VERTEX
  5
26A
330
268
100
AcDbEntity
  8
Furniture
100
AcDbVertex
100
AcDb2dVertex
 10
-18.54584205646097
 20
-384.0714959317638
 30
0.0
  0
SEQEND
  5
26B
330
268
100
AcDbEntity
  8
Furniture
  0
SPLINE
  5
26C
330
1F
100
AcDbEntity
  8
Furniture
100
AcDbSpline
210
0.0
220
0.0
230
1.0
 70
     8
 71
     3
 72
    14
 73
    10
 74
     0
 42
0.000000001
 43
0.0000000001
 40
0.0
 40
0.0
 40
0.0
 40
0.0
 40
1.0
 40
1.0
 40
1.0
 40
2.0
 40
2.0
 40
2.0
 40
3.0
 40
3.0
 40
3.0
 40
3.0
 10
-337.5167993683881
 20
-489.9115523192726
 30
0.0
 10
-337.5167993683881
 20
-489.9115523192726
 30
0.0
 10
-342.91508085452
 20
-739.7957530284497
 30
0.0
 10
-342.91508085452
 20
-739.7957530284497
 30
0.0
 10
-342.91508085452
 20
-739.7957530284497
 30
0.0
 10
-324.7183736783445
 20
-755.3270587208475
 30
0.0
 10
-307.1514660088851
 20
-739.7957530284497
 30
0.0
 10
-307.1514660088851
 20
-739.7957530284497
 30
0.0
 10
-295.6801178508504
 20
-482.7138436710943
 30
0.0
 10
-295.6801178508504
 20
-482.7138436710943
 30
0.0
  0
SPLINE
  5
26D
330
1F
100
AcDbEntity
  8
Furniture
100
AcDbSpline
210
0.0
220
0.0
230
1.0
 70
     8
 71
     3
 72
    26
 73
    22
 74
     0
 42
0.000000001
 43
0.0000000001
 40
0.0
 40
0.0
 40
0.0
 40
0.0
 40
1.0
 40
1.0
 40
1.0
 40
2.0
 40
2.0
 40
2.0
 40
3.0
 40
3.0
 40
3.0
 40
4.0
 40
4.0
 40
4.0
 40
5.0
 40
5.0
 40
5.0
 40
6.0
 40
6.0
 40
6.0
 40
7.0
 40
7.0
 40
7.0
 40
7.0
 10
-20.99756156474541
 20
1.084641684114558
 30
0.0
 10
-20.99756156474541
 20
1.084641684114558
 30
0.0
 10
230.0225275404719
 20
1.084641684114558
 30
0.0
 10
243.5182312558045
 20
-39.40246946188791
 30
0.0
 10
243.5182312558045
 20
-39.40246946188791
 30
0.0
 10
274.5133641220236
 20
-58.29645466335614
 30
0.0
 10
293.4073493234901
 20
-165.5760527805009
 30
0.0
 10
293.4073493234901
 20
-165.5760527805009
 30
0.0
 10
296.106490066557
 20
-364.6376825816824
 30
0.0
 10
303.5291271099922
 20
-436.8396974587207
 30
0.0
 10
303.5291271099922
 20
-436.8396974587207
 30
0.0
 10
317.474687615837
 20
-455.3962900673054
 30
0.0
 10
304.9236831605758
 20
-482.7138436710943
 30
0.0
 10
304.9236831605758
 20
-482.7138436710943
 30
0.0
 10
290.4382945061188
 20
-499.4822555373976
 30
0.0
 10
256.2941641063225
 20
-482.7138436710943
 30
0.0
 10
256.2941641063225
 20
-482.7138436710943
 30
0.0
 10
248.9165127419383
 20
-472.5920658845939
 30
0.0
 10
179.4136386079663
 20
-471.9397735383527
 30
0.0
 10
179.4136386079663
 20
-471.9397735383527
 30
0.0
 10
-23.51675959161003
 20
-471.9397735383527
 30
0.0
 10
-23.51675959161003
 20
-471.9397735383527
 30
0.0
  0
SPLINE
  5
26E
330
1F
100
AcDbEntity
  8
Furniture
100
AcDbSpline
210
0.0
220
0.0
230
1.0
 70
     8
 71
     3
 72
     8
 73
     4
 74
     0
 42
0.000000001
 43
0.0000000001
 40
0.0
 40
0.0
 40
0.0
 40
0.0
 40
1.0
 40
1.0
 40
1.0
 40
1.0
 10
211.6683704876159
 20
-21.00332672998229
 30
0.0
 10
211.6683704876159
 20
-21.00332672998229
 30
0.0
 10
162.4090519266465
 20
-165.4073564840591
 30
0.0
 10
175.2299704562138
 20
-353.6499304734475
 30
0.0
  0
SPLINE
  5
26F
330
1F
100
AcDbEntity
  8
Furniture
100
AcDbSpline
210
0.0
220
0.0
230
1.0
 70
     8
 71
     3
 72
     8
 73
     4
 74
     0
 42
0.000000001
 43
0.0000000001
 40
0.0
 40
0.0
 40
0.0
 40
0.0
 40
1.0
 40
1.0
 40
1.0
 40
1.0
 10
237.4451645839053
 20
-394.9917695214212
 30
0.0
 10
237.4451645839053
 20
-394.9917695214212
 30
0.0
 10
251.8405818802621
 20
-415.8313853418499
 30
0.0
 10
242.618517674784
 20
-477.2818229256722
 30
0.0
  0
SPLINE
  5
270
330
1F
100
AcDbEntity
  8
Furniture
100
AcDbSpline
210
0.0
220
0.0
230
1.0
 70
     8
 71
     3
 72
    38
 73
    34
 74
     0
 42
0.000000001
 43
0.0000000001
 40
0.0
 40
0.0
 40
0.0
 40
0.0
 40
1.0
 40
1.0
 40
1.0
 40
2.0
 40
2.0
 40
2.0
 40
3.0
 40
3.0
 40
3.0
 40
4.0
 40
4.0
 40
4.0
 40
5.0
 40
5.0
 40
5.0
 40
6.0
 40
6.0
 40
6.0
 40
7.0
 40
7.0
 40
7.0
 40
8.0
 40
8.0
 40
8.0
 40
9.0
 40
9.0
 40
9.0
 40
10.0
 40
10.0
 40
10.0
 40
11.0
 40
11.0
 40
11.0
 40
11.0
 10
-30.26461144927635
 20
-409.4434189165922
 30
0.0
 10
71.62795160149835
 20
-409.1735048422856
 30
0.0
 10
192.2345571375354
 20
-406.4743640992182
 30
0.0
 10
192.2345571375354
 20
-406.4743640992182
 30
0.0
 10
258.3185196636223
 20
-392.9674139641215
 30
0.0
 10
256.2941641063225
 20
-378.8081714827831
 30
0.0
 10
256.2941641063225
 20
-378.8081714827831
 30
0.0
 10
264.4365720145743
 20
-376.7725695057202
 30
0.0
 10
233.2614964321511
 20
-366.9319522132891
 30
0.0
 10
233.2614964321511
 20
-366.9319522132891
 30
0.0
 10
210.3188001160833
 20
-360.8251462821004
 30
0.0
 10
171.6985946507011
 20
-355.6855324505104
 30
0.0
 10
171.6985946507011
 20
-355.6855324505104
 30
0.0
 10
130.1768128865242
 20
-351.6930534347239
 30
0.0
 10
5.881381668294125
 20
-356.1353892410211
 30
0.0
 10
5.881381668294125
 20
-356.1353892410211
 30
0.0
 10
5.881381668294125
 20
-356.1353892410211
 30
0.0
 10
-45.24484257329823
 20
-356.1353892410211
 30
0.0
 10
-45.24484257329823
 20
-356.1353892410211
 30
0.0
 10
-45.24484257329823
 20
-356.1353892410211
 30
0.0
 10
-169.5402737915265
 20
-351.6930534347239
 30
0.0
 10
-211.0620555557052
 20
-355.6855324505104
 30
0.0
 10
-211.0620555557052
 20
-355.6855324505104
 30
0.0
 10
-249.6597681815619
 20
-360.8251462821004
 30
0.0
 10
-272.6024644976296
 20
-366.9319522132891
 30
0.0
 10
-272.6024644976296
 20
-366.9319522132891
 30
0.0
 10
-303.777540080051
 20
-376.7725695057202
 30
0.0
 10
-295.6801178508504
 20
-378.8081714827831
 30
0.0
 10
-295.6801178508504
 20
-378.8081714827831
 30
0.0
 10
-297.7044734081501
 20
-392.9674139641215
 30
0.0
 10
-231.5755252030121
 20
-406.4743640992182
 30
0.0
 10
-231.5755252030121
 20
-406.4743640992182
 30
0.0
 10
-121.7654826392445
 20
-409.1735048422856
 30
0.0
 10
-19.89541242799532
 20
-409.4434189165922
 30
0.0
  0
POLYLINE
  5
271
330
1F
100
AcDbEntity
  8
Furniture
100
AcDb2dPolyline
 66
     1
 10
0.0
 20
0.0
 30
0.0
  0
VERTEX
  5
272
330
271
100
AcDbEntity
  8
Furniture
100
AcDbVertex
100
AcDb2dVertex
 10
253.3700949679988
 20
-384.0714959317638
 30
0.0
  0
VERTEX
  5
273
330
271
100
AcDbEntity
  8
Furniture
100
AcDbVertex
100
AcDb2dVertex
 10
-20.81761884854314
 20
-384.0714959317638
 30
0.0
  0
SEQEND
  5
274
330
271
100
AcDbEntity
  8
Furniture
  0
SPLINE
  5
275
330
1F
100
AcDbEntity
  8
Furniture
100
AcDbSpline
210
0.0
220
0.0
230
1.0
 70
     8
 71
     3
 72
    14
 73
    10
 74
     0
 42
0.000000001
 43
0.0000000001
 40
0.0
 40
0.0
 40
0.0
 40
0.0
 40
1.0
 40
1.0
 40
1.0
 40
2.0
 40
2.0
 40
2.0
 40
3.0
 40
3.0
 40
3.0
 40
3.0
 10
298.1758313029095
 20
-489.9115523192726
 30
0.0
 10
298.1758313029095
 20
-489.9115523192726
 30
0.0
 10
303.5291271099922
 20
-739.7957530284497
 30
0.0
 10
303.5291271099922
 20
-739.7957530284497
 30
0.0
 10
303.5291271099922
 20
-739.7957530284497
 30
0.0
 10
285.3099270942912
 20
-755.3270587208475
 30
0.0
 10
267.8104979434083
 20
-739.7957530284497
 30
0.0
 10
267.8104979434083
 20
-739.7957530284497
 30
0.0
 10
256.2941641063225
 20
-482.7138436710943
 30
0.0
 10
256.2941641063225
 20
-482.7138436710943
 30
0.0
  0
SPLINE
  5
276
330
1F
100
AcDbEntity
  8
Furniture
100
AcDbSpline
210
0.0
220
0.0
230
1.0
 70
     8
 71
     3
 72
     8
 73
     4
 74
     0
 42
0.000000001
 43
0.0000000001
 40
0.0
 40
0.0
 40
0.0
 40
0.0
 40
1.0
 40
1.0
 40
1.0
 40
1.0
 10
2180.736528233943
 20
-124.4703885475455
 30
0.0
 10
2180.736528233943
 20
-124.4703885475455
 30
0.0
 10
2229.276075930095
 20
-133.5125100368191
 30
0.0
 10
2229.276075930095
 20
-235.5512765445092
 30
0.0
  0
SPLINE
  5
277
330
1F
100
AcDbEntity
  8
Furniture
100
AcDbSpline
210
0.0
220
0.0
230
1.0
 70
     9
 71
     3
 72
    47
 73
    43
 74
     0
 42
0.000000001
 43
0.0000000001
 40
0.0
 40
0.0
 40
0.0
 40
0.0
 40
1.0
 40
1.0
 40
1.0
 40
2.0
 40
2.0
 40
2.0
 40
3.0
 40
3.0
 40
3.0
 40
4.0
 40
4.0
 40
4.0
 40
5.0
 40
5.0
 40
5.0
 40
6.0
 40
6.0
 40
6.0
 40
7.0
 40
7.0
 40
7.0
 40
8.0
 40
8.0
 40
8.0
 40
9.0
 40
9.0
 40
9.0
 40
10.0
 40
10.0
 40
10.0
 40
11.0
 40
11.0
 40
11.0
 40
12.0
 40
12.0
 40
12.0
 40
13.0
 40
13.0
 40
13.0
 40
14.0
 40
14.0
 40
14.0
 40
14.0
 10
2451.955187233112
 20
-196.4137357700401
 30
0.0
 10
2612.419104408437
 20
-198.9891658957162
 30
0.0
 10
2646.338306412978
 20
-221.0433950505248
 30
0.0
 10
2646.338306412978
 20
-221.0433950505248
 30
0.0
 10
2693.888169170004
 20
-254.1528548321453
 30
0.0
 10
2691.27899978504
 20
-312.6004983393054
 30
0.0
 10
2691.27899978504
 20
-312.6004983393054
 30
0.0
 10
2691.27899978504
 20
-312.6004983393054
 30
0.0
 10
2720.474705489213
 20
-672.2497559332018
 30
0.0
 10
2744.407086744406
 20
-703.7509776887445
 30
0.0
 10
2768.294482320547
 20
-735.2746922838132
 30
0.0
 10
2775.537176647777
 20
-703.7509776887445
 30
0.0
 10
2775.537176647777
 20
-703.7509776887445
 30
0.0
 10
2789.932593944133
 20
-668.7408729672151
 30
0.0
 10
2739.728576123089
 20
-171.7953229093177
 30
0.0
 10
2739.728576123089
 20
-171.7953229093177
 30
0.0
 10
2734.015394883598
 20
-58.00404774952403
 30
0.0
 10
2446.736848463181
 20
-56.6769702175161
 30
0.0
 10
2446.736848463181
 20
-56.6769702175161
 30
0.0
 10
2446.736848463181
 20
-56.6769702175161
 30
0.0
 10
2449.885845996762
 20
-56.6769702175161
 30
0.0
 10
2449.885845996762
 20
-56.6769702175161
 30
0.0
 10
2449.885845996762
 20
-56.6769702175161
 30
0.0
 10
2162.562313897293
 20
-58.00404774952403
 30
0.0
 10
2156.849132657802
 20
-171.7953229093177
 30
0.0
 10
2156.849132657802
 20
-171.7953229093177
 30
0.0
 10
2106.690100515809
 20
-668.7408729672151
 30
0.0
 10
2121.085517812164
 20
-703.7509776887445
 30
0.0
 10
2121.085517812164
 20
-703.7509776887445
 30
0.0
 10
2128.328212139395
 20
-735.2746922838132
 30
0.0
 10
2152.215607715536
 20
-703.7509776887445
 30
0.0
 10
2176.14798897073
 20
-672.2497559332018
 30
0.0
 10
2205.298708995852
 20
-312.6004983393054
 30
0.0
 10
2205.298708995852
 20
-312.6004983393054
 30
0.0
 10
2205.298708995852
 20
-312.6004983393054
 30
0.0
 10
2202.734525289938
 20
-254.1528548321453
 30
0.0
 10
2250.284388046964
 20
-221.0433950505248
 30
0.0
 10
2250.284388046964
 20
-221.0433950505248
 30
0.0
 10
2284.158604372455
 20
-198.9891658957162
 30
0.0
 10
2444.66750722683
 20
-196.4137357700401
 30
0.0
 10
2444.66750722683
 20
-196.4137357700401
 30
0.0
 10
2451.955187233112
 20
-196.4137357700401
 30
0.0
 10
2451.955187233112
 20
-196.4137357700401
 30
0.0
  0
SPLINE
  5
278
330
1F
100
AcDbEntity
  8
Furniture
100
AcDbSpline
210
0.0
220
0.0
230
1.0
 70
     8
 71
     3
 72
     8
 73
     4
 74
     0
 42
0.000000001
 43
0.0000000001
 40
0.0
 40
0.0
 40
0.0
 40
0.0
 40
1.0
 40
1.0
 40
1.0
 40
1.0
 10
2715.841180546948
 20
-124.4703885475455
 30
0.0
 10
2715.841180546948
 20
-124.4703885475455
 30
0.0
 10
2667.301632850797
 20
-140.5077831292678
 30
0.0
 10
2667.301632850797
 20
-235.5512765445092
 30
0.0
  0
SPLINE
  5
279
330
1F
100
AcDbEntity
  8
Furniture
100
AcDbSpline
210
0.0
220
0.0
230
1.0
 70
     8
 71
     3
 72
    26
 73
    22
 74
     0
 42
0.000000001
 43
0.0000000001
 40
0.0
 40
0.0
 40
0.0
 40
0.0
 40
1.0
 40
1.0
 40
1.0
 40
2.0
 40
2.0
 40
2.0
 40
3.0
 40
3.0
 40
3.0
 40
4.0
 40
4.0
 40
4.0
 40
5.0
 40
5.0
 40
5.0
 40
6.0
 40
6.0
 40
6.0
 40
7.0
 40
7.0
 40
7.0
 40
7.0
 10
2734.735165748416
 20
-673.7567761814143
 30
0.0
 10
2734.735165748416
 20
-673.7567761814143
 30
0.0
 10
2739.548633406887
 20
-708.1145885567029
 30
0.0
 10
2742.292759829004
 20
-717.29166708313
 30
0.0
 10
2742.292759829004
 20
-717.29166708313
 30
0.0
 10
2744.137172670098
 20
-729.2353648712009
 30
0.0
 10
2727.672414137393
 20
-729.2353648712009
 30
0.0
 10
2711.207655604683
 20
-729.2353648712009
 30
0.0
 10
2605.31136711836
 20
-746.7010547627965
 30
0.0
 10
2449.885845996762
 20
-746.7010547627965
 30
0.0
 10
2449.885845996762
 20
-746.7010547627965
 30
0.0
 10
2446.736848463181
 20
-746.7010547627965
 30
0.0
 10
2446.736848463181
 20
-746.7010547627965
 30
0.0
 10
2291.311327341582
 20
-746.7010547627965
 30
0.0
 10
2185.415038855259
 20
-729.2353648712009
 30
0.0
 10
2168.95028032255
 20
-729.2353648712009
 30
0.0
 10
2152.485521789844
 20
-729.2353648712009
 30
0.0
 10
2154.329934630938
 20
-717.29166708313
 30
0.0
 10
2154.329934630938
 20
-717.29166708313
 30
0.0
 10
2157.074061053056
 20
-708.1145885567029
 30
0.0
 10
2161.887528711526
 20
-673.7567761814143
 30
0.0
 10
2161.887528711526
 20
-673.7567761814143
 30
0.0
  0
SPLINE
  5
27A
330
1F
100
AcDbEntity
  8
Furniture
100
AcDbSpline
210
0.0
220
0.0
230
1.0
 70
     9
 71
     3
 72
    17
 73
    13
 74
     0
 42
0.000000001
 43
0.0000000001
 40
0.0
 40
0.0
 40
0.0
 40
0.0
 40
1.0
 40
1.0
 40
1.0
 40
2.0
 40
2.0
 40
2.0
 40
3.0
 40
3.0
 40
3.0
 40
4.0
 40
4.0
 40
4.0
 40
4.0
 10
2335.757178244083
 20
-340.3566623138431
 30
0.0
 10
2335.757178244083
 20
-331.1008588490763
 30
0.0
 10
2328.379526879698
 20
-323.599496867303
 30
0.0
 10
2319.292419711375
 20
-323.599496867303
 30
0.0
 10
2310.20531254305
 20
-323.599496867303
 30
0.0
 10
2302.827661178667
 20
-331.1008588490763
 30
0.0
 10
2302.827661178667
 20
-340.3566623138431
 30
0.0
 10
2302.827661178667
 20
-349.6349586181354
 30
0.0
 10
2310.20531254305
 20
-357.1363205999087
 30
0.0
 10
2319.292419711375
 20
-357.1363205999087
 30
0.0
 10
2328.379526879698
 20
-357.1363205999087
 30
0.0
 10
2335.757178244083
 20
-349.6349586181354
 30
0.0
 10
2335.757178244083
 20
-340.3566623138431
 30
0.0
  0
SPLINE
  5
27B
330
1F
100
AcDbEntity
  8
Furniture
100
AcDbSpline
210
0.0
220
0.0
230
1.0
 70
     9
 71
     3
 72
    17
 73
    13
 74
     0
 42
0.000000001
 43
0.0000000001
 40
0.0
 40
0.0
 40
0.0
 40
0.0
 40
1.0
 40
1.0
 40
1.0
 40
2.0
 40
2.0
 40
2.0
 40
3.0
 40
3.0
 40
3.0
 40
4.0
 40
4.0
 40
4.0
 40
4.0
 10
2335.757178244083
 20
-627.7926586109384
 30
0.0
 10
2335.757178244083
 20
-618.5368551461711
 30
0.0
 10
2328.379526879698
 20
-611.0354931643983
 30
0.0
 10
2319.292419711375
 20
-611.0354931643983
 30
0.0
 10
2310.20531254305
 20
-611.0354931643983
 30
0.0
 10
2302.827661178667
 20
-618.5368551461711
 30
0.0
 10
2302.827661178667
 20
-627.7926586109384
 30
0.0
 10
2302.827661178667
 20
-637.0709549152307
 30
0.0
 10
2310.20531254305
 20
-644.5610704772406
 30
0.0
 10
2319.292419711375
 20
-644.5610704772406
 30
0.0
 10
2328.379526879698
 20
-644.5610704772406
 30
0.0
 10
2335.757178244083
 20
-637.0709549152307
 30
0.0
 10
2335.757178244083
 20
-627.7926586109384
 30
0.0
  0
SPLINE
  5
27C
330
1F
100
AcDbEntity
  8
Furniture
100
AcDbSpline
210
0.0
220
0.0
230
1.0
 70
     9
 71
     3
 72
    17
 73
    13
 74
     0
 42
0.000000001
 43
0.0000000001
 40
0.0
 40
0.0
 40
0.0
 40
0.0
 40
1.0
 40
1.0
 40
1.0
 40
2.0
 40
2.0
 40
2.0
 40
3.0
 40
3.0
 40
3.0
 40
4.0
 40
4.0
 40
4.0
 40
4.0
 10
2559.695888560529
 20
-340.3566623138431
 30
0.0
 10
2559.695888560529
 20
-331.1008588490763
 30
0.0
 10
2567.028554245863
 20
-323.599496867303
 30
0.0
 10
2576.160647093239
 20
-323.599496867303
 30
0.0
 10
2585.202768582512
 20
-323.599496867303
 30
0.0
 10
2592.580419946895
 20
-331.1008588490763
 30
0.0
 10
2592.580419946895
 20
-340.3566623138431
 30
0.0
 10
2592.580419946895
 20
-349.6349586181354
 30
0.0
 10
2585.202768582512
 20
-357.1363205999087
 30
0.0
 10
2576.160647093239
 20
-357.1363205999087
 30
0.0
 10
2567.028554245863
 20
-357.1363205999087
 30
0.0
 10
2559.695888560529
 20
-349.6349586181354
 30
0.0
 10
2559.695888560529
 20
-340.3566623138431
 30
0.0
  0
SPLINE
  5
27D
330
1F
100
AcDbEntity
  8
Furniture
100
AcDbSpline
210
0.0
220
0.0
230
1.0
 70
     9
 71
     3
 72
    17
 73
    13
 74
     0
 42
0.000000001
 43
0.0000000001
 40
0.0
 40
0.0
 40
0.0
 40
0.0
 40
1.0
 40
1.0
 40
1.0
 40
2.0
 40
2.0
 40
2.0
 40
3.0
 40
3.0
 40
3.0
 40
4.0
 40
4.0
 40
4.0
 40
4.0
 10
2559.695888560529
 20
-627.7926586109384
 30
0.0
 10
2559.695888560529
 20
-618.5368551461711
 30
0.0
 10
2567.028554245863
 20
-611.0354931643983
 30
0.0
 10
2576.160647093239
 20
-611.0354931643983
 30
0.0
 10
2585.247754261564
 20
-611.0354931643983
 30
0.0
 10
2592.580419946895
 20
-618.5368551461711
 30
0.0
 10
2592.580419946895
 20
-627.7926586109384
 30
0.0
 10
2592.580419946895
 20
-637.0709549152307
 30
0.0
 10
2585.247754261564
 20
-644.5610704772406
 30
0.0
 10
2576.160647093239
 20
-644.5610704772406
 30
0.0
 10
2567.028554245863
 20
-644.5610704772406
 30
0.0
 10
2559.695888560529
 20
-637.0709549152307
 30
0.0
 10
2559.695888560529
 20
-627.7926586109384
 30
0.0
  0
SPLINE
  5
27E
330
1F
100
AcDbEntity
  8
Furniture
100
AcDbSpline
210
0.0
220
0.0
230
1.0
 70
     8
 71
     3
 72
     8
 73
     4
 74
     0
 42
0.000000001
 43
0.0000000001
 40
0.0
 40
0.0
 40
0.0
 40
0.0
 40
1.0
 40
1.0
 40
1.0
 40
1.0
 10
4655.758618268153
 20
-124.4703885475455
 30
0.0
 10
4655.758618268153
 20
-124.4703885475455
 30
0.0
 10
4704.298165964305
 20
-133.5125100368191
 30
0.0
 10
4704.298165964305
 20
-235.5512765445092
 30
0.0
  0
SPLINE
  5
27F
330
1F
100
AcDbEntity
  8
Furniture
100
AcDbSpline
210
0.0
220
0.0
230
1.0
 70
     9
 71
     3
 72
    17
 73
    13
 74
     0
 42
0.000000001
 43
0.0000000001
 40
0.0
 40
0.0
 40
0.0
 40
0.0
 40
1.0
 40
1.0
 40
1.0
 40
2.0
 40
2.0
 40
2.0
 40
3.0
 40
3.0
 40
3.0
 40
4.0
 40
4.0
 40
4.0
 40
4.0
 10
4860.848329062182
 20
-340.3566623138431
 30
0.0
 10
4860.848329062182
 20
-331.1008588490763
 30
0.0
 10
4853.560649055902
 20
-323.599496867303
 30
0.0
 10
4844.428556208526
 20
-323.599496867303
 30
0.0
 10
4835.341449040201
 20
-323.599496867303
 30
0.0
 10
4827.963797675817
 20
-331.1008588490763
 30
0.0
 10
4827.963797675817
 20
-340.3566623138431
 30
0.0
 10
4827.963797675817
 20
-349.6349586181354
 30
0.0
 10
4835.341449040201
 20
-357.1363205999087
 30
0.0
 10
4844.428556208526
 20
-357.1363205999087
 30
0.0
 10
4853.560649055902
 20
-357.1363205999087
 30
0.0
 10
4860.848329062182
 20
-349.6349586181354
 30
0.0
 10
4860.848329062182
 20
-340.3566623138431
 30
0.0
  0
SPLINE
  5
280
330
1F
100
AcDbEntity
  8
Furniture
100
AcDbSpline
210
0.0
220
0.0
230
1.0
 70
     9
 71
     3
 72
    17
 73
    13
 74
     0
 42
0.000000001
 43
0.0000000001
 40
0.0
 40
0.0
 40
0.0
 40
0.0
 40
1.0
 40
1.0
 40
1.0
 40
2.0
 40
2.0
 40
2.0
 40
3.0
 40
3.0
 40
3.0
 40
4.0
 40
4.0
 40
4.0
 40
4.0
 10
5289.651821777404
 20
-340.3566623138431
 30
0.0
 10
5289.651821777404
 20
-331.1008588490763
 30
0.0
 10
5282.319156092073
 20
-323.599496867303
 30
0.0
 10
5273.187063244697
 20
-323.599496867303
 30
0.0
 10
5264.099956076372
 20
-323.599496867303
 30
0.0
 10
5256.722304711988
 20
-331.1008588490763
 30
0.0
 10
5256.722304711988
 20
-340.3566623138431
 30
0.0
 10
5256.722304711988
 20
-349.6349586181354
 30
0.0
 10
5264.099956076372
 20
-357.1363205999087
 30
0.0
 10
5273.187063244697
 20
-357.1363205999087
 30
0.0
 10
5282.319156092073
 20
-357.1363205999087
 30
0.0
 10
5289.651821777404
 20
-349.6349586181354
 30
0.0
 10
5289.651821777404
 20
-340.3566623138431
 30
0.0
  0
SPLINE
  5
281
330
1F
100
AcDbEntity
  8
Furniture
100
AcDbSpline
210
0.0
220
0.0
230
1.0
 70
     9
 71
     3
 72
    17
 73
    13
 74
     0
 42
0.000000001
 43
0.0000000001
 40
0.0
 40
0.0
 40
0.0
 40
0.0
 40
1.0
 40
1.0
 40
1.0
 40
2.0
 40
2.0
 40
2.0
 40
3.0
 40
3.0
 40
3.0
 40
4.0
 40
4.0
 40
4.0
 40
4.0
 10
5289.651821777404
 20
-627.7926586109384
 30
0.0
 10
5289.651821777404
 20
-618.5368551461711
 30
0.0
 10
5282.319156092073
 20
-611.0354931643983
 30
0.0
 10
5273.187063244697
 20
-611.0354931643983
 30
0.0
 10
5264.099956076372
 20
-611.0354931643983
 30
0.0
 10
5256.722304711988
 20
-618.5368551461711
 30
0.0
 10
5256.722304711988
 20
-627.7926586109384
 30
0.0
 10
5256.722304711988
 20
-637.0597084954679
 30
0.0
 10
5264.099956076372
 20
-644.5610704772406
 30
0.0
 10
5273.187063244697
 20
-644.5610704772406
 30
0.0
 10
5282.319156092073
 20
-644.5610704772406
 30
0.0
 10
5289.651821777404
 20
-637.0597084954679
 30
0.0
 10
5289.651821777404
 20
-627.7926586109384
 30
0.0
  0
SPLINE
  5
282
330
1F
100
AcDbEntity
  8
Furniture
100
AcDbSpline
210
0.0
220
0.0
230
1.0
 70
     9
 71
     3
 72
    17
 73
    13
 74
     0
 42
0.000000001
 43
0.0000000001
 40
0.0
 40
0.0
 40
0.0
 40
0.0
 40
1.0
 40
1.0
 40
1.0
 40
2.0
 40
2.0
 40
2.0
 40
3.0
 40
3.0
 40
3.0
 40
4.0
 40
4.0
 40
4.0
 40
4.0
 10
4860.893314741233
 20
-627.7926586109384
 30
0.0
 10
4860.893314741233
 20
-618.5368551461711
 30
0.0
 10
4853.515663376851
 20
-611.0354931643983
 30
0.0
 10
4844.428556208526
 20
-611.0354931643983
 30
0.0
 10
4835.341449040201
 20
-611.0354931643983
 30
0.0
 10
4827.963797675817
 20
-618.5368551461711
 30
0.0
 10
4827.963797675817
 20
-627.7926586109384
 30
0.0
 10
4827.963797675817
 20
-637.0709549152307
 30
0.0
 10
4835.341449040201
 20
-644.5610704772406
 30
0.0
 10
4844.428556208526
 20
-644.5610704772406
 30
0.0
 10
4853.515663376851
 20
-644.5610704772406
 30
0.0
 10
4860.893314741233
 20
-637.0709549152307
 30
0.0
 10
4860.893314741233
 20
-627.7926586109384
 30
0.0
  0
SPLINE
  5
283
330
1F
100
AcDbEntity
  8
Furniture
100
AcDbSpline
210
0.0
220
0.0
230
1.0
 70
     8
 71
     3
 72
     8
 73
     4
 74
     0
 42
0.000000001
 43
0.0000000001
 40
0.0
 40
0.0
 40
0.0
 40
0.0
 40
1.0
 40
1.0
 40
1.0
 40
1.0
 10
5890.615508221241
 20
-124.4703885475455
 30
0.0
 10
5890.615508221241
 20
-124.4703885475455
 30
0.0
 10
5842.030974846039
 20
-133.5125100368191
 30
0.0
 10
5842.030974846039
 20
-235.5512765445092
 30
0.0
  0
SPLINE
  5
284
330
1F
100
AcDbEntity
  8
Furniture
100
AcDbSpline
210
0.0
220
0.0
230
1.0
 70
    11
 71
     3
 72
    53
 73
    49
 74
     0
 42
0.000000001
 43
0.0000000001
 40
0.0
 40
0.0
 40
0.0
 40
0.0
 40
1.0
 40
1.0
 40
1.0
 40
2.0
 40
2.0
 40
2.0
 40
3.0
 40
3.0
 40
3.0
 40
4.0
 40
4.0
 40
4.0
 40
5.0
 40
5.0
 40
5.0
 40
6.0
 40
6.0
 40
6.0
 40
7.0
 40
7.0
 40
7.0
 40
8.0
 40
8.0
 40
8.0
 40
9.0
 40
9.0
 40
9.0
 40
10.0
 40
10.0
 40
10.0
 40
11.0
 40
11.0
 40
11.0
 40
12.0
 40
12.0
 40
12.0
 40
13.0
 40
13.0
 40
13.0
 40
14.0
 40
14.0
 40
14.0
 40
15.0
 40
15.0
 40
15.0
 40
16.0
 40
16.0
 40
16.0
 40
16.0
 10
5624.615187992002
 20
-56.6769702175161
 30
0.0
 10
5624.615187992002
 20
-56.6769702175161
 30
0.0
 10
5908.74473687884
 20
-58.00404774952403
 30
0.0
 10
5914.502903797382
 20
-171.7953229093177
 30
0.0
 10
5914.502903797382
 20
-171.7953229093177
 30
0.0
 10
5964.706921618426
 20
-668.7408729672151
 30
0.0
 10
5950.266518643019
 20
-703.7509776887445
 30
0.0
 10
5950.266518643019
 20
-703.7509776887445
 30
0.0
 10
5943.02382431579
 20
-735.2746922838132
 30
0.0
 10
5919.091443060597
 20
-703.7509776887445
 30
0.0
 10
5895.249033163508
 20
-672.2497559332018
 30
0.0
 10
5866.008341780282
 20
-312.6004983393054
 30
0.0
 10
5866.008341780282
 20
-312.6004983393054
 30
0.0
 10
5866.008341780282
 20
-312.6004983393054
 30
0.0
 10
5868.572525486196
 20
-254.1528548321453
 30
0.0
 10
5821.067648408217
 20
-221.0433950505248
 30
0.0
 10
5821.067648408217
 20
-221.0433950505248
 30
0.0
 10
5787.193432082729
 20
-198.9891658957162
 30
0.0
 10
5626.684529228354
 20
-196.4137357700401
 30
0.0
 10
5626.684529228354
 20
-196.4137357700401
 30
0.0
 10
5619.396849222072
 20
-196.4137357700401
 30
0.0
 10
5619.396849222072
 20
-196.4137357700401
 30
0.0
 10
5619.396849222072
 20
-196.4137357700401
 30
0.0
 10
4926.932291588269
 20
-196.4137357700401
 30
0.0
 10
4926.932291588269
 20
-196.4137357700401
 30
0.0
 10
4926.932291588269
 20
-196.4137357700401
 30
0.0
 10
4919.644611581987
 20
-196.4137357700401
 30
0.0
 10
4919.644611581987
 20
-196.4137357700401
 30
0.0
 10
4759.180694406663
 20
-198.9891658957162
 30
0.0
 10
4725.306478081176
 20
-221.0433950505248
 30
0.0
 10
4725.306478081176
 20
-221.0433950505248
 30
0.0
 10
4677.756615324145
 20
-254.1528548321453
 30
0.0
 10
4680.365784709111
 20
-312.6004983393054
 30
0.0
 10
4680.365784709111
 20
-312.6004983393054
 30
0.0
 10
4680.365784709111
 20
-312.6004983393054
 30
0.0
 10
4651.170079004938
 20
-672.2497559332018
 30
0.0
 10
4627.237697749744
 20
-703.7509776887445
 30
0.0
 10
4603.350302173603
 20
-735.2746922838132
 30
0.0
 10
4596.062622167324
 20
-703.7509776887445
 30
0.0
 10
4596.062622167324
 20
-703.7509776887445
 30
0.0
 10
4581.667204870966
 20
-668.7408729672151
 30
0.0
 10
4631.87122269201
 20
-171.7953229093177
 30
0.0
 10
4631.87122269201
 20
-171.7953229093177
 30
0.0
 10
4637.584403931501
 20
-58.00404774952403
 30
0.0
 10
4921.758938497393
 20
-56.6769702175161
 30
0.0
 10
4921.758938497393
 20
-56.6769702175161
 30
0.0
 10
4921.758938497393
 20
-56.6769702175161
 30
0.0
 10
5624.615187992002
 20
-56.6769702175161
 30
0.0
 10
5624.615187992002
 20
-56.6769702175161
 30
0.0
  0
SPLINE
  5
285
330
1F
100
AcDbEntity
  8
Furniture
100
AcDbSpline
210
0.0
220
0.0
230
1.0
 70
     8
 71
     3
 72
    32
 73
    28
 74
     0
 42
0.000000001
 43
0.0000000001
 40
0.0
 40
0.0
 40
0.0
 40
0.0
 40
1.0
 40
1.0
 40
1.0
 40
2.0
 40
2.0
 40
2.0
 40
3.0
 40
3.0
 40
3.0
 40
4.0
 40
4.0
 40
4.0
 40
5.0
 40
5.0
 40
5.0
 40
6.0
 40
6.0
 40
6.0
 40
7.0
 40
7.0
 40
7.0
 40
8.0
 40
8.0
 40
8.0
 40
9.0
 40
9.0
 40
9.0
 40
9.0
 10
4636.864633066685
 20
-673.7567761814143
 30
0.0
 10
4636.864633066685
 20
-673.7567761814143
 30
0.0
 10
4632.051165408214
 20
-708.1145885567029
 30
0.0
 10
4629.307038986097
 20
-717.29166708313
 30
0.0
 10
4629.307038986097
 20
-717.29166708313
 30
0.0
 10
4627.507611824052
 20
-729.2353648712009
 30
0.0
 10
4643.927384677708
 20
-729.2353648712009
 30
0.0
 10
4660.392143210416
 20
-729.2353648712009
 30
0.0
 10
4766.288431696739
 20
-746.7010547627965
 30
0.0
 10
4921.758938497393
 20
-746.7010547627965
 30
0.0
 10
4921.758938497393
 20
-746.7010547627965
 30
0.0
 10
4924.862950351919
 20
-746.7010547627965
 30
0.0
 10
4924.862950351919
 20
-746.7010547627965
 30
0.0
 10
4924.862950351919
 20
-746.7010547627965
 30
0.0
 10
5621.466190458423
 20
-746.7010547627965
 30
0.0
 10
5621.466190458423
 20
-746.7010547627965
 30
0.0
 10
5621.466190458423
 20
-746.7010547627965
 30
0.0
 10
5624.615187992002
 20
-746.7010547627965
 30
0.0
 10
5624.615187992002
 20
-746.7010547627965
 30
0.0
 10
5780.040709113603
 20
-746.7010547627965
 30
0.0
 10
5885.981983278976
 20
-729.2353648712009
 30
0.0
 10
5902.401756132633
 20
-729.2353648712009
 30
0.0
 10
5918.86651466534
 20
-729.2353648712009
 30
0.0
 10
5917.067087503295
 20
-717.29166708313
 30
0.0
 10
5917.067087503295
 20
-717.29166708313
 30
0.0
 10
5914.277975402129
 20
-708.1145885567029
 30
0.0
 10
5909.464507743656
 20
-673.7567761814143
 30
0.0
 10
5909.464507743656
 20
-673.7567761814143
 30
0.0
  0
SPLINE
  5
286
330
1F
100
AcDbEntity
  8
Furniture
100
AcDbSpline
210
0.0
220
0.0
230
1.0
 70
     9
 71
     3
 72
    17
 73
    13
 74
     0
 42
0.000000001
 43
0.0000000001
 40
0.0
 40
0.0
 40
0.0
 40
0.0
 40
1.0
 40
1.0
 40
1.0
 40
2.0
 40
2.0
 40
2.0
 40
3.0
 40
3.0
 40
3.0
 40
4.0
 40
4.0
 40
4.0
 40
4.0
 10
5685.480811748159
 20
-340.3566623138431
 30
0.0
 10
5685.480811748159
 20
-331.1008588490763
 30
0.0
 10
5692.858463112543
 20
-323.599496867303
 30
0.0
 10
5701.900584601817
 20
-323.599496867303
 30
0.0
 10
5711.032677449192
 20
-323.599496867303
 30
0.0
 10
5718.410328813574
 20
-331.1008588490763
 30
0.0
 10
5718.410328813574
 20
-340.3566623138431
 30
0.0
 10
5718.410328813574
 20
-349.6349586181354
 30
0.0
 10
5711.032677449192
 20
-357.1363205999087
 30
0.0
 10
5701.900584601817
 20
-357.1363205999087
 30
0.0
 10
5692.858463112543
 20
-357.1363205999087
 30
0.0
 10
5685.480811748159
 20
-349.6349586181354
 30
0.0
 10
5685.480811748159
 20
-340.3566623138431
 30
0.0
  0
SPLINE
  5
287
330
1F
100
AcDbEntity
  8
Furniture
100
AcDbSpline
210
0.0
220
0.0
230
1.0
 70
     9
 71
     3
 72
    17
 73
    13
 74
     0
 42
0.000000001
 43
0.0000000001
 40
0.0
 40
0.0
 40
0.0
 40
0.0
 40
1.0
 40
1.0
 40
1.0
 40
2.0
 40
2.0
 40
2.0
 40
3.0
 40
3.0
 40
3.0
 40
4.0
 40
4.0
 40
4.0
 40
4.0
 10
5685.480811748159
 20
-627.7926586109384
 30
0.0
 10
5685.480811748159
 20
-618.5368551461711
 30
0.0
 10
5692.858463112543
 20
-611.0354931643983
 30
0.0
 10
5701.900584601817
 20
-611.0354931643983
 30
0.0
 10
5710.98769177014
 20
-611.0354931643983
 30
0.0
 10
5718.410328813574
 20
-618.5368551461711
 30
0.0
 10
5718.410328813574
 20
-627.7926586109384
 30
0.0
 10
5718.410328813574
 20
-637.0709549152307
 30
0.0
 10
5710.98769177014
 20
-644.5610704772406
 30
0.0
 10
5701.900584601817
 20
-644.5610704772406
 30
0.0
 10
5692.858463112543
 20
-644.5610704772406
 30
0.0
 10
5685.480811748159
 20
-637.0709549152307
 30
0.0
 10
5685.480811748159
 20
-627.7926586109384
 30
0.0
  0
SPLINE
  5
288
330
1F
100
AcDbEntity
  8
Furniture
100
AcDbSpline
210
0.0
220
0.0
230
1.0
 70
     8
 71
     3
 72
     8
 73
     4
 74
     0
 42
0.000000001
 43
0.0000000001
 40
0.0
 40
0.0
 40
0.0
 40
0.0
 40
1.0
 40
1.0
 40
1.0
 40
1.0
 10
2180.736528233943
 20
-2228.371872829824
 30
0.0
 10
2180.736528233943
 20
-2228.371872829824
 30
0.0
 10
2229.276075930095
 20
-2237.413994319098
 30
0.0
 10
2229.276075930095
 20
-2339.452760826789
 30
0.0
  0
SPLINE
  5
289
330
1F
100
AcDbEntity
  8
Furniture
100
AcDbSpline
210
0.0
220
0.0
230
1.0
 70
     8
 71
     3
 72
     8
 73
     4
 74
     0
 42
0.000000001
 43
0.0000000001
 40
0.0
 40
0.0
 40
0.0
 40
0.0
 40
1.0
 40
1.0
 40
1.0
 40
1.0
 10
2715.841180546948
 20
-2228.371872829824
 30
0.0
 10
2715.841180546948
 20
-2228.371872829824
 30
0.0
 10
2667.301632850797
 20
-2244.409267411547
 30
0.0
 10
2667.301632850797
 20
-2339.452760826789
 30
0.0
  0
SPLINE
  5
28A
330
1F
100
AcDbEntity
  8
Furniture
100
AcDbSpline
210
0.0
220
0.0
230
1.0
 70
     8
 71
     3
 72
    26
 73
    22
 74
     0
 42
0.000000001
 43
0.0000000001
 40
0.0
 40
0.0
 40
0.0
 40
0.0
 40
1.0
 40
1.0
 40
1.0
 40
2.0
 40
2.0
 40
2.0
 40
3.0
 40
3.0
 40
3.0
 40
4.0
 40
4.0
 40
4.0
 40
5.0
 40
5.0
 40
5.0
 40
6.0
 40
6.0
 40
6.0
 40
7.0
 40
7.0
 40
7.0
 40
7.0
 10
2734.735165748416
 20
-2777.658260463693
 30
0.0
 10
2734.735165748416
 20
-2777.658260463693
 30
0.0
 10
2739.548633406887
 20
-2812.016072838982
 30
0.0
 10
2742.292759829004
 20
-2821.19315136541
 30
0.0
 10
2742.292759829004
 20
-2821.19315136541
 30
0.0
 10
2744.137172670098
 20
-2833.13684915348
 30
0.0
 10
2727.672414137393
 20
-2833.13684915348
 30
0.0
 10
2711.207655604683
 20
-2833.13684915348
 30
0.0
 10
2605.31136711836
 20
-2850.591292625312
 30
0.0
 10
2449.885845996762
 20
-2850.591292625312
 30
0.0
 10
2449.885845996762
 20
-2850.591292625312
 30
0.0
 10
2446.736848463181
 20
-2850.591292625312
 30
0.0
 10
2446.736848463181
 20
-2850.591292625312
 30
0.0
 10
2291.311327341582
 20
-2850.591292625312
 30
0.0
 10
2185.415038855259
 20
-2833.13684915348
 30
0.0
 10
2168.95028032255
 20
-2833.13684915348
 30
0.0
 10
2152.485521789844
 20
-2833.13684915348
 30
0.0
 10
2154.329934630938
 20
-2821.19315136541
 30
0.0
 10
2154.329934630938
 20
-2821.19315136541
 30
0.0
 10
2157.074061053056
 20
-2812.016072838982
 30
0.0
 10
2161.887528711526
 20
-2777.658260463693
 30
0.0
 10
2161.887528711526
 20
-2777.658260463693
 30
0.0
  0
SPLINE
  5
28B
330
1F
100
AcDbEntity
  8
Furniture
100
AcDbSpline
210
0.0
220
0.0
230
1.0
 70
    11
 71
     3
 72
    17
 73
    13
 74
     0
 42
0.000000001
 43
0.0000000001
 40
0.0
 40
0.0
 40
0.0
 40
0.0
 40
1.0
 40
1.0
 40
1.0
 40
2.0
 40
2.0
 40
2.0
 40
3.0
 40
3.0
 40
3.0
 40
4.0
 40
4.0
 40
4.0
 40
4.0
 10
2335.757178244083
 20
-2444.258146596121
 30
0.0
 10
2335.757178244083
 20
-2434.991096711592
 30
0.0
 10
2328.379526879698
 20
-2427.500981149582
 30
0.0
 10
2319.292419711375
 20
-2427.500981149582
 30
0.0
 10
2310.20531254305
 20
-2427.500981149582
 30
0.0
 10
2302.827661178667
 20
-2434.991096711592
 30
0.0
 10
2302.827661178667
 20
-2444.258146596121
 30
0.0
 10
2302.827661178667
 20
-2453.525196480652
 30
0.0
 10
2310.20531254305
 20
-2461.037804882187
 30
0.0
 10
2319.292419711375
 20
-2461.037804882187
 30
0.0
 10
2328.379526879698
 20
-2461.037804882187
 30
0.0
 10
2335.757178244083
 20
-2453.525196480652
 30
0.0
 10
2335.757178244083
 20
-2444.258146596121
 30
0.0
  0
SPLINE
  5
28C
330
1F
100
AcDbEntity
  8
Furniture
100
AcDbSpline
210
0.0
220
0.0
230
1.0
 70
     9
 71
     3
 72
    17
 73
    13
 74
     0
 42
0.000000001
 43
0.0000000001
 40
0.0
 40
0.0
 40
0.0
 40
0.0
 40
1.0
 40
1.0
 40
1.0
 40
2.0
 40
2.0
 40
2.0
 40
3.0
 40
3.0
 40
3.0
 40
4.0
 40
4.0
 40
4.0
 40
4.0
 10
2335.757178244083
 20
-2731.682896473454
 30
0.0
 10
2335.757178244083
 20
-2722.43833942845
 30
0.0
 10
2328.379526879698
 20
-2714.914484607151
 30
0.0
 10
2319.292419711375
 20
-2714.914484607151
 30
0.0
 10
2310.20531254305
 20
-2714.914484607151
 30
0.0
 10
2302.827661178667
 20
-2722.43833942845
 30
0.0
 10
2302.827661178667
 20
-2731.682896473454
 30
0.0
 10
2302.827661178667
 20
-2740.97243919751
 30
0.0
 10
2310.20531254305
 20
-2748.46255475952
 30
0.0
 10
2319.292419711375
 20
-2748.46255475952
 30
0.0
 10
2328.379526879698
 20
-2748.46255475952
 30
0.0
 10
2335.757178244083
 20
-2740.97243919751
 30
0.0
 10
2335.757178244083
 20
-2731.682896473454
 30
0.0
  0
SPLINE
  5
28D
330
1F
100
AcDbEntity
  8
Furniture
100
AcDbSpline
210
0.0
220
0.0
230
1.0
 70
    11
 71
     3
 72
    17
 73
    13
 74
     0
 42
0.000000001
 43
0.0000000001
 40
0.0
 40
0.0
 40
0.0
 40
0.0
 40
1.0
 40
1.0
 40
1.0
 40
2.0
 40
2.0
 40
2.0
 40
3.0
 40
3.0
 40
3.0
 40
4.0
 40
4.0
 40
4.0
 40
4.0
 10
2559.695888560529
 20
-2444.258146596121
 30
0.0
 10
2559.695888560529
 20
-2434.991096711592
 30
0.0
 10
2567.028554245863
 20
-2427.500981149582
 30
0.0
 10
2576.160647093239
 20
-2427.500981149582
 30
0.0
 10
2585.202768582512
 20
-2427.500981149582
 30
0.0
 10
2592.580419946895
 20
-2434.991096711592
 30
0.0
 10
2592.580419946895
 20
-2444.258146596121
 30
0.0
 10
2592.580419946895
 20
-2453.525196480652
 30
0.0
 10
2585.202768582512
 20
-2461.037804882187
 30
0.0
 10
2576.160647093239
 20
-2461.037804882187
 30
0.0
 10
2567.028554245863
 20
-2461.037804882187
 30
0.0
 10
2559.695888560529
 20
-2453.525196480652
 30
0.0
 10
2559.695888560529
 20
-2444.258146596121
 30
0.0
  0
SPLINE
  5
28E
330
1F
100
AcDbEntity
  8
Furniture
100
AcDbSpline
210
0.0
220
0.0
230
1.0
 70
     9
 71
     3
 72
    17
 73
    13
 74
     0
 42
0.000000001
 43
0.0000000001
 40
0.0
 40
0.0
 40
0.0
 40
0.0
 40
1.0
 40
1.0
 40
1.0
 40
2.0
 40
2.0
 40
2.0
 40
3.0
 40
3.0
 40
3.0
 40
4.0
 40
4.0
 40
4.0
 40
4.0
 10
2559.695888560529
 20
-2731.682896473454
 30
0.0
 10
2559.695888560529
 20
-2722.43833942845
 30
0.0
 10
2567.028554245863
 20
-2714.914484607151
 30
0.0
 10
2576.160647093239
 20
-2714.914484607151
 30
0.0
 10
2585.247754261564
 20
-2714.914484607151
 30
0.0
 10
2592.580419946895
 20
-2722.43833942845
 30
0.0
 10
2592.580419946895
 20
-2731.682896473454
 30
0.0
 10
2592.580419946895
 20
-2740.97243919751
 30
0.0
 10
2585.247754261564
 20
-2748.46255475952
 30
0.0
 10
2576.160647093239
 20
-2748.46255475952
 30
0.0
 10
2567.028554245863
 20
-2748.46255475952
 30
0.0
 10
2559.695888560529
 20
-2740.97243919751
 30
0.0
 10
2559.695888560529
 20
-2731.682896473454
 30
0.0
  0
SPLINE
  5
28F
330
1F
100
AcDbEntity
  8
Furniture
100
AcDbSpline
210
0.0
220
0.0
230
1.0
 70
    11
 71
     3
 72
    71
 73
    67
 74
     0
 42
0.000000001
 43
0.0000000001
 40
0.0
 40
0.0
 40
0.0
 40
0.0
 40
1.0
 40
1.0
 40
1.0
 40
2.0
 40
2.0
 40
2.0
 40
3.0
 40
3.0
 40
3.0
 40
4.0
 40
4.0
 40
4.0
 40
5.0
 40
5.0
 40
5.0
 40
6.0
 40
6.0
 40
6.0
 40
7.0
 40
7.0
 40
7.0
 40
8.0
 40
8.0
 40
8.0
 40
9.0
 40
9.0
 40
9.0
 40
10.0
 40
10.0
 40
10.0
 40
11.0
 40
11.0
 40
11.0
 40
12.0
 40
12.0
 40
12.0
 40
13.0
 40
13.0
 40
13.0
 40
14.0
 40
14.0
 40
14.0
 40
15.0
 40
15.0
 40
15.0
 40
16.0
 40
16.0
 40
16.0
 40
17.0
 40
17.0
 40
17.0
 40
18.0
 40
18.0
 40
18.0
 40
19.0
 40
19.0
 40
19.0
 40
20.0
 40
20.0
 40
20.0
 40
21.0
 40
21.0
 40
21.0
 40
22.0
 40
22.0
 40
22.0
 40
22.0
 10
2739.053790937323
 20
-2269.443797803491
 30
0.0
 10
2739.053790937323
 20
-2269.443797803491
 30
0.0
 10
2732.890752907321
 20
-2239.089710863753
 30
0.0
 10
2712.872125729575
 20
-2216.203246646498
 30
0.0
 10
2701.895620041103
 20
-2203.674735030763
 30
0.0
 10
2695.417682257741
 20
-2173.129458955056
 30
0.0
 10
2695.417682257741
 20
-2173.129458955056
 30
0.0
 10
2695.417682257741
 20
-2173.129458955056
 30
0.0
 10
2685.745761261753
 20
-2130.584252992465
 30
0.0
 10
2650.611945922833
 20
-2124.724868296057
 30
0.0
 10
2650.611945922833
 20
-2124.724868296057
 30
0.0
 10
2608.370393293837
 20
-2110.216986802072
 30
0.0
 10
2448.851175378584
 20
-2110.216986802072
 30
0.0
 10
2448.851175378584
 20
-2110.216986802072
 30
0.0
 10
2448.31134722997
 20
-2110.216986802072
 30
0.0
 10
2448.31134722997
 20
-2110.216986802072
 30
0.0
 10
2288.792129314719
 20
-2110.216986802072
 30
0.0
 10
2246.550576685722
 20
-2124.724868296057
 30
0.0
 10
2246.550576685722
 20
-2124.724868296057
 30
0.0
 10
2211.416761346804
 20
-2130.584252992465
 30
0.0
 10
2200.125355904973
 20
-2173.905461918688
 30
0.0
 10
2200.125355904973
 20
-2173.905461918688
 30
0.0
 10
2200.125355904973
 20
-2173.905461918688
 30
0.0
 10
2195.221916888402
 20
-2203.674735030763
 30
0.0
 10
2184.245411199931
 20
-2216.203246646498
 30
0.0
 10
2164.226784022185
 20
-2239.089710863753
 30
0.0
 10
2158.108731671231
 20
-2269.443797803491
 30
0.0
 10
2158.108731671231
 20
-2269.443797803491
 30
0.0
 10
2158.108731671231
 20
-2269.443797803491
 30
0.0
 10
2156.849132657802
 20
-2275.696807191596
 30
0.0
 10
2156.849132657802
 20
-2275.696807191596
 30
0.0
 10
2156.849132657802
 20
-2275.696807191596
 30
0.0
 10
2106.690100515809
 20
-2772.642357249494
 30
0.0
 10
2121.085517812164
 20
-2807.652461971024
 30
0.0
 10
2121.085517812164
 20
-2807.652461971024
 30
0.0
 10
2128.328212139395
 20
-2839.176176566092
 30
0.0
 10
2152.215607715536
 20
-2807.652461971024
 30
0.0
 10
2176.14798897073
 20
-2776.15124021548
 30
0.0
 10
2205.298708995852
 20
-2416.501982621584
 30
0.0
 10
2205.298708995852
 20
-2416.501982621584
 30
0.0
 10
2205.298708995852
 20
-2416.501982621584
 30
0.0
 10
2202.734525289938
 20
-2358.054339114423
 30
0.0
 10
2250.284388046964
 20
-2324.922386493278
 30
0.0
 10
2250.284388046964
 20
-2324.922386493278
 30
0.0
 10
2284.158604372455
 20
-2302.86815733847
 30
0.0
 10
2444.66750722683
 20
-2300.315220052318
 30
0.0
 10
2444.66750722683
 20
-2300.315220052318
 30
0.0
 10
2451.955187233112
 20
-2300.315220052318
 30
0.0
 10
2451.955187233112
 20
-2300.315220052318
 30
0.0
 10
2612.419104408437
 20
-2302.86815733847
 30
0.0
 10
2646.338306412978
 20
-2324.922386493278
 30
0.0
 10
2646.338306412978
 20
-2324.922386493278
 30
0.0
 10
2693.888169170004
 20
-2358.054339114423
 30
0.0
 10
2691.27899978504
 20
-2416.501982621584
 30
0.0
 10
2691.27899978504
 20
-2416.501982621584
 30
0.0
 10
2691.27899978504
 20
-2416.501982621584
 30
0.0
 10
2720.474705489213
 20
-2776.15124021548
 30
0.0
 10
2744.407086744406
 20
-2807.652461971024
 30
0.0
 10
2768.294482320547
 20
-2839.176176566092
 30
0.0
 10
2775.537176647777
 20
-2807.652461971024
 30
0.0
 10
2775.537176647777
 20
-2807.652461971024
 30
0.0
 10
2789.932593944133
 20
-2772.642357249494
 30
0.0
 10
2739.728576123089
 20
-2275.696807191596
 30
0.0
 10
2739.728576123089
 20
-2275.696807191596
 30
0.0
 10
2739.728576123089
 20
-2275.696807191596
 30
0.0
 10
2739.053790937323
 20
-2269.443797803491
 30
0.0
 10
2739.053790937323
 20
-2269.443797803491
 30
0.0
  0
POLYLINE
  5
290
330
1F
100
AcDbEntity
  8
Furniture
100
AcDb2dPolyline
 66
     1
 10
0.0
 20
0.0
 30
0.0
  0
VERTEX
  5
291
330
290
100
AcDbEntity
  8
Furniture
100
AcDbVertex
100
AcDb2dVertex
 10
248.1517561980709
 20
-2284.322811149648
 30
0.0
  0
VERTEX
  5
292
330
290
100
AcDbEntity
  8
Furniture
100
AcDbVertex
100
AcDb2dVertex
 10
248.1517561980709
 20
-2284.322811149648
 30
0.0
  0
SEQEND
  5
293
330
290
100
AcDbEntity
  8
Furniture
  0
SPLINE
  5
294
330
1F
100
AcDbEntity
  8
Furniture
100
AcDbSpline
210
0.0
220
0.0
230
1.0
 70
     8
 71
     3
 72
    26
 73
    22
 74
     0
 42
0.000000001
 43
0.0000000001
 40
0.0
 40
0.0
 40
0.0
 40
0.0
 40
1.0
 40
1.0
 40
1.0
 40
2.0
 40
2.0
 40
2.0
 40
3.0
 40
3.0
 40
3.0
 40
4.0
 40
4.0
 40
4.0
 40
5.0
 40
5.0
 40
5.0
 40
6.0
 40
6.0
 40
6.0
 40
7.0
 40
7.0
 40
7.0
 40
7.0
 10
-251.2342669483496
 20
-2123.84764755456
 30
0.0
 10
-268.4637820249264
 20
-2128.976014966386
 30
0.0
 10
-280.2275370967927
 20
-2135.352734971882
 30
0.0
 10
-282.8816921608086
 20
-2143.292707324404
 30
0.0
 10
-282.8816921608086
 20
-2143.292707324404
 30
0.0
 10
-313.8993178665514
 20
-2162.186692525873
 30
0.0
 10
-332.7933030680215
 20
-2269.466290643017
 30
0.0
 10
-332.7933030680215
 20
-2269.466290643017
 30
0.0
 10
-335.4924438110884
 20
-2468.527920444198
 30
0.0
 10
-342.91508085452
 20
-2540.729935321236
 30
0.0
 10
-342.91508085452
 20
-2540.729935321236
 30
0.0
 10
-356.8156556813137
 20
-2559.286527929821
 30
0.0
 10
-344.2646512260544
 20
-2586.604081533611
 30
0.0
 10
-344.2646512260544
 20
-2586.604081533611
 30
0.0
 10
-329.8242482506466
 20
-2603.372493399914
 30
0.0
 10
-295.6801178508504
 20
-2586.604081533611
 30
0.0
 10
-295.6801178508504
 20
-2586.604081533611
 30
0.0
 10
-288.2574808074169
 20
-2576.48230374711
 30
0.0
 10
-218.7546066734449
 20
-2575.818764981106
 30
0.0
 10
-218.7546066734449
 20
-2575.818764981106
 30
0.0
 10
-15.84670131339407
 20
-2575.818764981106
 30
0.0
 10
-15.84670131339407
 20
-2575.818764981106
 30
0.0
  0
SPLINE
  5
295
330
1F
100
AcDbEntity
  8
Furniture
100
AcDbSpline
210
0.0
220
0.0
230
1.0
 70
     8
 71
     3
 72
     8
 73
     4
 74
     0
 42
0.000000001
 43
0.0000000001
 40
0.0
 40
0.0
 40
0.0
 40
0.0
 40
1.0
 40
1.0
 40
1.0
 40
1.0
 10
-251.0093385530945
 20
-2124.893564592498
 30
0.0
 10
-251.0093385530945
 20
-2124.893564592498
 30
0.0
 10
-201.7500199921232
 20
-2269.286347926813
 30
0.0
 10
-214.5709385216924
 20
-2457.540168335964
 30
0.0
  0
SPLINE
  5
296
330
1F
100
AcDbEntity
  8
Furniture
100
AcDbSpline
210
0.0
220
0.0
230
1.0
 70
     8
 71
     3
 72
     8
 73
     4
 74
     0
 42
0.000000001
 43
0.0000000001
 40
0.0
 40
0.0
 40
0.0
 40
0.0
 40
1.0
 40
1.0
 40
1.0
 40
1.0
 10
-276.7861326493839
 20
-2498.882007383937
 30
0.0
 10
-276.7861326493839
 20
-2498.882007383937
 30
0.0
 10
-291.2265356247899
 20
-2519.721623204366
 30
0.0
 10
-282.0044714193118
 20
-2581.172060788188
 30
0.0
  0
POLYLINE
  5
297
330
1F
100
AcDbEntity
  8
Furniture
100
AcDb2dPolyline
 66
     1
 10
0.0
 20
0.0
 30
0.0
  0
VERTEX
  5
298
330
297
100
AcDbEntity
  8
Furniture
100
AcDbVertex
100
AcDb2dVertex
 10
-292.7560487125283
 20
-2487.96173379428
 30
0.0
  0
VERTEX
  5
299
330
297
100
AcDbEntity
  8
Furniture
100
AcDbVertex
100
AcDb2dVertex
 10
-18.54584205646097
 20
-2487.96173379428
 30
0.0
  0
SEQEND
  5
29A
330
297
100
AcDbEntity
  8
Furniture
  0
SPLINE
  5
29B
330
1F
100
AcDbEntity
  8
Furniture
100
AcDbSpline
210
0.0
220
0.0
230
1.0
 70
     8
 71
     3
 72
    14
 73
    10
 74
     0
 42
0.000000001
 43
0.0000000001
 40
0.0
 40
0.0
 40
0.0
 40
0.0
 40
1.0
 40
1.0
 40
1.0
 40
2.0
 40
2.0
 40
2.0
 40
3.0
 40
3.0
 40
3.0
 40
3.0
 10
-337.5167993683881
 20
-2593.801790181788
 30
0.0
 10
-337.5167993683881
 20
-2593.801790181788
 30
0.0
 10
-342.91508085452
 20
-2843.685990890966
 30
0.0
 10
-342.91508085452
 20
-2843.685990890966
 30
0.0
 10
-342.91508085452
 20
-2843.685990890966
 30
0.0
 10
-324.7183736783445
 20
-2859.217296583363
 30
0.0
 10
-307.1514660088851
 20
-2843.685990890966
 30
0.0
 10
-307.1514660088851
 20
-2843.685990890966
 30
0.0
 10
-295.6801178508504
 20
-2586.604081533611
 30
0.0
 10
-295.6801178508504
 20
-2586.604081533611
 30
0.0
  0
SPLINE
  5
29C
330
1F
100
AcDbEntity
  8
Furniture
100
AcDbSpline
210
0.0
220
0.0
230
1.0
 70
     8
 71
     3
 72
    26
 73
    22
 74
     0
 42
0.000000001
 43
0.0000000001
 40
0.0
 40
0.0
 40
0.0
 40
0.0
 40
1.0
 40
1.0
 40
1.0
 40
2.0
 40
2.0
 40
2.0
 40
3.0
 40
3.0
 40
3.0
 40
4.0
 40
4.0
 40
4.0
 40
5.0
 40
5.0
 40
5.0
 40
6.0
 40
6.0
 40
6.0
 40
7.0
 40
7.0
 40
7.0
 40
7.0
 10
216.0769670346253
 20
-2125.163478666804
 30
0.0
 10
230.9672268005434
 20
-2130.055671263614
 30
0.0
 10
241.0890045870456
 20
-2136.016273737887
 30
0.0
 10
243.5182312558045
 20
-2143.292707324404
 30
0.0
 10
243.5182312558045
 20
-2143.292707324404
 30
0.0
 10
274.5133641220236
 20
-2162.186692525873
 30
0.0
 10
293.4073493234901
 20
-2269.466290643017
 30
0.0
 10
293.4073493234901
 20
-2269.466290643017
 30
0.0
 10
296.106490066557
 20
-2468.527920444198
 30
0.0
 10
303.5291271099922
 20
-2540.729935321236
 30
0.0
 10
303.5291271099922
 20
-2540.729935321236
 30
0.0
 10
317.474687615837
 20
-2559.286527929821
 30
0.0
 10
304.9236831605758
 20
-2586.604081533611
 30
0.0
 10
304.9236831605758
 20
-2586.604081533611
 30
0.0
 10
290.4382945061188
 20
-2603.372493399914
 30
0.0
 10
256.2941641063225
 20
-2586.604081533611
 30
0.0
 10
256.2941641063225
 20
-2586.604081533611
 30
0.0
 10
248.9165127419383
 20
-2576.48230374711
 30
0.0
 10
179.4136386079663
 20
-2575.818764981106
 30
0.0
 10
179.4136386079663
 20
-2575.818764981106
 30
0.0
 10
-23.51675959161003
 20
-2575.818764981106
 30
0.0
 10
-23.51675959161003
 20
-2575.818764981106
 30
0.0
  0
SPLINE
  5
29D
330
1F
100
AcDbEntity
  8
Furniture
100
AcDbSpline
210
0.0
220
0.0
230
1.0
 70
     8
 71
     3
 72
     8
 73
     4
 74
     0
 42
0.000000001
 43
0.0000000001
 40
0.0
 40
0.0
 40
0.0
 40
0.0
 40
1.0
 40
1.0
 40
1.0
 40
1.0
 10
211.6683704876159
 20
-2124.893564592498
 30
0.0
 10
211.6683704876159
 20
-2124.893564592498
 30
0.0
 10
162.4090519266465
 20
-2269.286347926813
 30
0.0
 10
175.2299704562138
 20
-2457.540168335964
 30
0.0
  0
SPLINE
  5
29E
330
1F
100
AcDbEntity
  8
Furniture
100
AcDbSpline
210
0.0
220
0.0
230
1.0
 70
     8
 71
     3
 72
     8
 73
     4
 74
     0
 42
0.000000001
 43
0.0000000001
 40
0.0
 40
0.0
 40
0.0
 40
0.0
 40
1.0
 40
1.0
 40
1.0
 40
1.0
 10
237.4451645839053
 20
-2498.882007383937
 30
0.0
 10
237.4451645839053
 20
-2498.882007383937
 30
0.0
 10
251.8405818802621
 20
-2519.721623204366
 30
0.0
 10
242.618517674784
 20
-2581.172060788188
 30
0.0
  0
SPLINE
  5
29F
330
1F
100
AcDbEntity
  8
Furniture
100
AcDbSpline
210
0.0
220
0.0
230
1.0
 70
     8
 71
     3
 72
    38
 73
    34
 74
     0
 42
0.000000001
 43
0.0000000001
 40
0.0
 40
0.0
 40
0.0
 40
0.0
 40
1.0
 40
1.0
 40
1.0
 40
2.0
 40
2.0
 40
2.0
 40
3.0
 40
3.0
 40
3.0
 40
4.0
 40
4.0
 40
4.0
 40
5.0
 40
5.0
 40
5.0
 40
6.0
 40
6.0
 40
6.0
 40
7.0
 40
7.0
 40
7.0
 40
8.0
 40
8.0
 40
8.0
 40
9.0
 40
9.0
 40
9.0
 40
10.0
 40
10.0
 40
10.0
 40
11.0
 40
11.0
 40
11.0
 40
11.0
 10
-30.26461144927635
 20
-2513.333656779107
 30
0.0
 10
71.62795160149835
 20
-2513.063742704801
 30
0.0
 10
192.2345571375354
 20
-2510.364601961734
 30
0.0
 10
192.2345571375354
 20
-2510.364601961734
 30
0.0
 10
258.3185196636223
 20
-2496.857651826638
 30
0.0
 10
256.2941641063225
 20
-2482.698409345299
 30
0.0
 10
256.2941641063225
 20
-2482.698409345299
 30
0.0
 10
264.4365720145743
 20
-2480.674053787999
 30
0.0
 10
233.2614964321511
 20
-2470.822190075805
 30
0.0
 10
233.2614964321511
 20
-2470.822190075805
 30
0.0
 10
210.3188001160833
 20
-2464.72663056438
 30
0.0
 10
171.6985946507011
 20
-2459.575770313026
 30
0.0
 10
171.6985946507011
 20
-2459.575770313026
 30
0.0
 10
130.1768128865242
 20
-2455.572044877477
 30
0.0
 10
5.881381668294125
 20
-2460.025627103537
 30
0.0
 10
5.881381668294125
 20
-2460.025627103537
 30
0.0
 10
5.881381668294125
 20
-2460.025627103537
 30
0.0
 10
-45.24484257329823
 20
-2460.025627103537
 30
0.0
 10
-45.24484257329823
 20
-2460.025627103537
 30
0.0
 10
-45.24484257329823
 20
-2460.025627103537
 30
0.0
 10
-169.5402737915265
 20
-2455.572044877477
 30
0.0
 10
-211.0620555557052
 20
-2459.575770313026
 30
0.0
 10
-211.0620555557052
 20
-2459.575770313026
 30
0.0
 10
-249.6597681815619
 20
-2464.72663056438
 30
0.0
 10
-272.6024644976296
 20
-2470.822190075805
 30
0.0
 10
-272.6024644976296
 20
-2470.822190075805
 30
0.0
 10
-303.777540080051
 20
-2480.674053787999
 30
0.0
 10
-295.6801178508504
 20
-2482.698409345299
 30
0.0
 10
-295.6801178508504
 20
-2482.698409345299
 30
0.0
 10
-297.7044734081501
 20
-2496.857651826638
 30
0.0
 10
-231.5755252030121
 20
-2510.364601961734
 30
0.0
 10
-231.5755252030121
 20
-2510.364601961734
 30
0.0
 10
-121.7654826392445
 20
-2513.063742704801
 30
0.0
 10
-19.89541242799532
 20
-2513.333656779107
 30
0.0
  0
POLYLINE
  5
2A0
330
1F
100
AcDbEntity
  8
Furniture
100
AcDb2dPolyline
 66
     1
 10
0.0
 20
0.0
 30
0.0
  0
VERTEX
  5
2A1
330
2A0
100
AcDbEntity
  8
Furniture
100
AcDbVertex
100
AcDb2dVertex
 10
253.3700949679988
 20
-2487.96173379428
 30
0.0
  0
VERTEX
  5
2A2
330
2A0
100
AcDbEntity
  8
Furniture
100
AcDbVertex
100
AcDb2dVertex
 10
-20.81761884854314
 20
-2487.96173379428
 30
0.0
  0
SEQEND
  5
2A3
330
2A0
100
AcDbEntity
  8
Furniture
  0
SPLINE
  5
2A4
330
1F
100
AcDbEntity
  8
Furniture
100
AcDbSpline
210
0.0
220
0.0
230
1.0
 70
     8
 71
     3
 72
    14
 73
    10
 74
     0
 42
0.000000001
 43
0.0000000001
 40
0.0
 40
0.0
 40
0.0
 40
0.0
 40
1.0
 40
1.0
 40
1.0
 40
2.0
 40
2.0
 40
2.0
 40
3.0
 40
3.0
 40
3.0
 40
3.0
 10
298.1758313029095
 20
-2593.801790181788
 30
0.0
 10
298.1758313029095
 20
-2593.801790181788
 30
0.0
 10
303.5291271099922
 20
-2843.685990890966
 30
0.0
 10
303.5291271099922
 20
-2843.685990890966
 30
0.0
 10
303.5291271099922
 20
-2843.685990890966
 30
0.0
 10
285.3099270942912
 20
-2859.217296583363
 30
0.0
 10
267.8104979434083
 20
-2843.685990890966
 30
0.0
 10
267.8104979434083
 20
-2843.685990890966
 30
0.0
 10
256.2941641063225
 20
-2586.604081533611
 30
0.0
 10
256.2941641063225
 20
-2586.604081533611
 30
0.0
  0
SPLINE
  5
2A5
330
1F
100
AcDbEntity
  8
Furniture
100
AcDbSpline
210
0.0
220
0.0
230
1.0
 70
     8
 71
     3
 72
    26
 73
    22
 74
     0
 42
0.000000001
 43
0.0000000001
 40
0.0
 40
0.0
 40
0.0
 40
0.0
 40
1.0
 40
1.0
 40
1.0
 40
2.0
 40
2.0
 40
2.0
 40
3.0
 40
3.0
 40
3.0
 40
4.0
 40
4.0
 40
4.0
 40
5.0
 40
5.0
 40
5.0
 40
6.0
 40
6.0
 40
6.0
 40
7.0
 40
7.0
 40
7.0
 40
7.0
 10
-251.0093385530945
 20
-2125.163478666804
 30
0.0
 10
-249.704753860613
 20
-2124.724868296057
 30
0.0
 10
-248.3101978100276
 20
-2124.297504345071
 30
0.0
 10
-246.9156417594422
 20
-2123.881386813848
 30
0.0
 10
-243.4292516329824
 20
-2122.83546977591
 30
0.0
 10
-227.3468713722086
 20
-1941.38573332324
 30
0.0
 10
-182.0462925677348
 20
-1922.851633554181
 30
0.0
 10
-155.3247992113738
 20
-1911.897620705234
 30
0.0
 10
-27.61045638526048
 20
-1906.386875021473
 30
0.0
 10
-27.61045638526048
 20
-1906.386875021473
 30
0.0
 10
-27.61045638526048
 20
-1906.386875021473
 30
0.0
 10
-11.7080188406926
 20
-1906.386875021473
 30
0.0
 10
-11.7080188406926
 20
-1906.386875021473
 30
0.0
 10
-11.7080188406926
 20
-1906.386875021473
 30
0.0
 10
120.3474420138536
 20
-1911.897620705234
 30
0.0
 10
147.1139210492674
 20
-1922.851633554181
 30
0.0
 10
192.3695141746902
 20
-1941.38573332324
 30
0.0
 10
208.4743872749878
 20
-2122.83546977591
 30
0.0
 10
211.9382845619238
 20
-2123.881386813848
 30
0.0
 10
213.3778262915584
 20
-2124.297504345071
 30
0.0
 10
214.727396663091
 20
-2124.724868296057
 30
0.0
 10
216.0769670346253
 20
-2125.163478666804
 30
0.0
  0
POLYLINE
  5
2A6
330
1F
100
AcDbEntity
  8
Furniture
100
AcDb2dPolyline
 66
     1
 10
0.0
 20
0.0
 30
0.0
  0
VERTEX
  5
2A7
330
2A6
100
AcDbEntity
  8
Furniture
100
AcDbVertex
100
AcDb2dVertex
 10
-2979.199583867213
 20
-2481.967392060718
 30
0.0
  0
VERTEX
  5
2A8
330
2A6
100
AcDbEntity
  8
Furniture
100
AcDbVertex
100
AcDb2dVertex
 10
-2979.199583867213
 20
-2481.967392060718
 30
0.0
  0
SEQEND
  5
2A9
330
2A6
100
AcDbEntity
  8
Furniture
  0
POLYLINE
  5
2AE
330
1F
100
AcDbEntity
  8
Furniture
100
AcDb2dPolyline
 66
     1
 10
0.0
 20
0.0
 30
0.0
  0
VERTEX
  5
2AF
330
2AE
100
AcDbEntity
  8
Furniture
100
AcDbVertex
100
AcDb2dVertex
 10
-2269.449279058019
 20
-2570.73538324833
 30
0.0
  0
VERTEX
  5
2B0
330
2AE
100
AcDbEntity
  8
Furniture
100
AcDbVertex
100
AcDb2dVertex
 10
-2251.623703734014
 20
-2848.926822500422
 30
0.0
  0
VERTEX
  5
2B1
330
2AE
100
AcDbEntity
  8
Furniture
100
AcDbVertex
100
AcDb2dVertex
 10
-2284.688177836583
 20
-2848.926822500422
 30
0.0
  0
VERTEX
  5
2B2
330
2AE
100
AcDbEntity
  8
Furniture
100
AcDbVertex
100
AcDb2dVertex
 10
-2317.808884037967
 20
-2589.336961535966
 30
0.0
  0
SEQEND
  5
2B3
330
2AE
100
AcDbEntity
  8
Furniture
  0
POLYLINE
  5
2B4
330
1F
100
AcDbEntity
  8
Furniture
100
AcDb2dPolyline
 66
     1
 10
0.0
 20
0.0
 30
0.0
  0
VERTEX
  5
2B5
330
2B4
100
AcDbEntity
  8
Furniture
100
AcDbVertex
100
AcDb2dVertex
 10
-2939.139836672195
 20
-2588.313537337553
 30
0.0
  0
VERTEX
  5
2B6
330
2B4
100
AcDbEntity
  8
Furniture
100
AcDbVertex
100
AcDb2dVertex
 10
-2959.102231751127
 20
-2850.591292625312
 30
0.0
  0
VERTEX
  5
2B7
330
2B4
100
AcDbEntity
  8
Furniture
100
AcDbVertex
100
AcDb2dVertex
 10
-2992.796505360412
 20
-2850.591292625312
 30
0.0
  0
VERTEX
  5
2B8
330
2B4
100
AcDbEntity
  8
Furniture
100
AcDbVertex
100
AcDb2dVertex
 10
-2979.199583867213
 20
-2565.494551638875
 30
0.0
  0
SEQEND
  5
2B9
330
2B4
100
AcDbEntity
  8
Furniture
  0
SPLINE
  5
2BA
330
1F
100
AcDbEntity
  8
Furniture
100
AcDbSpline
210
0.0
220
0.0
230
1.0
 70
     9
 71
     3
 72
    50
 73
    46
 74
     0
 42
0.000000001
 43
0.0000000001
 40
0.0
 40
0.0
 40
0.0
 40
0.0
 40
1.0
 40
1.0
 40
1.0
 40
2.0
 40
2.0
 40
2.0
 40
3.0
 40
3.0
 40
3.0
 40
4.0
 40
4.0
 40
4.0
 40
5.0
 40
5.0
 40
5.0
 40
6.0
 40
6.0
 40
6.0
 40
7.0
 40
7.0
 40
7.0
 40
8.0
 40
8.0
 40
8.0
 40
9.0
 40
9.0
 40
9.0
 40
10.0
 40
10.0
 40
10.0
 40
11.0
 40
11.0
 40
11.0
 40
12.0
 40
12.0
 40
12.0
 40
13.0
 40
13.0
 40
13.0
 40
14.0
 40
14.0
 40
14.0
 40
15.0
 40
15.0
 40
15.0
 40
15.0
 10
-2437.245861918674
 20
-2116.380024832074
 30
0.0
 10
-2437.245861918674
 20
-2116.380024832074
 30
0.0
 10
-2405.969568558388
 20
-2114.108248039994
 30
0.0
 10
-2398.153306823257
 20
-2069.909818372274
 30
0.0
 10
-2392.496357682579
 20
-2037.913754147169
 30
0.0
 10
-2387.064336937156
 20
-1911.200342679942
 30
0.0
 10
-2338.513542821242
 20
-1911.683938729742
 30
0.0
 10
-2338.513542821242
 20
-1911.683938729742
 30
0.0
 10
-2298.420056366937
 20
-1904.328780204884
 30
0.0
 10
-2294.393838091862
 20
-1968.759519025843
 30
0.0
 10
-2294.393838091862
 20
-1968.759519025843
 30
0.0
 10
-2276.669480545722
 20
-2275.820517808987
 30
0.0
 10
-2276.669480545722
 20
-2275.820517808987
 30
0.0
 10
-2276.669480545722
 20
-2275.820517808987
 30
0.0
 10
-2265.411814363181
 20
-2445.91137030125
 30
0.0
 10
-2265.56926423986
 20
-2519.384230611482
 30
0.0
 10
-2265.56926423986
 20
-2519.384230611482
 30
0.0
 10
-2263.331226707067
 20
-2562.165611389092
 30
0.0
 10
-2275.938463261141
 20
-2585.198279063263
 30
0.0
 10
-2275.938463261141
 20
-2585.198279063263
 30
0.0
 10
-2308.553080573199
 20
-2600.999498829967
 30
0.0
 10
-2329.313971455289
 20
-2585.198279063263
 30
0.0
 10
-2329.313971455289
 20
-2585.198279063263
 30
0.0
 10
-2337.467625783304
 20
-2575.323922511544
 30
0.0
 10
-2413.819569552807
 20
-2574.671630165302
 30
0.0
 10
-2413.819569552807
 20
-2574.671630165302
 30
0.0
 10
-2885.100789712044
 20
-2574.671630165302
 30
0.0
 10
-2885.100789712044
 20
-2574.671630165302
 30
0.0
 10
-2885.100789712044
 20
-2574.671630165302
 30
0.0
 10
-2898.349072192598
 20
-2574.17678769574
 30
0.0
 10
-2921.089332952936
 20
-2583.781230173153
 30
0.0
 10
-2921.089332952936
 20
-2583.781230173153
 30
0.0
 10
-2935.59721444692
 20
-2594.285386231588
 30
0.0
 10
-2968.133106820639
 20
-2583.44383758027
 30
0.0
 10
-2968.133106820639
 20
-2583.44383758027
 30
0.0
 10
-2982.044928067196
 20
-2580.677218318625
 30
0.0
 10
-2980.729096954951
 20
-2542.416898285653
 30
0.0
 10
-2980.729096954951
 20
-2542.416898285653
 30
0.0
 10
-2976.804096457741
 20
-2432.573116462596
 30
0.0
 10
-2976.354239667231
 20
-2275.460632376578
 30
0.0
 10
-2976.354239667231
 20
-2275.460632376578
 30
0.0
 10
-2972.924081639582
 20
-2199.097442187311
 30
0.0
 10
-2927.690981353686
 20
-2182.823872790571
 30
0.0
 10
-2927.690981353686
 20
-2182.823872790571
 30
0.0
 10
-2887.575002059855
 20
-2163.288841662625
 30
0.0
 10
-2437.245861918674
 20
-2116.380024832074
 30
0.0
  0
SPLINE
  5
2BB
330
1F
100
AcDbEntity
  8
Furniture
100
AcDbSpline
210
0.0
220
0.0
230
1.0
 70
     8
 71
     3
 72
     8
 73
     4
 74
     0
 42
0.000000001
 43
0.0000000001
 40
0.0
 40
0.0
 40
0.0
 40
0.0
 40
1.0
 40
1.0
 40
1.0
 40
1.0
 10
4655.758618268153
 20
-2228.371872829824
 30
0.0
 10
4655.758618268153
 20
-2228.371872829824
 30
0.0
 10
4704.298165964305
 20
-2237.413994319098
 30
0.0
 10
4704.298165964305
 20
-2339.452760826789
 30
0.0
  0
SPLINE
  5
2BC
330
1F
100
AcDbEntity
  8
Furniture
100
AcDbSpline
210
0.0
220
0.0
230
1.0
 70
    11
 71
     3
 72
    17
 73
    13
 74
     0
 42
0.000000001
 43
0.0000000001
 40
0.0
 40
0.0
 40
0.0
 40
0.0
 40
1.0
 40
1.0
 40
1.0
 40
2.0
 40
2.0
 40
2.0
 40
3.0
 40
3.0
 40
3.0
 40
4.0
 40
4.0
 40
4.0
 40
4.0
 10
4860.848329062182
 20
-2444.258146596121
 30
0.0
 10
4860.848329062182
 20
-2434.991096711592
 30
0.0
 10
4853.560649055902
 20
-2427.500981149582
 30
0.0
 10
4844.428556208526
 20
-2427.500981149582
 30
0.0
 10
4835.341449040201
 20
-2427.500981149582
 30
0.0
 10
4827.963797675817
 20
-2434.991096711592
 30
0.0
 10
4827.963797675817
 20
-2444.258146596121
 30
0.0
 10
4827.963797675817
 20
-2453.525196480652
 30
0.0
 10
4835.341449040201
 20
-2461.037804882187
 30
0.0
 10
4844.428556208526
 20
-2461.037804882187
 30
0.0
 10
4853.560649055902
 20
-2461.037804882187
 30
0.0
 10
4860.848329062182
 20
-2453.525196480652
 30
0.0
 10
4860.848329062182
 20
-2444.258146596121
 30
0.0
  0
SPLINE
  5
2BD
330
1F
100
AcDbEntity
  8
Furniture
100
AcDbSpline
210
0.0
220
0.0
230
1.0
 70
    11
 71
     3
 72
    17
 73
    13
 74
     0
 42
0.000000001
 43
0.0000000001
 40
0.0
 40
0.0
 40
0.0
 40
0.0
 40
1.0
 40
1.0
 40
1.0
 40
2.0
 40
2.0
 40
2.0
 40
3.0
 40
3.0
 40
3.0
 40
4.0
 40
4.0
 40
4.0
 40
4.0
 10
5289.651821777404
 20
-2444.258146596121
 30
0.0
 10
5289.651821777404
 20
-2434.991096711592
 30
0.0
 10
5282.319156092073
 20
-2427.500981149582
 30
0.0
 10
5273.187063244697
 20
-2427.500981149582
 30
0.0
 10
5264.099956076372
 20
-2427.500981149582
 30
0.0
 10
5256.722304711988
 20
-2434.991096711592
 30
0.0
 10
5256.722304711988
 20
-2444.258146596121
 30
0.0
 10
5256.722304711988
 20
-2453.525196480652
 30
0.0
 10
5264.099956076372
 20
-2461.037804882187
 30
0.0
 10
5273.187063244697
 20
-2461.037804882187
 30
0.0
 10
5282.319156092073
 20
-2461.037804882187
 30
0.0
 10
5289.651821777404
 20
-2453.525196480652
 30
0.0
 10
5289.651821777404
 20
-2444.258146596121
 30
0.0
  0
SPLINE
  5
2BE
330
1F
100
AcDbEntity
  8
Furniture
100
AcDbSpline
210
0.0
220
0.0
230
1.0
 70
     9
 71
     3
 72
    17
 73
    13
 74
     0
 42
0.000000001
 43
0.0000000001
 40
0.0
 40
0.0
 40
0.0
 40
0.0
 40
1.0
 40
1.0
 40
1.0
 40
2.0
 40
2.0
 40
2.0
 40
3.0
 40
3.0
 40
3.0
 40
4.0
 40
4.0
 40
4.0
 40
4.0
 10
5289.651821777404
 20
-2731.682896473454
 30
0.0
 10
5289.651821777404
 20
-2722.427093008688
 30
0.0
 10
5282.319156092073
 20
-2714.914484607151
 30
0.0
 10
5273.187063244697
 20
-2714.914484607151
 30
0.0
 10
5264.099956076372
 20
-2714.914484607151
 30
0.0
 10
5256.722304711988
 20
-2722.427093008688
 30
0.0
 10
5256.722304711988
 20
-2731.682896473454
 30
0.0
 10
5256.722304711988
 20
-2740.949946357984
 30
0.0
 10
5264.099956076372
 20
-2748.46255475952
 30
0.0
 10
5273.187063244697
 20
-2748.46255475952
 30
0.0
 10
5282.319156092073
 20
-2748.46255475952
 30
0.0
 10
5289.651821777404
 20
-2740.949946357984
 30
0.0
 10
5289.651821777404
 20
-2731.682896473454
 30
0.0
  0
SPLINE
  5
2BF
330
1F
100
AcDbEntity
  8
Furniture
100
AcDbSpline
210
0.0
220
0.0
230
1.0
 70
     9
 71
     3
 72
    17
 73
    13
 74
     0
 42
0.000000001
 43
0.0000000001
 40
0.0
 40
0.0
 40
0.0
 40
0.0
 40
1.0
 40
1.0
 40
1.0
 40
2.0
 40
2.0
 40
2.0
 40
3.0
 40
3.0
 40
3.0
 40
4.0
 40
4.0
 40
4.0
 40
4.0
 10
4860.893314741233
 20
-2731.682896473454
 30
0.0
 10
4860.893314741233
 20
-2722.43833942845
 30
0.0
 10
4853.515663376851
 20
-2714.914484607151
 30
0.0
 10
4844.428556208526
 20
-2714.914484607151
 30
0.0
 10
4835.341449040201
 20
-2714.914484607151
 30
0.0
 10
4827.963797675817
 20
-2722.43833942845
 30
0.0
 10
4827.963797675817
 20
-2731.682896473454
 30
0.0
 10
4827.963797675817
 20
-2740.97243919751
 30
0.0
 10
4835.341449040201
 20
-2748.46255475952
 30
0.0
 10
4844.428556208526
 20
-2748.46255475952
 30
0.0
 10
4853.515663376851
 20
-2748.46255475952
 30
0.0
 10
4860.893314741233
 20
-2740.97243919751
 30
0.0
 10
4860.893314741233
 20
-2731.682896473454
 30
0.0
  0
SPLINE
  5
2C0
330
1F
100
AcDbEntity
  8
Furniture
100
AcDbSpline
210
0.0
220
0.0
230
1.0
 70
     8
 71
     3
 72
     8
 73
     4
 74
     0
 42
0.000000001
 43
0.0000000001
 40
0.0
 40
0.0
 40
0.0
 40
0.0
 40
1.0
 40
1.0
 40
1.0
 40
1.0
 10
5890.615508221241
 20
-2228.371872829824
 30
0.0
 10
5890.615508221241
 20
-2228.371872829824
 30
0.0
 10
5842.030974846039
 20
-2237.413994319098
 30
0.0
 10
5842.030974846039
 20
-2339.452760826789
 30
0.0
  0
SPLINE
  5
2C1
330
1F
100
AcDbEntity
  8
Furniture
100
AcDbSpline
210
0.0
220
0.0
230
1.0
 70
     8
 71
     3
 72
    32
 73
    28
 74
     0
 42
0.000000001
 43
0.0000000001
 40
0.0
 40
0.0
 40
0.0
 40
0.0
 40
1.0
 40
1.0
 40
1.0
 40
2.0
 40
2.0
 40
2.0
 40
3.0
 40
3.0
 40
3.0
 40
4.0
 40
4.0
 40
4.0
 40
5.0
 40
5.0
 40
5.0
 40
6.0
 40
6.0
 40
6.0
 40
7.0
 40
7.0
 40
7.0
 40
8.0
 40
8.0
 40
8.0
 40
9.0
 40
9.0
 40
9.0
 40
9.0
 10
4636.864633066685
 20
-2777.658260463693
 30
0.0
 10
4636.864633066685
 20
-2777.658260463693
 30
0.0
 10
4632.051165408214
 20
-2812.016072838982
 30
0.0
 10
4629.307038986097
 20
-2821.19315136541
 30
0.0
 10
4629.307038986097
 20
-2821.19315136541
 30
0.0
 10
4627.507611824052
 20
-2833.13684915348
 30
0.0
 10
4643.927384677708
 20
-2833.13684915348
 30
0.0
 10
4660.392143210416
 20
-2833.13684915348
 30
0.0
 10
4766.288431696739
 20
-2850.591292625312
 30
0.0
 10
4921.758938497393
 20
-2850.591292625312
 30
0.0
 10
4921.758938497393
 20
-2850.591292625312
 30
0.0
 10
4924.862950351919
 20
-2850.591292625312
 30
0.0
 10
4924.862950351919
 20
-2850.591292625312
 30
0.0
 10
4924.862950351919
 20
-2850.591292625312
 30
0.0
 10
5621.466190458423
 20
-2850.591292625312
 30
0.0
 10
5621.466190458423
 20
-2850.591292625312
 30
0.0
 10
5621.466190458423
 20
-2850.591292625312
 30
0.0
 10
5624.615187992002
 20
-2850.591292625312
 30
0.0
 10
5624.615187992002
 20
-2850.591292625312
 30
0.0
 10
5780.040709113603
 20
-2850.591292625312
 30
0.0
 10
5885.981983278976
 20
-2833.13684915348
 30
0.0
 10
5902.401756132633
 20
-2833.13684915348
 30
0.0
 10
5918.86651466534
 20
-2833.13684915348
 30
0.0
 10
5917.067087503295
 20
-2821.19315136541
 30
0.0
 10
5917.067087503295
 20
-2821.19315136541
 30
0.0
 10
5914.277975402129
 20
-2812.016072838982
 30
0.0
 10
5909.464507743656
 20
-2777.658260463693
 30
0.0
 10
5909.464507743656
 20
-2777.658260463693
 30
0.0
  0
SPLINE
  5
2C2
330
1F
100
AcDbEntity
  8
Furniture
100
AcDbSpline
210
0.0
220
0.0
230
1.0
 70
    11
 71
     3
 72
    17
 73
    13
 74
     0
 42
0.000000001
 43
0.0000000001
 40
0.0
 40
0.0
 40
0.0
 40
0.0
 40
1.0
 40
1.0
 40
1.0
 40
2.0
 40
2.0
 40
2.0
 40
3.0
 40
3.0
 40
3.0
 40
4.0
 40
4.0
 40
4.0
 40
4.0
 10
5685.480811748159
 20
-2444.258146596121
 30
0.0
 10
5685.480811748159
 20
-2434.991096711592
 30
0.0
 10
5692.858463112543
 20
-2427.500981149582
 30
0.0
 10
5701.900584601817
 20
-2427.500981149582
 30
0.0
 10
5711.032677449192
 20
-2427.500981149582
 30
0.0
 10
5718.410328813574
 20
-2434.991096711592
 30
0.0
 10
5718.410328813574
 20
-2444.258146596121
 30
0.0
 10
5718.410328813574
 20
-2453.525196480652
 30
0.0
 10
5711.032677449192
 20
-2461.037804882187
 30
0.0
 10
5701.900584601817
 20
-2461.037804882187
 30
0.0
 10
5692.858463112543
 20
-2461.037804882187
 30
0.0
 10
5685.480811748159
 20
-2453.525196480652
 30
0.0
 10
5685.480811748159
 20
-2444.258146596121
 30
0.0
  0
SPLINE
  5
2C3
330
1F
100
AcDbEntity
  8
Furniture
100
AcDbSpline
210
0.0
220
0.0
230
1.0
 70
     9
 71
     3
 72
    17
 73
    13
 74
     0
 42
0.000000001
 43
0.0000000001
 40
0.0
 40
0.0
 40
0.0
 40
0.0
 40
1.0
 40
1.0
 40
1.0
 40
2.0
 40
2.0
 40
2.0
 40
3.0
 40
3.0
 40
3.0
 40
4.0
 40
4.0
 40
4.0
 40
4.0
 10
5685.480811748159
 20
-2731.682896473454
 30
0.0
 10
5685.480811748159
 20
-2722.43833942845
 30
0.0
 10
5692.858463112543
 20
-2714.914484607151
 30
0.0
 10
5701.900584601817
 20
-2714.914484607151
 30
0.0
 10
5710.98769177014
 20
-2714.914484607151
 30
0.0
 10
5718.410328813574
 20
-2722.43833942845
 30
0.0
 10
5718.410328813574
 20
-2731.682896473454
 30
0.0
 10
5718.410328813574
 20
-2740.97243919751
 30
0.0
 10
5710.98769177014
 20
-2748.46255475952
 30
0.0
 10
5701.900584601817
 20
-2748.46255475952
 30
0.0
 10
5692.858463112543
 20
-2748.46255475952
 30
0.0
 10
5685.480811748159
 20
-2740.97243919751
 30
0.0
 10
5685.480811748159
 20
-2731.682896473454
 30
0.0
  0
SPLINE
  5
2C4
330
1F
100
AcDbEntity
  8
Furniture
100
AcDbSpline
210
0.0
220
0.0
230
1.0
 70
    11
 71
     3
 72
    71
 73
    67
 74
     0
 42
0.000000001
 43
0.0000000001
 40
0.0
 40
0.0
 40
0.0
 40
0.0
 40
1.0
 40
1.0
 40
1.0
 40
2.0
 40
2.0
 40
2.0
 40
3.0
 40
3.0
 40
3.0
 40
4.0
 40
4.0
 40
4.0
 40
5.0
 40
5.0
 40
5.0
 40
6.0
 40
6.0
 40
6.0
 40
7.0
 40
7.0
 40
7.0
 40
8.0
 40
8.0
 40
8.0
 40
9.0
 40
9.0
 40
9.0
 40
10.0
 40
10.0
 40
10.0
 40
11.0
 40
11.0
 40
11.0
 40
12.0
 40
12.0
 40
12.0
 40
13.0
 40
13.0
 40
13.0
 40
14.0
 40
14.0
 40
14.0
 40
15.0
 40
15.0
 40
15.0
 40
16.0
 40
16.0
 40
16.0
 40
17.0
 40
17.0
 40
17.0
 40
18.0
 40
18.0
 40
18.0
 40
19.0
 40
19.0
 40
19.0
 40
20.0
 40
20.0
 40
20.0
 40
21.0
 40
21.0
 40
21.0
 40
22.0
 40
22.0
 40
22.0
 40
22.0
 10
5913.828118611615
 20
-2269.443797803491
 30
0.0
 10
5913.828118611615
 20
-2269.443797803491
 30
0.0
 10
5907.665080581613
 20
-2239.089710863753
 30
0.0
 10
5887.646453403868
 20
-2216.203246646498
 30
0.0
 10
5876.669947715396
 20
-2203.674735030763
 30
0.0
 10
5870.147024252985
 20
-2173.129458955056
 30
0.0
 10
5870.147024252985
 20
-2173.129458955056
 30
0.0
 10
5870.147024252985
 20
-2173.129458955056
 30
0.0
 10
5860.520088936046
 20
-2130.584252992465
 30
0.0
 10
5825.386273597125
 20
-2124.724868296057
 30
0.0
 10
5825.386273597125
 20
-2124.724868296057
 30
0.0
 10
5783.144720968128
 20
-2110.216986802072
 30
0.0
 10
5623.580517373826
 20
-2110.216986802072
 30
0.0
 10
5623.580517373826
 20
-2110.216986802072
 30
0.0
 10
4923.288451585129
 20
-2110.216986802072
 30
0.0
 10
4923.288451585129
 20
-2110.216986802072
 30
0.0
 10
4763.769233669878
 20
-2110.216986802072
 30
0.0
 10
4721.527681040879
 20
-2124.724868296057
 30
0.0
 10
4721.527681040879
 20
-2124.724868296057
 30
0.0
 10
4686.438851381011
 20
-2130.584252992465
 30
0.0
 10
4675.147445939183
 20
-2173.905461918688
 30
0.0
 10
4675.147445939183
 20
-2173.905461918688
 30
0.0
 10
4675.147445939183
 20
-2173.905461918688
 30
0.0
 10
4670.244006922611
 20
-2203.674735030763
 30
0.0
 10
4659.267501234139
 20
-2216.203246646498
 30
0.0
 10
4639.248874056393
 20
-2239.089710863753
 30
0.0
 10
4633.130821705441
 20
-2269.443797803491
 30
0.0
 10
4633.130821705441
 20
-2269.443797803491
 30
0.0
 10
4633.130821705441
 20
-2269.443797803491
 30
0.0
 10
4631.87122269201
 20
-2275.696807191596
 30
0.0
 10
4631.87122269201
 20
-2275.696807191596
 30
0.0
 10
4631.87122269201
 20
-2275.696807191596
 30
0.0
 10
4581.667204870966
 20
-2772.642357249494
 30
0.0
 10
4596.062622167324
 20
-2807.652461971024
 30
0.0
 10
4596.062622167324
 20
-2807.652461971024
 30
0.0
 10
4603.350302173603
 20
-2839.176176566092
 30
0.0
 10
4627.237697749744
 20
-2807.652461971024
 30
0.0
 10
4651.170079004938
 20
-2776.15124021548
 30
0.0
 10
4680.365784709111
 20
-2416.501982621584
 30
0.0
 10
4680.365784709111
 20
-2416.501982621584
 30
0.0
 10
4680.365784709111
 20
-2416.501982621584
 30
0.0
 10
4677.756615324145
 20
-2358.054339114423
 30
0.0
 10
4725.306478081176
 20
-2324.922386493278
 30
0.0
 10
4725.306478081176
 20
-2324.922386493278
 30
0.0
 10
4759.180694406663
 20
-2302.86815733847
 30
0.0
 10
4919.644611581987
 20
-2300.315220052318
 30
0.0
 10
4919.644611581987
 20
-2300.315220052318
 30
0.0
 10
5626.684529228354
 20
-2300.315220052318
 30
0.0
 10
5626.684529228354
 20
-2300.315220052318
 30
0.0
 10
5787.193432082729
 20
-2302.86815733847
 30
0.0
 10
5821.067648408217
 20
-2324.922386493278
 30
0.0
 10
5821.067648408217
 20
-2324.922386493278
 30
0.0
 10
5868.617511165247
 20
-2358.054339114423
 30
0.0
 10
5866.008341780282
 20
-2416.501982621584
 30
0.0
 10
5866.008341780282
 20
-2416.501982621584
 30
0.0
 10
5866.008341780282
 20
-2416.501982621584
 30
0.0
 10
5895.249033163508
 20
-2776.15124021548
 30
0.0
 10
5919.136428739648
 20
-2807.652461971024
 30
0.0
 10
5943.02382431579
 20
-2839.176176566092
 30
0.0
 10
5950.266518643019
 20
-2807.652461971024
 30
0.0
 10
5950.266518643019
 20
-2807.652461971024
 30
0.0
 10
5964.706921618426
 20
-2772.642357249494
 30
0.0
 10
5914.502903797382
 20
-2275.696807191596
 30
0.0
 10
5914.502903797382
 20
-2275.696807191596
 30
0.0
 10
5914.502903797382
 20
-2275.696807191596
 30
0.0
 10
5913.828118611615
 20
-2269.443797803491
 30
0.0
 10
5913.828118611615
 20
-2269.443797803491
 30
0.0
  0
TEXT
  5
353
330
1F
100
AcDbEntity
  8
Text
100
AcDbText
 10
-5482.17839694804
 20
2315.358964102218
 30
0.0
 40
192.6907499518273
  1
JARVIS
 41
1.000399999999999
100
AcDbText
  0
TEXT
  5
354
330
1F
100
AcDbEntity
  8
Text
100
AcDbText
 10
-5482.17839694804
 20
1712.735995747015
 30
0.0
 40
192.6907499518273
  1
—
 41
1.000399999999999
100
AcDbText
  0
TEXT
  5
355
330
1F
100
AcDbEntity
  8
Text
100
AcDbText
 10
-5482.178396948039
 20
1037.765479868551
 30
0.0
 40
233.9816249415046
  1
DIMENSIONS
 41
1.000399999999999
100
AcDbText
  0
ENDSEC
  0
SECTION
  2
OBJECTS
  0
DICTIONARY
  5
C
330
0
100
AcDbDictionary
281
     1
  3
ACAD_CIP_PREVIOUS_PRODUCT_INFO
350
2DE
  3
ACAD_COLOR
350
137
  3
ACAD_DETAILVIEWSTYLE
350
2D6
  3
ACAD_GROUP
350
D
  3
ACAD_LAYOUT
350
1A
  3
ACAD_MATERIAL
350
11B
  3
ACAD_MLEADERSTYLE
350
15B
  3
ACAD_MLINESTYLE
350
17
  3
ACAD_PLOTSETTINGS
350
19
  3
ACAD_PLOTSTYLENAME
350
E
  3
ACAD_SCALELIST
350
139
  3
ACAD_SECTIONVIEWSTYLE
350
2D4
  3
ACAD_TABLESTYLE
350
119
  3
ACAD_VISUALSTYLE
350
2A
  3
AcAmCatalogState
350
1BD
  3
ACDB_RECOMPOSE_DATA
350
406
  3
AcDbVariableDictionary
350
20F
  3
ACDMSYSVARMGR
350
178
  3
ACGREF_MASTER
350
170
  3
ACGREFACAD_MASTER
350
19B
  3
AcmDictionary
350
1BB
  3
ACME_BOM_MANAGER_NAME
350
16C
  3
ACME_COMMAND_HISTORY
350
169
  3
ACME_SCOPE_NAME
350
168
  3
ACMESTATEMGR
350
16F
  3
AcmeSysVarManager
350
16A
  3
AcmSystemVariableManager
350
1A0
  3
AD_APPL
350
1A8
  3
ADSYSVARMGR
350
1A7
  3
AEC_PROPERTY_SET_DEFS
350
344
  3
AmdtNamedDwgMgr
350
196
  3
AMG
350
161
  3
AMI_MASTER
350
19E
  3
AUTOCAD_ASSEMBLIES_PROJECT
350
1B1
  3
Designer_Assemblies_SysVars
350
1AB
  3
GREFAM_MODULE
350
19F
  3
StructToggleButtonState
350
203
  0
DICTIONARY
  5
207
330
2
100
AcDbDictionary
280
     1
281
     1
  3
ACAD_LAYERSTATES
360
208
  0
DICTIONARY
  5
1FF
330
10
100
AcDbDictionary
280
     1
281
     1
  3
ADSK_XREC_LAYER_RECONCILED
360
200
  0
DICTIONARY
  5
201
330
3B
100
AcDbDictionary
280
     1
281
     1
  3
ADSK_XREC_LAYER_RECONCILED
360
202
  0
DICTIONARY
  5
25F
330
1F
100
AcDbDictionary
280
     1
281
     1
  3
ACAD_SORTENTS
360
260
  0
DICTIONARY
  5
340
330
33B
100
AcDbDictionary
280
     1
281
     1
  3
ACAD_SORTENTS
360
341
  0
DICTIONARY
  5
349
330
345
100
AcDbDictionary
280
     1
281
     1
  3
ACAD_SORTENTS
360
34A
  0
XRECORD
  5
2DE
102
{ACAD_REACTORS
330
C
102
}
330
C
100
AcDbXrecord
280
     1
300
AMECH_PP
300
2018
300
PDSP_F_S
  0
DICTIONARY
  5
137
102
{ACAD_REACTORS
330
C
102
}
330
C
100
AcDbDictionary
281
     1
  0
DICTIONARY
  5
2D6
102
{ACAD_REACTORS
330
C
102
}
330
C
100
AcDbDictionary
281
     1
  3
Imperial24
350
2D7
  0
DICTIONARY
  5
D
102
{ACAD_REACTORS
330
C
102
}
330
C
100
AcDbDictionary
281
     1
  0
DICTIONARY
  5
1A
102
{ACAD_REACTORS
330
C
102
}
330
C
100
AcDbDictionary
281
     1
  3
Layout1
350
1E
  3
Layout2
350
26
  3
Model
350
22
  0
DICTIONARY
  5
11B
102
{ACAD_REACTORS
330
C
102
}
330
C
100
AcDbDictionary
281
     1
  3
ByBlock
350
124
  3
ByLayer
350
11C
  3
Global
350
12C
  0
DICTIONARY
  5
15B
102
{ACAD_REACTORS
330
C
102
}
330
C
100
AcDbDictionary
281
     1
  3
Standard
350
15C
  0
DICTIONARY
  5
17
102
{ACAD_REACTORS
330
C
102
}
330
C
100
AcDbDictionary
281
     1
  3
Standard
350
18
  0
DICTIONARY
  5
19
102
{ACAD_REACTORS
330
C
102
}
330
C
100
AcDbDictionary
281
     1
  0
ACDBDICTIONARYWDFLT
  5
E
102
{ACAD_REACTORS
330
C
102
}
330
C
100
AcDbDictionary
281
     1
  3
Normal
350
F
100
AcDbDictionaryWithDefault
340
F
  0
DICTIONARY
  5
139
102
{ACAD_REACTORS
330
C
102
}
330
C
100
AcDbDictionary
281
     1
  3
A0
350
13A
  3
A1
350
13B
  3
A2
350
13C
  3
A3
350
13D
  3
A4
350
13E
  3
A5
350
13F
  3
A6
350
140
  3
A7
350
141
  3
A8
350
142
  3
A9
350
143
  3
B0
350
144
  3
B1
350
145
  3
B2
350
146
  3
B3
350
147
  3
B4
350
148
  3
B5
350
149
  3
B6
350
14A
  3
B7
350
14B
  3
B8
350
14C
  3
B9
350
14D
  3
C0
350
14E
  3
C1
350
14F
  3
C2
350
150
  3
C3
350
151
  3
C4
350
152
  3
C5
350
153
  3
C6
350
154
  3
C7
350
155
  3
C8
350
156
  3
C9
350
157
  3
D0
350
158
  3
D1
350
159
  3
D2
350
15A
  0
DICTIONARY
  5
2D4
102
{ACAD_REACTORS
330
C
102
}
330
C
100
AcDbDictionary
281
     1
  3
Imperial24
350
2D5
  0
DICTIONARY
  5
119
102
{ACAD_REACTORS
330
C
102
}
330
C
100
AcDbDictionary
281
     1
  3
Standard
350
138
  0
DICTIONARY
  5
2A
102
{ACAD_REACTORS
330
C
102
}
330
C
100
AcDbDictionary
281
     1
  3
2dWireframe
350
2F
  3
3D Hidden
350
31
  3
3dWireframe
350
30
  3
Basic
350
32
  3
Brighten
350
36
  3
ColorChange
350
3A
  3
Conceptual
350
34
  3
Dim
350
35
  3
EdgeColorOff
350
136
  3
Facepattern
350
39
  3
Flat
350
2B
  3
FlatWithEdges
350
2C
  3
Gouraud
350
2D
  3
GouraudWithEdges
350
2E
  3
Hidden
350
2CE
  3
JitterOff
350
134
  3
Linepattern
350
38
  3
OverhangOff
350
135
  3
Realistic
350
33
  3
Shaded
350
2D3
  3
Shaded with edges
350
2D2
  3
Shades of Gray
350
2CF
  3
Sketchy
350
2D0
  3
Thicken
350
37
  3
Wireframe
350
2CD
  3
X-Ray
350
2D1
  0
ACAD_PROXY_OBJECT
  5
1BD
102
{ACAD_REACTORS
330
C
102
}
330
C
100
AcDbProxyObject
 90
      499
 91
      547
 71
    29
 97
      226
 70
     0
162
              1258
311
5392800E801700110019401CC01A4019C01B80080018401B8019000800110019401D8019401B001BC01C001B4019401B801D00170010C018401900080011001C8018401DC01A401B8019C01CC01700128018401C80190018401B80080010C010401100080011001C8018401DC01A401B8019C01CC0170014C01B4018401B00
311
1B00080018C01A0018401A401C801CC01700128018401C801D801A401CC00C
161
                94
310
3FFFFFFFE00A0284403002A8
 94
        0
  0
XRECORD
  5
406
102
{ACAD_REACTORS
330
C
102
}
330
C
100
AcDbXrecord
280
     1
 90
        1
330
138
  0
DICTIONARY
  5
20F
102
{ACAD_REACTORS
330
C
102
}
330
C
100
AcDbDictionary
281
     1
  3
CANNOSCALE
350
213
  3
CMLEADERSTYLE
350
211
  3
CTABLESTYLE
350
210
  3
CVIEWDETAILSTYLE
350
32E
  3
CVIEWSECTIONSTYLE
350
32F
  3
LAYEREVAL
350
215
  3
LAYERNOTIFY
350
216
  3
LIGHTINGUNITS
350
214
  3
MSLTSCALE
350
212
  0
ACAD_PROXY_OBJECT
  5
178
102
{ACAD_REACTORS
330
C
102
}
330
C
100
AcDbProxyObject
 90
      499
 91
      510
 71
    29
 97
      226
 70
     0
162
                 0
161
               240
310
4C51A482000000000000000000000000000000000000000000000000000033
330
179
330
17A
330
17B
330
17C
330
17D
330
17E
330
17F
330
180
330
181
330
182
330
183
330
184
330
185
330
186
330
187
330
188
330
189
330
18A
330
18B
330
18C
330
18D
330
18E
330
18F
330
190
330
191
330
192
 94
        0
  0
ACAD_PROXY_OBJECT
  5
170
102
{ACAD_REACTORS
330
C
102
}
330
C
100
AcDbProxyObject
 90
      499
 91
      516
 71
    29
 97
      226
 70
     0
162
                 0
161
                34
310
0C000042CC
 94
        0
  0
ACAD_PROXY_OBJECT
  5
19B
102
{ACAD_REACTORS
330
C
102
}
330
C
100
AcDbProxyObject
 90
      499
 91
      526
 71
    29
 97
      226
 70
     0
162
                 0
161
               114
310
04000041C00000000000000000000C
 94
        0
  0
DICTIONARY
  5
1BB
102
{ACAD_REACTORS
330
C
102
}
330
C
100
AcDbDictionary
281
     1
  3
AcmBOMDATA
350
1BC
  3
AcmStdDictionary
350
1C7
  0
ACAD_PROXY_OBJECT
  5
16C
102
{ACAD_REACTORS
330
C
102
}
330
C
100
AcDbProxyObject
 90
      499
 91
      512
 71
    29
 97
      226
 70
     0
162
                 0
161
                50
310
0000004040000C
330
0
330
0
330
16D
 94
        0
  0
ACAD_PROXY_OBJECT
  5
169
102
{ACAD_REACTORS
330
C
102
}
330
C
100
AcDbProxyObject
 90
      499
 91
      509
 71
    29
 97
      226
 70
     0
162
              1494
311
4390401340110015001480114014C01140150011001080134013C011001084E0020002D00200055004E0044004F0042138008000B40080015401380110013C010455004E0044004F004115401380110013C0105510053004100560045004B934014C011C008000B4008001400140010400E80080008000800190019401CC01
311
AC01D001BC01C000B8018401C801E00080011801A401B001940158019401C801CC01A401BC01B800E8008000C400D000B800C800B800C000B800D000
161
                90
310
41005020101018060140404C
 94
        0
  0
ACAD_PROXY_OBJECT
  5
168
102
{ACAD_REACTORS
330
C
102
}
330
C
100
AcDbProxyObject
 90
      499
 91
      508
 71
    29
 97
      226
 70
     0
162
                 0
161
               554
310
0E00004C8000000000000000000013150200000000000000000000000000000000000000000000000000000000000000000000000000000000000000000000000000AAAAAA8C
360
16B
360
16D
360
171
360
172
360
173
360
174
360
175
360
176
360
179
360
17A
360
17B
360
17C
360
17D
360
17E
360
17F
360
180
360
181
360
182
360
183
360
184
360
185
360
186
360
187
360
188
360
189
360
18A
360
18B
360
18C
360
18D
360
18E
360
18F
360
190
360
191
360
192
360
1A1
360
1A3
360
1A4
360
1A5
360
1A6
360
1AC
360
1AD
360
1AE
360
1AF
360
1B0
360
1B5
360
1B6
360
1B7
360
1B8
360
1B9
 94
        0
  0
ACAD_PROXY_OBJECT
  5
16F
102
{ACAD_REACTORS
330
C
102
}
330
C
100
AcDbProxyObject
 90
      499
 91
      515
 71
    29
 97
      226
 70
     0
162
                 0
161
                50
310
0E000043A4128C
 94
        0
  0
ACAD_PROXY_OBJECT
  5
16A
102
{ACAD_REACTORS
330
C
102
}
330
C
100
AcDbProxyObject
 90
      499
 91
      510
 71
    29
 97
      226
 70
     0
162
                 0
161
                32
310
90142200FF
330
16B
 94
        0
  0
ACAD_PROXY_OBJECT
  5
1A0
102
{ACAD_REACTORS
330
C
102
}
330
C
100
AcDbProxyObject
 90
      499
 91
      510
 71
    29
 97
      226
 70
     0
162
                 0
161
                32
310
90142200FF
330
1A1
 94
        0
  0
ACAD_PROXY_OBJECT
  5
1A8
102
{ACAD_REACTORS
330
C
102
}
330
C
100
AcDbProxyObject
 90
      499
 91
      537
 71
    29
 97
      226
 70
     0
162
                 0
161
                34
310
000B00008C
330
1A3
 94
        0
  0
ACAD_PROXY_OBJECT
  5
1A7
102
{ACAD_REACTORS
330
C
102
}
330
C
100
AcDbProxyObject
 90
      499
 91
      510
 71
    29
 97
      226
 70
     0
162
                 0
161
                 8
310
AA00
 94
        0
  0
DICTIONARY
  5
344
102
{ACAD_REACTORS
330
C
102
}
330
C
100
AcDbDictionary
281
     1
  0
ACAD_PROXY_OBJECT
  5
196
102
{ACAD_REACTORS
330
C
102
}
330
C
100
AcDbProxyObject
 90
      499
 91
      523
 71
    29
 97
      226
 70
     0
162
                 0
161
                42
310
000100005E8C
330
171
 94
        0
  0
DICTIONARY
  5
161
102
{ACAD_REACTORS
330
C
102
}
330
C
100
AcDbDictionary
281
     1
  3
AcMgSettings
350
162
  3
AMGLAYCFG
350
1DB
  0
ACAD_PROXY_OBJECT
  5
19E
102
{ACAD_REACTORS
330
C
102
}
330
C
100
AcDbProxyObject
 90
      499
 91
      529
 71
    29
 97
      226
 70
     0
162
                 0
161
                34
310
050000428C
 94
        0
  0
ACAD_PROXY_OBJECT
  5
1B1
102
{ACAD_REACTORS
330
C
102
}
330
C
100
AcDbProxyObject
 90
      499
 91
      540
 71
    29
 97
      226
 70
     0
162
                 0
161
                98
310
0E000053C0000000000000000C
330
1B7
330
0
330
1B8
330
0
330
0
330
0
330
0
330
0
 94
        0
  0
ACAD_PROXY_OBJECT
  5
1AB
102
{ACAD_REACTORS
330
C
102
}
330
C
100
AcDbProxyObject
 90
      499
 91
      510
 71
    29
 97
      226
 70
     0
162
                 0
161
                64
310
905422000000000000
330
1AC
330
1AD
330
1AE
330
1AF
330
1B0
 94
        0
  0
ACAD_PROXY_OBJECT
  5
19F
102
{ACAD_REACTORS
330
C
102
}
330
C
100
AcDbProxyObject
 90
      499
 91
      530
 71
    29
 97
      226
 70
     0
162
                 0
161
                 8
310
0500
 94
        0
  0
ACAD_PROXY_OBJECT
  5
203
102
{ACAD_REACTORS
330
C
102
}
330
C
100
AcDbProxyObject
 90
      499
 91
      574
 71
    29
 97
      226
 70
     0
162
                 0
161
                 1
310
4C
 94
        0
  0
DICTIONARY
  5
208
102
{ACAD_REACTORS
330
207
102
}
330
207
100
AcDbDictionary
281
     1
  0
XRECORD
  5
200
102
{ACAD_REACTORS
330
1FF
102
}
330
1FF
100
AcDbXrecord
280
     1
290
     1
  0
XRECORD
  5
202
102
{ACAD_REACTORS
330
201
102
}
330
201
100
AcDbXrecord
280
     1
290
     1
  0
SORTENTSTABLE
  5
260
102
{ACAD_REACTORS
330
25F
102
}
330
25F
100
AcDbSortentsTable
330
1F
331
2A5
  5
2C0
331
27A
  5
253
331
280
  5
27E
331
7D
  5
99
331
29E
  5
2BC
331
28A
  5
26F
331
29B
  5
2B4
331
270
  5
C8
331
24B
  5
7E
331
C8
  5
286
331
287
  5
285
331
2C4
  5
29B
331
65
  5
65
331
2BD
  5
28E
331
26D
  5
B8
331
266
  5
A9
331
51
  5
51
331
27E
  5
27C
331
284
  5
282
331
259
  5
98
331
99
  5
F1
331
2C1
  5
295
331
109
  5
2C1
331
62
  5
62
331
277
  5
24A
331
295
  5
2A6
331
B7
  5
279
331
2BA
  5
2A0
331
AA
  5
268
331
28E
  5
277
331
27B
  5
259
331
281
  5
27F
331
7E
  5
9A
331
2A6
  5
29C
331
29F
  5
2BD
331
28B
  5
271
331
278
  5
24B
331
B8
  5
27A
331
29C
  5
2BA
331
271
  5
C9
331
3D
  5
3D
331
2B4
  5
29F
331
C9
  5
287
331
288
  5
26D
331
2A0
  5
2BE
331
41
  5
41
331
26E
  5
B9
331
2BE
  5
28F
331
267
  5
AA
331
111
  5
2C3
331
27F
  5
27D
331
285
  5
283
331
63
  5
63
331
9A
  5
109
331
253
  5
97
331
2C2
  5
296
331
2BB
  5
28C
331
5C
  5
5C
331
296
  5
2AA
331
28F
  5
278
331
27C
  5
261
331
282
  5
280
331
275
  5
CA
331
268
  5
AC
331
A8
  5
266
331
28C
  5
275
331
2A4
  5
2BF
331
279
  5
24F
331
45
  5
45
331
B9
  5
27B
331
29D
  5
2BB
331
290
  5
2A4
331
289
  5
26E
331
CA
  5
288
331
2AE
  5
29E
331
24A
  5
7D
331
97
  5
CC
331
2BF
  5
290
331
26F
  5
BB
331
112
  5
2C4
331
286
  5
284
331
9B
  5
10D
331
2C3
  5
297
331
64
  5
64
331
2BC
  5
28D
331
297
  5
2AE
331
26C
  5
B7
331
265
  5
A8
331
27D
  5
265
331
283
  5
281
331
98
  5
DA
331
2C0
  5
294
331
276
  5
112
331
61
  5
61
331
294
  5
2A5
331
A9
  5
267
331
28D
  5
276
  0
SORTENTSTABLE
  5
341
102
{ACAD_REACTORS
330
340
102
}
330
340
100
AcDbSortentsTable
330
33B
  0
SORTENTSTABLE
  5
34A
102
{ACAD_REACTORS
330
349
102
}
330
349
100
AcDbSortentsTable
330
345
  0
ACDBDETAILVIEWSTYLE
  5
2D7
102
{ACAD_REACTORS
330
2D6
102
}
330
2D6
100
AcDbModelDocViewStyle
 70
     0
  3
Imperial24
290
     0
300
Imperial24
 90
        0
100
AcDbDetailViewStyle
 70
     0
 71
     0
 90
        3
 71
     1
340
11
 62
   256
 40
0.24
340
0
 62
   256
 40
0.24
300

 40
0.36
280
     3
 71
     2
340
16
 90
       25
 62
   256
 71
     3
340
11
 62
   256
 40
0.24
 90
        1
 40
0.75
 90
        1
300
%<\AcVar ViewType \f "%tc1">% %<\AcVar ViewDetailId>%\PSCALE %<\AcVar ViewScale \f "%sn">%
 71
     4
340
16
 90
       25
 62
   256
340
16
 90
       25
 62
   256
280
     0
  0
LAYOUT
  5
1E
102
{ACAD_REACTORS
330
1A
102
}
330
1A
100
AcDbPlotSettings
  1

  2
none_device
  4

  6

 40
0.0
 41
0.0
 42
0.0
 43
0.0
 44
0.0
 45
0.0
 46
0.0
 47
0.0
 48
0.0
 49
0.0
140
0.0
141
0.0
142
1.0
143
1.0
 70
   688
 72
     0
 73
     0
 74
     5
  7

 75
    16
147
1.0
 76
     0
 77
     2
 78
   300
148
0.0
149
0.0
100
AcDbLayout
  1
Layout1
 70
     1
 71
     1
 10
0.0
 20
0.0
 11
12.0
 21
9.0
 12
0.0
 22
0.0
 32
0.0
 14
1.000000000000000E+20
 24
1.000000000000000E+20
 34
1.000000000000000E+20
 15
-1.000000000000000E+20
 25
-1.000000000000000E+20
 35
-1.000000000000000E+20
146
0.0
 13
0.0
 23
0.0
 33
0.0
 16
1.0
 26
0.0
 36
0.0
 17
0.0
 27
1.0
 37
0.0
 76
     0
330
1B
  0
LAYOUT
  5
26
102
{ACAD_REACTORS
330
1A
102
}
330
1A
100
AcDbPlotSettings
  1

  2
none_device
  4

  6

 40
0.0
 41
0.0
 42
0.0
 43
0.0
 44
0.0
 45
0.0
 46
0.0
 47
0.0
 48
0.0
 49
0.0
140
0.0
141
0.0
142
1.0
143
1.0
 70
   688
 72
     0
 73
     0
 74
     5
  7

 75
    16
147
1.0
 76
     0
 77
     2
 78
   300
148
0.0
149
0.0
100
AcDbLayout
  1
Layout2
 70
     1
 71
     2
 10
0.0
 20
0.0
 11
0.0
 21
0.0
 12
0.0
 22
0.0
 32
0.0
 14
0.0
 24
0.0
 34
0.0
 15
0.0
 25
0.0
 35
0.0
146
0.0
 13
0.0
 23
0.0
 33
0.0
 16
1.0
 26
0.0
 36
0.0
 17
0.0
 27
1.0
 37
0.0
 76
     0
330
23
  0
LAYOUT
  5
22
102
{ACAD_XDICTIONARY
360
20D
102
}
102
{ACAD_REACTORS
330
1A
102
}
330
1A
100
AcDbPlotSettings
  1

  2
none_device
  4

  6

 40
0.0
 41
0.0
 42
0.0
 43
0.0
 44
0.0
 45
0.0
 46
0.0
 47
0.0
 48
0.0
 49
0.0
140
0.0
141
0.0
142
1.0
143
1.0
 70
  1712
 72
     0
 73
     0
 74
     0
  7

 75
     0
147
1.0
 76
     0
 77
     2
 78
   300
148
0.0
149
0.0
100
AcDbLayout
  1
Model
 70
     1
 71
     0
 10
0.0
 20
0.0
 11
12.0
 21
9.0
 12
0.0
 22
0.0
 32
0.0
 14
1.000000000000000E+20
 24
1.000000000000000E+20
 34
1.000000000000000E+20
 15
-1.000000000000000E+20
 25
-1.000000000000000E+20
 35
-1.000000000000000E+20
146
0.0
 13
0.0
 23
0.0
 33
0.0
 16
1.0
 26
0.0
 36
0.0
 17
0.0
 27
1.0
 37
0.0
 76
     0
330
1F
331
29
  0
MATERIAL
  5
124
102
{ACAD_XDICTIONARY
360
125
102
}
102
{ACAD_REACTORS
330
11B
102
}
330
11B
100
AcDbMaterial
  1
ByBlock
 72
     0
 43
0.0208333333333333
 43
0.0
 43
0.0
 43
0.0
 43
0.0
 43
0.0208333333333333
 43
0.0
 43
0.0
 43
0.0
 43
0.0
 43
1.0
 43
0.0
 43
0.0
 43
0.0
 43
0.0
 43
1.0
 77
     0
 47
0.0208333333333333
 47
0.0
 47
0.0
 47
0.0
 47
0.0
 47
0.0208333333333333
 47
0.0
 47
0.0
 47
0.0
 47
0.0
 47
1.0
 47
0.0
 47
0.0
 47
0.0
 47
0.0
 47
1.0
171
     0
 49
0.0208333333333333
 49
0.0
 49
0.0
 49
0.0
 49
0.0
 49
0.0208333333333333
 49
0.0
 49
0.0
 49
0.0
 49
0.0
 49
1.0
 49
0.0
 49
0.0
 49
0.0
 49
0.0
 49
1.0
175
     0
142
0.0208333333333333
142
0.0
142
0.0
142
0.0
142
0.0
142
0.0208333333333333
142
0.0
142
0.0
142
0.0
142
0.0
142
1.0
142
0.0
142
0.0
142
0.0
142
0.0
142
1.0
179
     0
144
0.0208333333333333
144
0.0
144
0.0
144
0.0
144
0.0
144
0.0208333333333333
144
0.0
144
0.0
144
0.0
144
0.0
144
1.0
144
0.0
144
0.0
144
0.0
144
0.0
144
1.0
147
0.0208333333333333
147
0.0
147
0.0
147
0.0
147
0.0
147
0.0208333333333333
147
0.0
147
0.0
147
0.0
147
0.0
147
1.0
147
0.0
147
0.0
147
0.0
147
0.0
147
1.0
  0
MATERIAL
  5
11C
102
{ACAD_XDICTIONARY
360
11D
102
}
102
{ACAD_REACTORS
330
11B
102
}
330
11B
100
AcDbMaterial
  1
ByLayer
 72
     0
 43
0.0208333333333333
 43
0.0
 43
0.0
 43
0.0
 43
0.0
 43
0.0208333333333333
 43
0.0
 43
0.0
 43
0.0
 43
0.0
 43
1.0
 43
0.0
 43
0.0
 43
0.0
 43
0.0
 43
1.0
 77
     0
 47
0.0208333333333333
 47
0.0
 47
0.0
 47
0.0
 47
0.0
 47
0.0208333333333333
 47
0.0
 47
0.0
 47
0.0
 47
0.0
 47
1.0
 47
0.0
 47
0.0
 47
0.0
 47
0.0
 47
1.0
171
     0
 49
0.0208333333333333
 49
0.0
 49
0.0
 49
0.0
 49
0.0
 49
0.0208333333333333
 49
0.0
 49
0.0
 49
0.0
 49
0.0
 49
1.0
 49
0.0
 49
0.0
 49
0.0
 49
0.0
 49
1.0
175
     0
142
0.0208333333333333
142
0.0
142
0.0
142
0.0
142
0.0
142
0.0208333333333333
142
0.0
142
0.0
142
0.0
142
0.0
142
1.0
142
0.0
142
0.0
142
0.0
142
0.0
142
1.0
179
     0
144
0.0208333333333333
144
0.0
144
0.0
144
0.0
144
0.0
144
0.0208333333333333
144
0.0
144
0.0
144
0.0
144
0.0
144
1.0
144
0.0
144
0.0
144
0.0
144
0.0
144
1.0
147
0.0208333333333333
147
0.0
147
0.0
147
0.0
147
0.0
147
0.0208333333333333
147
0.0
147
0.0
147
0.0
147
0.0
147
1.0
147
0.0
147
0.0
147
0.0
147
0.0
147
1.0
  0
MATERIAL
  5
12C
102
{ACAD_XDICTIONARY
360
12D
102
}
102
{ACAD_REACTORS
330
11B
102
}
330
11B
100
AcDbMaterial
  1
Global
 72
     0
 43
0.0208333333333333
 43
0.0
 43
0.0
 43
0.0
 43
0.0
 43
0.0208333333333333
 43
0.0
 43
0.0
 43
0.0
 43
0.0
 43
1.0
 43
0.0
 43
0.0
 43
0.0
 43
0.0
 43
1.0
 77
     0
 47
0.0208333333333333
 47
0.0
 47
0.0
 47
0.0
 47
0.0
 47
0.0208333333333333
 47
0.0
 47
0.0
 47
0.0
 47
0.0
 47
1.0
 47
0.0
 47
0.0
 47
0.0
 47
0.0
 47
1.0
171
     0
 49
0.0208333333333333
 49
0.0
 49
0.0
 49
0.0
 49
0.0
 49
0.0208333333333333
 49
0.0
 49
0.0
 49
0.0
 49
0.0
 49
1.0
 49
0.0
 49
0.0
 49
0.0
 49
0.0
 49
1.0
175
     0
142
0.0208333333333333
142
0.0
142
0.0
142
0.0
142
0.0
142
0.0208333333333333
142
0.0
142
0.0
142
0.0
142
0.0
142
1.0
142
0.0
142
0.0
142
0.0
142
0.0
142
1.0
179
     0
144
0.0208333333333333
144
0.0
144
0.0
144
0.0
144
0.0
144
0.0208333333333333
144
0.0
144
0.0
144
0.0
144
0.0
144
1.0
144
0.0
144
0.0
144
0.0
144
0.0
144
1.0
147
0.0208333333333333
147
0.0
147
0.0
147
0.0
147
0.0
147
0.0208333333333333
147
0.0
147
0.0
147
0.0
147
0.0
147
1.0
147
0.0
147
0.0
147
0.0
147
0.0
147
1.0
  0
MLEADERSTYLE
  5
15C
102
{ACAD_REACTORS
330
15B
102
}
330
15B
100
AcDbMLeaderStyle
179
     2
170
     2
171
     1
172
     0
 90
        2
 40
0.0
 41
0.0
173
     1
 91
-1056964608
340
14
 92
       -2
290
     1
 42
0.09
291
     1
 43
0.36
  3
Standard
 44
0.18
300

342
11
174
     1
178
     6
175
     1
176
     0
 93
-1056964608
 45
0.18
292
     0
297
     0
 46
0.18
 94
-1056964608
 47
1.0
 49
1.0
140
1.0
293
     1
141
0.0
294
     1
177
     0
142
1.0
295
     0
296
     0
143
0.125
271
     0
272
     9
273
     9
298
     0
  0
MLINESTYLE
  5
18
102
{ACAD_REACTORS
330
17
102
}
330
17
100
AcDbMlineStyle
  2
STANDARD
 70
     0
  3

 62
   256
 51
90.0
 52
90.0
 71
     2
 49
0.5
 62
   256
  6
BYLAYER
 49
-0.5
 62
   256
  6
BYLAYER
  0
ACDBPLACEHOLDER
  5
F
102
{ACAD_REACTORS
330
E
102
}
330
E
  0
SCALE
  5
13A
102
{ACAD_REACTORS
330
139
102
}
330
139
100
AcDbScale
 70
     0
300
1:1
140
1.0
141
1.0
290
     1
  0
SCALE
  5
13B
102
{ACAD_REACTORS
330
139
102
}
330
139
100
AcDbScale
 70
     0
300
1:2
140
1.0
141
2.0
290
     0
  0
SCALE
  5
13C
102
{ACAD_REACTORS
330
139
102
}
330
139
100
AcDbScale
 70
     0
300
1:4
140
1.0
141
4.0
290
     0
  0
SCALE
  5
13D
102
{ACAD_REACTORS
330
139
102
}
330
139
100
AcDbScale
 70
     0
300
1:5
140
1.0
141
5.0
290
     0
  0
SCALE
  5
13E
102
{ACAD_REACTORS
330
139
102
}
330
139
100
AcDbScale
 70
     0
300
1:8
140
1.0
141
8.0
290
     0
  0
SCALE
  5
13F
102
{ACAD_REACTORS
330
139
102
}
330
139
100
AcDbScale
 70
     0
300
1:10
140
1.0
141
10.0
290
     0
  0
SCALE
  5
140
102
{ACAD_REACTORS
330
139
102
}
330
139
100
AcDbScale
 70
     0
300
1:16
140
1.0
141
16.0
290
     0
  0
SCALE
  5
141
102
{ACAD_REACTORS
330
139
102
}
330
139
100
AcDbScale
 70
     0
300
1:20
140
1.0
141
20.0
290
     0
  0
SCALE
  5
142
102
{ACAD_REACTORS
330
139
102
}
330
139
100
AcDbScale
 70
     0
300
1:30
140
1.0
141
30.0
290
     0
  0
SCALE
  5
143
102
{ACAD_REACTORS
330
139
102
}
330
139
100
AcDbScale
 70
     0
300
1:40
140
1.0
141
40.0
290
     0
  0
SCALE
  5
144
102
{ACAD_REACTORS
330
139
102
}
330
139
100
AcDbScale
 70
     0
300
1:50
140
1.0
141
50.0
290
     0
  0
SCALE
  5
145
102
{ACAD_REACTORS
330
139
102
}
330
139
100
AcDbScale
 70
     0
300
1:100
140
1.0
141
100.0
290
     0
  0
SCALE
  5
146
102
{ACAD_REACTORS
330
139
102
}
330
139
100
AcDbScale
 70
     0
300
2:1
140
2.0
141
1.0
290
     0
  0
SCALE
  5
147
102
{ACAD_REACTORS
330
139
102
}
330
139
100
AcDbScale
 70
     0
300
4:1
140
4.0
141
1.0
290
     0
  0
SCALE
  5
148
102
{ACAD_REACTORS
330
139
102
}
330
139
100
AcDbScale
 70
     0
300
8:1
140
8.0
141
1.0
290
     0
  0
SCALE
  5
149
102
{ACAD_REACTORS
330
139
102
}
330
139
100
AcDbScale
 70
     0
300
10:1
140
10.0
141
1.0
290
     0
  0
SCALE
  5
14A
102
{ACAD_REACTORS
330
139
102
}
330
139
100
AcDbScale
 70
     0
300
100:1
140
100.0
141
1.0
290
     0
  0
SCALE
  5
14B
102
{ACAD_REACTORS
330
139
102
}
330
139
100
AcDbScale
 70
     0
300
1/128" = 1'-0"
140
0.0078125
141
12.0
290
     0
  0
SCALE
  5
14C
102
{ACAD_REACTORS
330
139
102
}
330
139
100
AcDbScale
 70
     0
300
1/64" = 1'-0"
140
0.015625
141
12.0
290
     0
  0
SCALE
  5
14D
102
{ACAD_REACTORS
330
139
102
}
330
139
100
AcDbScale
 70
     0
300
1/32" = 1'-0"
140
0.03125
141
12.0
290
     0
  0
SCALE
  5
14E
102
{ACAD_REACTORS
330
139
102
}
330
139
100
AcDbScale
 70
     0
300
1/16" = 1'-0"
140
0.0625
141
12.0
290
     0
  0
SCALE
  5
14F
102
{ACAD_REACTORS
330
139
102
}
330
139
100
AcDbScale
 70
     0
300
3/32" = 1'-0"
140
0.09375
141
12.0
290
     0
  0
SCALE
  5
150
102
{ACAD_REACTORS
330
139
102
}
330
139
100
AcDbScale
 70
     0
300
1/8" = 1'-0"
140
0.125
141
12.0
290
     0
  0
SCALE
  5
151
102
{ACAD_REACTORS
330
139
102
}
330
139
100
AcDbScale
 70
     0
300
3/16" = 1'-0"
140
0.1875
141
12.0
290
     0
  0
SCALE
  5
152
102
{ACAD_REACTORS
330
139
102
}
330
139
100
AcDbScale
 70
     0
300
1/4" = 1'-0"
140
0.25
141
12.0
290
     0
  0
SCALE
  5
153
102
{ACAD_REACTORS
330
139
102
}
330
139
100
AcDbScale
 70
     0
300
3/8" = 1'-0"
140
0.375
141
12.0
290
     0
  0
SCALE
  5
154
102
{ACAD_REACTORS
330
139
102
}
330
139
100
AcDbScale
 70
     0
300
1/2" = 1'-0"
140
0.5
141
12.0
290
     0
  0
SCALE
  5
155
102
{ACAD_REACTORS
330
139
102
}
330
139
100
AcDbScale
 70
     0
300
3/4" = 1'-0"
140
0.75
141
12.0
290
     0
  0
SCALE
  5
156
102
{ACAD_REACTORS
330
139
102
}
330
139
100
AcDbScale
 70
     0
300
1" = 1'-0"
140
1.0
141
12.0
290
     0
  0
SCALE
  5
157
102
{ACAD_REACTORS
330
139
102
}
330
139
100
AcDbScale
 70
     0
300
1-1/2" = 1'-0"
140
1.5
141
12.0
290
     0
  0
SCALE
  5
158
102
{ACAD_REACTORS
330
139
102
}
330
139
100
AcDbScale
 70
     0
300
3" = 1'-0"
140
3.0
141
12.0
290
     0
  0
SCALE
  5
159
102
{ACAD_REACTORS
330
139
102
}
330
139
100
AcDbScale
 70
     0
300
6" = 1'-0"
140
6.0
141
12.0
290
     0
  0
SCALE
  5
15A
102
{ACAD_REACTORS
330
139
102
}
330
139
100
AcDbScale
 70
     0
300
1'-0" = 1'-0"
140
12.0
141
12.0
290
     0
  0
ACDBSECTIONVIEWSTYLE
  5
2D5
102
{ACAD_REACTORS
330
2D4
102
}
330
2D4
100
AcDbModelDocViewStyle
 70
     0
  3
Imperial24
290
     0
300
Imperial24
 90
        0
100
AcDbSectionViewStyle
 70
     0
 71
     0
 90
       78
 71
     1
340
11
 62
   256
 40
0.24
340
0
340
0
 62
   256
 40
0.24
300
I, O, Q, S, X, Z
 40
0.48
 90
        3
 40
0.18
 90
        1
 71
     2
340
16
 90
       25
 62
   256
340
16
 90
       50
 62
   256
 40
0.24
 40
0.0
 40
0.24
 71
     3
340
11
 62
   256
 40
0.24
 90
        1
 40
0.75
 90
        1
300
%<\AcVar ViewType \f "%tc1">% %<\AcVar ViewSectionStartId>%-%<\AcVar ViewSectionEndId>%\PSCALE %<\AcVar ViewScale \f "%sn">%
 71
     4
 62
   256
 62
   257
300
ANSI31
 40
1.0
 90
        0
290
     0
290
     0
 90
        6
 40
0.0
 40
1.570796326794896
 40
0.2617993877991494
 40
1.308996938995747
 40
-0.2617993877991494
 40
1.832595714594046
  0
TABLESTYLE
  5
138
102
{ACAD_XDICTIONARY
360
404
102
}
102
{ACAD_REACTORS
330
119
102
}
330
119
100
AcDbTableStyle
280
     0
  3
Standard
 70
     0
 71
     0
 40
0.06
 41
0.06
280
     0
281
     0
  7
Standard
140
0.18
170
     2
 62
     0
 63
     7
283
     0
 90
      512
 91
        0
  1

274
    -2
284
     1
 64
     0
275
    -2
285
     1
 65
     0
276
    -2
286
     1
 66
     0
277
    -2
287
     1
 67
     0
278
    -2
288
     1
 68
     0
279
    -2
289
     1
 69
     0
  7
Standard
140
0.25
170
     5
 62
     0
 63
     7
283
     0
 90
      512
 91
        0
  1

274
    -2
284
     1
 64
     0
275
    -2
285
     1
 65
     0
276
    -2
286
     1
 66
     0
277
    -2
287
     1
 67
     0
278
    -2
288
     1
 68
     0
279
    -2
289
     1
 69
     0
  7
Standard
140
0.18
170
     5
 62
     0
 63
     7
283
     0
 90
      512
 91
        0
  1

274
    -2
284
     1
 64
     0
275
    -2
285
     1
 65
     0
276
    -2
286
     1
 66
     0
277
    -2
287
     1
 67
     0
278
    -2
288
     1
 68
     0
279
    -2
289
     1
 69
     0
  0
VISUALSTYLE
  5
2F
102
{ACAD_REACTORS
330
2A
102
}
330
2A
100
AcDbVisualStyle
  2
2dWireframe
 70
     4
177
     3
291
     0
 70
    58
 90
        0
176
     1
 90
        2
176
     1
 90
        0
176
     1
 90
        0
176
     1
 40
0.6
176
     1
 40
30.0
176
     1
 62
     7
420
 16777215
176
     1
 90
        1
176
     1
 90
        4
176
     1
 62
     7
176
     1
 62
   257
176
     1
 90
        1
176
     1
 90
        1
176
     1
 40
1.0
176
     1
 90
        0
176
     1
 62
   257
176
     1
 40
1.0
176
     1
 90
        1
176
     1
 90
        6
176
     1
 90
        2
176
     1
 62
     7
176
     1
 90
        5
176
     1
 90
        0
176
     1
 90
        0
176
     1
290
     0
176
     1
 90
        1
176
     1
 40
0.0
176
     1
 90
        0
176
     1
290
     1
176
     1
290
     1
176
     1
290
     0
176
     1
290
     0
176
     1
290
     0
176
     1
290
     0
176
     1
290
     0
176
     1
290
     0
176
     1
290
     0
176
     1
 90
       50
176
     1
 40
0.0
176
     1
 40
1.0
176
     1
 90
        0
176
     1
 62
    18
420
        0
176
     1
 90
       50
176
     1
 90
        3
176
     1
 62
     5
420
      255
176
     1
290
     0
176
     1
 90
       50
176
     1
 90
       50
176
     1
 90
       50
176
     1
290
     0
176
     1
 90
       50
176
     1
 62
   256
176
     0
 40
1.0
176
     0
 90
        2
176
     1
  1
strokes_ogs.tif
176
     1
290
     0
176
     1
 40
1.0
176
     1
 40
1.0
176
     1
  0
VISUALSTYLE
  5
31
102
{ACAD_REACTORS
330
2A
102
}
330
2A
100
AcDbVisualStyle
  2
3D Hidden
 70
     6
177
     3
291
     0
 70
    58
 90
        1
176
     1
 90
        2
176
     1
 90
        2
176
     1
 90
        0
176
     1
 40
0.6
176
     1
 40
30.0
176
     1
 62
     7
420
 16777215
176
     1
 90
        2
176
     1
 90
        2
176
     1
 62
     7
176
     1
 62
   257
176
     1
 90
        2
176
     1
 90
        1
176
     1
 40
40.0
176
     1
 90
        0
176
     1
 62
   257
176
     1
 40
1.0
176
     1
 90
        1
176
     1
 90
        6
176
     1
 90
        2
176
     1
 62
     7
176
     1
 90
        3
176
     1
 90
        0
176
     1
 90
        0
176
     1
290
     0
176
     1
 90
        1
176
     1
 40
0.0
176
     1
 90
        0
176
     1
290
     0
176
     1
290
     1
176
     1
290
     1
176
     1
290
     0
176
     1
290
     0
176
     1
290
     0
176
     1
290
     0
176
     1
290
     0
176
     1
290
     0
176
     1
 90
       50
176
     1
 40
0.0
176
     1
 40
1.0
176
     1
 90
        0
176
     1
 62
    18
420
        0
176
     1
 90
       50
176
     1
 90
        3
176
     1
 62
     5
420
      255
176
     1
290
     0
176
     1
 90
       50
176
     1
 90
       50
176
     1
 90
       50
176
     1
290
     0
176
     1
 90
       50
176
     1
 62
   256
176
     0
 40
1.0
176
     0
 90
        2
176
     1
  1
strokes_ogs.tif
176
     1
290
     0
176
     1
 40
1.0
176
     1
 40
1.0
176
     1
  0
VISUALSTYLE
  5
30
102
{ACAD_REACTORS
330
2A
102
}
330
2A
100
AcDbVisualStyle
  2
3dWireframe
 70
     5
177
     3
291
     0
 70
    58
 90
        0
176
     1
 90
        2
176
     1
 90
        0
176
     1
 90
        0
176
     1
 40
0.6
176
     1
 40
30.0
176
     1
 62
     7
420
 16777215
176
     1
 90
        1
176
     1
 90
        4
176
     1
 62
     7
176
     1
 62
   257
176
     1
 90
        1
176
     1
 90
        1
176
     1
 40
1.0
176
     1
 90
        0
176
     1
 62
   257
176
     1
 40
1.0
176
     1
 90
        1
176
     1
 90
        6
176
     1
 90
        2
176
     1
 62
     7
176
     1
 90
        5
176
     1
 90
        0
176
     1
 90
        0
176
     1
290
     0
176
     1
 90
        1
176
     1
 40
0.0
176
     1
 90
        0
176
     1
290
     0
176
     1
290
     1
176
     1
290
     1
176
     1
290
     0
176
     1
290
     0
176
     1
290
     0
176
     1
290
     0
176
     1
290
     0
176
     1
290
     0
176
     1
 90
       50
176
     1
 40
0.0
176
     1
 40
1.0
176
     1
 90
        0
176
     1
 62
    18
420
        0
176
     1
 90
       50
176
     1
 90
        3
176
     1
 62
     5
420
      255
176
     1
290
     0
176
     1
 90
       50
176
     1
 90
       50
176
     1
 90
       50
176
     1
290
     0
176
     1
 90
       50
176
     1
 62
   256
176
     0
 40
1.0
176
     0
 90
        2
176
     1
  1
strokes_ogs.tif
176
     1
290
     0
176
     1
 40
1.0
176
     1
 40
1.0
176
     1
  0
VISUALSTYLE
  5
32
102
{ACAD_REACTORS
330
2A
102
}
330
2A
100
AcDbVisualStyle
  2
Basic
 70
     7
177
     3
291
     1
 70
    58
 90
        1
176
     1
 90
        0
176
     1
 90
        1
176
     1
 90
        0
176
     1
 40
0.6
176
     1
 40
30.0
176
     1
 62
     7
420
 16777215
176
     1
 90
        0
176
     1
 90
        4
176
     1
 62
     7
176
     1
 62
   257
176
     1
 90
        1
176
     1
 90
        1
176
     1
 40
1.0
176
     1
 90
        8
176
     1
 62
     7
176
     1
 40
1.0
176
     1
 90
        1
176
     1
 90
        6
176
     1
 90
        2
176
     1
 62
     7
176
     1
 90
        5
176
     1
 90
        0
176
     1
 90
        0
176
     1
290
     0
176
     1
 90
        1
176
     1
 40
0.0
176
     1
 90
        0
176
     1
290
     0
176
     1
290
     1
176
     1
290
     1
176
     1
290
     0
176
     1
290
     0
176
     1
290
     0
176
     1
290
     0
176
     1
290
     0
176
     1
290
     0
176
     1
 90
       50
176
     1
 40
0.0
176
     1
 40
1.0
176
     1
 90
        0
176
     1
 62
    18
420
        0
176
     1
 90
       50
176
     1
 90
        3
176
     1
 62
     5
420
      255
176
     1
290
     0
176
     1
 90
       50
176
     1
 90
       50
176
     1
 90
       50
176
     1
290
     0
176
     1
 90
       50
176
     1
 62
   256
176
     0
 40
1.0
176
     0
 90
        2
176
     1
  1
strokes_ogs.tif
176
     1
290
     0
176
     1
 40
1.0
176
     1
 40
1.0
176
     1
  0
VISUALSTYLE
  5
36
102
{ACAD_REACTORS
330
2A
102
}
330
2A
100
AcDbVisualStyle
  2
Brighten
 70
    12
177
     3
291
     1
 70
    58
 90
        2
176
     1
 90
        2
176
     1
 90
        0
176
     1
 90
        0
176
     1
 40
0.6
176
     1
 40
30.0
176
     1
 62
     7
420
 16777215
176
     1
 90
        1
176
     1
 90
        4
176
     1
 62
     7
176
     1
 62
   257
176
     1
 90
        1
176
     1
 90
        1
176
     1
 40
1.0
176
     1
 90
        8
176
     1
 62
     7
176
     1
 40
1.0
176
     1
 90
        1
176
     1
 90
        6
176
     1
 90
        2
176
     1
 62
     7
176
     1
 90
        5
176
     1
 90
        0
176
     1
 90
        0
176
     1
290
     0
176
     1
 90
        1
176
     1
 40
50.0
176
     1
 90
        0
176
     1
290
     0
176
     1
290
     1
176
     1
290
     1
176
     1
290
     0
176
     1
290
     0
176
     1
290
     0
176
     1
290
     0
176
     1
290
     0
176
     1
290
     0
176
     1
 90
       50
176
     1
 40
0.0
176
     1
 40
1.0
176
     1
 90
        0
176
     1
 62
    18
420
        0
176
     1
 90
       50
176
     1
 90
        3
176
     1
 62
     5
420
      255
176
     1
290
     0
176
     1
 90
       50
176
     1
 90
       50
176
     1
 90
       50
176
     1
290
     0
176
     1
 90
       50
176
     1
 62
   256
176
     0
 40
1.0
176
     0
 90
        2
176
     1
  1
strokes_ogs.tif
176
     1
290
     0
176
     1
 40
1.0
176
     1
 40
1.0
176
     1
  0
VISUALSTYLE
  5
3A
102
{ACAD_REACTORS
330
2A
102
}
330
2A
100
AcDbVisualStyle
  2
ColorChange
 70
    16
177
     3
291
     1
 70
    58
 90
        2
176
     1
 90
        2
176
     1
 90
        3
176
     1
 90
        0
176
     1
 40
0.6
176
     1
 40
30.0
176
     1
 62
     8
420
  8421504
176
     1
 90
        1
176
     1
 90
        4
176
     1
 62
     7
176
     1
 62
   257
176
     1
 90
        1
176
     1
 90
        1
176
     1
 40
1.0
176
     1
 90
        8
176
     1
 62
     8
420
  8421504
176
     1
 40
1.0
176
     1
 90
        1
176
     1
 90
        6
176
     1
 90
        2
176
     1
 62
     7
176
     1
 90
        5
176
     1
 90
        0
176
     1
 90
        0
176
     1
290
     0
176
     1
 90
        1
176
     1
 40
0.0
176
     1
 90
        0
176
     1
290
     0
176
     1
290
     1
176
     1
290
     1
176
     1
290
     0
176
     1
290
     0
176
     1
290
     0
176
     1
290
     0
176
     1
290
     0
176
     1
290
     0
176
     1
 90
       50
176
     1
 40
0.0
176
     1
 40
1.0
176
     1
 90
        0
176
     1
 62
    18
420
        0
176
     1
 90
       50
176
     1
 90
        3
176
     1
 62
     5
420
      255
176
     1
290
     0
176
     1
 90
       50
176
     1
 90
       50
176
     1
 90
       50
176
     1
290
     0
176
     1
 90
       50
176
     1
 62
   256
176
     0
 40
1.0
176
     0
 90
        2
176
     1
  1
strokes_ogs.tif
176
     1
290
     0
176
     1
 40
1.0
176
     1
 40
1.0
176
     1
  0
VISUALSTYLE
  5
34
102
{ACAD_REACTORS
330
2A
102
}
330
2A
100
AcDbVisualStyle
  2
Conceptual
 70
     9
177
     3
291
     0
 70
    58
 90
        3
176
     1
 90
        2
176
     1
 90
        0
176
     1
 90
        0
176
     1
 40
0.6
176
     1
 40
30.0
176
     1
 62
     7
420
 16777215
176
     1
 90
        2
176
     1
 90
        2
176
     1
 62
     7
176
     1
 62
   257
176
     1
 90
        1
176
     1
 90
        1
176
     1
 40
40.0
176
     1
 90
        8
176
     1
 62
     7
176
     1
 40
1.0
176
     1
 90
        1
176
     1
 90
        6
176
     1
 90
        2
176
     1
 62
     7
176
     1
 90
        3
176
     1
 90
        0
176
     1
 90
        0
176
     1
290
     0
176
     1
 90
        1
176
     1
 40
0.0
176
     1
 90
        0
176
     1
290
     0
176
     1
290
     1
176
     1
290
     1
176
     1
290
     0
176
     1
290
     0
176
     1
290
     0
176
     1
290
     0
176
     1
290
     0
176
     1
290
     0
176
     1
 90
       50
176
     1
 40
0.0
176
     1
 40
1.0
176
     1
 90
        0
176
     1
 62
    18
420
        0
176
     1
 90
       50
176
     1
 90
        3
176
     1
 62
     5
420
      255
176
     1
290
     0
176
     1
 90
       50
176
     1
 90
       50
176
     1
 90
       50
176
     1
290
     0
176
     1
 90
       50
176
     1
 62
   256
176
     0
 40
1.0
176
     0
 90
        2
176
     1
  1
strokes_ogs.tif
176
     1
290
     0
176
     1
 40
1.0
176
     1
 40
1.0
176
     1
  0
VISUALSTYLE
  5
35
102
{ACAD_REACTORS
330
2A
102
}
330
2A
100
AcDbVisualStyle
  2
Dim
 70
    11
177
     3
291
     1
 70
    58
 90
        2
176
     1
 90
        2
176
     1
 90
        0
176
     1
 90
        0
176
     1
 40
0.6
176
     1
 40
30.0
176
     1
 62
     7
420
 16777215
176
     1
 90
        1
176
     1
 90
        4
176
     1
 62
     7
176
     1
 62
   257
176
     1
 90
        1
176
     1
 90
        1
176
     1
 40
1.0
176
     1
 90
        8
176
     1
 62
     7
176
     1
 40
1.0
176
     1
 90
        1
176
     1
 90
        6
176
     1
 90
        2
176
     1
 62
     7
176
     1
 90
        5
176
     1
 90
        0
176
     1
 90
        0
176
     1
290
     0
176
     1
 90
        1
176
     1
 40
-50.0
176
     1
 90
        0
176
     1
290
     0
176
     1
290
     1
176
     1
290
     1
176
     1
290
     0
176
     1
290
     0
176
     1
290
     0
176
     1
290
     0
176
     1
290
     0
176
     1
290
     0
176
     1
 90
       50
176
     1
 40
0.0
176
     1
 40
1.0
176
     1
 90
        0
176
     1
 62
    18
420
        0
176
     1
 90
       50
176
     1
 90
        3
176
     1
 62
     5
420
      255
176
     1
290
     0
176
     1
 90
       50
176
     1
 90
       50
176
     1
 90
       50
176
     1
290
     0
176
     1
 90
       50
176
     1
 62
   256
176
     0
 40
1.0
176
     0
 90
        2
176
     1
  1
strokes_ogs.tif
176
     1
290
     0
176
     1
 40
1.0
176
     1
 40
1.0
176
     1
  0
VISUALSTYLE
  5
136
102
{ACAD_REACTORS
330
2A
102
}
330
2A
100
AcDbVisualStyle
  2
EdgeColorOff
 70
    22
177
     3
291
     1
 70
    58
 90
        2
176
     0
 90
        2
176
     0
 90
        0
176
     0
 90
        0
176
     0
 40
0.6
176
     0
 40
30.0
176
     0
 62
     7
420
 16777215
176
     0
 90
        1
176
     0
 90
        4
176
     0
 62
     7
176
     0
 62
   257
176
     0
 90
        1
176
     0
 90
        1
176
     0
 40
1.0
176
     0
 90
        8
176
     2
 62
     7
176
     0
 40
1.0
176
     0
 90
        1
176
     0
 90
        6
176
     0
 90
        2
176
     0
 62
     7
176
     0
 90
        5
176
     0
 90
        0
176
     0
 90
        0
176
     0
290
     0
176
     0
 90
        1
176
     0
 40
0.0
176
     0
 90
        0
176
     0
290
     0
176
     1
290
     1
176
     1
290
     1
176
     1
290
     0
176
     1
290
     0
176
     1
290
     0
176
     1
290
     0
176
     1
290
     0
176
     1
290
     0
176
     1
 90
       50
176
     1
 40
0.0
176
     1
 40
1.0
176
     1
 90
        0
176
     1
 62
    18
420
        0
176
     1
 90
       50
176
     1
 90
        3
176
     1
 62
     5
420
      255
176
     1
290
     0
176
     1
 90
       50
176
     1
 90
       50
176
     1
 90
       50
176
     1
290
     0
176
     1
 90
       50
176
     1
 62
   256
176
     0
 40
1.0
176
     0
 90
        2
176
     1
  1
strokes_ogs.tif
176
     1
290
     0
176
     1
 40
1.0
176
     1
 40
1.0
176
     1
  0
VISUALSTYLE
  5
39
102
{ACAD_REACTORS
330
2A
102
}
330
2A
100
AcDbVisualStyle
  2
Facepattern
 70
    15
177
     3
291
     1
 70
    58
 90
        2
176
     1
 90
        2
176
     1
 90
        0
176
     1
 90
        0
176
     1
 40
0.6
176
     1
 40
30.0
176
     1
 62
     7
420
 16777215
176
     1
 90
        1
176
     1
 90
        4
176
     1
 62
     7
176
     1
 62
   257
176
     1
 90
        1
176
     1
 90
        1
176
     1
 40
1.0
176
     1
 90
        8
176
     1
 62
     7
176
     1
 40
1.0
176
     1
 90
        1
176
     1
 90
        6
176
     1
 90
        2
176
     1
 62
     7
176
     1
 90
        5
176
     1
 90
        0
176
     1
 90
        0
176
     1
290
     0
176
     1
 90
        1
176
     1
 40
0.0
176
     1
 90
        0
176
     1
290
     0
176
     1
290
     1
176
     1
290
     1
176
     1
290
     0
176
     1
290
     0
176
     1
290
     0
176
     1
290
     0
176
     1
290
     0
176
     1
290
     0
176
     1
 90
       50
176
     1
 40
0.0
176
     1
 40
1.0
176
     1
 90
        0
176
     1
 62
    18
420
        0
176
     1
 90
       50
176
     1
 90
        3
176
     1
 62
     5
420
      255
176
     1
290
     0
176
     1
 90
       50
176
     1
 90
       50
176
     1
 90
       50
176
     1
290
     0
176
     1
 90
       50
176
     1
 62
   256
176
     0
 40
1.0
176
     0
 90
        2
176
     1
  1
strokes_ogs.tif
176
     1
290
     0
176
     1
 40
1.0
176
     1
 40
1.0
176
     1
  0
VISUALSTYLE
  5
2B
102
{ACAD_REACTORS
330
2A
102
}
330
2A
100
AcDbVisualStyle
  2
Flat
 70
     0
177
     3
291
     1
 70
    58
 90
        2
176
     1
 90
        1
176
     1
 90
        1
176
     1
 90
        2
176
     1
 40
0.6
176
     1
 40
30.0
176
     1
 62
     7
420
 16777215
176
     1
 90
        0
176
     1
 90
        4
176
     1
 62
     7
176
     1
 62
   257
176
     1
 90
        1
176
     1
 90
        1
176
     1
 40
1.0
176
     1
 90
        8
176
     1
 62
     7
176
     1
 40
1.0
176
     1
 90
        1
176
     1
 90
        6
176
     1
 90
        2
176
     1
 62
     7
176
     1
 90
        5
176
     1
 90
        0
176
     1
 90
        0
176
     1
290
     0
176
     1
 90
       13
176
     1
 40
0.0
176
     1
 90
        0
176
     1
290
     0
176
     1
290
     1
176
     1
290
     1
176
     1
290
     0
176
     1
290
     0
176
     1
290
     0
176
     1
290
     0
176
     1
290
     0
176
     1
290
     0
176
     1
 90
       50
176
     1
 40
0.0
176
     1
 40
1.0
176
     1
 90
        0
176
     1
 62
    18
420
        0
176
     1
 90
       50
176
     1
 90
        3
176
     1
 62
     5
420
      255
176
     1
290
     0
176
     1
 90
       50
176
     1
 90
       50
176
     1
 90
       50
176
     1
290
     0
176
     1
 90
       50
176
     1
 62
   256
176
     0
 40
1.0
176
     0
 90
        2
176
     1
  1
strokes_ogs.tif
176
     1
290
     0
176
     1
 40
1.0
176
     1
 40
1.0
176
     1
  0
VISUALSTYLE
  5
2C
102
{ACAD_REACTORS
330
2A
102
}
330
2A
100
AcDbVisualStyle
  2
FlatWithEdges
 70
     1
177
     3
291
     1
 70
    58
 90
        2
176
     1
 90
        1
176
     1
 90
        1
176
     1
 90
        2
176
     1
 40
0.6
176
     1
 40
30.0
176
     1
 62
     7
420
 16777215
176
     1
 90
        1
176
     1
 90
        4
176
     1
 62
     7
176
     1
 62
   257
176
     1
 90
        1
176
     1
 90
        1
176
     1
 40
1.0
176
     1
 90
        0
176
     1
 62
   257
176
     1
 40
1.0
176
     1
 90
        1
176
     1
 90
        6
176
     1
 90
        2
176
     1
 62
     7
176
     1
 90
        5
176
     1
 90
        0
176
     1
 90
        0
176
     1
290
     0
176
     1
 90
       13
176
     1
 40
0.0
176
     1
 90
        0
176
     1
290
     0
176
     1
290
     1
176
     1
290
     1
176
     1
290
     0
176
     1
290
     0
176
     1
290
     0
176
     1
290
     0
176
     1
290
     0
176
     1
290
     0
176
     1
 90
       50
176
     1
 40
0.0
176
     1
 40
1.0
176
     1
 90
        0
176
     1
 62
    18
420
        0
176
     1
 90
       50
176
     1
 90
        3
176
     1
 62
     5
420
      255
176
     1
290
     0
176
     1
 90
       50
176
     1
 90
       50
176
     1
 90
       50
176
     1
290
     0
176
     1
 90
       50
176
     1
 62
   256
176
     0
 40
1.0
176
     0
 90
        2
176
     1
  1
strokes_ogs.tif
176
     1
290
     0
176
     1
 40
1.0
176
     1
 40
1.0
176
     1
  0
VISUALSTYLE
  5
2D
102
{ACAD_REACTORS
330
2A
102
}
330
2A
100
AcDbVisualStyle
  2
Gouraud
 70
     2
177
     3
291
     1
 70
    58
 90
        2
176
     1
 90
        2
176
     1
 90
        1
176
     1
 90
        2
176
     1
 40
0.6
176
     1
 40
30.0
176
     1
 62
     7
420
 16777215
176
     1
 90
        0
176
     1
 90
        4
176
     1
 62
     7
176
     1
 62
   257
176
     1
 90
        1
176
     1
 90
        1
176
     1
 40
1.0
176
     1
 90
        0
176
     1
 62
     7
176
     1
 40
1.0
176
     1
 90
        1
176
     1
 90
        6
176
     1
 90
        2
176
     1
 62
     7
176
     1
 90
        5
176
     1
 90
        0
176
     1
 90
        0
176
     1
290
     0
176
     1
 90
       13
176
     1
 40
0.0
176
     1
 90
        0
176
     1
290
     0
176
     1
290
     1
176
     1
290
     1
176
     1
290
     0
176
     1
290
     0
176
     1
290
     0
176
     1
290
     0
176
     1
290
     0
176
     1
290
     0
176
     1
 90
       50
176
     1
 40
0.0
176
     1
 40
1.0
176
     1
 90
        0
176
     1
 62
    18
420
        0
176
     1
 90
       50
176
     1
 90
        3
176
     1
 62
     5
420
      255
176
     1
290
     0
176
     1
 90
       50
176
     1
 90
       50
176
     1
 90
       50
176
     1
290
     0
176
     1
 90
       50
176
     1
 62
   256
176
     0
 40
1.0
176
     0
 90
        2
176
     1
  1
strokes_ogs.tif
176
     1
290
     0
176
     1
 40
1.0
176
     1
 40
1.0
176
     1
  0
VISUALSTYLE
  5
2E
102
{ACAD_REACTORS
330
2A
102
}
330
2A
100
AcDbVisualStyle
  2
GouraudWithEdges
 70
     3
177
     3
291
     1
 70
    58
 90
        2
176
     1
 90
        2
176
     1
 90
        1
176
     1
 90
        2
176
     1
 40
0.6
176
     1
 40
30.0
176
     1
 62
     7
420
 16777215
176
     1
 90
        1
176
     1
 90
        4
176
     1
 62
     7
176
     1
 62
   257
176
     1
 90
        1
176
     1
 90
        1
176
     1
 40
1.0
176
     1
 90
        0
176
     1
 62
   257
176
     1
 40
1.0
176
     1
 90
        1
176
     1
 90
        6
176
     1
 90
        2
176
     1
 62
     7
176
     1
 90
        5
176
     1
 90
        0
176
     1
 90
        0
176
     1
290
     0
176
     1
 90
       13
176
     1
 40
0.0
176
     1
 90
        0
176
     1
290
     0
176
     1
290
     1
176
     1
290
     1
176
     1
290
     0
176
     1
290
     0
176
     1
290
     0
176
     1
290
     0
176
     1
290
     0
176
     1
290
     0
176
     1
 90
       50
176
     1
 40
0.0
176
     1
 40
1.0
176
     1
 90
        0
176
     1
 62
    18
420
        0
176
     1
 90
       50
176
     1
 90
        3
176
     1
 62
     5
420
      255
176
     1
290
     0
176
     1
 90
       50
176
     1
 90
       50
176
     1
 90
       50
176
     1
290
     0
176
     1
 90
       50
176
     1
 62
   256
176
     0
 40
1.0
176
     0
 90
        2
176
     1
  1
strokes_ogs.tif
176
     1
290
     0
176
     1
 40
1.0
176
     1
 40
1.0
176
     1
  0
VISUALSTYLE
  5
2CE
102
{ACAD_REACTORS
330
2A
102
}
330
2A
100
AcDbVisualStyle
  2
Hidden
 70
     6
177
     3
291
     0
 70
    58
 90
        1
176
     1
 90
        2
176
     1
 90
        2
176
     1
 90
        0
176
     1
 40
0.6
176
     1
 40
30.0
176
     1
 62
     7
420
 16777215
176
     1
 90
        2
176
     1
 90
        2
176
     1
 62
     7
176
     1
 62
   257
176
     1
 90
        2
176
     1
 90
        1
176
     1
 40
40.0
176
     1
 90
        0
176
     1
 62
   257
176
     1
 40
1.0
176
     1
 90
        1
176
     1
 90
        6
176
     1
 90
        2
176
     1
 62
     7
176
     1
 90
        3
176
     1
 90
        0
176
     1
 90
        0
176
     1
290
     0
176
     1
 90
        1
176
     1
 40
0.0
176
     1
 90
        0
176
     1
290
     0
176
     1
290
     1
176
     1
290
     1
176
     1
290
     0
176
     1
290
     0
176
     1
290
     0
176
     1
290
     0
176
     1
290
     0
176
     1
290
     0
176
     1
 90
       50
176
     1
 40
0.0
176
     1
 40
1.0
176
     1
 90
        0
176
     1
 62
    18
420
        0
176
     1
 90
       50
176
     1
 90
        3
176
     1
 62
     5
420
      255
176
     1
290
     0
176
     1
 90
       50
176
     1
 90
       50
176
     1
 90
       50
176
     1
290
     0
176
     1
 90
       50
176
     1
 62
   256
176
     0
 40
1.0
176
     0
 90
        2
176
     1
  1
strokes_ogs.tif
176
     1
290
     0
176
     1
 40
1.0
176
     1
 40
1.0
176
     1
  0
VISUALSTYLE
  5
134
102
{ACAD_REACTORS
330
2A
102
}
330
2A
100
AcDbVisualStyle
  2
JitterOff
 70
    20
177
     3
291
     1
 70
    58
 90
        2
176
     0
 90
        2
176
     0
 90
        0
176
     0
 90
        0
176
     0
 40
0.6
176
     0
 40
30.0
176
     0
 62
     7
420
 16777215
176
     0
 90
        1
176
     0
 90
        4
176
     0
 62
     7
176
     0
 62
   257
176
     0
 90
        1
176
     0
 90
        1
176
     0
 40
1.0
176
     0
 90
       10
176
     2
 62
     7
176
     0
 40
1.0
176
     0
 90
        1
176
     0
 90
        6
176
     0
 90
        2
176
     0
 62
     7
176
     0
 90
        5
176
     0
 90
        0
176
     0
 90
        0
176
     0
290
     0
176
     0
 90
        1
176
     0
 40
0.0
176
     0
 90
        0
176
     0
290
     0
176
     1
290
     1
176
     1
290
     1
176
     1
290
     0
176
     1
290
     0
176
     1
290
     0
176
     1
290
     0
176
     1
290
     0
176
     1
290
     0
176
     1
 90
       50
176
     1
 40
0.0
176
     1
 40
1.0
176
     1
 90
        0
176
     1
 62
    18
420
        0
176
     1
 90
       50
176
     1
 90
        3
176
     1
 62
     5
420
      255
176
     1
290
     0
176
     1
 90
       50
176
     1
 90
       50
176
     1
 90
       50
176
     1
290
     0
176
     1
 90
       50
176
     1
 62
   256
176
     0
 40
1.0
176
     0
 90
        2
176
     1
  1
strokes_ogs.tif
176
     1
290
     0
176
     1
 40
1.0
176
     1
 40
1.0
176
     1
  0
VISUALSTYLE
  5
38
102
{ACAD_REACTORS
330
2A
102
}
330
2A
100
AcDbVisualStyle
  2
Linepattern
 70
    14
177
     3
291
     1
 70
    58
 90
        2
176
     1
 90
        2
176
     1
 90
        0
176
     1
 90
        0
176
     1
 40
0.6
176
     1
 40
30.0
176
     1
 62
     7
420
 16777215
176
     1
 90
        1
176
     1
 90
        4
176
     1
 62
     7
176
     1
 62
   257
176
     1
 90
        7
176
     1
 90
        7
176
     1
 40
1.0
176
     1
 90
        8
176
     1
 62
     7
176
     1
 40
1.0
176
     1
 90
        1
176
     1
 90
        6
176
     1
 90
        2
176
     1
 62
     7
176
     1
 90
        5
176
     1
 90
        0
176
     1
 90
        0
176
     1
290
     0
176
     1
 90
        1
176
     1
 40
0.0
176
     1
 90
        0
176
     1
290
     0
176
     1
290
     1
176
     1
290
     1
176
     1
290
     0
176
     1
290
     0
176
     1
290
     0
176
     1
290
     0
176
     1
290
     0
176
     1
290
     0
176
     1
 90
       50
176
     1
 40
0.0
176
     1
 40
1.0
176
     1
 90
        0
176
     1
 62
    18
420
        0
176
     1
 90
       50
176
     1
 90
        3
176
     1
 62
     5
420
      255
176
     1
290
     0
176
     1
 90
       50
176
     1
 90
       50
176
     1
 90
       50
176
     1
290
     0
176
     1
 90
       50
176
     1
 62
   256
176
     0
 40
1.0
176
     0
 90
        2
176
     1
  1
strokes_ogs.tif
176
     1
290
     0
176
     1
 40
1.0
176
     1
 40
1.0
176
     1
  0
VISUALSTYLE
  5
135
102
{ACAD_REACTORS
330
2A
102
}
330
2A
100
AcDbVisualStyle
  2
OverhangOff
 70
    21
177
     3
291
     1
 70
    58
 90
        2
176
     0
 90
        2
176
     0
 90
        0
176
     0
 90
        0
176
     0
 40
0.6
176
     0
 40
30.0
176
     0
 62
     7
420
 16777215
176
     0
 90
        1
176
     0
 90
        4
176
     0
 62
     7
176
     0
 62
   257
176
     0
 90
        1
176
     0
 90
        1
176
     0
 40
1.0
176
     0
 90
        9
176
     2
 62
     7
176
     0
 40
1.0
176
     0
 90
        1
176
     0
 90
        6
176
     0
 90
        2
176
     0
 62
     7
176
     0
 90
        5
176
     0
 90
        0
176
     0
 90
        0
176
     0
290
     0
176
     0
 90
        1
176
     0
 40
0.0
176
     0
 90
        0
176
     0
290
     0
176
     1
290
     1
176
     1
290
     1
176
     1
290
     0
176
     1
290
     0
176
     1
290
     0
176
     1
290
     0
176
     1
290
     0
176
     1
290
     0
176
     1
 90
       50
176
     1
 40
0.0
176
     1
 40
1.0
176
     1
 90
        0
176
     1
 62
    18
420
        0
176
     1
 90
       50
176
     1
 90
        3
176
     1
 62
     5
420
      255
176
     1
290
     0
176
     1
 90
       50
176
     1
 90
       50
176
     1
 90
       50
176
     1
290
     0
176
     1
 90
       50
176
     1
 62
   256
176
     0
 40
1.0
176
     0
 90
        2
176
     1
  1
strokes_ogs.tif
176
     1
290
     0
176
     1
 40
1.0
176
     1
 40
1.0
176
     1
  0
VISUALSTYLE
  5
33
102
{ACAD_REACTORS
330
2A
102
}
330
2A
100
AcDbVisualStyle
  2
Realistic
 70
     8
177
     3
291
     0
 70
    58
 90
        2
176
     1
 90
        2
176
     1
 90
        0
176
     1
 90
        0
176
     1
 40
0.6
176
     1
 40
30.0
176
     1
 62
     7
420
 16777215
176
     1
 90
        1
176
     1
 90
        0
176
     1
 62
     7
176
     1
 62
   257
176
     1
 90
        1
176
     1
 90
        1
176
     1
 40
1.0
176
     1
 90
        8
176
     1
 62
     8
420
  7895160
176
     1
 40
1.0
176
     1
 90
        1
176
     1
 90
        6
176
     1
 90
        2
176
     1
 62
     7
176
     1
 90
        5
176
     1
 90
        0
176
     1
 90
        0
176
     1
290
     0
176
     1
 90
       13
176
     1
 40
0.0
176
     1
 90
        0
176
     1
290
     0
176
     1
290
     1
176
     1
290
     1
176
     1
290
     0
176
     1
290
     0
176
     1
290
     0
176
     1
290
     0
176
     1
290
     0
176
     1
290
     0
176
     1
 90
       50
176
     1
 40
0.0
176
     1
 40
1.0
176
     1
 90
        0
176
     1
 62
    18
420
        0
176
     1
 90
       50
176
     1
 90
        3
176
     1
 62
     5
420
      255
176
     1
290
     0
176
     1
 90
       50
176
     1
 90
       50
176
     1
 90
       50
176
     1
290
     0
176
     1
 90
       50
176
     1
 62
   256
176
     0
 40
1.0
176
     0
 90
        2
176
     1
  1
strokes_ogs.tif
176
     1
290
     0
176
     1
 40
1.0
176
     1
 40
1.0
176
     1
  0
VISUALSTYLE
  5
2D3
102
{ACAD_REACTORS
330
2A
102
}
330
2A
100
AcDbVisualStyle
  2
Shaded
 70
    27
177
     3
291
     0
 70
    58
 90
        2
176
     1
 90
        2
176
     1
 90
        1
176
     1
 90
        2
176
     1
 40
0.6
176
     1
 40
30.0
176
     1
 62
     7
420
 16777215
176
     1
 90
        0
176
     1
 90
        4
176
     1
 62
     7
176
     1
 62
   257
176
     1
 90
        1
176
     1
 90
        1
176
     1
 40
1.0
176
     1
 90
        8
176
     1
 62
   257
176
     1
 40
1.0
176
     1
 90
        1
176
     1
 90
        6
176
     1
 90
        2
176
     1
 62
     8
420
  7895160
176
     1
 90
        3
176
     1
 90
        0
176
     1
 90
        0
176
     1
290
     0
176
     1
 90
        5
176
     1
 40
0.0
176
     1
 90
        0
176
     1
290
     0
176
     1
290
     1
176
     1
290
     1
176
     1
290
     0
176
     1
290
     0
176
     1
290
     0
176
     1
290
     0
176
     1
290
     0
176
     1
290
     0
176
     1
 90
       50
176
     1
 40
0.0
176
     1
 40
1.0
176
     1
 90
        0
176
     1
 62
    18
420
        0
176
     1
 90
       50
176
     1
 90
        3
176
     1
 62
     5
420
      255
176
     1
290
     0
176
     1
 90
       50
176
     1
 90
       50
176
     1
 90
       50
176
     1
290
     0
176
     1
 90
       50
176
     1
 62
   256
176
     0
 40
1.0
176
     0
 90
        2
176
     1
  1
strokes_ogs.tif
176
     1
290
     0
176
     1
 40
1.0
176
     1
 40
1.0
176
     1
  0
VISUALSTYLE
  5
2D2
102
{ACAD_REACTORS
330
2A
102
}
330
2A
100
AcDbVisualStyle
  2
Shaded with edges
 70
    26
177
     3
291
     0
 70
    58
 90
        2
176
     1
 90
        2
176
     1
 90
        1
176
     1
 90
        2
176
     1
 40
0.6
176
     1
 40
30.0
176
     1
 62
     7
420
 16777215
176
     1
 90
        1
176
     1
 90
        2
176
     1
 62
     7
176
     1
 62
   257
176
     1
 90
        2
176
     1
 90
        1
176
     1
 40
1.0
176
     1
 90
        8
176
     1
 62
   257
176
     1
 40
1.0
176
     1
 90
        1
176
     1
 90
        6
176
     1
 90
        2
176
     1
 62
     7
176
     1
 90
        3
176
     1
 90
        0
176
     1
 90
        0
176
     1
290
     0
176
     1
 90
        5
176
     1
 40
0.0
176
     1
 90
        0
176
     1
290
     0
176
     1
290
     1
176
     1
290
     1
176
     1
290
     0
176
     1
290
     0
176
     1
290
     0
176
     1
290
     0
176
     1
290
     0
176
     1
290
     0
176
     1
 90
       50
176
     1
 40
0.0
176
     1
 40
1.0
176
     1
 90
        0
176
     1
 62
    18
420
        0
176
     1
 90
       50
176
     1
 90
        3
176
     1
 62
     5
420
      255
176
     1
290
     0
176
     1
 90
       50
176
     1
 90
       50
176
     1
 90
       50
176
     1
290
     0
176
     1
 90
       50
176
     1
 62
   256
176
     0
 40
1.0
176
     0
 90
        2
176
     1
  1
strokes_ogs.tif
176
     1
290
     0
176
     1
 40
1.0
176
     1
 40
1.0
176
     1
  0
VISUALSTYLE
  5
2CF
102
{ACAD_REACTORS
330
2A
102
}
330
2A
100
AcDbVisualStyle
  2
Shades of Gray
 70
    23
177
     3
291
     0
 70
    58
 90
        2
176
     1
 90
        2
176
     1
 90
        3
176
     1
 90
        0
176
     1
 40
0.6
176
     1
 40
30.0
176
     1
 62
     7
420
 16777215
176
     1
 90
        2
176
     1
 90
        2
176
     1
 62
     7
176
     1
 62
     7
176
     1
 90
        1
176
     1
 90
        1
176
     1
 40
40.0
176
     1
 90
        8
176
     1
 62
     7
176
     1
 40
1.0
176
     1
 90
        1
176
     1
 90
        6
176
     1
 90
        2
176
     1
 62
     7
176
     1
 90
        3
176
     1
 90
        0
176
     1
 90
        0
176
     1
290
     0
176
     1
 90
        1
176
     1
 40
0.0
176
     1
 90
        0
176
     1
290
     0
176
     1
290
     1
176
     1
290
     1
176
     1
290
     0
176
     1
290
     0
176
     1
290
     0
176
     1
290
     0
176
     1
290
     0
176
     1
290
     0
176
     1
 90
       50
176
     1
 40
0.0
176
     1
 40
1.0
176
     1
 90
        0
176
     1
 62
    18
420
        0
176
     1
 90
       50
176
     1
 90
        3
176
     1
 62
     5
420
      255
176
     1
290
     0
176
     1
 90
       50
176
     1
 90
       50
176
     1
 90
       50
176
     1
290
     0
176
     1
 90
       50
176
     1
 62
   256
176
     0
 40
1.0
176
     0
 90
        2
176
     1
  1
strokes_ogs.tif
176
     1
290
     0
176
     1
 40
1.0
176
     1
 40
1.0
176
     1
  0
VISUALSTYLE
  5
2D0
102
{ACAD_REACTORS
330
2A
102
}
330
2A
100
AcDbVisualStyle
  2
Sketchy
 70
    24
177
     3
291
     0
 70
    58
 90
        1
176
     1
 90
        2
176
     1
 90
        2
176
     1
 90
        0
176
     1
 40
0.6
176
     1
 40
30.0
176
     1
 62
     7
420
 16777215
176
     1
 90
        2
176
     1
 90
        2
176
     1
 62
     7
176
     1
 62
     7
176
     1
 90
        1
176
     1
 90
        1
176
     1
 40
40.0
176
     1
 90
       11
176
     1
 62
     7
176
     1
 40
1.0
176
     1
 90
        1
176
     1
 90
        6
176
     1
 90
        2
176
     1
 62
     7
176
     1
 90
        6
176
     1
 90
        0
176
     1
 90
        0
176
     1
290
     0
176
     1
 90
        1
176
     1
 40
0.0
176
     1
 90
        0
176
     1
290
     0
176
     1
290
     1
176
     1
290
     1
176
     1
290
     0
176
     1
290
     0
176
     1
290
     0
176
     1
290
     0
176
     1
290
     0
176
     1
290
     0
176
     1
 90
       50
176
     1
 40
0.0
176
     1
 40
1.0
176
     1
 90
        0
176
     1
 62
    18
420
        0
176
     1
 90
       50
176
     1
 90
        3
176
     1
 62
     5
420
      255
176
     1
290
     0
176
     1
 90
       50
176
     1
 90
       50
176
     1
 90
       50
176
     1
290
     0
176
     1
 90
       50
176
     1
 62
   256
176
     0
 40
1.0
176
     0
 90
        2
176
     1
  1
strokes_ogs.tif
176
     1
290
     0
176
     1
 40
1.0
176
     1
 40
1.0
176
     1
  0
VISUALSTYLE
  5
37
102
{ACAD_REACTORS
330
2A
102
}
330
2A
100
AcDbVisualStyle
  2
Thicken
 70
    13
177
     3
291
     1
 70
    58
 90
        2
176
     1
 90
        2
176
     1
 90
        0
176
     1
 90
        0
176
     1
 40
0.6
176
     1
 40
30.0
176
     1
 62
     7
420
 16777215
176
     1
 90
        1
176
     1
 90
        4
176
     1
 62
     7
176
     1
 62
   257
176
     1
 90
        1
176
     1
 90
        1
176
     1
 40
1.0
176
     1
 90
       12
176
     1
 62
     7
176
     1
 40
1.0
176
     1
 90
        1
176
     1
 90
        6
176
     1
 90
        2
176
     1
 62
     7
176
     1
 90
        5
176
     1
 90
        0
176
     1
 90
        0
176
     1
290
     0
176
     1
 90
        1
176
     1
 40
0.0
176
     1
 90
        0
176
     1
290
     0
176
     1
290
     1
176
     1
290
     1
176
     1
290
     0
176
     1
290
     0
176
     1
290
     0
176
     1
290
     0
176
     1
290
     0
176
     1
290
     0
176
     1
 90
       50
176
     1
 40
0.0
176
     1
 40
1.0
176
     1
 90
        0
176
     1
 62
    18
420
        0
176
     1
 90
       50
176
     1
 90
        3
176
     1
 62
     5
420
      255
176
     1
290
     0
176
     1
 90
       50
176
     1
 90
       50
176
     1
 90
       50
176
     1
290
     0
176
     1
 90
       50
176
     1
 62
   256
176
     0
 40
1.0
176
     0
 90
        2
176
     1
  1
strokes_ogs.tif
176
     1
290
     0
176
     1
 40
1.0
176
     1
 40
1.0
176
     1
  0
VISUALSTYLE
  5
2CD
102
{ACAD_REACTORS
330
2A
102
}
330
2A
100
AcDbVisualStyle
  2
Wireframe
 70
     5
177
     3
291
     0
 70
    58
 90
        0
176
     1
 90
        2
176
     1
 90
        0
176
     1
 90
        0
176
     1
 40
0.6
176
     1
 40
30.0
176
     1
 62
     7
420
 16777215
176
     1
 90
        1
176
     1
 90
        4
176
     1
 62
     7
176
     1
 62
   257
176
     1
 90
        1
176
     1
 90
        1
176
     1
 40
1.0
176
     1
 90
        0
176
     1
 62
   257
176
     1
 40
1.0
176
     1
 90
        1
176
     1
 90
        6
176
     1
 90
        2
176
     1
 62
     7
176
     1
 90
        3
176
     1
 90
        0
176
     1
 90
        0
176
     1
290
     0
176
     1
 90
        1
176
     1
 40
0.0
176
     1
 90
        0
176
     1
290
     0
176
     1
290
     1
176
     1
290
     1
176
     1
290
     0
176
     1
290
     0
176
     1
290
     0
176
     1
290
     0
176
     1
290
     0
176
     1
290
     0
176
     1
 90
       50
176
     1
 40
0.0
176
     1
 40
1.0
176
     1
 90
        0
176
     1
 62
    18
420
        0
176
     1
 90
       50
176
     1
 90
        3
176
     1
 62
     5
420
      255
176
     1
290
     0
176
     1
 90
       50
176
     1
 90
       50
176
     1
 90
       50
176
     1
290
     0
176
     1
 90
       50
176
     1
 62
   256
176
     0
 40
1.0
176
     0
 90
        2
176
     1
  1
strokes_ogs.tif
176
     1
290
     0
176
     1
 40
1.0
176
     1
 40
1.0
176
     1
  0
VISUALSTYLE
  5
2D1
102
{ACAD_REACTORS
330
2A
102
}
330
2A
100
AcDbVisualStyle
  2
X-Ray
 70
    25
177
     3
291
     0
 70
    58
 90
        2
176
     1
 90
        2
176
     1
 90
        1
176
     1
 90
        1
176
     1
 40
0.5
176
     1
 40
30.0
176
     1
 62
     7
420
 16777215
176
     1
 90
        1
176
     1
 90
        0
176
     1
 62
     7
176
     1
 62
   257
176
     1
 90
        1
176
     1
 90
        1
176
     1
 40
1.0
176
     1
 90
        8
176
     1
 62
     7
176
     1
 40
1.0
176
     1
 90
        1
176
     1
 90
        6
176
     1
 90
        2
176
     1
 62
     7
176
     1
 90
        3
176
     1
 90
        0
176
     1
 90
        0
176
     1
290
     0
176
     1
 90
       13
176
     1
 40
0.0
176
     1
 90
        0
176
     1
290
     0
176
     1
290
     1
176
     1
290
     1
176
     1
290
     0
176
     1
290
     0
176
     1
290
     0
176
     1
290
     0
176
     1
290
     0
176
     1
290
     0
176
     1
 90
       50
176
     1
 40
0.0
176
     1
 40
1.0
176
     1
 90
        0
176
     1
 62
    18
420
        0
176
     1
 90
       50
176
     1
 90
        3
176
     1
 62
     5
420
      255
176
     1
290
     0
176
     1
 90
       50
176
     1
 90
       50
176
     1
 90
       50
176
     1
290
     0
176
     1
 90
       50
176
     1
 62
   256
176
     0
 40
1.0
176
     0
 90
        2
176
     1
  1
strokes_ogs.tif
176
     1
290
     0
176
     1
 40
1.0
176
     1
 40
1.0
176
     1
  0
DICTIONARYVAR
  5
213
102
{ACAD_REACTORS
330
20F
102
}
330
20F
100
DictionaryVariables
280
     0
  1
1:1
  0
DICTIONARYVAR
  5
211
102
{ACAD_REACTORS
330
20F
102
}
330
20F
100
DictionaryVariables
280
     0
  1
STANDARD
  0
DICTIONARYVAR
  5
210
102
{ACAD_REACTORS
330
20F
102
}
330
20F
100
DictionaryVariables
280
     0
  1
STANDARD
  0
DICTIONARYVAR
  5
32E
102
{ACAD_REACTORS
330
20F
102
}
330
20F
100
DictionaryVariables
280
     0
  1
Imperial24
  0
DICTIONARYVAR
  5
32F
102
{ACAD_REACTORS
330
20F
102
}
330
20F
100
DictionaryVariables
280
     0
  1
Imperial24
  0
DICTIONARYVAR
  5
215
102
{ACAD_REACTORS
330
20F
102
}
330
20F
100
DictionaryVariables
280
     0
  1
1
  0
DICTIONARYVAR
  5
216
102
{ACAD_REACTORS
330
20F
102
}
330
20F
100
DictionaryVariables
280
     0
  1
15
  0
DICTIONARYVAR
  5
214
102
{ACAD_REACTORS
330
20F
102
}
330
20F
100
DictionaryVariables
280
     0
  1
0
  0
DICTIONARYVAR
  5
212
102
{ACAD_REACTORS
330
20F
102
}
330
20F
100
DictionaryVariables
280
     0
  1
0
  0
ACAD_PROXY_OBJECT
  5
1BC
102
{ACAD_REACTORS
330
1BB
102
}
330
1BB
100
AcDbProxyObject
 90
      499
 91
      546
 71
    29
 97
      226
 70
     0
162
                 0
161
                84
310
90100057356C1DB7406AAC
 94
        0
  0
DICTIONARY
  5
1C7
102
{ACAD_REACTORS
330
1BB
102
}
330
1BB
100
AcDbDictionary
281
     1
  3
ANSI
350
1C8
  0
ACAD_PROXY_OBJECT
  5
16B
330
0
100
AcDbProxyObject
 90
      499
 91
      511
 71
    29
 97
      226
 70
     0
162
               234
311
43904010C01340114014C016401340108013C0130014C01240168011400C
161
                34
310
000101420C
330
168
 94
        0
  0
ACAD_PROXY_OBJECT
  5
16D
330
0
100
AcDbProxyObject
 90
      499
 91
      513
 71
    29
 97
      226
 70
     0
162
                74
311
41108013C013400C400C
161
                46
310
00010100AC00
330
168
330
0
330
0
 94
        0
  0
ACAD_PROXY_OBJECT
  5
171
330
0
100
AcDbProxyObject
 90
      499
 91
      517
 71
    29
 97
      226
 70
     0
162
               562
311
41190018401D001940109310034002E0030002E00340038002E00300041190018401D001940109310034002E0030002E00340038002E003000419040138014C012400CC00C400C
161
                92
310
00010101010140501000096C
330
168
330
172
330
178
 94
        0
  0
ACAD_PROXY_OBJECT
  5
172
330
0
100
AcDbProxyObject
 90
      499
 91
      518
 71
    29
 97
      226
 70
     0
162
                 0
161
                56
310
0001902422000000
330
168
330
173
330
175
 94
        0
  0
ACAD_PROXY_OBJECT
  5
173
330
0
100
AcDbProxyObject
 90
      499
 91
      519
 71
    29
 97
      226
 70
     0
162
                 0
161
                48
310
0001AA0000000B
330
168
330
1E
330
174
330
0
 94
        0
  0
ACAD_PROXY_OBJECT
  5
174
330
0
100
AcDbProxyObject
 90
      499
 91
      520
 71
    29
 97
      226
 70
     0
162
                 0
161
                28
310
0001AAAC
330
168
 94
        0
  0
ACAD_PROXY_OBJECT
  5
175
330
0
100
AcDbProxyObject
 90
      499
 91
      519
 71
    29
 97
      226
 70
     0
162
                 0
161
                48
310
0001AA00000037
330
168
330
26
330
176
330
0
 94
        0
  0
ACAD_PROXY_OBJECT
  5
176
330
0
100
AcDbProxyObject
 90
      499
 91
      520
 71
    29
 97
      226
 70
     0
162
                 0
161
                28
310
0001AAAC
330
168
 94
        0
  0
ACAD_PROXY_OBJECT
  5
179
330
0
100
AcDbProxyObject
 90
      499
 91
      511
 71
    29
 97
      226
 70
     0
162
               138
311
42104013401200130010C01040130010C00C
161
                34
310
000101404C
330
168
 94
        0
  0
ACAD_PROXY_OBJECT
  5
17A
330
0
100
AcDbProxyObject
 90
      499
 91
      511
 71
    29
 97
      226
 70
     0
162
               170
311
429040134014801140154014C011401100124013400C
161
                34
310
000101404C
330
168
 94
        0
  0
ACAD_PROXY_OBJECT
  5
17B
330
0
100
AcDbProxyObject
 90
      499
 91
      511
 71
    29
 97
      226
 70
     0
162
               202
311
431040134014C0114010C01500124013C013801100124013400C
161
                26
310
0001018C
330
168
 94
        0
  0
ACAD_PROXY_OBJECT
  5
17C
330
0
100
AcDbProxyObject
 90
      499
 91
      511
 71
    29
 97
      226
 70
     0
162
               170
311
429040134015801400108013C014801100114014800C
161
                34
310
000101404C
330
168
 94
        0
  0
ACAD_PROXY_OBJECT
  5
17D
330
0
100
AcDbProxyObject
 90
      499
 91
      511
 71
    29
 97
      226
 70
     0
162
               170
311
4290401340110015C011C010C013C0130013C014800C
161
                26
310
0001018C
330
168
 94
        0
  0
ACAD_PROXY_OBJECT
  5
17E
330
0
100
AcDbProxyObject
 90
      499
 91
      511
 71
    29
 97
      226
 70
     0
162
               218
311
435040134015801240114015C01480114011801480114014C012000C
161
                34
310
000101404C
330
168
 94
        0
  0
ACAD_PROXY_OBJECT
  5
17F
330
0
100
AcDbProxyObject
 90
      499
 91
      511
 71
    29
 97
      226
 70
     0
162
               266
311
441040134010401380138013C01500114014001480114014C011401480158011400C
161
                34
310
000101404C
330
168
 94
        0
  0
ACAD_PROXY_OBJECT
  5
180
330
0
100
AcDbProxyObject
 90
      499
 91
      511
 71
    29
 97
      226
 70
     0
162
               266
311
441040134010401540150013C01100124013401040148014801040138011C011400C
161
                34
310
000101404C
330
168
 94
        0
  0
ACAD_PROXY_OBJECT
  5
181
330
0
100
AcDbProxyObject
 90
      499
 91
      511
 71
    29
 97
      226
 70
     0
162
               186
311
42D04013401140160015001480114011801100124013400C
161
                26
310
0001018C
330
168
 94
        0
  0
ACAD_PROXY_OBJECT
  5
182
330
0
100
AcDbProxyObject
 90
      499
 91
      511
 71
    29
 97
      226
 70
     0
162
               186
311
42D040134015001040140010401380138013C0150011400C
161
                34
310
000101404C
330
168
 94
        0
  0
ACAD_PROXY_OBJECT
  5
183
330
0
100
AcDbProxyObject
 90
      499
 91
      511
 71
    29
 97
      226
 70
     0
162
               138
311
421040134010401540150013C010C013000C
161
                34
310
000101404C
330
168
 94
        0
  0
ACAD_PROXY_OBJECT
  5
184
330
0
100
AcDbProxyObject
 90
      499
 91
      511
 71
    29
 97
      226
 70
     0
162
               138
311
421040134010C0130011801140104015000C
161
                34
310
000101414C
330
168
 94
        0
  0
ACAD_PROXY_OBJECT
  5
185
330
0
100
AcDbProxyObject
 90
      499
 91
      511
 71
    29
 97
      226
 70
     0
162
               138
311
421040134010C0130015801240114015C00C
161
                34
310
0001014FCC
330
168
 94
        0
  0
ACAD_PROXY_OBJECT
  5
186
330
0
100
AcDbProxyObject
 90
      499
 91
      511
 71
    29
 97
      226
 70
     0
162
               218
311
4350401340120012401100114016801140148013C01100124013400C
161
                34
310
000101404C
330
168
 94
        0
  0
ACAD_PROXY_OBJECT
  5
187
330
0
100
AcDbProxyObject
 90
      499
 91
      511
 71
    29
 97
      226
 70
     0
162
               170
311
429040134012001040150010C01200124014C013C00C
161
                34
310
000101404C
330
168
 94
        0
  0
ACAD_PROXY_OBJECT
  5
188
330
0
100
AcDbProxyObject
 90
      499
 91
      511
 71
    29
 97
      226
 70
     0
162
               234
311
439040134014C01240138011C0130011401200104015001300104016400C
161
                26
310
0001018C
330
168
 94
        0
  0
ACAD_PROXY_OBJECT
  5
189
330
0
100
AcDbProxyObject
 90
      499
 91
      511
 71
    29
 97
      226
 70
     0
162
               186
311
42D0401340110015C011C0118013001100124014C014000C
161
                26
310
0001018C
330
168
 94
        0
  0
ACAD_PROXY_OBJECT
  5
18A
330
0
100
AcDbProxyObject
 90
      499
 91
      511
 71
    29
 97
      226
 70
     0
162
               138
311
421040134010401540150013C0120013800C
161
                26
310
0001018C
330
168
 94
        0
  0
ACAD_PROXY_OBJECT
  5
18B
330
0
100
AcDbProxyObject
 90
      499
 91
      511
 71
    29
 97
      226
 70
     0
162
               154
311
42504013401200138010C013C01540138015000C
161
                34
310
000101404C
330
168
 94
        0
  0
ACAD_PROXY_OBJECT
  5
18C
330
0
100
AcDbProxyObject
 90
      499
 91
      511
 71
    29
 97
      226
 70
     0
162
               138
311
4210401340120013801400148013C012800C
161
                34
310
000101404C
330
168
 94
        0
  0
ACAD_PROXY_OBJECT
  5
18D
330
0
100
AcDbProxyObject
 90
      499
 91
      511
 71
    29
 97
      226
 70
     0
162
               138
311
42104013401200138015001640140011400C
161
                34
310
00010141CC
330
168
 94
        0
  0
ACAD_PROXY_OBJECT
  5
18E
330
0
100
AcDbProxyObject
 90
      499
 91
      511
 71
    29
 97
      226
 70
     0
162
               138
311
42104013401200138015801240114015C00C
161
                34
310
00010143CC
330
168
 94
        0
  0
ACAD_PROXY_OBJECT
  5
18F
330
0
100
AcDbProxyObject
 90
      499
 91
      511
 71
    29
 97
      226
 70
     0
162
               218
311
435040134014C0114010C01500124013C0138010C013C0140016400C
161
                26
310
0001018C
330
168
 94
        0
  0
ACAD_PROXY_OBJECT
  5
190
330
0
100
AcDbProxyObject
 90
      499
 91
      511
 71
    29
 97
      226
 70
     0
162
               138
311
421040134010C013001400148013C012800C
161
                34
310
00010140CC
330
168
 94
        0
  0
ACAD_PROXY_OBJECT
  5
191
330
0
100
AcDbProxyObject
 90
      499
 91
      522
 71
    29
 97
      226
 70
     0
162
               234
311
439040134010401540150013C012001040150010C01200148013C015000C
161
                90
310
0001010000000000000B900C
330
168
 94
        0
  0
ACAD_PROXY_OBJECT
  5
192
330
0
100
AcDbProxyObject
 90
      499
 91
      511
 71
    29
 97
      226
 70
     0
162
               234
311
439040134010401540150013C012001040150010C012001100114015000C
161
                34
310
000101404C
330
168
 94
        0
  0
ACAD_PROXY_OBJECT
  5
1A1
330
0
100
AcDbProxyObject
 90
      499
 91
      531
 71
    29
 97
      226
 70
     0
162
               212
311
421040134010C01540148014C01500110010441004E0053004900C
161
                32
310
00010101FF
330
168
 94
        0
  0
ACAD_PROXY_OBJECT
  5
1A3
330
0
100
AcDbProxyObject
 90
      499
 91
      533
 71
    29
 97
      226
 70
     0
162
              1192
311
4795C019401900080012801D401B8008000C400E4008000C000CC00E800CC00DC00E800CC00D0008000C800C000C400CC008000A001540150010C00A40109310034002E0030002E00340038002E0030004615C019401900080012801D401B8008000C400E4008000C400CC00E800CC00E000E800C800C8008000C800C000C4
311
00CC0109310034002E0030002E00340038002E00300000
161
               114
310
0001000000009AA6A9AA404040404C
330
168
330
1A4
330
1A5
330
1A7
330
0
 94
        0
  0
ACAD_PROXY_OBJECT
  5
1A4
330
0
100
AcDbProxyObject
 90
      499
 91
      534
 71
    29
 97
      226
 70
     0
162
                 0
161
                70
310
0001AAA80820000000
330
168
330
1A4
330
1A4
 94
        0
  0
ACAD_PROXY_OBJECT
  5
1A5
330
0
100
AcDbProxyObject
 90
      499
 91
      535
 71
    29
 97
      226
 70
     0
162
                 0
161
                48
310
0001000000005B
330
168
330
0
330
1A6
330
0
330
0
 94
        0
  0
ACAD_PROXY_OBJECT
  5
1A6
330
0
100
AcDbProxyObject
 90
      499
 91
      536
 71
    29
 97
      226
 70
     0
162
                 0
161
                40
310
000100AAAA00
330
168
330
0
 94
        0
  0
ACAD_PROXY_OBJECT
  5
1AC
330
0
100
AcDbProxyObject
 90
      499
 91
      531
 71
    29
 97
      226
 70
     0
162
               276
311
431040104010C013C01340140011001180138010401340114010443004F004D005000C
161
                32
310
00010101FF
330
168
 94
        0
  0
ACAD_PROXY_OBJECT
  5
1AD
330
0
100
AcDbProxyObject
 90
      499
 91
      531
 71
    29
 97
      226
 70
     0
162
               340
311
4390401040118013C0130011001140148011001180138010401340114010646006F006C00640065007200C
161
                32
310
00010101FF
330
168
 94
        0
  0
ACAD_PROXY_OBJECT
  5
1AE
330
0
100
AcDbProxyObject
 90
      499
 91
      531
 71
    29
 97
      226
 70
     0
162
               260
311
431040104010401380138013C01100118013801040134011401035F0041005600C
161
                32
310
00010101FF
330
168
 94
        0
  0
ACAD_PROXY_OBJECT
  5
1AF
330
0
100
AcDbProxyObject
 90
      499
 91
      531
 71
    29
 97
      226
 70
     0
162
               756
311
439040104010C013C01340140015801240114015C01300124014C0150012054006F0070000A00460072006F006E0074000A00520069006700680074000A004C006500660074000A0042006F00740074006F006D000A004100750078003100C
161
                32
310
00010101FF
330
168
 94
        0
  0
ACAD_PROXY_OBJECT
  5
1B0
330
0
100
AcDbProxyObject
 90
      499
 91
      511
 71
    29
 97
      226
 70
     0
162
               234
311
439040134014C014C0150014801040130015C01040164014C013C013800C
161
                26
310
0001018C
330
168
 94
        0
  0
ACAD_PROXY_OBJECT
  5
1B5
330
0
100
AcDbProxyObject
 90
      499
 91
      541
 71
    29
 97
      226
 70
     0
162
                 0
161
                32
310
00010000FF
330
168
340
1B2
330
1B6
330
1B2
 94
        0
  0
ACAD_PROXY_OBJECT
  5
1B6
330
0
100
AcDbProxyObject
 90
      499
 91
      542
 71
    29
 97
      226
 70
     0
162
               186
311
42D28010401580124014C0080014801040138011C011400C
161
                80
310
0001014140155005540000
330
168
330
1B5
330
0
 94
        0
  0
ACAD_PROXY_OBJECT
  5
1B7
330
0
100
AcDbProxyObject
 90
      499
 91
      543
 71
    29
 97
      226
 70
     0
162
                 0
161
               178
310
000100AAAAAA9C3D17C1CA9F2913A57654F3FBB86F250C
330
168
330
1B6
 94
        0
  0
ACAD_PROXY_OBJECT
  5
1B8
330
0
100
AcDbProxyObject
 90
      499
 91
      544
 71
    29
 97
      226
 70
     0
162
                 0
161
               108
310
0001901422000000000000AAAAAC
330
168
330
1B9
330
1B9
330
1B9
330
1B9
330
1B9
330
0
 94
        0
  0
ACAD_PROXY_OBJECT
  5
1B9
330
0
100
AcDbProxyObject
 90
      499
 91
      545
 71
    29
 97
      226
 70
     0
162
                 0
161
                51
310
00010000AAAA8C
330
168
330
1B8
330
1B6
 94
        0
  0
DICTIONARY
  5
162
102
{ACAD_REACTORS
330
161
102
}
330
161
100
AcDbDictionary
281
     1
  3
DWGSETTINGS
350
163
  3
TRANSSETTINGS
350
164
  0
ACAD_PROXY_OBJECT
  5
1DB
102
{ACAD_REACTORS
330
161
102
}
330
161
100
AcDbProxyObject
 90
      499
 91
      570
 71
    29
 97
      226
 70
     0
162
             15824
311
404C0010441004D005F0030009013100411040134017C00C402404C8010441004D005F0032009013300411040134017C00CC02404D0010441004D005F0034009013500411040134017C00D402404D8010441004D005F0036009013700411040134017C00DC02404E0010441004D005F0038009013900411040134017C00E40
311
2408C80104010541004D005F003100300090234004100415040134017C00C400C402409240140010541004D005F003100320090230004E00415040134017C00C0013802408C40138010541004D005F0031004E0090232004E00415040134017C00C8013802408CC0138010541004D005F0033004E0090234004E0041504013
311
4017C00D0013802408D40138010541004D005F0035004E0090236004E00415040134017C00D8013802408DC0138010541004D005F0037004E0090238004E00415040134017C00E0013802408E40138010541004D005F0039004E00903320041004E00419040134017C00C400C001380240CD001040138010641004D005F003
311
10031004E00903490050004E00419040134017C00C400C80138024112C013001240138010541004D005F0043004C0090449004E0046004F00421040134017C01400104014801140118024154801040120013400D4010641004D005F0042004F0052009045600490045005700421040134017C015801240114015C014C02419
311
0801140120012401380110010641004D005F0049004E00560090554005200410049004C00415040134017C015001480240D2001240110010641004D005F00480049004400903560049005300419040134017C01580124014C024194001040148011001240134010941004D005F00500041005200440049004D009065200450
311
04600440049004D00425040134017C01480114011801100124013402411080120013801580101390041508012001380158014C010642004500480049004E00440041108013C014800C801055200410048004D00350041108013C014800CC01055200410048004D00350041108013C014800D401055200410048004D0035004
311
110C0104013000C8010134004110C0104013000CC010134004110C0104013000D4010134004110C0104013000DC010134004110C011401380138010137004110C01140138015C010137004110C01300124013801044B004C0049004E004110C013C013800C4010130004110C013C013800C8010131004110C013C013800CC0
311
10132004110C013C013800D00101320041110011401500104010134004111001240104011C010135004111001240130012401013500411100124013401400106500041005200440049004D00411100124013401480106520045004600440049004D00411180114013401380101380041518011401340140013801013800415
311
1801140134014C01400102340041004151801140134014C015001023400410041518011401340158013801013200415180114013401580150010132004112001040150010C0101380041120012401100138010133004112001240110015C01013300411200130012401380101340041120013C010C01380101370041120013
311
C010C015C010137004112401380118013C010449004E0046004F00411300114010401100101350041938017C0108012001380158010239004E0041938017C010C013C013800C4010230004E0041938017C010C013C013800C8010231004E0041938017C010C013C013800CC010232004E0041938017C010C013C013800D001
311
0232004E0041938017C010C011401380138010237004E0041938017C010C01140138015C010237004E0041938017C0110012401300124010235004E0041938017C012001040150010C010238004E0041938017C0120012401100138010233004E0041938017C012001240110015C010233004E0041938017C0130011401040
311
110010235004E0041938017C0138011C012401400103490050004E0041938017C01400120010401380103340041004E0041938017C0150010C013C0138010230004E0041938017C0150012001300124010234004E0041938017C0150013001140138010230004E0041938017C01580140013001240103320041004E0041138
311
011C01240140010249005000411400104013000C801055200410048004D003500411400104013000CC01055200410048004D003500411400104013000D401055200410048004D0035004114001200104013801023400410041140013C014C01380101350041148010C011C01380101370041148010C011C015C01013700411
311
4C01080148012C010134004114C0114010C0150010134004114C0164010800CC0101350041134014C016401340101350041150010C013C0138010130004115001200130012401013400411500124015000C801055200410048004D003500411500124015000CC01055200410048004D003500411500124015000D401055200
311
410048004D0035004115001300114013801013000415500148010401240130010554005200410049004C004115001480130012401013400411500160015000C401013600411500160015000C801013600411500160015000CC01013600411500160015000D401013600411500160015000DC010136004115801240114015C0
311
1045600490045005700411580114011001200103480049004400411580114011001580103560049005300411580140013001240102320041004116801240168010401013400404FC0200
161
              8940
310
4210349201C00030C011E44203800030C011E44201400030C011E44201800030C010FA17000030C010FA17000030C010FA23000030C011EA23800030C010FA00400030C010FA3F400030C0241201C00030C011EA17000030C010FA01C00030C011E40A01C00030C011EA03800030C011EA01400030C011EA01800030C010FA
310
17000030C010FA17000030C010FA23000030C011EA23800030C010FA00400030C010FA3F400030C0241201C00030C011EA17000030C010FA01C00030C011E40A00400030C010F42623800030C010F42E01C00030C011E42600400030C010F42E3F400030C0243617000030C010F42601C00030C010F42601C00030C011E426
310
17000030C010F42623800030C010F425538000000C0003FFFFFFFE8000000C0003FFFFFFFE8010000C30043E88C0000C30047A8000000C0003FFFFFFFE8000000C0003FFFFFFFE88C0000C30047A8070000C30047A81E0000C3004F28000000C0003FFFFFFFE8000000C0003FFFFFFFE8000000C0003FFFFFFFE8000000C00
310
03FFFFFFFD038000000C0003FFFFFFFD038000000C0003FFFFFFFD038000000C0003FFFFFFFD038000000C0003FFFFFFFE8000000C0003FFFFFFFE8000000C0003FFFFFFFE8000000C0003FFFFFFFE8000000C0003FFFFFFFE8000000C0003FFFFFFFE85C0000C3003FFFFFFFE8000000C0003FFFFFFFE85C0000C30043E80
310
00000C0003FFFFFFFE85C0000C30043E8000000C0003FFFFFFFD018000000C0003FFFFFFFD038000000C0003FFFFFFFD038000000C0003FFFFFFFD018000000C0003FFFFFFFE8000000C0003FFFFFFFE8000000C0003FFFFFFFE8000000C0003FFFFFFFE8000000C0003FFFFFFFE8000000C0003FFFFFFFD038000000C0003
310
FFFFFFFD038000000C0003FFFFFFFD038000000C0003FFFFFFFD038000000C0003FFFFFFFE8000000C0003FFFFFFFE8000000C0003FFFFFFFE8000000C0003FFFFFFFD018000000C0003FFFFFFFD038000000C0003FFFFFFFD038000000C0003FFFFFFFE8000000C0003FFFFFFFE8000000C0003FFFFFFFE8000000C0003FF
310
FFFFFD038000000C0003FFFFFFFD018000000C0003FFFFFFFD038000000C0003FFFFFFFE8000000C0003FFFFFFFE8010000C3003FFFFFFFE88C0000C3003FFFFFFFE8070000C3003FFFFFFFE8000000C0003FFFFFFFE8000000C0003FFFFFFFE8000000C0003FFFFFFFE8000000C0003FFFFFFFE8070000C30047901800000
310
0C0003FFFFFFFD0188C0000C30047A88C0000C3003FFFFFFFE8000000C0003FFFFFFFD038000000C0003FFFFFFFD018010000C30043E88C0000C30047A8000000C0003FFFFFFFE8000000C0003FFFFFFFD038000000C0003FFFFFFFE8000000C0003FFFFFFFD0185C0000C30043E85C0000C30043E8000000C0003FFFFFFFE
310
8070000C30047A81E0000C3004F28000000C0003FFFFFFFE8000000C0003FFFFFFFD028000000C0003FFFFFFFD028000000C0003FFFFFFFE8000000C0003FFFFFFFD01AAA3F400030C010A4391E41D1E4190F4151E4110F40D0F4091E4050F4793C7F680200C
340
16
340
16
340
16
340
193
340
16
340
16
340
16
340
195
340
16
340
16
340
194
340
194
340
16
340
16
340
16
340
16
340
193
340
16
340
16
340
16
340
195
340
16
340
16
340
194
340
194
340
16
340
1DF
340
16
340
16
340
16
340
16
340
16
340
193
340
16
340
16
340
16
340
15
340
15
340
15
340
15
340
15
340
15
340
15
340
15
340
15
340
1E5
340
15
340
15
340
15
340
15
340
15
340
15
340
16
340
15
340
15
340
15
340
15
340
15
340
15
340
16
340
15
340
15
340
15
340
15
340
1E6
340
15
340
15
340
1E5
340
15
340
15
340
15
340
15
340
15
340
15
340
15
340
15
340
1E5
340
15
340
15
340
15
340
1E6
340
15
340
15
340
15
340
15
340
15
340
1E6
340
15
340
15
340
15
340
16
340
16
340
16
340
15
340
15
340
1E5
340
15
340
15
340
15
340
15
340
15
340
15
340
1E6
340
15
340
15
340
15
340
15
340
15
340
15
340
15
340
15
340
15
340
15
340
15
340
15
340
15
340
15
340
15
340
1E7
 94
        0
  0
DICTIONARY
  5
20D
330
22
100
AcDbDictionary
280
     1
281
     1
  0
DICTIONARY
  5
125
330
124
100
AcDbDictionary
280
     1
281
     1
  3
BUMPTILE
360
127
  3
DIFFUSETILE
360
126
  3
OPACITYTILE
360
12A
  3
REFLECTIONTILE
360
129
  3
REFRACTIONTILE
360
12B
  3
SPECULARTILE
360
128
  0
DICTIONARY
  5
11D
330
11C
100
AcDbDictionary
280
     1
281
     1
  3
BUMPTILE
360
11F
  3
DIFFUSETILE
360
11E
  3
OPACITYTILE
360
122
  3
REFLECTIONTILE
360
121
  3
REFRACTIONTILE
360
123
  3
SPECULARTILE
360
120
  0
DICTIONARY
  5
12D
330
12C
100
AcDbDictionary
280
     1
281
     1
  3
BUMPTILE
360
12F
  3
DIFFUSETILE
360
12E
  3
OPACITYTILE
360
132
  3
REFLECTIONTILE
360
131
  3
REFRACTIONTILE
360
133
  3
SPECULARTILE
360
130
  0
DICTIONARY
  5
404
330
138
100
AcDbDictionary
280
     1
281
     1
  3
ACAD_ROUNDTRIP_2008_TABLESTYLE_CELLSTYLEMAP
360
405
  0
ACAD_PROXY_OBJECT
  5
1C8
102
{ACAD_REACTORS
330
1C7
102
}
330
1C7
100
AcDbProxyObject
 90
      499
 91
      554
 71
    29
 97
      226
 70
     0
162
              3734
311
411040138014C01240243904018C01B4014C01D401C801980150019401E001D0014C01D001900109410063006D0046004300460053007400640043504018C01B4015C019401B0019001A401B8019C014C01D001900108410063006D004900640053007400640042D04018C01B40110018401D001D401B4014C01D001900109
311
410063006D0042004F004D005300740064004410401B4019001D00110019401D0018401A401B0014C01E401B4014C01D00190011141006D0064007400530065006300740069006F006E00530079006D005300740064004450401B4019001D0010C019401B801D0019401C8013001A401B80194014C01D00190011141006D00
311
640074005400680072006500610064004C0069006E00650053007400640042D0401B4019001D0013801BC01D00194014C01D00190010B410063006D00540061007000650072005300740064004350401B4019001D0010401B8015801A4019401DC014C01D00190010B4100630041006D0067004C0061007900530074006400
311
42D04018C010401B4019C011001A401B4014C01D0019001114100630041006D00670048006F006C0065004300680061007200740053007400640043504018C010401B4019C015001A401D001B00194014C01D0019000
161
               725
310
6DCB81E85EB51B8BE3F8000000C00040540623000030C0200000030000B81E85EB51B8BE3F495222812028120281202812028120281202812028120281202812028120281202812028120281202812028120280A04809FFFE7FFFC
340
11
360
1C9
360
1CA
360
1CB
360
1CC
360
1CD
360
1CE
360
1CF
360
1D0
360
1D1
360
1D2
360
1D3
360
1D4
360
1D5
360
1D6
360
1D7
360
1F1
360
1F2
340
1D8
340
0
340
15
340
15
 94
        0
  0
ACAD_PROXY_OBJECT
  5
163
102
{ACAD_REACTORS
330
162
102
}
330
162
100
AcDbProxyObject
 90
      499
 91
      507
 71
    29
 97
      226
 70
     0
162
              4140
311
42D10015C011C014C01140150015001240138011C014C0109430041004E00470041005200520041005900420CC00C001F000D000D401F000D800C00106430045004E0041004E004700424D000D401F000E400C001F000C400CC00D40106430045004E0044004900410041D0C01140138011001240104014C010B30002E0035
311
007C0031002E0030007C0031002E00350041D0C0114013801100124014C01500106430045004E004C0045004E004190C01140138013C01180118010E4300480041004D00460045005200440049004D004D004F00440045004550C0120010401340118011401480110012401340134013C01100114011001140118010401540
311
1300150010943004C0049004E0041005200520041005900438C000B800C400C800D401F000C000B800C800D401F000C000B800D4010843004C0049004E004500540059005000415600130012401380114010944005700470055005300430041004C00450041D300104014C0150013C0108012801013000421340104012C011
311
4015801240114015C010650005300430041004C00450041948011401580124014C0124010130004154C010C010401300114010331003A00310042550012401340114014C01500104013401400107560045005200530049004F004E00414C400D400B800C000C001107B00440057004700530045005400540049004E0047005
311
30045004E0044007D00C
161
               572
310
40682A0A940000000000001C07E82A50000000000000601FA50000000000000701FA50000000000000701FA7F27F20A82A50A0A9FA040C008000105415282EB188ECACCC9CD0505C
 94
        0
  0
ACAD_PROXY_OBJECT
  5
164
102
{ACAD_REACTORS
330
162
102
}
330
162
100
AcDbProxyObject
 90
      499
 91
      507
 71
    29
 97
      226
 70
     0
162
              1382
311
43550014801040138014C014C01140150015001240138011C014C0112440052004100570049004E0047005400520041004E0053004C004100540049004F004E004353C01480124011C012401380104013001300164017C013C0138010A53004F0055005200430045004C0041004E00470040D1401380154010955005000520
311
0450053004500520056004500441EC0110015C011C014C01140150015001240138011C014C01140138011001F400
161
               126
310
4060C00800041801000020A0C0080000
 94
        0
  0
XRECORD
  5
127
102
{ACAD_REACTORS
330
125
102
}
330
125
100
AcDbXrecord
280
     1
270
     1
271
     1
  0
XRECORD
  5
126
102
{ACAD_REACTORS
330
125
102
}
330
125
100
AcDbXrecord
280
     1
270
     1
271
     1
  0
XRECORD
  5
12A
102
{ACAD_REACTORS
330
125
102
}
330
125
100
AcDbXrecord
280
     1
270
     1
271
     1
  0
XRECORD
  5
129
102
{ACAD_REACTORS
330
125
102
}
330
125
100
AcDbXrecord
280
     1
270
     1
271
     1
  0
XRECORD
  5
12B
102
{ACAD_REACTORS
330
125
102
}
330
125
100
AcDbXrecord
280
     1
270
     1
271
     1
  0
XRECORD
  5
128
102
{ACAD_REACTORS
330
125
102
}
330
125
100
AcDbXrecord
280
     1
270
     1
271
     1
  0
XRECORD
  5
11F
102
{ACAD_REACTORS
330
11D
102
}
330
11D
100
AcDbXrecord
280
     1
270
     1
271
     1
  0
XRECORD
  5
11E
102
{ACAD_REACTORS
330
11D
102
}
330
11D
100
AcDbXrecord
280
     1
270
     1
271
     1
  0
XRECORD
  5
122
102
{ACAD_REACTORS
330
11D
102
}
330
11D
100
AcDbXrecord
280
     1
270
     1
271
     1
  0
XRECORD
  5
121
102
{ACAD_REACTORS
330
11D
102
}
330
11D
100
AcDbXrecord
280
     1
270
     1
271
     1
  0
XRECORD
  5
123
102
{ACAD_REACTORS
330
11D
102
}
330
11D
100
AcDbXrecord
280
     1
270
     1
271
     1
  0
XRECORD
  5
120
102
{ACAD_REACTORS
330
11D
102
}
330
11D
100
AcDbXrecord
280
     1
270
     1
271
     1
  0
XRECORD
  5
12F
102
{ACAD_REACTORS
330
12D
102
}
330
12D
100
AcDbXrecord
280
     1
270
     1
271
     1
  0
XRECORD
  5
12E
102
{ACAD_REACTORS
330
12D
102
}
330
12D
100
AcDbXrecord
280
     1
270
     1
271
     1
  0
XRECORD
  5
132
102
{ACAD_REACTORS
330
12D
102
}
330
12D
100
AcDbXrecord
280
     1
270
     1
271
     1
  0
XRECORD
  5
131
102
{ACAD_REACTORS
330
12D
102
}
330
12D
100
AcDbXrecord
280
     1
270
     1
271
     1
  0
XRECORD
  5
133
102
{ACAD_REACTORS
330
12D
102
}
330
12D
100
AcDbXrecord
280
     1
270
     1
271
     1
  0
XRECORD
  5
130
102
{ACAD_REACTORS
330
12D
102
}
330
12D
100
AcDbXrecord
280
     1
270
     1
271
     1
  0
CELLSTYLEMAP
  5
405
102
{ACAD_REACTORS
330
404
102
}
330
404
100
AcDbCellStyleMap
 90
        3
300
CELLSTYLE
  1
TABLEFORMAT_BEGIN
 90
        5
170
     1
 91
        0
 92
    32768
 62
   257
 93
        1
300
CONTENTFORMAT
  1
CONTENTFORMAT_BEGIN
 90
        0
 91
        0
 92
      512
 93
        0
300

 40
0.0
140
1.0
 94
        5
 62
     0
340
11
144
0.25
309
CONTENTFORMAT_END
171
     0
 94
        0
309
TABLEFORMAT_END
  1
CELLSTYLE_BEGIN
 90
        1
 91
        1
300
_TITLE
309
CELLSTYLE_END
300
CELLSTYLE
  1
TABLEFORMAT_BEGIN
 90
        5
170
     1
 91
        0
 92
        0
 62
   257
 93
        1
300
CONTENTFORMAT
  1
CONTENTFORMAT_BEGIN
 90
        0
 91
        0
 92
      512
 93
        0
300

 40
0.0
140
1.0
 94
        5
 62
     0
340
11
144
0.18
309
CONTENTFORMAT_END
171
     0
 94
        0
309
TABLEFORMAT_END
  1
CELLSTYLE_BEGIN
 90
        2
 91
        1
300
_HEADER
309
CELLSTYLE_END
300
CELLSTYLE
  1
TABLEFORMAT_BEGIN
 90
        5
170
     1
 91
        0
 92
        0
 62
   257
 93
        1
300
CONTENTFORMAT
  1
CONTENTFORMAT_BEGIN
 90
        0
 91
        0
 92
      512
 93
        0
300

 40
0.0
140
1.0
 94
        2
 62
     0
340
11
144
0.18
309
CONTENTFORMAT_END
171
     0
 94
        0
309
TABLEFORMAT_END
  1
CELLSTYLE_BEGIN
 90
        3
 91
        2
300
_DATA
309
CELLSTYLE_END
  0
ACAD_PROXY_OBJECT
  5
1C9
330
1C8
100
AcDbProxyObject
 90
      499
 91
      555
 71
    29
 97
      226
 70
     0
162
                 0
161
               423
310
6DCB81E85EB51B8BE3F2E07A17AD46E2F8FE23000030C02000000300012AF841D01405014050140501083C80A0481A0882A0D55554
 94
        0
  0
ACAD_PROXY_OBJECT
  5
1CA
330
1C8
100
AcDbProxyObject
 90
      499
 91
      556
 71
    29
 97
      226
 70
     0
162
                 0
161
               567
310
6DCB81E85EB51B8BE3F2E07A17AD46E2F8FE23000030C02000000300012AFA1C80A0280A0280A0280A0280A0280A0280A0284A0280A0280A0280A0280A02400000000000000080
340
1F4
 94
        0
  0
ACAD_PROXY_OBJECT
  5
1CB
330
1C8
100
AcDbProxyObject
 90
      499
 91
      557
 71
    29
 97
      226
 70
     0
162
                 0
161
               648
310
6DCB81E85EB51B8BE3F2E07A17AD46E2F8FE23000030C02000000300012AF98333333333333D33F24080A0280A0280A0280A0280A0280A0280A0280A0280A0280A0280A0280A0280A0280A0280A0280A0200
340
0
 94
        0
  0
ACAD_PROXY_OBJECT
  5
1CC
330
1C8
100
AcDbProxyObject
 90
      499
 91
      558
 71
    29
 97
      226
 70
     0
162
                 0
161
               245
310
6DCB81E85EB51B8BE3F2E07A17AD46E2F8FE23000030C02000000300012AFC
 94
        0
  0
ACAD_PROXY_OBJECT
  5
1CD
330
1C8
100
AcDbProxyObject
 90
      499
 91
      559
 71
    29
 97
      226
 70
     0
162
                 0
161
               492
310
6DCB81E85EB51B8BE3F2E07A17AD46E2F8FE23000030C02000000300012AFC521D4454FB21E93F26A6666666666E4FE89A9999999999B93F88C0000C300C
340
1F5
340
1F6
 94
        0
  0
ACAD_PROXY_OBJECT
  5
1CE
330
1C8
100
AcDbProxyObject
 90
      499
 91
      560
 71
    29
 97
      226
 70
     0
162
             23548
311
4112401500114013401044900540045004D004CD1C01140138015001480104010C013C00B001140138015400B000C000B0012401500114013400B0011C011401380150014801040150016000B0009401CC00B000A0011C011401380134014C011C0080019C019401B8019001DC019C008000C800C800C800A4029035100540
311
0590040D44015001640132470045004E0054005200410043004F002C0045004E0055002C0030002C005100540059002C00470045004E00540052004100540058002C00250073002C002800470045004E004D00530047002000670065006E0064007700670020003200320033002900A4113801040134011401044E0041004D
311
0045004CD1C01140138015001480104010C013C00B001140138015400B000C000B0013801040134011400B0011C011401380150014801040150016000B0009401CC00B000A0011C011401380134014C011C0080019C019401B8019001DC019C008000C800C800D800A4012C3D004900460028004900530042004C0041004E0
311
04B00280050004100520054003A004E0041004D00450029002C0042004C004F0043004B003A004E0041004D0045002C0050004100520054003A004E0041004D00450029009054400450053004300520042D100114014C010C01480124014001500124013C0138013A470045004E0054005200410043004F002C0045004E005
311
5002C0030002C004400450053004300520049005000540049004F004E002C00470045004E00540052004100540058002C00250073002C002800470045004E004D00530047002000670065006E0064007700670020003200310037002900A4214C015001040138011001040148011001085300540041004E004400410052004
311
4004DD1C01140138015001480104010C013C00B001140138015400B000C000B0014C015001040138011001040148011000B0011C011401380150014801040150016000B0009401CC00B000A0011C011401380134014C011C0080019C019401B8019001DC019C008000C800C400E000A4029084D00410054004500520049004
311
1004C004213401040150011401480124010401300137470045004E0054005200410043004F002C0045004E0055002C0030002C004D004100540045005200490041004C002C00470045004E00540052004100540058002C00250073002C002800470045004E004D00530047002000670065006E006400770067002000320032
311
0031002900A41138013C0150011401044E004F00540045004CD1C01140138015001480104010C013C00B001140138015400B000C000B00138013C0150011400B0011C011401380150014801040150016000B0009401CC00B000A0011C011401380134014C011C0080019C019401B8019001DC019C008000C800C800D400A40
311
2906560045004E0044004F00520041958011401380110013C01480135470045004E0054005200410043004F002C0045004E0055002C0030002C00560045004E0044004F0052002C00470045004E00540052004100540058002C00250073002C002800470045004E004D00530047002000670065006E0064007700670020003
311
200320034002900A419100114014C010C014800C8010D4400450053004300520049005000540049004F004E00200032004ED1C01140138015001480104010C013C00B001140138015400B000C000B001100114014C010C01480124014001500124013C0138008000C800B0011C011401380150014801040150016000B00094
311
01CC00B000A0011C011401380134014C011C0080019C019401B8019001DC019C008000CC00D800A4029095300540041004E00440041005200440032004294C0150010401380110010401480110008000C80139470045004E0054005200410043004F002C0045004E0055002C0030002C005300540041004E00440041005200
311
4400200032002C00470045004E00540052004100540058002C00250073002C002800470045004E004D00530047002000670065006E0064007700670020003200320030002900A42534010401500114014801240104013000C8010A4D004100540045005200490041004C00200032004E11C01140138015001480104010C013
311
C00B001140138015400B000C000B001340104015001140148012401040130008000C800B0011C011401380150014801040150016000B0009401CC00B000A0011C011401380134014C011C0080019C019401B8019001DC019C008000D000C000A4029044D00410053005300411340104014C014C0132470045004E005400520
311
0410043004F002C0045004E0055002C0030002C004D004100530053002C00470045004E00540052004100540058002C00250073002C002800470045004E004D00530047002000670065006E006400770067002000340032002900A4154001480124010C01140105500052004900430045004CD1C0114013801500148010401
311
0C013C00B001140138015400B000C000B0014001480124010C011400B0011C011401380150014801040150016000B0009401CC00B000A0011C011401380134014C011C0080019C019401B8019001DC019C008000D000CC00A402903440049004D0042D3401140104014C01540148011401340114013801500139470045004E
311
0054005200410043004F002C0045004E0055002C0030002C004D004500410053005500520045004D0045004E0054002C00470045004E00540052004100540058002C00250073002C002800470045004E004D00530047002000670065006E006400770067002000340034002900A42508013C0134017C015401380124015001
311
4C010555004E004900540053004D11C01140138015001480104010C013C00B001140138015400B000C000B00154013801240150014C00B0011C011401380150014801040150016000B0009401CC00B000A0011C011401380134014C011C0080019C019401B8019001DC019C008000C800D000CC00A4029073D003C00490054
311
0045004D003E0041CF400F0012401500114013400F801073D003C004900540045004D003E0041CF400F0012401500114013400F801073D003C004900540045004D003E00418F400F001440150016400F801073D003C004900540045004D003E0041CF400F0012401500114013400F802AAA404C40242D94018400240194018
311
4002401140184018C01A000280115730071006D000900730071006D00090053007100750061007200650020004D0065007400650072000A00471CC01C4018C01B4002401CC01C4018C01B40024014C01C401D4018401C801940080010C019401B801D001A401B4019401D0019401C800280116730071006600740009007300
311
7100660074000900530071007500610072006500200046006F006F0074000A00451CC01C401A401B8002401CC01C401A401B80024014C01C401D4018401C801940080012401B80028010F670061006C000900670061006C000900470061006C006C006F006E000A00431C401D0002401C401D00024014401D4018401C801D0
311
0028011B6C00710064005F006F007A0009006C00710064005F006F007A0009004C006900710075006900640020004F0075006E00630065000A00429B0002401B00024013001A401D0019401C8002801116D006C0009006D006C0009004D0069006C006C0069006C0069007400650072000A0042DE40190002401E401900024
311
0164018401C801900028010B66007400090066007400090046006F006F0074000A0042DA401B8002401A401B80024012401B8018C01A00028010A6D0009006D0009004D0065007400650072000A004458C01B40024018C01B40024010C019401B801D001A401B4019401D0019401C8002801116D006D0009006D006D000900
311
4D0069006C006C0069006D0065007400650072000A00431B00188002401B001880024014001BC01D401B801900028010C6F007A0009006F007A0009004F0075006E00630065000A004259C0024019C0024011C01C8018401B4002801106D00670009006D00670009004D0069006C006C0069006700720061006D000A004298
311
801E00024018801E00024010801BC01E0002801012D00C
161
              6487
310
6DCB81E85EB51B8BE3F2E07A17AD46E2F8FE23000030C02000000300012AFA1E80A0280A0280A0280D202269349E4B2196C9FA0320240501405014090140501405019011349A4F2590CB64FD0190120280A0280A3880C80C815174B85D2F97CA048080C80901405014051D40640640E883C16030180C064040440480A0280A
310
028EA0320320947077FBFDFEBF7F9FA02202405014050147501901905A0A0B6C1C7480BECFD0190120280A0280A3A80C80C835174B85D2F97CBE47E80C80901405014051D40640641E8BA5C2E97CBE5F23F40640480A0280A028EA03203211441E0B0180C060320202202405014050147501901909A383BFDFEFF5FBFCFD01
310
10120280A0280A3A80C80C8550505B60E3A405F67E80880901405014051D405024050242D03408BA5C2E97CBE5F23F40440480A0280A028EA028120281218812045D2E174BE5F2F91FA02202405014050147501409014090D40D022E970BA5F2F97C8FD0190120280A0280A3C80C80C875174B85D2F97CBE47E80C80901405
310
0F4A9022E07A17AD46E338FE07800030C0001018ACD56AB55AADF63F2B355AAD56AB7D8FD014062B355AAD56AB7D8FCACD56AB55AADF63F40501890C7E3F1783CEE3F2431F8FC5E0F3B8FD014062431F8FC5E0F3B8FC90C7E3F1783CEE3F405029012B355AAD56AB7D8FCACD56AB55AADF63F405014062B355AAD56AB7D8FC
310
ACD56AB55AADF63F4050184D2693C96432E93F1349A4F2590CBA4FD0140400ACD56AB55AADF63F2B355AAD56AB7D8FE90800000000000020810000001800169FFFE8220681A048120280A20852108820321480C8452028521485214814000000000000F0BF0000000000003C2FD0188C0000C3008070000C3003673BDD4F8E
310
96ACFCD9CEF753E3A5AB3F3673BDD4F8E96ACFCAAF1D24D6210A83F0EF7D3E365DBA48FCAAF1D24D6210A83F3673BDD4F8E96ACFCAAF1D24D6210A83F0EF7D3E365DBA48FCAAF1D24D6210A83F2E07A17AD46E2F8FE80A028120D2028120A83A0C80D2E07A17AD46E2F8FE23000030C0223000030C0200400030C00A45102F
310
E7FFF9FFFE7FFF901405014550140501405014050140501405014050140501405014050140501901A0C8120A8320E86A1C
340
15
340
0
340
11
340
11
340
16
340
16
340
16
 94
        0
  0
ACAD_PROXY_OBJECT
  5
1CF
330
1C8
100
AcDbProxyObject
 90
      499
 91
      561
 71
    29
 97
      226
 70
     0
162
               762
311
4BCF4011001140150010401240130008000F0011001140150010401240130017C0130010401080114013000F801700140014C010C010401300114008000F0011001140150010401240130017C01040108014C014C010C01040130011400F800C
161
               658
310
6DCB81E85EB51B8CE3F2E07A17AD46E338FE07800030C020000003000123C820E4D4CCCCCCCCCDC9F9353333333333927E000000000000701FA00000000000000200000000000000288000000000000012204C
340
16
340
11
 94
        0
  0
ACAD_PROXY_OBJECT
  5
1D0
330
1C8
100
AcDbProxyObject
 90
      499
 91
      562
 71
    29
 97
      226
 70
     0
162
               826
311
4CCF4014C0114010C01500124013C0138008000F0014C0114010C01500124013C0138017C01300104010801140130017C011801240148014C015000F800B400F0014C0114010C01500124013C0138017C01300104010801140130017C01300104014C015000F800C
161
               473
310
6DCB81E85EB51B8CE3F2E07A17AD46E338FE07800030C02000000300012AE00726A666666666764FC7FFFC000000600009A9999999999D93FA7FFFCC
340
15
340
11
 94
        0
  0
ACAD_PROXY_OBJECT
  5
1D1
330
1C8
100
AcDbProxyObject
 90
      499
 91
      563
 71
    29
 97
      226
 70
     0
162
                 0
161
               507
310
6DC000000000000F0BF0000000000003C2FE000000320020000003200200570E2DB39DEF867E14AE47E17A945E1F852B91F85EA51787F4333333333333F33FAC
 94
        0
  0
ACAD_PROXY_OBJECT
  5
1D2
330
1C8
100
AcDbProxyObject
 90
      499
 91
      564
 71
    29
 97
      226
 70
     0
162
                 0
161
               241
310
6DC000000000000F0BF0000000000003C2FE000000320020000003200204CC
340
0
 94
        0
  0
ACAD_PROXY_OBJECT
  5
1D3
330
1C8
100
AcDbProxyObject
 90
      499
 91
      565
 71
    29
 97
      226
 70
     0
162
             13376
311
42950019401B401C001B0018401D00194008000C40005013D003C0069006600280065007100750061006C00280048006F006C0065003A007400610070007000650064002C0022003000220029002C00220025002500630022002C0048006F006C0065003A006E006F006D0069006E0061006C0020002200200022002000690
311
06600280065007100750061006C00280048006F006C0065003A0075006E006900740073002C0022003100220029002C002200780022002C0022002D0022002900200022002000220029003E003C0069006600280065007100750061006C00280048006F006C0065003A007400610070007000650064002C002200300022002
311
9002C0048006F006C0065003A006400690061002C0048006F006C0065003A0070006900740063006800640065007300630029003E0020007B005C00460041004D004700440054003B0078007D0020003C0069006600280065007100750061006C00280048006F006C0065003A007400650072006D0069006E0061007400690
311
06F006E002C0022003000220029002C0048006F006C0065003A00640065007000740068002C0022005400480052005500220029003E005C0050007B005C00460041004D004700440054003B0076007D002500250063003C0048006F006C0065003A00630074006400690061003E0020007B005C00460041004D00470044005
311
4003B0078007D0020003C0048006F006C0065003A0063007400640065007000740068003E0042950019401B401C001B0018401D00194008000C401FE3D003C0069006600280065007100750061006C00280048006F006C0065003A007400610070007000650064002C0022003000220029002C00220025002500630022002C
311
0048006F006C0065003A006E006F006D0069006E0061006C002000220020002200200069006600280065007100750061006C00280048006F006C0065003A0075006E006900740073002C0022003100220029002C002200780022002C0022002D0022002900200022002000220029003E003C00690066002800650071007500
311
61006C00280048006F006C0065003A007400610070007000650064002C0022003000220029002C0048006F006C0065003A006400690061002C0048006F006C0065003A0070006900740063006800640065007300630029003E0020007B005C00460041004D004700440054003B0078007D0020003C00690066002800650071
311
00750061006C00280048006F006C0065003A007400650072006D0069006E006100740069006F006E002C0022003000220029002C0048006F006C0065003A00640065007000740068002C0022005400480052005500220029003E005C0050007B005C00460041004D004700440054003B0077007D002500250063003C004800
311
6F006C0065003A00630074006400690061003E002000580020003C0048006F006C0065003A006300740061006E0067006C0065003E0025002500640042950019401B401C001B0018401D00194008000C401CF3D003C0069006600280065007100750061006C00280048006F006C0065003A007400610070007000650064002
311
C0022003000220029002C00220025002500630022002C0048006F006C0065003A006E006F006D0069006E0061006C002000220020002200200069006600280065007100750061006C00280048006F006C0065003A0075006E006900740073002C0022003100220029002C002200780022002C0022002D00220029002000220
311
02000220029003E003C0069006600280065007100750061006C00280048006F006C0065003A007400610070007000650064002C0022003000220029002C0048006F006C0065003A006400690061002C0048006F006C0065003A0070006900740063006800640065007300630029003E005C0050007B005C00460041004D004
311
700440054003B0078007D0020003C0069006600280065007100750061006C00280048006F006C0065003A007400650072006D0069006E006100740069006F006E002C0022003000220029002C0048006F006C0065003A00640065007000740068002C0022005400480052005500220029003E0042950019401B401C001B001
311
8401D00194008000C801173D003C0053005400440050003A0044004500530043003E0020003C0053005400440050003A005300540044003E0042950019401B401C001B0018401D00194008000C4010C3D003C0053005400440050003A0044004500530043003E0042950019401B401C001B0018401D00194008000CC010B3D
311
003C0053005400440050003A005300540044003E0000
161
               667
310
6DCB81E85EB51B8BE3F2E07A17AD46E2F8FE23000030C02000000300012AFA1080A17480A15480A0480A0280E9014050340501407480A0280A0280A03A405014790340501D20280A901405481A028AD556DEA06C
360
1FB
330
1FB
360
1FC
330
1FC
360
1FA
330
1FA
360
1F8
360
1F7
360
1F9
330
1F8
330
1F7
330
1F9
 94
        0
  0
ACAD_PROXY_OBJECT
  5
1D4
330
1C8
100
AcDbProxyObject
 90
      499
 91
      566
 71
    29
 97
      226
 70
     0
162
                26
311
404E800C
161
               305
310
6DCB81E85EB51B8BE3F2E07A17AD46E2F8FE23000030C02000000300012AFA1680A0280D55554C
 94
        0
  0
ACAD_PROXY_OBJECT
  5
1D5
330
1C8
100
AcDbProxyObject
 90
      499
 91
      567
 71
    29
 97
      226
 70
     0
162
              1098
311
510F400F0014C015001480154010C015000E8010C013C01340140017C013801040134011400F8008000F0014C015001480154010C015000E8015801240114015C017C013801040134011400F80080015801240114015C01700140014C010C010401300114008000F0014C015001480154010C015000E8014C0158017C014C0
311
10C01040130011400F800C
161
               332
310
6DCB81E85EB51B8CE3F2E07A17AD46E2F8FE07800030C02000000300012AFA02808000000000001D07FC
340
11
 94
        0
  0
ACAD_PROXY_OBJECT
  5
1D6
330
1C8
100
AcDbProxyObject
 90
      499
 91
      568
 71
    29
 97
      226
 70
     0
162
                 0
161
               253
310
6DC000000000000F0BF0000000000003C2FE0000003200200000032002020754
340
1DB
 94
        0
  0
ACAD_PROXY_OBJECT
  5
1D7
330
1C8
100
AcDbProxyObject
 90
      499
 91
      569
 71
    29
 97
      226
 70
     0
162
               142
311
408F000F801023C003E0040DB0018C00CC00
161
               400
310
6DC000000000000F0BF0000000000003C2FE00000032002000000320020208000000000000701F8000000000001C07E7FFFC00
340
1D8
340
0
340
0
340
1E8
340
1E9
340
0
340
1EA
340
1EB
340
1F0
340
0
340
1E9
340
0
 94
        0
  0
ACAD_PROXY_OBJECT
  5
1F1
330
1C8
100
AcDbProxyObject
 90
      499
 91
      571
 71
    29
 97
      226
 70
     0
162
             20912
311
44D300124014C01500080013C01180080010C013C013C0148011001240138010401500114014C0142470045004E0054005200410043004F002C0045004E0055002C0030002C004C0049005300540020004F004600200043004F004F005200440049004E0041005400450053002C00470045004E00540052004100540058002
311
C00250073002C002800470045004E004D00530047002000670065006E00640069006D007A00200033003000290043CF400F0011001940198018401D401B001D0015001A401D001B0019400F8010A48004F004C00450020005400410042004C0045004E51C01140138015001480104010C013C00B001140138015400B000C00
311
0B00120013C0130011400800150010401080130011400B0011C011401380150014801040150016000B0009401CC00B000A0011C011401380134014C011C0080019C019401B8019001A401B401E8008000CC00C400A4010F3D003C00440065006600610075006C0074005400690074006C0065003E004193C01480124011C01
311
2401380134470045004E0054005200410043004F002C0045004E0055002C0030002C004F0052004900470049004E002C00470045004E00540052004100540058002C00250073002C002800470045004E004D00530047002000670065006E00640069006D007A002000310029004193C01480124011C0124013801344700450
311
04E0054005200410043004F002C0045004E0055002C0030002C004F0052004900470049004E002C00470045004E00540052004100540058002C00250073002C002800470045004E004D00530047002000670065006E00640069006D007A0020003100290041120013C013001140132470045004E0054005200410043004F00
311
2C0045004E0055002C0030002C0048004F004C0045002C00470045004E00540052004100540058002C00250073002C002800470045004E004D00530047002000670065006E00640069006D007A00200032002900538F400F00124011800A00124014C0108013001040138012C00A0012001BC01B00194012401D0019401B40
311
0A400B0013C01C801A4019C01A401B800B00080012001BC01B00194012401D0019401B400A400F800F00124011800A00124014C0108013001040138012C00A0012001BC01B00194012401D0019401B400A400B00088008800B00080012001BC01B00194012401B80190019401E000A400F8010158004BD1C01140138015001
311
480104010C013C00B001140138015400B000C000B0016000B0011C011401380150014801040150016000B0009401CC00B000A0011C011401380134014C011C0080019C019401B8019001A401B401E8008000CC00A4010159004BD1C01140138015001480104010C013C00B001140138015400B000C000B0016400B0011C011
311
401380150014801040150016000B0009401CC00B000A0011C011401380134014C011C0080019C019401B8019001A401B401E8008000D000A4010152004BD1C01140138015001480104010C013C00B001140138015400B000C000B0014800B0011C011401380150014801040150016000B0009401CC00B000A0011C01140138
311
0134014C011C0080019C019401B8019001A401B401E8008000D800A401187B005C004600530059004D0042004F004C007C00420030007C00490030007C00430032007C00500030003B004A007D005191C01140138015001480104010C013C00B001140138015400B000C000B001EC01700118014C016401340108013C01300
311
1F0010800C001F0012400C001F0010C00C801F0014000C000EC012801F400B0011C011401380150014801040150016000B0009401CC00B000A0011C011401380134014C011C0080019C019401B8019001A401B401E8008000DC00A401032500250043004C51C01140138015001480104010C013C00B001140138015400B000
311
C000B000940094010C00B0011C011401380150014801040150016000B0009401CC00B000A0011C011401380134014C011C0080019C019401B8019001A401B401E8008000E000A4010B4400450053004300520049005000540049004F004E004E91C01140138015001480104010C013C00B001140138015400B000C000B0011
311
00114014C010C01480124014001500124013C013800B0011C011401380150014801040150016000B0009401CC00B000A0011C011401380134014C011C0080019C019401B8019001A401B401E8008000C800C000A401044900540045004D004CD1C01140138015001480104010C013C00B001140138015400B000C000B00124
311
01500114013400B0011C011401380150014801040150016000B0009401CC00B000A0011C011401380134014C011C0080019C019401B8019001A401B401E8008000C400D000A4010549004E004400450058004D11C01140138015001480104010C013C00B001140138015400B000C000B00124013801100114016000B0011C0
311
11401380150014801040150016000B0009401CC00B000A0011C011401380134014C011C0080019C019401B8019001A401B401E8008000C400D400A4010448004F004C0045004CD1C01140138015001480104010C013C00B001140138015400B000C000B00120013C0130011400B0011C011401380150014801040150016000
311
B0009401CC00B000A0011C011401380134014C011C0080019C019401B8019001A401B401E8008000C400D800A4010A48004F004C004500200049004E004400450058004E51C01140138015001480104010C013C00B001140138015400B000C000B00120013C0130011400800124013801100114016000B0011C01140138015
311
0014801040150016000B0009401CC00B000A0011C011401380134014C011C0080019C019401B8019001A401B401E8008000C400DC00A40109550053004500520020004900540045004D004E11C01140138015001480104010C013C00B001140138015400B000C000B00154014C011401480080012401500114013400B0011C
311
011401380150014801040150016000B0009401CC00B000A0011C011401380134014C011C0080019C019401B8019001A401B401E8008000C800C800A401035100540059004C91C01140138015001480104010C013C00B001140138015400B000C000B001440150016400B0011C011401380150014801040150016000B000940
311
1CC00B000A0011C011401380134014C011C0080019C019401B8019001A401B401E8008000C400E400A401085300540041004E0044004100520044004DD1C01140138015001480104010C013C00B001140138015400B000C000B0014C015001040138011001040148011000B0011C011401380150014801040150016000B000
311
9401CC00B000A0011C011401380134014C011C0080019C019401B8019001A401B401E8008000C800C400A4014E3D003C004900460028004900530042004C0041004E004B00280048006F006C0065004900740065006D0029002C004F0072006900670069006E002C00200048006F006C0065004900740065006D0029003E00
311
3C004900460028004900530042004C0041004E004B00280048006F006C0065004900740065006D0029002C00220022002C00200048006F006C00650049006E0064006500780029003E00CC
161
              7065
310
6DC000000000000F0BF0000000000003C2FE00000032002000000320020246352020600005C0F42F5A8DC5F1FC46000061806808180001703D0BD6A3717C7F118000186018080F0201800000000000000000000000000000000F6295C8FC2F5487E5C0F42F5A8DC5F1FC46000061800F6295C8FC2F5487E5C0F42F5A8DC5F1
310
FC4600006180403F8080F0201800000000000000000000000000000000F6295C8FC2F5487E5C0F42F5A8DC5F1FC46000061800F6295C8FC2F5487E5C0F42F5A8DC5F1FC4600006180403FA1C8821E88A0481A0882A0E862028722489A2A82A2483A288621A880000808000808200110A000101000101040021F40002020202
310
020800446800040400040400008150000808000808000103A0001010001010000209400020200020206004168000404000404040083D000080800080020010CA0001010001010500A0340002020002020A0143A800040400040410008950000808000808280113A000101000101050022B40002020002020C0045280004040
310
00400100086D22000CFFFFFFFF0026A6666666667A4FE7FFFFFFF819353333333333D27F3FFFFFFFC049A9999999999E93F9FFFFFFFE024D4CCCCCCCCCF49FCFFFFFFFF0226A6666666667A4FE7FFFFFFF811353333333333D27F3FFFFFFFC0D9FFFFFFFE0600000000000000204FFFFFFFF0026A666666666764FE7FFFFFF
310
F801353333333333D27F3FFFFFFFC009A9999999999E93F9FFFFFFFE004D4CCCCCCCCCF49FCFFFFFFFF0026A6666666667A4FE7FFFFFFF819703D0BD6A371BC7F3FFFFFFFC0C67666666666606409FFFFFFFE880033FFFFFFFC009A9999999999E93F9FFFFFFFE064D4CCCCCCCCCF49FCFFFFFFFF0326A6666666667A4FE7F
310
FFFFFF819353333333333D27F3FFFFFFFC0C9A9999999999E93F9FFFFFFFE064D4CCCCCCCCCF49FCFFFFFFFF0367FFFFFFF81800000000000000813FFFFFFFC009A9999999999D93F9FFFFFFFE004D4CCCCCCCCCF49FCFFFFFFFF0326A6666666667A4FE7FFFFFFF801353333333333D27F3FFFFFFFC009A9999999999E93F
310
9FFFFFFFE065C0F42F5A8DC6F1FCFFFFFFFF0319D999999999819027FFFFFFFA088800000021E000000890000002260000008220E00020089000000206000200810000801FFFFFFFE812020002822200000008780000022400000089800000206000082220000000878000002240000008A8000001FFFFFFFF4C
340
0
340
0
340
0
340
0
340
11
340
11
 94
        0
  0
ACAD_PROXY_OBJECT
  5
1F2
330
1C8
100
AcDbProxyObject
 90
      499
 91
      572
 71
    29
 97
      226
 70
     0
162
             10568
311
411040138014C0124010641004E00530049005F004300429040138014C0124017C0150012401500154014C011541004E00530049005F00420052005F005200650076006900730069006F006E006C0069007300740061004450C008000A000C400DC00B800C001E000C800C800B800C001A401B8018C01A000A4010641004E0
311
0530049005F00430044518008000A000C800E000B800C001E000D000C000B800C001A401B8018C01A000A4010641004E00530049005F00460044508008000A000C400C400B800C001E000C400DC00B800C001A401B8018C01A000A4010641004E00530049005F00420044510008000A000C800C800B800C001E000CC00D000
311
B800C001A401B8018C01A000A4010641004E00530049005F00440044514008000A000CC00D000B800C001E000D000D000B800C001A401B8018C01A000A4010641004E00530049005F00450044104008000A000E000B800D401E000C400C400B800C001A401B8018C01A000A4010641004E00530049005F00410043954014C0
311
080015001A401D001B001940080010801B001BC018C01AC010A41004E00530049005F005400490054005500530044D0401B801CC01A40080015001A401D001B001940080010801B001BC018C01AC00800110010C010C41004E00530049005F005400490054004C0045004400430044D0401B801CC01A40080015001A401D00
311
1B001940080010801B001BC018C01AC00800104010C010C41004E00530049005F005400490054004C004500410043004490401B801CC01A40080015001A401D001B001940080010801B001BC018C01AC00800104010B41004E00530049005F005400490054004C00450041004490401B801CC01A40080015001A401D001B00
311
1940080010801B001BC018C01AC00800110010B41004E00530049005F005400490054004C004500440044948019401D801A401CC01A401BC01B801B001A401CC01D000800104017C01080148017C011541004E00530049005F00420052005F005200650076006900730069006F006E006C0069007300740061004494801940
311
1D801A401CC01A401BC01B801B001A401CC01D000800104017C01500148017C011541004E00530049005F00540052005F005200650076006900730069006F006E006C00690073007400610044948019401D801A401CC01A401BC01B801B001A401CC01D000800110017C01080148017C011541004E00530049005F00420052
311
005F005200650076006900730069006F006E006C00690073007400640044948019401D801A401CC01A401BC01B801B001A401CC01D000800110017C01500148017C011541004E00530049005F00540052005F005200650076006900730069006F006E006C00690073007400640044948019401D801A401CC01A401BC01B801
311
B001A401CC01D000800104017C01080130017C011541004E00530049005F0042004C005F005200650076006900730069006F006E006C00690073007400610044948019401D801A401CC01A401BC01B801B001A401CC01D000800104017C01500130017C011541004E00530049005F0054004C005F005200650076006900730
311
069006F006E006C00690073007400610044948019401D801A401CC01A401BC01B801B001A401CC01D000800110017C01080130017C011541004E00530049005F0042004C005F005200650076006900730069006F006E006C00690073007400640044948019401D801A401CC01A401BC01B801B001A401CC01D000800110017
311
C01500130017C011541004E00530049005F0054004C005F005200650076006900730069006F006E006C006900730074006400A4F
161
               291
310
6DC000000000000F0BF0000000000003C2FE0000003200200000032002032E8320A842054C
 94
        0
  0
ACAD_PROXY_OBJECT
  5
1FB
330
0
100
AcDbProxyObject
 90
      499
 91
      573
 71
    29
 97
      226
 70
     0
162
              4364
311
42950019401B401C001B0018401D00194008000C40005013D003C0069006600280065007100750061006C00280048006F006C0065003A007400610070007000650064002C0022003000220029002C00220025002500630022002C0048006F006C0065003A006E006F006D0069006E0061006C0020002200200022002000690
311
06600280065007100750061006C00280048006F006C0065003A0075006E006900740073002C0022003100220029002C002200780022002C0022002D0022002900200022002000220029003E003C0069006600280065007100750061006C00280048006F006C0065003A007400610070007000650064002C002200300022002
311
9002C0048006F006C0065003A006400690061002C0048006F006C0065003A0070006900740063006800640065007300630029003E0020007B005C00460041004D004700440054003B0078007D0020003C0069006600280065007100750061006C00280048006F006C0065003A007400650072006D0069006E0061007400690
311
06F006E002C0022003000220029002C0048006F006C0065003A00640065007000740068002C0022005400480052005500220029003E005C0050007B005C00460041004D004700440054003B0076007D002500250063003C0048006F006C0065003A00630074006400690061003E0020007B005C00460041004D00470044005
311
4003B0078007D0020003C0048006F006C0065003A0063007400640065007000740068003E00C
161
                29
310
6DE0101C
 94
        0
  0
ACAD_PROXY_OBJECT
  5
1FC
330
0
100
AcDbProxyObject
 90
      499
 91
      573
 71
    29
 97
      226
 70
     0
162
              4244
311
42950019401B401C001B0018401D00194008000C401FE3D003C0069006600280065007100750061006C00280048006F006C0065003A007400610070007000650064002C0022003000220029002C00220025002500630022002C0048006F006C0065003A006E006F006D0069006E0061006C002000220020002200200069006
311
600280065007100750061006C00280048006F006C0065003A0075006E006900740073002C0022003100220029002C002200780022002C0022002D0022002900200022002000220029003E003C0069006600280065007100750061006C00280048006F006C0065003A007400610070007000650064002C00220030002200290
311
02C0048006F006C0065003A006400690061002C0048006F006C0065003A0070006900740063006800640065007300630029003E0020007B005C00460041004D004700440054003B0078007D0020003C0069006600280065007100750061006C00280048006F006C0065003A007400650072006D0069006E006100740069006
311
F006E002C0022003000220029002C0048006F006C0065003A00640065007000740068002C0022005400480052005500220029003E005C0050007B005C00460041004D004700440054003B0077007D002500250063003C0048006F006C0065003A00630074006400690061003E002000580020003C0048006F006C0065003A0
311
06300740061006E0067006C0065003E00250025006400C
161
                29
310
6DE0101C
 94
        0
  0
ACAD_PROXY_OBJECT
  5
1FA
330
0
100
AcDbProxyObject
 90
      499
 91
      573
 71
    29
 97
      226
 70
     0
162
              3492
311
42950019401B401C001B0018401D00194008000C401CF3D003C0069006600280065007100750061006C00280048006F006C0065003A007400610070007000650064002C0022003000220029002C00220025002500630022002C0048006F006C0065003A006E006F006D0069006E0061006C002000220020002200200069006
311
600280065007100750061006C00280048006F006C0065003A0075006E006900740073002C0022003100220029002C002200780022002C0022002D0022002900200022002000220029003E003C0069006600280065007100750061006C00280048006F006C0065003A007400610070007000650064002C00220030002200290
311
02C0048006F006C0065003A006400690061002C0048006F006C0065003A0070006900740063006800640065007300630029003E005C0050007B005C00460041004D004700440054003B0078007D0020003C0069006600280065007100750061006C00280048006F006C0065003A007400650072006D0069006E00610074006
311
9006F006E002C0022003000220029002C0048006F006C0065003A00640065007000740068002C0022005400480052005500220029003E00C
161
                29
310
6DE0101C
 94
        0
  0
ACAD_PROXY_OBJECT
  5
1F8
330
0
100
AcDbProxyObject
 90
      499
 91
      573
 71
    29
 97
      226
 70
     0
162
               548
311
42950019401B401C001B0018401D00194008000C801173D003C0053005400440050003A0044004500530043003E0020003C0053005400440050003A005300540044003E00C
161
                29
310
6DE01014
 94
        0
  0
ACAD_PROXY_OBJECT
  5
1F7
330
0
100
AcDbProxyObject
 90
      499
 91
      573
 71
    29
 97
      226
 70
     0
162
               372
311
42950019401B401C001B0018401D00194008000C4010C3D003C0053005400440050003A0044004500530043003E00C
161
                29
310
6DE0101C
 94
        0
  0
ACAD_PROXY_OBJECT
  5
1F9
330
0
100
AcDbProxyObject
 90
      499
 91
      573
 71
    29
 97
      226
 70
     0
162
               356
311
42950019401B401C001B0018401D00194008000CC010B3D003C0053005400440050003A005300540044003E00C
161
                29
310
6DE01014
 94
        0
  0
ENDSEC
  0
SECTION
  2
ACDSDATA
 70
     2
 71
     8
  0
ACDSSCHEMA
 90
        0
  1
AcDb_Thumbnail_Schema
  2
AcDbDs::ID
280
    10
 91
        8
  2
Thumbnail_Data
280
    15
 91
        0
101
ACDSRECORD
 95
        0
 90
        1
  2
AcDbDs::TreatedAsObjectData
280
     1
291
     1
101
ACDSRECORD
 95
        0
 90
        2
  2
AcDbDs::Legacy
280
     1
291
     1
101
ACDSRECORD
  1
AcDbDs::ID
 90
        3
  2
AcDs:Indexable
280
     1
291
     1
101
ACDSRECORD
  1
AcDbDs::ID
 90
        4
  2
AcDbDs::HandleAttribute
280
     7
282
     1
  0
ACDSSCHEMA
 90
        1
  1
AcDbDs::TreatedAsObjectDataSchema
  2
AcDbDs::TreatedAsObjectData
280
     1
 91
        0
  0
ACDSSCHEMA
 90
        2
  1
AcDbDs::LegacySchema
  2
AcDbDs::Legacy
280
     1
 91
        0
  0
ACDSSCHEMA
 90
        3
  1
AcDbDs::IndexedPropertySchema
  2
AcDs:Indexable
280
     1
 91
        0
  0
ACDSSCHEMA
 90
        4
  1
AcDbDs::HandleAttributeSchema
  2
AcDbDs::HandleAttribute
280
     7
 91
        1
284
     1
  0
ACDSRECORD
 90
        0
  2
AcDbDs::ID
280
    10
320
22
  2
Thumbnail_Data
280
    15
 94
     1100
310
89504E470D0A1A0A0000000D49484452000001000000006F08030000003479EE6F00000300504C5445212830FFFFFF2128300000000000000000000000000000000000000000000000000000330000660000990000CC0000FF0033000033330033660033990033CC0033FF0066000066330066660066990066CC0066FF0099
310
000099330099660099990099CC0099FF00CC0000CC3300CC6600CC9900CCCC00CCFF00FF0000FF3300FF6600FF9900FFCC00FFFF3300003300333300663300993300CC3300FF3333003333333333663333993333CC3333FF3366003366333366663366993366CC3366FF3399003399333399663399993399CC3399FF33CC00
310
33CC3333CC6633CC9933CCCC33CCFF33FF0033FF3333FF6633FF9933FFCC33FFFF6600006600336600666600996600CC6600FF6633006633336633666633996633CC6633FF6666006666336666666666996666CC6666FF6699006699336699666699996699CC6699FF66CC0066CC3366CC6666CC9966CCCC66CCFF66FF0066
310
FF3366FF6666FF9966FFCC66FFFF9900009900339900669900999900CC9900FF9933009933339933669933999933CC9933FF9966009966339966669966999966CC9966FF9999009999339999669999999999CC9999FF99CC0099CC3399CC6699CC9999CCCC99CCFF99FF0099FF3399FF6699FF9999FFCC99FFFFCC0000CC00
310
33CC0066CC0099CC00CCCC00FFCC3300CC3333CC3366CC3399CC33CCCC33FFCC6600CC6633CC6666CC6699CC66CCCC66FFCC9900CC9933CC9966CC9999CC99CCCC99FFCCCC00CCCC33CCCC66CCCC99CCCCCCCCCCFFCCFF00CCFF33CCFF66CCFF99CCFFCCCCFFFFFF0000FF0033FF0066FF0099FF00CCFF00FFFF3300FF3333
310
FF3366FF3399FF33CCFF33FFFF6600FF6633FF6666FF6699FF66CCFF66FFFF9900FF9933FF9966FF9999FF99CCFF99FFFFCC00FFCC33FFCC66FFCC99FFCCCCFFCCFFFFFF00FFFF33FFFF66FFFF99FFFFCCFFFFFF0000000D0D0D1A1A1A2828283535354343435050505D5D5D6B6B6B787878868686939393A1A1A1AEAEAEBB
310
BBBBC9C9C9D6D6D6E4E4E4F1F1F1FFFFFF0000000000000000000000000000000000000000000000000000000000002E4550F1000001074944415478DAEDD8410E82301005D0DEFFBEB3378AD1183AD82E4818FADEB23684FEC248A7350000000000000080B3C54600020056AD010210002CFF21F4250001002BD780D3C89A
310
2BBF0202D88F4F5D25BF7C9522D81D4E660F9E296BD4BFFE3D46B2AFCF79FBF5BC46E260F3EBBD62B301F4B6B9F47F60240F76BAD45E2CEDFD60940C60AA344437ADF853222E1E40F20AF4977AC327A01D05B0400D80D99A39F90368888086C87D1A22372882E981603F3DFD741EBC46ED00923641FD8ED0EF5D6E03331DA1
310
38E8085D3A812480EC34A8239404908C56EF070CB7C47AABFC34442A2610536DF1A44D52F9501849F15AAD2536BAD75A62CE1391971201000000000000003C0010E7BAC1336AA6A70000000049454E44AE426082
  0
ENDSEC
  0
EOF
