  0
SECTION
  2
HEADER
  9
$ACADVER
  1
AC1032
  9
$ACADMAINTVER
 90
       55
  9
$DWGCODEPAGE
  3
ANSI_1252
  9
$LASTSAVEDBY
  1
angus.staples
  9
$REQUIREDVERSIONS
160
                 0
  9
$INSBASE
 10
0.0
 20
0.0
 30
0.0
  9
$EXTMIN
 10
-2814.486245969704
 20
-420.9597631306402
 30
0.0
  9
$EXTMAX
 10
10707.82269605953
 20
3334.595763632
 30
0.0
  9
$LIMMIN
 10
0.0
 20
0.0
  9
$LIMMAX
 10
12.0
 20
9.0
  9
$ORTHOMODE
 70
     0
  9
$REGENMODE
 70
     1
  9
$FILLMODE
 70
     1
  9
$QTEXTMODE
 70
     0
  9
$MIRRTEXT
 70
     1
  9
$LTSCALE
 40
1.0
  9
$ATTMODE
 70
     1
  9
$TEXTSIZE
 40
0.2
  9
$TRACEWID
 40
0.05
  9
$TEXTSTYLE
  7
Standard
  9
$CLAYER
  8
0
  9
$CELTYPE
  6
ByLayer
  9
$CECOLOR
 62
   256
  9
$CELTSCALE
 40
1.0
  9
$DISPSILH
 70
     0
  9
$DIMSCALE
 40
1.0
  9
$DIMASZ
 40
0.18
  9
$DIMEXO
 40
0.0625
  9
$DIMDLI
 40
0.38
  9
$DIMRND
 40
0.0
  9
$DIMDLE
 40
0.0
  9
$DIMEXE
 40
0.18
  9
$DIMTP
 40
0.0
  9
$DIMTM
 40
0.0
  9
$DIMTXT
 40
0.18
  9
$DIMCEN
 40
0.09
  9
$DIMTSZ
 40
0.0
  9
$DIMTOL
 70
     0
  9
$DIMLIM
 70
     0
  9
$DIMTIH
 70
     1
  9
$DIMTOH
 70
     1
  9
$DIMSE1
 70
     0
  9
$DIMSE2
 70
     0
  9
$DIMTAD
 70
     0
  9
$DIMZIN
 70
     0
  9
$DIMBLK
  1

  9
$DIMASO
 70
     1
  9
$DIMSHO
 70
     1
  9
$DIMPOST
  1

  9
$DIMAPOST
  1

  9
$DIMALT
 70
     0
  9
$DIMALTD
 70
     2
  9
$DIMALTF
 40
25.4
  9
$DIMLFAC
 40
1.0
  9
$DIMTOFL
 70
     0
  9
$DIMTVP
 40
0.0
  9
$DIMTIX
 70
     0
  9
$DIMSOXD
 70
     0
  9
$DIMSAH
 70
     0
  9
$DIMBLK1
  1

  9
$DIMBLK2
  1

  9
$DIMSTYLE
  2
Standard
  9
$DIMCLRD
 70
     0
  9
$DIMCLRE
 70
     0
  9
$DIMCLRT
 70
     0
  9
$DIMTFAC
 40
1.0
  9
$DIMGAP
 40
0.09
  9
$DIMJUST
 70
     0
  9
$DIMSD1
 70
     0
  9
$DIMSD2
 70
     0
  9
$DIMTOLJ
 70
     1
  9
$DIMTZIN
 70
     0
  9
$DIMALTZ
 70
     0
  9
$DIMALTTZ
 70
     0
  9
$DIMUPT
 70
     0
  9
$DIMDEC
 70
     4
  9
$DIMTDEC
 70
     4
  9
$DIMALTU
 70
     2
  9
$DIMALTTD
 70
     2
  9
$DIMTXSTY
  7
Standard
  9
$DIMAUNIT
 70
     0
  9
$DIMADEC
 70
     0
  9
$DIMALTRND
 40
0.0
  9
$DIMAZIN
 70
     0
  9
$DIMDSEP
 70
    46
  9
$DIMATFIT
 70
     3
  9
$DIMFRAC
 70
     0
  9
$DIMLDRBLK
  1

  9
$DIMLUNIT
 70
     2
  9
$DIMLWD
 70
    -2
  9
$DIMLWE
 70
    -2
  9
$DIMTMOVE
 70
     0
  9
$DIMFXL
 40
1.0
  9
$DIMFXLON
 70
     0
  9
$DIMJOGANG
 40
0.7853981633974483
  9
$DIMTFILL
 70
     0
  9
$DIMTFILLCLR
 70
     0
  9
$DIMARCSYM
 70
     0
  9
$DIMLTYPE
  6

  9
$DIMLTEX1
  6

  9
$DIMLTEX2
  6

  9
$DIMTXTDIRECTION
 70
     0
  9
$LUNITS
 70
     2
  9
$LUPREC
 70
     4
  9
$SKETCHINC
 40
0.1
  9
$FILLETRAD
 40
0.5
  9
$AUNITS
 70
     0
  9
$AUPREC
 70
     0
  9
$MENU
  1
.
  9
$ELEVATION
 40
0.0
  9
$PELEVATION
 40
0.0
  9
$THICKNESS
 40
0.0
  9
$LIMCHECK
 70
     0
  9
$CHAMFERA
 40
0.5
  9
$CHAMFERB
 40
0.5
  9
$CHAMFERC
 40
1.0
  9
$CHAMFERD
 40
0.0
  9
$SKPOLY
 70
     0
  9
$TDCREATE
 40
2456463.605381944
  9
$TDUCREATE
 40
2456463.188719456
  9
$TDUPDATE
 40
2458729.696087963
  9
$TDUUPDATE
 40
2458729.279421297
  9
$TDINDWG
 40
0.0505159028
  9
$TDUSRTIMER
 40
0.0505159028
  9
$USRTIMER
 70
     1
  9
$ANGBASE
 50
0.0
  9
$ANGDIR
 70
     0
  9
$PDMODE
 70
     0
  9
$PDSIZE
 40
0.0
  9
$PLINEWID
 40
0.0
  9
$SPLFRAME
 70
     0
  9
$SPLINETYPE
 70
     6
  9
$SPLINESEGS
 70
     8
  9
$HANDSEED
  5
629
  9
$SURFTAB1
 70
     6
  9
$SURFTAB2
 70
     6
  9
$SURFTYPE
 70
     6
  9
$SURFU
 70
     6
  9
$SURFV
 70
     6
  9
$UCSBASE
  2

  9
$UCSNAME
  2

  9
$UCSORG
 10
0.0
 20
0.0
 30
0.0
  9
$UCSXDIR
 10
1.0
 20
0.0
 30
0.0
  9
$UCSYDIR
 10
0.0
 20
1.0
 30
0.0
  9
$UCSORTHOREF
  2

  9
$UCSORTHOVIEW
 70
     0
  9
$UCSORGTOP
 10
0.0
 20
0.0
 30
0.0
  9
$UCSORGBOTTOM
 10
0.0
 20
0.0
 30
0.0
  9
$UCSORGLEFT
 10
0.0
 20
0.0
 30
0.0
  9
$UCSORGRIGHT
 10
0.0
 20
0.0
 30
0.0
  9
$UCSORGFRONT
 10
0.0
 20
0.0
 30
0.0
  9
$UCSORGBACK
 10
0.0
 20
0.0
 30
0.0
  9
$PUCSBASE
  2

  9
$PUCSNAME
  2

  9
$PUCSORG
 10
0.0
 20
0.0
 30
0.0
  9
$PUCSXDIR
 10
1.0
 20
0.0
 30
0.0
  9
$PUCSYDIR
 10
0.0
 20
1.0
 30
0.0
  9
$PUCSORTHOREF
  2

  9
$PUCSORTHOVIEW
 70
     0
  9
$PUCSORGTOP
 10
0.0
 20
0.0
 30
0.0
  9
$PUCSORGBOTTOM
 10
0.0
 20
0.0
 30
0.0
  9
$PUCSORGLEFT
 10
0.0
 20
0.0
 30
0.0
  9
$PUCSORGRIGHT
 10
0.0
 20
0.0
 30
0.0
  9
$PUCSORGFRONT
 10
0.0
 20
0.0
 30
0.0
  9
$PUCSORGBACK
 10
0.0
 20
0.0
 30
0.0
  9
$USERI1
 70
     0
  9
$USERI2
 70
     0
  9
$USERI3
 70
     0
  9
$USERI4
 70
     0
  9
$USERI5
 70
     0
  9
$USERR1
 40
0.0
  9
$USERR2
 40
0.0
  9
$USERR3
 40
0.0
  9
$USERR4
 40
0.0
  9
$USERR5
 40
0.0
  9
$WORLDVIEW
 70
     1
  9
$SHADEDGE
 70
     3
  9
$SHADEDIF
 70
    70
  9
$TILEMODE
 70
     1
  9
$MAXACTVP
 70
    64
  9
$PINSBASE
 10
0.0
 20
0.0
 30
0.0
  9
$PLIMCHECK
 70
     0
  9
$PEXTMIN
 10
1.000000000000000E+20
 20
1.000000000000000E+20
 30
1.000000000000000E+20
  9
$PEXTMAX
 10
-1.000000000000000E+20
 20
-1.000000000000000E+20
 30
-1.000000000000000E+20
  9
$PLIMMIN
 10
0.0
 20
0.0
  9
$PLIMMAX
 10
12.0
 20
9.0
  9
$UNITMODE
 70
     0
  9
$VISRETAIN
 70
     1
  9
$PLINEGEN
 70
     0
  9
$PSLTSCALE
 70
     1
  9
$TREEDEPTH
 70
  3020
  9
$CMLSTYLE
  2
Standard
  9
$CMLJUST
 70
     0
  9
$CMLSCALE
 40
1.0
  9
$PROXYGRAPHICS
 70
     1
  9
$MEASUREMENT
 70
     0
  9
$CELWEIGHT
370
    -1
  9
$ENDCAPS
280
     0
  9
$JOINSTYLE
280
     0
  9
$LWDISPLAY
290
     1
  9
$INSUNITS
 70
     1
  9
$HYPERLINKBASE
  1

  9
$STYLESHEET
  1

  9
$XEDIT
290
     1
  9
$CEPSNTYPE
380
     0
  9
$PSTYLEMODE
290
     1
  9
$FINGERPRINTGUID
  2
{6629124F-0909-4182-96C8-DDEDF709EB63}
  9
$VERSIONGUID
  2
{FE1E51EE-8351-E347-A8D4-148C7BAE7120}
  9
$EXTNAMES
290
     1
  9
$PSVPSCALE
 40
0.0
  9
$OLESTARTUP
290
     0
  9
$SORTENTS
280
   127
  9
$INDEXCTL
280
     0
  9
$HIDETEXT
280
     1
  9
$XCLIPFRAME
280
     0
  9
$HALOGAP
280
     0
  9
$OBSCOLOR
 70
   257
  9
$OBSLTYPE
280
     0
  9
$INTERSECTIONDISPLAY
280
     0
  9
$INTERSECTIONCOLOR
 70
   257
  9
$DIMASSOC
280
     2
  9
$PROJECTNAME
  1

  9
$CAMERADISPLAY
290
     0
  9
$LENSLENGTH
 40
50.0
  9
$CAMERAHEIGHT
 40
0.0
  9
$STEPSPERSEC
 40
2.0
  9
$STEPSIZE
 40
6.0
  9
$3DDWFPREC
 40
2.0
  9
$PSOLWIDTH
 40
0.25
  9
$PSOLHEIGHT
 40
4.0
  9
$LOFTANG1
 40
1.570796326794896
  9
$LOFTANG2
 40
1.570796326794896
  9
$LOFTMAG1
 40
0.0
  9
$LOFTMAG2
 40
0.0
  9
$LOFTPARAM
 70
     7
  9
$LOFTNORMALS
280
     1
  9
$LATITUDE
 40
37.795
  9
$LONGITUDE
 40
-122.394
  9
$NORTHDIRECTION
 40
0.0
  9
$TIMEZONE
 70
 -8000
  9
$LIGHTGLYPHDISPLAY
280
     1
  9
$TILEMODELIGHTSYNCH
280
     1
  9
$CMATERIAL
347
2D5
  9
$SOLIDHIST
280
     1
  9
$SHOWHIST
280
     1
  9
$DWFFRAME
280
     2
  9
$DGNFRAME
280
     0
  9
$REALWORLDSCALE
290
     1
  9
$INTERFERECOLOR
 62
     1
  9
$INTERFEREOBJVS
345
33
  9
$INTERFEREVPVS
346
48F
  9
$CSHADOW
280
     0
  9
$SHADOWPLANELOCATION
 40
0.0
  0
ENDSEC
  0
SECTION
  2
CLASSES
  0
CLASS
  1
ACDBDICTIONARYWDFLT
  2
AcDbDictionaryWithDefault
  3
ObjectDBX Classes
 90
        0
 91
        1
280
     0
281
     0
  0
CLASS
  1
VISUALSTYLE
  2
AcDbVisualStyle
  3
ObjectDBX Classes
 90
     4095
 91
       26
280
     0
281
     0
  0
CLASS
  1
IMAGEDEF
  2
AcDbRasterImageDef
  3
ISM
 90
        0
 91
       18
280
     0
281
     0
  0
CLASS
  1
RASTERVARIABLES
  2
AcDbRasterVariables
  3
ISM
 90
        0
 91
        1
280
     0
281
     0
  0
CLASS
  1
IMAGE
  2
AcDbRasterImage
  3
ISM
 90
     2175
 91
       18
280
     0
281
     1
  0
CLASS
  1
IMAGEDEF_REACTOR
  2
AcDbRasterImageDefReactor
  3
ISM
 90
        1
 91
       18
280
     0
281
     0
  0
CLASS
  1
MATERIAL
  2
AcDbMaterial
  3
ObjectDBX Classes
 90
     1153
 91
        3
280
     0
281
     0
  0
CLASS
  1
TABLESTYLE
  2
AcDbTableStyle
  3
ObjectDBX Classes
 90
     4095
 91
        1
280
     0
281
     0
  0
CLASS
  1
SCALE
  2
AcDbScale
  3
ObjectDBX Classes
 90
     1153
 91
       33
280
     0
281
     0
  0
CLASS
  1
MLEADERSTYLE
  2
AcDbMLeaderStyle
  3
ACDB_MLEADERSTYLE_CLASS
 90
     4095
 91
        1
280
     0
281
     0
  0
CLASS
  1
ACME_DOCUMENT
  2
AcMeDbDoc
  3
AcMeServices
 90
     1024
 91
        0
280
     0
281
     0
  0
CLASS
  1
AMGSETTINGSOBJ
  2
AmgSettingsObj
  3
"AcadM|Product Description: AutoCAD Mechanical|Company: Autodesk, Inc."
 90
     1024
 91
        3
280
     0
281
     0
  0
CLASS
  1
ACMESCOPE
  2
AcMeScope
  3
AcMeServices
 90
     1024
 91
        2
280
     0
281
     0
  0
CLASS
  1
ACMECOMMANDHISTORY
  2
AcMeCommandHistory
  3
AcMeServices
 90
     1024
 91
        2
280
     0
281
     0
  0
CLASS
  1
ACIMSYSVARMAN
  2
AcImSysVarManager
  3
AcMeServices
 90
     1024
 91
        6
280
     0
281
     0
  0
CLASS
  1
ACIMINTSYSVAR
  2
AcImIntSysVar
  3
AcMeServices
 90
     1024
 91
       28
280
     0
281
     0
  0
CLASS
  1
ACMEDRAWINGMAN
  2
AcMeDrawingMan
  3
AcMeServices
 90
     1024
 91
        0
280
     0
281
     0
  0
CLASS
  1
ACMEVIEW
  2
AcMeView
  3
AcMeServices
 90
     1024
 91
        0
280
     0
281
     0
  0
CLASS
  1
ACDBENTITYCACHE
  2
AcMeEntityCache
  3
AcMeServices
 90
     1024
 91
        0
280
     0
281
     0
  0
CLASS
  1
ACMESTATEMGR
  2
AcMeStateMgr
  3
AcMeServices
 90
     1024
 91
        2
280
     0
281
     0
  0
CLASS
  1
ACGREFMASTER
  2
AcGrefMaster
  3
AcAttribServices
 90
     1024
 91
        2
280
     0
281
     0
  0
CLASS
  1
AM_DRAWING_MGR
  2
AcDmDwgMgr
  3
AcMechDwgViewMgmt
 90
     1024
 91
        2
280
     0
281
     0
  0
CLASS
  1
AM_DWG_DOCUMENT
  2
AcDmDwgDocument
  3
AcMechDwgViewMgmt
 90
     1024
 91
        2
280
     0
281
     0
  0
CLASS
  1
AM_DWG_SHEET
  2
AcDmSheet
  3
AcMechDwgViewMgmt
 90
     1024
 91
        3
280
     0
281
     0
  0
CLASS
  1
AM_VIEWDIMPARMAP
  2
AcDmViewDimParMap
  3
AcMechDwgViewMgmt
 90
     1024
 91
        3
280
     0
281
     0
  0
CLASS
  1
AMDTINTERNALREACTOR
  2
AmdtInternalReactor
  3
AcMeServices
 90
     1024
 91
        0
280
     0
281
     0
  0
CLASS
  1
ACIMREALSYSVAR
  2
AcImRealSysVar
  3
AcMeServices
 90
     1024
 91
        2
280
     0
281
     0
  0
CLASS
  1
AM_DWGMGR_NAME
  2
AcDmDwgMgrName
  3
AcMechDwgViewMgmt
 90
     1024
 91
        2
280
     0
281
     0
  0
CLASS
  1
ACME_DATABASE
  2
AcMeDbDatabase
  3
AcMeServices
 90
     1024
 91
        0
280
     0
281
     0
  0
CLASS
  1
ACRFINSADJUSTERMGR
  2
AcRfInsAdjusterMgr
  3
AcMeServices
 90
     1024
 91
        0
280
     0
281
     0
  0
CLASS
  1
ACGREFACADMASTER
  2
AcGrefacadMaster
  3
AcGrefServices
 90
     1024
 91
        2
280
     0
281
     0
  0
CLASS
  1
AMDTMENUSTATEMGR
  2
AmdtMenuStateMgr
  3
McadcomServices
 90
     1024
 91
        0
280
     0
281
     0
  0
CLASS
  1
AMDTMCOMMENUSTATE
  2
AmdtMcomMenuState
  3
McadcomServices
 90
     1024
 91
        0
280
     0
281
     0
  0
CLASS
  1
AMIMASTER
  2
AmiMaster
  3
AmiServices
 90
     1024
 91
        2
280
     0
281
     0
  0
CLASS
  1
MAPIAMMOUDLE
  2
MApiAmModule
  3
MApiAmServices
 90
     1024
 91
        2
280
     0
281
     0
  0
CLASS
  1
ACIMSTRSYSVAR
  2
AcImStrSysVar
  3
AcMeServices
 90
     1024
 91
        6
280
     0
281
     0
  0
CLASS
  1
AMDTADMENUSTATE
  2
AmdtAdMenuState
  3
DesignerServices
 90
     1024
 91
        0
280
     0
281
     0
  0
CLASS
  1
ADAPPL
  2
AcAdAppl
  3
DesignerAssemblies
 90
     1024
 91
        0
280
     0
281
     0
  0
CLASS
  1
DEPMGR
  2
AcAdDepMgr
  3
DesignerAssemblies
 90
     1024
 91
        0
280
     0
281
     0
  0
CLASS
  1
PARAMMGR
  2
AcAdParamMgr
  3
DesignerAssemblies
 90
     1024
 91
        0
280
     0
281
     0
  0
CLASS
  1
PARAMSCOPE
  2
AcAdParamScope
  3
DesignerAssemblies
 90
     1024
 91
        0
280
     0
281
     0
  0
CLASS
  1
NAMEDAPPL
  2
AcAdNamedAppl
  3
DesignerAssemblies
 90
     1024
 91
        0
280
     0
281
     0
  0
CLASS
  1
AMDTDMMENUSTATE
  2
AmdtDmMenuState
  3
AcMechDwgViewMgmt
 90
     1024
 91
        0
280
     0
281
     0
  0
CLASS
  1
AMDTAMMENUSTATE
  2
AmdtAmMenuState
  3
DesignerAssemblies
 90
     1024
 91
        0
280
     0
281
     0
  0
CLASS
  1
ACAMPROJECT
  2
AcAmProject
  3
DesignerAssemblies
 90
     1024
 91
        2
280
     0
281
     0
  0
CLASS
  1
ACAMGRCOMPDEF
  2
AcAmGrCompDef
  3
DesignerAssemblies
 90
     1024
 91
        2
280
     0
281
     0
  0
CLASS
  1
ACAMCOMPDEF
  2
AcAmCompDef
  3
DesignerAssemblies
 90
     1024
 91
        2
280
     0
281
     0
  0
CLASS
  1
ACAMCOMPDEFMGR
  2
AcAmCompDefMgr
  3
DesignerAssemblies
 90
     1024
 91
        2
280
     0
281
     0
  0
CLASS
  1
AMCONTEXTMGR
  2
AcAmContextMgr
  3
DesignerAssemblies
 90
     1024
 91
        2
280
     0
281
     0
  0
CLASS
  1
ACAMCONTEXTMODELER
  2
AcAmContextModeler
  3
DesignerAssemblies
 90
     1024
 91
        2
280
     0
281
     0
  0
CLASS
  1
ACMDATADICTIONARY
  2
AcmDataDictionary
  3
"AcmSymBB|Product Description: AutoCAD Mechanical|Company: Autodesk, Inc."
 90
     1024
 91
        2
280
     0
281
     0
  0
CLASS
  1
CATALOGSTATE
  2
AcAmCatalogState
  3
DesignerAssemblies
 90
     1024
 91
        0
280
     0
281
     0
  0
CLASS
  1
ACAMGRCOMPDEFSET
  2
AcAmGrCompDefSet
  3
DesignerAssemblies
 90
     1024
 91
        0
280
     0
281
     0
  0
CLASS
  1
AMDTBROWSERDBTAB
  2
AmdtBrowserDbTab
  3
McadcomServices
 90
     1024
 91
        0
280
     0
281
     0
  0
CLASS
  1
CBROWSERAPPOBJECT
  2
CBrowserAppObject
  3
McadcomServices
 90
     1024
 91
        0
280
     0
281
     0
  0
CLASS
  1
DM_PLACEHOLDER
  2
AcDmSelsetPlaceholder
  3
McadcomServices
 90
     1024
 91
        0
280
     0
281
     0
  0
CLASS
  1
EXACXREFPANELOBJECT
  2
ExAcXREFPanelObject
  3
EXAC_ESW
 90
     1025
 91
        0
280
     0
281
     0
  0
CLASS
  1
NPOCOLLECTION
  2
AcDbImpNonPersistentObjectsCollection
  3
ObjectDBX Classes
 90
     1153
 91
        0
280
     0
281
     0
  0
CLASS
  1
ACMSTANDARDANSI
  2
AcmStandardANSI
  3
"Amdt_StdImp|Product Description: AutoCAD Mechanical|Company: Autodesk, Inc."
 90
     1024
 91
        2
280
     0
281
     0
  0
CLASS
  1
ACMSURFSTANDARDANSI
  2
AcmSurfTextStdANSI
  3
"Amdt_StdImp|Product Description: AutoCAD Mechanical|Company: Autodesk, Inc."
 90
     1024
 91
        2
280
     0
281
     0
  0
CLASS
  1
ACMFCFSTANDARDANSI
  2
AcmFCFStdANSI
  3
"Amdt_StdImp|Product Description: AutoCAD Mechanical|Company: Autodesk, Inc."
 90
     1024
 91
        2
280
     0
281
     0
  0
CLASS
  1
ACMWELDSTANDARDANSI
  2
AcmWeldingStdANSI
  3
"Amdt_StdImp|Product Description: AutoCAD Mechanical|Company: Autodesk, Inc."
 90
     1024
 91
        2
280
     0
281
     0
  0
CLASS
  1
ACMIDSTANDARDANSI
  2
AcmIdStdANSI
  3
"Amdt_StdImp|Product Description: AutoCAD Mechanical|Company: Autodesk, Inc."
 90
     1024
 91
        2
280
     0
281
     0
  0
CLASS
  1
ACMDATUMSTANDARDANSI
  2
AcmDatumStdANSI
  3
"Amdt_StdImp|Product Description: AutoCAD Mechanical|Company: Autodesk, Inc."
 90
     1024
 91
        2
280
     0
281
     0
  0
CLASS
  1
ACMBOMSTANDARDANSI
  2
AcmBOMStdANSI
  3
"Amdt_StdImp|Product Description: AutoCAD Mechanical|Company: Autodesk, Inc."
 90
     1024
 91
        2
280
     0
281
     0
  0
CLASS
  1
ACMDETAILSTANDARDANSI
  2
AmdtDetailSymStdANSI
  3
"Amdt_StdImp|Product Description: AutoCAD Mechanical|Company: Autodesk, Inc."
 90
     1024
 91
        2
280
     0
281
     0
  0
CLASS
  1
ACMSECTIONSTANDARDANSI
  2
AmdtSectionSymStdANSI
  3
"Amdt_StdImp|Product Description: AutoCAD Mechanical|Company: Autodesk, Inc."
 90
     1024
 91
        2
280
     0
281
     0
  0
CLASS
  1
ACMCENTERLINESTANDARDANSI
  2
AmdtCenterLineStdANSI
  3
"Amdt_StdImp|Product Description: AutoCAD Mechanical|Company: Autodesk, Inc."
 90
     1024
 91
        2
280
     0
281
     0
  0
CLASS
  1
ACMTHREADLINESTANDARDANSI
  2
AmdtThreadLineStdANSI
  3
"Amdt_StdImp|Product Description: AutoCAD Mechanical|Company: Autodesk, Inc."
 90
     1024
 91
        2
280
     0
281
     0
  0
CLASS
  1
ACMNOTESTANDARDANSI
  2
AmdtNoteStdANSI
  3
"Amdt_StdImp|Product Description: AutoCAD Mechanical|Company: Autodesk, Inc."
 90
     1024
 91
        2
280
     0
281
     0
  0
CLASS
  1
ACMTAPERSTANDARDANSI
  2
AcmTaperStdANSI
  3
"Amdt_StdImp|Product Description: AutoCAD Mechanical|Company: Autodesk, Inc."
 90
     1024
 91
        2
280
     0
281
     0
  0
CLASS
  1
ACMANOOTATIONVIEWSTANDARDANSI
  2
AmdtAnViewStdANSI
  3
"Amdt_StdImp|Product Description: AutoCAD Mechanical|Company: Autodesk, Inc."
 90
     1024
 91
        2
280
     0
281
     0
  0
CLASS
  1
ACAMGLAYSTD
  2
AcAmgLayStd
  3
"AmgLay|Product Description: AutoCAD Mechanical|Company: Autodesk, Inc."
 90
     1024
 91
        2
280
     0
281
     0
  0
CLASS
  1
ACAMGDIMSTD
  2
AcAmgDimStd
  3
"AmgDim|Product Description: AutoCAD Mechanical|Company: Autodesk, Inc."
 90
     1024
 91
        2
280
     0
281
     0
  0
CLASS
  1
AMGOBJPROPCFG
  2
AmgObjPropCfg
  3
"AmgLay|Product Description: AutoCAD Mechanical|Company: Autodesk, Inc."
 90
     1024
 91
        2
280
     0
281
     0
  0
CLASS
  1
ACAMGHOLECHARTSTDANSI
  2
AcAmgHoleChartStdANSI
  3
AmgDim|Product Description: AutoCAD Mechanical|Company: Autodesk, Inc.
 90
     1024
 91
        2
280
     0
281
     0
  0
CLASS
  1
ACAMGTITLESTD
  2
AcAmgTitleStd
  3
"AmgTitle|Product Description: AutoCAD Mechanical|Company: Autodesk, Inc."
 90
     1024
 91
        2
280
     0
281
     0
  0
CLASS
  1
AMDTNOTETEMPLATEDB
  2
AmdtNoteTemplateDB
  3
AcmSymBB|Product Description: AutoCAD Mechanical|Company: Autodesk, Inc.
 90
     1024
 91
        7
280
     0
281
     0
  0
CLASS
  1
CAMSSTRUCTBTNSTATE
  2
StructBtnState
  3
DesignerAssemblies
 90
     1024
 91
        2
280
     0
281
     0
  0
CLASS
  1
DICTIONARYVAR
  2
AcDbDictionaryVar
  3
ObjectDBX Classes
 90
        0
 91
        9
280
     0
281
     0
  0
CLASS
  1
SORTENTSTABLE
  2
AcDbSortentsTable
  3
ObjectDBX Classes
 90
        0
 91
        1
280
     0
281
     0
  0
CLASS
  1
ACDBSECTIONVIEWSTYLE
  2
AcDbSectionViewStyle
  3
ObjectDBX Classes
 90
     1025
 91
        2
280
     0
281
     0
  0
CLASS
  1
ACDBDETAILVIEWSTYLE
  2
AcDbDetailViewStyle
  3
ObjectDBX Classes
 90
     1025
 91
        2
280
     0
281
     0
  0
CLASS
  1
ACMSECTIONSTANDARDCUSTOM
  2
AmdtSectionSymStdCustom
  3
"Amdt_StdImp|Product Description: AutoCAD Mechanical|Company: Autodesk, Inc."
 90
     1024
 91
        2
280
     0
281
     0
  0
CLASS
  1
ACMDETAILTANDARDCUSTOM
  2
AmdtDetailSymStdCustom
  3
"Amdt_StdImp|Product Description: AutoCAD Mechanical|Company: Autodesk, Inc."
 90
     1024
 91
        2
280
     0
281
     0
  0
CLASS
  1
FIELD
  2
AcDbField
  3
ObjectDBX Classes
 90
     1152
 91
        4
280
     0
281
     0
  0
CLASS
  1
FIELDLIST
  2
AcDbFieldList
  3
ObjectDBX Classes
 90
     1152
 91
        1
280
     0
281
     0
  0
CLASS
  1
ACAMGFILTERDAT
  2
AcAmgFilterDat
  3
"AcadM|Product Description: AutoCAD Mechanical|Company: Autodesk, Inc."
 90
     1024
 91
        7
280
     0
281
     0
  0
CLASS
  1
CELLSTYLEMAP
  2
AcDbCellStyleMap
  3
ObjectDBX Classes
 90
     1152
 91
        2
280
     0
281
     0
  0
ENDSEC
  0
SECTION
  2
TABLES
  0
TABLE
  2
VPORT
  5
8
330
0
100
AcDbSymbolTable
 70
     1
  0
VPORT
  5
29
330
8
100
AcDbSymbolTableRecord
100
AcDbViewportTableRecord
  2
*Active
 70
     0
 10
0.0
 20
0.0
 11
1.0
 21
1.0
 12
5529.701148153719
 22
203.6129098786842
 13
0.0
 23
0.0
 14
0.5
 24
0.5
 15
0.5
 25
0.5
 16
0.0
 26
0.0
 36
1.0
 17
148.4999796178229
 27
-105.0008259828643
 37
0.0
 40
11862.02195757224
 41
2.292712066905615
 42
50.0
 43
0.0
 44
0.0
 50
0.0
 51
0.0
 71
     0
 72
   100
 73
     1
 74
     3
 75
     0
 76
     0
 77
     0
 78
     0
281
     0
 65
     1
110
0.0
120
0.0
130
0.0
111
1.0
121
0.0
131
0.0
112
0.0
122
1.0
132
0.0
 79
     0
146
0.0
348
2F
 60
     3
 61
     5
292
     1
282
     1
141
0.0
142
0.0
 63
   250
421
  3355443
1001
ACAD_NAV_VCDISPLAY
1070
     3
  0
ENDTAB
  0
TABLE
  2
LTYPE
  5
5
330
0
100
AcDbSymbolTable
 70
    17
  0
LTYPE
  5
14
330
5
100
AcDbSymbolTableRecord
100
AcDbLinetypeTableRecord
  2
ByBlock
 70
     0
  3

 72
    65
 73
     0
 40
0.0
  0
LTYPE
  5
15
330
5
100
AcDbSymbolTableRecord
100
AcDbLinetypeTableRecord
  2
ByLayer
 70
     0
  3

 72
    65
 73
     0
 40
0.0
  0
LTYPE
  5
16
330
5
100
AcDbSymbolTableRecord
100
AcDbLinetypeTableRecord
  2
Continuous
 70
     0
  3
Solid line
 72
    65
 73
     0
 40
0.0
  0
LTYPE
  5
34C
330
5
100
AcDbSymbolTableRecord
100
AcDbLinetypeTableRecord
  2
HIDDEN
 70
     0
  3
Hidden __ __ __ __ __ __ __ __ __ __ __ __ __ _
 72
    65
 73
     2
 40
0.375
 49
0.25
 74
     0
 49
-0.125
 74
     0
  0
LTYPE
  5
34D
330
5
100
AcDbSymbolTableRecord
100
AcDbLinetypeTableRecord
  2
PHANTOM2
 70
     0
  3
Phantom (.5x) ___ _ _ ___ _ _ ___ _ _ ___ _ _
 72
    65
 73
     6
 40
1.25
 49
0.625
 74
     0
 49
-0.125
 74
     0
 49
0.125
 74
     0
 49
-0.125
 74
     0
 49
0.125
 74
     0
 49
-0.125
 74
     0
  0
LTYPE
  5
34E
330
5
100
AcDbSymbolTableRecord
100
AcDbLinetypeTableRecord
  2
CENTER
 70
     0
  3
Center ____ _ ____ _ ____ _ ____ _ ____ _ ____
 72
    65
 73
     4
 40
2.0
 49
1.25
 74
     0
 49
-0.25
 74
     0
 49
0.25
 74
     0
 49
-0.25
 74
     0
  0
LTYPE
  5
395
330
5
100
AcDbSymbolTableRecord
100
AcDbLinetypeTableRecord
  2
AM_ISO02W050
 70
     0
  3
__ __ __ __ __ __ __ __ __ __ __ __ __ __ __
 72
    65
 73
     2
 40
7.5
 49
6.0
 74
     0
 49
-1.5
 74
     0
  0
LTYPE
  5
396
330
5
100
AcDbSymbolTableRecord
100
AcDbLinetypeTableRecord
  2
AM_ISO08W050
 70
     0
  3
____ . ____ . ____ . ____ . ____ . ____ . ____
 72
    65
 73
     4
 40
18.0
 49
12.0
 74
     0
 49
-1.5
 74
     0
 49
3.0
 74
     0
 49
-1.5
 74
     0
  0
LTYPE
  5
397
330
5
100
AcDbSymbolTableRecord
100
AcDbLinetypeTableRecord
  2
AM_ISO09W050
 70
     0
  3
_____ . . _____ . . _____ . . ____ .. ____
 72
    65
 73
     6
 40
22.5
 49
12.0
 74
     0
 49
-1.5
 74
     0
 49
3.0
 74
     0
 49
-1.5
 74
     0
 49
3.0
 74
     0
 49
-1.5
 74
     0
  0
LTYPE
  5
398
330
5
100
AcDbSymbolTableRecord
100
AcDbLinetypeTableRecord
  2
Amconstr
 70
     0
  3
_______________________
 72
    65
 73
     2
 40
9999.0
 49
9999.0
 74
     0
 49
0.0
 74
     0
  0
LTYPE
  5
399
330
5
100
AcDbSymbolTableRecord
100
AcDbLinetypeTableRecord
  2
AM_ISO08W050x2
 70
     0
  3
__ . __ . __ . __ . __ . __
 72
    65
 73
     4
 40
9.0
 49
6.0
 74
     0
 49
-0.75
 74
     0
 49
1.5
 74
     0
 49
-0.75
 74
     0
  0
LTYPE
  5
39A
330
5
100
AcDbSymbolTableRecord
100
AcDbLinetypeTableRecord
  2
AM_ISO02W050x2
 70
     0
  3
 _ _ _ _ _ _ _ _ _ _ _ _
 72
    65
 73
     2
 40
3.75
 49
3.0
 74
     0
 49
-0.75
 74
     0
  0
LTYPE
  5
39D
330
5
100
AcDbSymbolTableRecord
100
AcDbLinetypeTableRecord
  2
Amzigzag
 70
     0
  3
/\/-/\/-/\/-/\/-/\/-/\/
 72
    65
 73
     2
 40
11.0001
 49
0.0001
 74
     4
 75
   136
340
39C
 46
0.04
 50
0.0
 44
0.0
 45
0.0
 49
-11.0
 74
     0
  0
LTYPE
  5
39E
330
5
100
AcDbSymbolTableRecord
100
AcDbLinetypeTableRecord
  2
CENTER2
 70
     0
  3
Center (.5x) ___ _ ___ _ ___ _ ___ _ ___ _ ___
 72
    65
 73
     4
 40
1.125
 49
0.75
 74
     0
 49
-0.125
 74
     0
 49
0.125
 74
     0
 49
-0.125
 74
     0
  0
LTYPE
  5
39F
330
5
100
AcDbSymbolTableRecord
100
AcDbLinetypeTableRecord
  2
HIDDEN2
 70
     0
  3
Hidden (.5x) _ _ _ _ _ _ _ _ _ _ _ _ _ _ _ _ _
 72
    65
 73
     2
 40
0.1875
 49
0.125
 74
     0
 49
-0.0625
 74
     0
  0
LTYPE
  5
3A0
330
5
100
AcDbSymbolTableRecord
100
AcDbLinetypeTableRecord
  2
Amzigzag2
 70
     0
  3
/\/-/\/-/\/-/\/-/\/-/\/
 72
    65
 73
     2
 40
0.4401
 49
0.0001
 74
     4
 75
   136
340
39C
 46
0.0016
 50
0.0
 44
0.0
 45
0.0
 49
-0.4400000000000001
 74
     0
  0
LTYPE
  5
3AE
330
5
100
AcDbSymbolTableRecord
100
AcDbLinetypeTableRecord
  2
ACANSTGB
 70
     0
  3
__ . . __ . .
 72
    65
 73
     6
 40
0.35433070866
 49
0.15748031496
 74
     0
 49
-0.03937007874
 74
     0
 49
0.03937007874
 74
     0
 49
-0.03937007874
 74
     0
 49
0.03937007874
 74
     0
 49
-0.03937007874
 74
     0
  0
LTYPE
  5
3AF
330
5
100
AcDbSymbolTableRecord
100
AcDbLinetypeTableRecord
  2
ACANSTGL
 70
     0
  3
_ _ _ _ _
 72
    65
 73
     2
 40
0.11811023622
 49
0.07874015748
 74
     0
 49
-0.03937007874
 74
     0
  0
ENDTAB
  0
TABLE
  2
LAYER
  5
2
102
{ACAD_XDICTIONARY
360
3BE
102
}
330
0
100
AcDbSymbolTable
 70
     5
  0
LAYER
  5
10
102
{ACAD_XDICTIONARY
360
3B6
102
}
330
2
100
AcDbSymbolTableRecord
100
AcDbLayerTableRecord
  2
0
 70
     0
 62
     7
  6
Continuous
370
    -3
390
F
347
2E5
348
0
  0
LAYER
  5
3B
102
{ACAD_XDICTIONARY
360
3B8
102
}
330
2
100
AcDbSymbolTableRecord
100
AcDbLayerTableRecord
  2
Layer 1
 70
     0
 62
     7
  6
Continuous
370
    -3
390
F
347
2E5
348
0
  0
LAYER
  5
48A
330
2
100
AcDbSymbolTableRecord
100
AcDbLayerTableRecord
  2
DIMENSIONS
 70
     0
 62
     7
  6
Continuous
370
    -3
390
F
347
2E5
348
0
1001
AcAecLayerStandard
1000

1000

  0
LAYER
  5
48C
330
2
100
AcDbSymbolTableRecord
100
AcDbLayerTableRecord
  2
TEXT
 70
     0
 62
     7
  6
Continuous
370
    -3
390
F
347
2E5
348
0
1001
AcAecLayerStandard
1000

1000

  0
LAYER
  5
48D
330
2
100
AcDbSymbolTableRecord
100
AcDbLayerTableRecord
  2
FURNITURE
 70
     0
 62
     7
  6
Continuous
370
    -3
390
F
347
2E5
348
0
1001
AcAecLayerStandard
1000

1000

  0
ENDTAB
  0
TABLE
  2
STYLE
  5
3
330
0
100
AcDbSymbolTable
 70
     4
  0
STYLE
  5
11
330
3
100
AcDbSymbolTableRecord
100
AcDbTextStyleTableRecord
  2
Standard
 70
     0
 40
0.0
 41
1.000099999999999
 50
0.0
 71
     0
 42
0.2
  3
apercu_regular-webfont.ttf
  4

1001
ACAD
1000
Apercu
1071
        2
  0
STYLE
  5
39C
330
3
100
AcDbSymbolTableRecord
100
AcDbTextStyleTableRecord
  2

 70
     1
 40
0.0
 41
1.0
 50
0.0
 71
     0
 42
0.2
  3
genltshp.shx
  4

  0
STYLE
  5
3AC
330
3
100
AcDbSymbolTableRecord
100
AcDbTextStyleTableRecord
  2
ACANSTS
 70
     0
 40
1.0
 41
1.0
 50
0.0
 71
     0
 42
0.2
  3
romans.shx
  4

  0
STYLE
  5
3AD
330
3
100
AcDbSymbolTableRecord
100
AcDbTextStyleTableRecord
  2
ACANSGDT
 70
     0
 40
0.0
 41
1.0
 50
0.0
 71
     0
 42
0.2
  3
amgdt.shx
  4

  0
ENDTAB
  0
TABLE
  2
VIEW
  5
6
330
0
100
AcDbSymbolTable
 70
    10
  0
ENDTAB
  0
TABLE
  2
UCS
  5
7
330
0
100
AcDbSymbolTable
 70
     0
  0
ENDTAB
  0
TABLE
  2
APPID
  5
9
330
0
100
AcDbSymbolTable
 70
    14
  0
APPID
  5
12
330
9
100
AcDbSymbolTableRecord
100
AcDbRegAppTableRecord
  2
ACAD
 70
     0
  0
APPID
  5
31F
330
9
100
AcDbSymbolTableRecord
100
AcDbRegAppTableRecord
  2
MCAD_NO_VIS
 70
     0
  0
APPID
  5
320
330
9
100
AcDbSymbolTableRecord
100
AcDbRegAppTableRecord
  2
ACAD_TEMP_GRAPHIC
 70
     0
  0
APPID
  5
350
330
9
100
AcDbSymbolTableRecord
100
AcDbRegAppTableRecord
  2
AD_DRAW
 70
     0
  0
APPID
  5
353
330
9
100
AcDbSymbolTableRecord
100
AcDbRegAppTableRecord
  2
ACATTRIBSERVICES
 70
     0
  0
APPID
  5
373
330
9
100
AcDbSymbolTableRecord
100
AcDbRegAppTableRecord
  2
DESIGNERASSEMBLIES
 70
     0
  0
APPID
  5
379
330
9
100
AcDbSymbolTableRecord
100
AcDbRegAppTableRecord
  2
ACADM_DIM_EDIT
 70
     0
  0
APPID
  5
37A
330
9
100
AcDbSymbolTableRecord
100
AcDbRegAppTableRecord
  2
AMDT_DM_ADJ
 70
     0
  0
APPID
  5
392
330
9
100
AcDbSymbolTableRecord
100
AcDbRegAppTableRecord
  2
ACAD_DSTYLE_DIMJAG
 70
     0
  0
APPID
  5
393
330
9
100
AcDbSymbolTableRecord
100
AcDbRegAppTableRecord
  2
ACAD_DSTYLE_DIMBREAK
 70
     0
  0
APPID
  5
469
330
9
100
AcDbSymbolTableRecord
100
AcDbRegAppTableRecord
  2
ACAD_EXEMPT_FROM_CAD_STANDARDS
 70
     0
  0
APPID
  5
48B
330
9
100
AcDbSymbolTableRecord
100
AcDbRegAppTableRecord
  2
AcAecLayerStandard
 70
     0
  0
APPID
  5
4D1
330
9
100
AcDbSymbolTableRecord
100
AcDbRegAppTableRecord
  2
ACAD_NAV_VCDISPLAY
 70
     0
  0
APPID
  5
4FA
330
9
100
AcDbSymbolTableRecord
100
AcDbRegAppTableRecord
  2
AcadAnnoPO
 70
     0
  0
ENDTAB
  0
TABLE
  2
DIMSTYLE
  5
A
330
0
100
AcDbSymbolTable
 70
     8
100
AcDbDimStyleTable
 71
     1
340
27
  0
DIMSTYLE
105
27
330
A
100
AcDbSymbolTableRecord
100
AcDbDimStyleTableRecord
  2
Standard
 70
     0
340
11
  0
DIMSTYLE
105
391
102
{ACAD_REACTORS
330
381
102
}
330
A
100
AcDbSymbolTableRecord
100
AcDbDimStyleTableRecord
  2
AM_ANSI
 70
     0
  4
mm
 41
0.12
 42
0.05
 43
0.5
 44
0.1
 47
0.1
 48
0.1
 78
     7
 79
     2
 90
     1
140
0.12
141
0.0
146
0.71
147
0.06
176
   256
177
   256
178
   140
274
     4
284
     7
340
11
345
14
346
14
347
14
371
    -1
372
    -1
1001
ACAD_DSTYLE_DIMJAG
1070
   388
1040
1.5
1001
ACAD_DSTYLE_DIMBREAK
1070
   391
1040
0.125
  0
DIMSTYLE
105
3A1
330
A
100
AcDbSymbolTableRecord
100
AcDbDimStyleTableRecord
  2
AM_ANSI$3
 70
     0
  4
mm
 41
0.12
 42
0.05
 43
0.5
 44
0.1
 47
0.1
 48
0.1
 78
     7
 79
     2
 90
     1
140
0.12
141
0.0
146
0.71
147
0.06
176
   256
177
   256
178
   140
274
     4
284
     7
288
     1
289
     0
340
11
345
14
346
14
347
14
371
    -1
372
    -1
1001
ACAD_DSTYLE_DIMBREAK
1070
   391
1040
0.125
1001
ACAD_DSTYLE_DIMJAG
1070
   388
1040
1.5
  0
DIMSTYLE
105
3A2
330
A
100
AcDbSymbolTableRecord
100
AcDbDimStyleTableRecord
  2
AM_ANSI$4
 70
     0
  4
mm
 41
0.12
 42
0.05
 43
0.5
 44
0.1
 47
0.1
 48
0.1
 78
     7
 79
     2
 90
     1
140
0.12
141
0.0
146
0.71
147
0.06
176
   256
177
   256
178
   140
274
     4
284
     7
288
     1
289
     0
340
11
345
14
346
14
347
14
371
    -1
372
    -1
1001
ACAD_DSTYLE_DIMBREAK
1070
   391
1040
0.125
1001
ACAD_DSTYLE_DIMJAG
1070
   388
1040
1.5
  0
DIMSTYLE
105
3A3
330
A
100
AcDbSymbolTableRecord
100
AcDbDimStyleTableRecord
  2
AM_ANSI$7
 70
     0
  4
mm
 41
0.12
 42
0.05
 43
0.5
 44
0.1
 47
0.1
 48
0.1
 78
     7
 79
     2
 90
     1
140
0.12
141
0.0
146
0.71
147
0.06
176
   256
177
   256
178
   140
274
     4
284
     7
340
11
345
14
346
14
347
14
371
    -1
372
    -1
1001
ACAD_DSTYLE_DIMBREAK
1070
   391
1040
0.125
1001
ACAD_DSTYLE_DIMJAG
1070
   388
1040
1.5
  0
DIMSTYLE
105
3A4
330
A
100
AcDbSymbolTableRecord
100
AcDbDimStyleTableRecord
  2
AM_ANSI$SF
 70
     0
  4
mm
 41
0.12
 42
0.05
 43
0.5
 44
0.1
 47
0.1
 48
0.1
 75
     1
 76
     1
 78
     7
 79
     2
 90
     1
140
0.12
141
0.0
146
0.71
147
0.06
176
   256
177
   256
178
   140
274
     4
284
     7
340
11
345
14
346
14
347
14
371
    -1
372
    -1
1001
ACAD_DSTYLE_DIMBREAK
1070
   391
1040
0.125
1001
ACAD_DSTYLE_DIMJAG
1070
   388
1040
1.5
  0
DIMSTYLE
105
3A9
330
A
100
AcDbSymbolTableRecord
100
AcDbDimStyleTableRecord
  2
AM_ANSI$SH
 70
     0
  4
mm
 41
0.12
 42
0.05
 43
0.5
 44
0.1
 47
0.1
 48
0.1
 75
     1
 76
     1
 78
     7
 79
     2
 90
     1
140
0.12
141
0.0
146
0.71
147
0.06
173
     1
176
   256
177
   256
178
   140
274
     4
284
     7
340
11
343
3A5
345
14
346
14
347
14
371
    -1
372
    -1
1001
ACAD_DSTYLE_DIMBREAK
1070
   391
1040
0.125
1001
ACAD_DSTYLE_DIMJAG
1070
   388
1040
1.5
  0
ENDTAB
  0
TABLE
  2
BLOCK_RECORD
  5
1
330
0
100
AcDbSymbolTable
 70
    51
  0
BLOCK_RECORD
  5
1F
102
{ACAD_XDICTIONARY
360
3EB
102
}
330
1
100
AcDbSymbolTableRecord
100
AcDbBlockTableRecord
  2
*Model_Space
340
22
 70
     0
280
     1
281
     0
  0
BLOCK_RECORD
  5
1B
330
1
100
AcDbSymbolTableRecord
100
AcDbBlockTableRecord
  2
*Paper_Space
340
1E
 70
     0
280
     1
281
     0
  0
BLOCK_RECORD
  5
23
330
1
100
AcDbSymbolTableRecord
100
AcDbBlockTableRecord
  2
*Paper_Space0
340
26
 70
     0
280
     1
281
     0
  0
BLOCK_RECORD
  5
3C
330
1
100
AcDbSymbolTableRecord
100
AcDbBlockTableRecord
  2
block 2
340
0
102
{BLKREFS
331
3D
102
}
 70
     0
280
     1
281
     0
  0
BLOCK_RECORD
  5
40
330
1
100
AcDbSymbolTableRecord
100
AcDbBlockTableRecord
  2
block 3
340
0
102
{BLKREFS
331
41
102
}
 70
     0
280
     1
281
     0
  0
BLOCK_RECORD
  5
44
330
1
100
AcDbSymbolTableRecord
100
AcDbBlockTableRecord
  2
block 4
340
0
102
{BLKREFS
331
45
102
}
 70
     0
280
     1
281
     0
  0
BLOCK_RECORD
  5
48
330
1
100
AcDbSymbolTableRecord
100
AcDbBlockTableRecord
  2
block 5
340
0
102
{BLKREFS
331
49
102
}
 70
     0
280
     1
281
     0
  0
BLOCK_RECORD
  5
4C
330
1
100
AcDbSymbolTableRecord
100
AcDbBlockTableRecord
  2
block 6
340
0
102
{BLKREFS
331
4D
102
}
 70
     0
280
     1
281
     0
  0
BLOCK_RECORD
  5
52
330
1
100
AcDbSymbolTableRecord
100
AcDbBlockTableRecord
  2
block 7
340
0
 70
     0
280
     1
281
     0
  0
BLOCK_RECORD
  5
69
330
1
100
AcDbSymbolTableRecord
100
AcDbBlockTableRecord
  2
block 8
340
0
 70
     0
280
     1
281
     0
  0
BLOCK_RECORD
  5
76
330
1
100
AcDbSymbolTableRecord
100
AcDbBlockTableRecord
  2
block 9
340
0
102
{BLKREFS
331
77
102
}
 70
     0
280
     1
281
     0
  0
BLOCK_RECORD
  5
7A
330
1
100
AcDbSymbolTableRecord
100
AcDbBlockTableRecord
  2
block 10
340
0
102
{BLKREFS
331
7B
102
}
 70
     0
280
     1
281
     0
  0
BLOCK_RECORD
  5
96
330
1
100
AcDbSymbolTableRecord
100
AcDbBlockTableRecord
  2
block 11
340
0
 70
     0
280
     1
281
     0
  0
BLOCK_RECORD
  5
9D
330
1
100
AcDbSymbolTableRecord
100
AcDbBlockTableRecord
  2
block 12
340
0
102
{BLKREFS
331
9E
102
}
 70
     0
280
     1
281
     0
  0
BLOCK_RECORD
  5
AF
330
1
100
AcDbSymbolTableRecord
100
AcDbBlockTableRecord
  2
block 13
340
0
 70
     0
280
     1
281
     0
  0
BLOCK_RECORD
  5
B3
330
1
100
AcDbSymbolTableRecord
100
AcDbBlockTableRecord
  2
block 14
340
0
102
{BLKREFS
331
B4
102
}
 70
     0
280
     1
281
     0
  0
BLOCK_RECORD
  5
ED
330
1
100
AcDbSymbolTableRecord
100
AcDbBlockTableRecord
  2
block 15
340
0
102
{BLKREFS
331
EE
102
}
 70
     0
280
     1
281
     0
  0
BLOCK_RECORD
  5
F1
330
1
100
AcDbSymbolTableRecord
100
AcDbBlockTableRecord
  2
block 16
340
0
102
{BLKREFS
331
F2
102
}
 70
     0
280
     1
281
     0
  0
BLOCK_RECORD
  5
F5
330
1
100
AcDbSymbolTableRecord
100
AcDbBlockTableRecord
  2
block 17
340
0
102
{BLKREFS
331
F6
102
}
 70
     0
280
     1
281
     0
  0
BLOCK_RECORD
  5
F9
330
1
100
AcDbSymbolTableRecord
100
AcDbBlockTableRecord
  2
block 18
340
0
102
{BLKREFS
331
FA
102
}
 70
     0
280
     1
281
     0
  0
BLOCK_RECORD
  5
103
330
1
100
AcDbSymbolTableRecord
100
AcDbBlockTableRecord
  2
block 19
340
0
 70
     0
280
     1
281
     0
  0
BLOCK_RECORD
  5
113
330
1
100
AcDbSymbolTableRecord
100
AcDbBlockTableRecord
  2
block 20
340
0
 70
     0
280
     1
281
     0
  0
BLOCK_RECORD
  5
121
330
1
100
AcDbSymbolTableRecord
100
AcDbBlockTableRecord
  2
block 21
340
0
 70
     0
280
     1
281
     0
  0
BLOCK_RECORD
  5
12F
330
1
100
AcDbSymbolTableRecord
100
AcDbBlockTableRecord
  2
block 22
340
0
 70
     0
280
     1
281
     0
  0
BLOCK_RECORD
  5
13D
330
1
100
AcDbSymbolTableRecord
100
AcDbBlockTableRecord
  2
block 23
340
0
 70
     0
280
     1
281
     0
  0
BLOCK_RECORD
  5
14B
330
1
100
AcDbSymbolTableRecord
100
AcDbBlockTableRecord
  2
block 24
340
0
 70
     0
280
     1
281
     0
  0
BLOCK_RECORD
  5
159
330
1
100
AcDbSymbolTableRecord
100
AcDbBlockTableRecord
  2
block 25
340
0
 70
     0
280
     1
281
     0
  0
BLOCK_RECORD
  5
167
330
1
100
AcDbSymbolTableRecord
100
AcDbBlockTableRecord
  2
block 26
340
0
 70
     0
280
     1
281
     0
  0
BLOCK_RECORD
  5
175
330
1
100
AcDbSymbolTableRecord
100
AcDbBlockTableRecord
  2
block 27
340
0
 70
     0
280
     1
281
     0
  0
BLOCK_RECORD
  5
194
330
1
100
AcDbSymbolTableRecord
100
AcDbBlockTableRecord
  2
block 28
340
0
 70
     0
280
     1
281
     0
  0
BLOCK_RECORD
  5
1AB
330
1
100
AcDbSymbolTableRecord
100
AcDbBlockTableRecord
  2
block 29
340
0
 70
     0
280
     1
281
     0
  0
BLOCK_RECORD
  5
1B8
330
1
100
AcDbSymbolTableRecord
100
AcDbBlockTableRecord
  2
block 30
340
0
102
{BLKREFS
331
1B9
102
}
 70
     0
280
     1
281
     0
  0
BLOCK_RECORD
  5
1BC
330
1
100
AcDbSymbolTableRecord
100
AcDbBlockTableRecord
  2
block 31
340
0
102
{BLKREFS
331
1BD
102
}
 70
     0
280
     1
281
     0
  0
BLOCK_RECORD
  5
1D8
330
1
100
AcDbSymbolTableRecord
100
AcDbBlockTableRecord
  2
block 32
340
0
 70
     0
280
     1
281
     0
  0
BLOCK_RECORD
  5
1DF
330
1
100
AcDbSymbolTableRecord
100
AcDbBlockTableRecord
  2
block 33
340
0
102
{BLKREFS
331
1E0
102
}
 70
     0
280
     1
281
     0
  0
BLOCK_RECORD
  5
1F1
330
1
100
AcDbSymbolTableRecord
100
AcDbBlockTableRecord
  2
block 34
340
0
 70
     0
280
     1
281
     0
  0
BLOCK_RECORD
  5
1F5
330
1
100
AcDbSymbolTableRecord
100
AcDbBlockTableRecord
  2
block 35
340
0
102
{BLKREFS
331
1F6
102
}
 70
     0
280
     1
281
     0
  0
BLOCK_RECORD
  5
22F
330
1
100
AcDbSymbolTableRecord
100
AcDbBlockTableRecord
  2
block 36
340
0
102
{BLKREFS
331
230
102
}
 70
     0
280
     1
281
     0
  0
BLOCK_RECORD
  5
233
330
1
100
AcDbSymbolTableRecord
100
AcDbBlockTableRecord
  2
block 37
340
0
102
{BLKREFS
331
234
102
}
 70
     0
280
     1
281
     0
  0
BLOCK_RECORD
  5
237
330
1
100
AcDbSymbolTableRecord
100
AcDbBlockTableRecord
  2
block 38
340
0
102
{BLKREFS
331
238
102
}
 70
     0
280
     1
281
     0
  0
BLOCK_RECORD
  5
241
330
1
100
AcDbSymbolTableRecord
100
AcDbBlockTableRecord
  2
block 39
340
0
 70
     0
280
     1
281
     0
  0
BLOCK_RECORD
  5
24F
330
1
100
AcDbSymbolTableRecord
100
AcDbBlockTableRecord
  2
block 40
340
0
 70
     0
280
     1
281
     0
  0
BLOCK_RECORD
  5
25D
330
1
100
AcDbSymbolTableRecord
100
AcDbBlockTableRecord
  2
block 41
340
0
 70
     0
280
     1
281
     0
  0
BLOCK_RECORD
  5
26B
330
1
100
AcDbSymbolTableRecord
100
AcDbBlockTableRecord
  2
block 42
340
0
 70
     0
280
     1
281
     0
  0
BLOCK_RECORD
  5
279
330
1
100
AcDbSymbolTableRecord
100
AcDbBlockTableRecord
  2
block 43
340
0
 70
     0
280
     1
281
     0
  0
BLOCK_RECORD
  5
287
330
1
100
AcDbSymbolTableRecord
100
AcDbBlockTableRecord
  2
block 44
340
0
 70
     0
280
     1
281
     0
  0
BLOCK_RECORD
  5
295
330
1
100
AcDbSymbolTableRecord
100
AcDbBlockTableRecord
  2
block 45
340
0
 70
     0
280
     1
281
     0
  0
BLOCK_RECORD
  5
2A3
330
1
100
AcDbSymbolTableRecord
100
AcDbBlockTableRecord
  2
block 46
340
0
 70
     0
280
     1
281
     0
  0
BLOCK_RECORD
  5
2B1
330
1
100
AcDbSymbolTableRecord
100
AcDbBlockTableRecord
  2
block 47
340
0
 70
     0
280
     1
281
     0
  0
BLOCK_RECORD
  5
36B
330
1
100
AcDbSymbolTableRecord
100
AcDbBlockTableRecord
  2
*U47
340
0
 70
     0
280
     1
281
     0
  0
BLOCK_RECORD
  5
3A5
330
1
100
AcDbSymbolTableRecord
100
AcDbBlockTableRecord
  2
GENAXEH
340
0
 70
     0
280
     1
281
     0
  0
BLOCK_RECORD
  5
4AF
330
1
100
AcDbSymbolTableRecord
100
AcDbBlockTableRecord
  2
_ACMFILLEDHALF
340
0
 70
     0
280
     1
281
     0
  0
ENDTAB
  0
ENDSEC
  0
SECTION
  2
BLOCKS
  0
BLOCK
  5
20
330
1F
100
AcDbEntity
  8
0
100
AcDbBlockBegin
  2
*Model_Space
 70
     0
 10
0.0
 20
0.0
 30
0.0
  3
*Model_Space
  1

  0
ENDBLK
  5
21
330
1F
100
AcDbEntity
  8
0
100
AcDbBlockEnd
  0
BLOCK
  5
1C
330
1B
100
AcDbEntity
 67
     1
  8
0
100
AcDbBlockBegin
  2
*Paper_Space
 70
     0
 10
0.0
 20
0.0
 30
0.0
  3
*Paper_Space
  1

  0
ENDBLK
  5
1D
330
1B
100
AcDbEntity
 67
     1
  8
0
100
AcDbBlockEnd
  0
BLOCK
  5
24
330
23
100
AcDbEntity
 67
     1
  8
0
100
AcDbBlockBegin
  2
*Paper_Space0
 70
     0
 10
0.0
 20
0.0
 30
0.0
  3
*Paper_Space0
  1

  0
ENDBLK
  5
25
330
23
100
AcDbEntity
 67
     1
  8
0
100
AcDbBlockEnd
  0
BLOCK
  5
3E
330
3C
100
AcDbEntity
  8
0
100
AcDbBlockBegin
  2
block 2
 70
     0
 10
0.0
 20
0.0
 30
0.0
  3
block 2
  1

  0
ENDBLK
  5
3F
330
3C
100
AcDbEntity
  8
0
100
AcDbBlockEnd
  0
BLOCK
  5
42
330
40
100
AcDbEntity
  8
0
100
AcDbBlockBegin
  2
block 3
 70
     0
 10
0.0
 20
0.0
 30
0.0
  3
block 3
  1

  0
ENDBLK
  5
43
330
40
100
AcDbEntity
  8
0
100
AcDbBlockEnd
  0
BLOCK
  5
46
330
44
100
AcDbEntity
  8
0
100
AcDbBlockBegin
  2
block 4
 70
     0
 10
0.0
 20
0.0
 30
0.0
  3
block 4
  1

  0
INSERT
  5
49
330
44
100
AcDbEntity
  8
Layer 1
100
AcDbBlockReference
  2
block 5
 10
0.0
 20
0.0
 30
0.0
  0
INSERT
  5
4D
330
44
100
AcDbEntity
  8
Layer 1
100
AcDbBlockReference
  2
block 6
 10
0.0
 20
0.0
 30
0.0
  0
ENDBLK
  5
47
330
44
100
AcDbEntity
  8
0
100
AcDbBlockEnd
  0
BLOCK
  5
4A
330
48
100
AcDbEntity
  8
0
100
AcDbBlockBegin
  2
block 5
 70
     0
 10
0.0
 20
0.0
 30
0.0
  3
block 5
  1

  0
ENDBLK
  5
4B
330
48
100
AcDbEntity
  8
0
100
AcDbBlockEnd
  0
BLOCK
  5
4E
330
4C
100
AcDbEntity
  8
0
100
AcDbBlockBegin
  2
block 6
 70
     0
 10
0.0
 20
0.0
 30
0.0
  3
block 6
  1

  0
ENDBLK
  5
4F
330
4C
100
AcDbEntity
  8
0
100
AcDbBlockEnd
  0
BLOCK
  5
54
330
52
100
AcDbEntity
  8
0
100
AcDbBlockBegin
  2
block 7
 70
     0
 10
0.0
 20
0.0
 30
0.0
  3
block 7
  1

  0
SPLINE
  5
56
330
52
100
AcDbEntity
  8
Layer 1
 62
   250
370
     9
100
AcDbSpline
210
0.0
220
0.0
230
1.0
 70
     9
 71
     3
 72
    29
 73
    25
 74
     0
 42
0.000000001
 43
0.0000000001
 40
0.0
 40
0.0
 40
0.0
 40
0.0
 40
1.0
 40
1.0
 40
1.0
 40
2.0
 40
2.0
 40
2.0
 40
3.0
 40
3.0
 40
3.0
 40
4.0
 40
4.0
 40
4.0
 40
5.0
 40
5.0
 40
5.0
 40
6.0
 40
6.0
 40
6.0
 40
7.0
 40
7.0
 40
7.0
 40
8.0
 40
8.0
 40
8.0
 40
8.0
 10
199.3463161393995
 20
385.8939302963217
 30
0.0
 10
199.3153102800323
 20
385.4219522148424
 30
0.0
 10
198.981136017963
 20
385.5118692070075
 30
0.0
 10
198.5642794642478
 20
385.5394299708894
 30
0.0
 10
198.5642794642478
 20
385.5394299708894
 30
0.0
 10
198.5642794642478
 20
385.5394299708894
 30
0.0
 10
198.5642794642478
 20
385.5394299708894
 30
0.0
 10
198.1467338914355
 20
385.5676797538685
 30
0.0
 10
197.8042914002017
 20
385.5211709648177
 30
0.0
 10
197.8352972595689
 20
385.9928045367484
 30
0.0
 10
197.8352972595689
 20
385.9928045367484
 30
0.0
 10
198.8391980839707
 20
396.3477280367638
 30
0.0
 10
198.8391980839707
 20
396.3477280367638
 30
0.0
 10
198.869514924241
 20
396.8191893539202
 30
0.0
 10
199.008007762748
 20
396.8591524615491
 30
0.0
 10
199.3332247765556
 20
396.8372761052178
 30
0.0
 10
199.3332247765556
 20
396.8372761052178
 30
0.0
 10
199.3332247765556
 20
396.8372761052178
 30
0.0
 10
199.3332247765556
 20
396.8372761052178
 30
0.0
 10
199.5805826323965
 20
396.8214286659856
 30
0.0
 10
199.7638617122118
 20
396.7926621186838
 30
0.0
 10
199.7328558528446
 20
396.3205117824303
 30
0.0
 10
199.7328558528446
 20
396.3205117824303
 30
0.0
 10
199.3463161393995
 20
385.8939302963217
 30
0.0
 10
199.3463161393995
 20
385.8939302963217
 30
0.0
  0
SPLINE
  5
57
330
52
100
AcDbEntity
  8
Layer 1
 62
   250
370
     9
100
AcDbSpline
210
0.0
220
0.0
230
1.0
 70
     9
 71
     3
 72
    29
 73
    25
 74
     0
 42
0.000000001
 43
0.0000000001
 40
0.0
 40
0.0
 40
0.0
 40
0.0
 40
1.0
 40
1.0
 40
1.0
 40
2.0
 40
2.0
 40
2.0
 40
3.0
 40
3.0
 40
3.0
 40
4.0
 40
4.0
 40
4.0
 40
5.0
 40
5.0
 40
5.0
 40
6.0
 40
6.0
 40
6.0
 40
7.0
 40
7.0
 40
7.0
 40
8.0
 40
8.0
 40
8.0
 40
8.0
 10
206.8807399656409
 20
385.898753430001
 30
0.0
 10
206.9062336722318
 20
385.4271198580704
 30
0.0
 10
207.2500542016597
 20
385.5230657673345
 30
0.0
 10
207.6772460418307
 20
385.5564831935414
 30
0.0
 10
207.6772460418307
 20
385.5564831935414
 30
0.0
 10
207.6772460418307
 20
385.5564831935414
 30
0.0
 10
207.6772460418307
 20
385.5564831935414
 30
0.0
 10
208.1065049392928
 20
385.5905896388454
 30
0.0
 10
208.4565266405942
 20
385.5501097668938
 30
0.0
 10
208.4296548958092
 20
386.0210543197274
 30
0.0
 10
208.4296548958092
 20
386.0210543197274
 30
0.0
 10
207.4236870141163
 20
396.3541014634115
 30
0.0
 10
207.4236870141163
 20
396.3541014634115
 30
0.0
 10
207.3981933075255
 20
396.8233234685025
 30
0.0
 10
207.2576334117273
 20
396.8620807927116
 30
0.0
 10
206.923459149658
 20
396.8355535574752
 30
0.0
 10
206.923459149658
 20
396.8355535574752
 30
0.0
 10
206.923459149658
 20
396.8355535574752
 30
0.0
 10
206.923459149658
 20
396.8355535574752
 30
0.0
 10
206.6699001219436
 20
396.815055239338
 30
0.0
 10
206.481797908449
 20
396.7831881060994
 30
0.0
 10
206.5079806341369
 20
396.3117267889429
 30
0.0
 10
206.5079806341369
 20
396.3117267889429
 30
0.0
 10
206.8807399656409
 20
385.898753430001
 30
0.0
 10
206.8807399656409
 20
385.898753430001
 30
0.0
  0
POLYLINE
  5
58
330
52
100
AcDbEntity
  8
Layer 1
 62
   250
370
     9
100
AcDb2dPolyline
 66
     1
 10
0.0
 20
0.0
 30
0.0
  0
VERTEX
  5
59
330
58
100
AcDbEntity
  8
Layer 1
 62
   250
370
     9
100
AcDbVertex
100
AcDb2dVertex
 10
206.5052245577487
 20
395.9205361965928
 30
0.0
  0
VERTEX
  5
5A
330
58
100
AcDbEntity
  8
Layer 1
 62
   250
370
     9
100
AcDbVertex
100
AcDb2dVertex
 10
199.7363009483298
 20
395.9205361965928
 30
0.0
  0
VERTEX
  5
5B
330
58
100
AcDbEntity
  8
Layer 1
 62
   250
370
     9
100
AcDbVertex
100
AcDb2dVertex
 10
199.6956488216038
 20
396.6624375093414
 30
0.0
  0
VERTEX
  5
5C
330
58
100
AcDbEntity
  8
Layer 1
 62
   250
370
     9
100
AcDbVertex
100
AcDb2dVertex
 10
206.5534558945422
 20
396.6624375093414
 30
0.0
  0
VERTEX
  5
5D
330
58
100
AcDbEntity
  8
Layer 1
 62
   250
370
     9
100
AcDbVertex
100
AcDb2dVertex
 10
206.5052245577487
 20
395.9205361965928
 30
0.0
  0
SEQEND
  5
5E
330
58
100
AcDbEntity
  8
Layer 1
370
     9
  0
SPLINE
  5
5F
330
52
100
AcDbEntity
  8
Layer 1
 62
   250
370
     9
100
AcDbSpline
210
0.0
220
0.0
230
1.0
 70
     9
 71
     3
 72
    17
 73
    13
 74
     0
 42
0.000000001
 43
0.0000000001
 40
0.0
 40
0.0
 40
0.0
 40
0.0
 40
1.0
 40
1.0
 40
1.0
 40
2.0
 40
2.0
 40
2.0
 40
3.0
 40
3.0
 40
3.0
 40
4.0
 40
4.0
 40
4.0
 40
4.0
 10
199.6956488216038
 20
395.5798162531016
 30
0.0
 10
199.6956488216038
 20
395.1264416872427
 30
0.0
 10
199.6811794205658
 20
394.7500650054792
 30
0.0
 10
199.6811794205658
 20
394.7500650054792
 30
0.0
 10
199.6811794205658
 20
394.7500650054792
 30
0.0
 10
203.1090494283894
 20
393.5019069111731
 30
0.0
 10
206.5534558945422
 20
394.7622950944518
 30
0.0
 10
206.5534558945422
 20
394.7622950944518
 30
0.0
 10
206.5479437417658
 20
395.0716646690273
 30
0.0
 10
206.5341633598248
 20
395.5133259102363
 30
0.0
 10
206.5162488633015
 20
396.1151840915094
 30
0.0
 10
199.6956488216038
 20
395.9236367825295
 30
0.0
 10
199.6956488216038
 20
395.5798162531016
 30
0.0
  0
POLYLINE
  5
60
330
52
100
AcDbEntity
  8
Layer 1
 62
   250
370
     9
100
AcDb2dPolyline
 66
     1
 10
0.0
 20
0.0
 30
0.0
  0
VERTEX
  5
61
330
60
100
AcDbEntity
  8
Layer 1
 62
   250
370
     9
100
AcDbVertex
100
AcDb2dVertex
 10
199.35320633037
 20
386.0973631847257
 30
0.0
  0
VERTEX
  5
62
330
60
100
AcDbEntity
  8
Layer 1
 62
   250
370
     9
100
AcDbVertex
100
AcDb2dVertex
 10
206.8648925264088
 20
386.0973631847257
 30
0.0
  0
SEQEND
  5
63
330
60
100
AcDbEntity
  8
Layer 1
370
     9
  0
ENDBLK
  5
55
330
52
100
AcDbEntity
  8
0
100
AcDbBlockEnd
  0
BLOCK
  5
6B
330
69
100
AcDbEntity
  8
0
100
AcDbBlockBegin
  2
block 8
 70
     0
 10
0.0
 20
0.0
 30
0.0
  3
block 8
  1

  0
SPLINE
  5
6D
330
69
100
AcDbEntity
  8
Layer 1
 62
   250
370
     9
100
AcDbSpline
210
0.0
220
0.0
230
1.0
 70
     8
 71
     3
 72
    14
 73
    10
 74
     0
 42
0.000000001
 43
0.0000000001
 40
0.0
 40
0.0
 40
0.0
 40
0.0
 40
1.0
 40
1.0
 40
1.0
 40
2.0
 40
2.0
 40
2.0
 40
3.0
 40
3.0
 40
3.0
 40
3.0
 10
122.0504312845915
 20
392.4082613493806
 30
0.0
 10
122.4958821308343
 20
393.9597601011628
 30
0.0
 10
123.2646551883678
 20
395.7870387465394
 30
0.0
 10
124.1987928291933
 20
396.7208318778164
 30
0.0
 10
124.1987928291933
 20
396.7208318778164
 30
0.0
 10
124.6068643894212
 20
396.5819945297608
 30
0.0
 10
124.6068643894212
 20
396.5819945297608
 30
0.0
 10
124.6068643894212
 20
396.5819945297608
 30
0.0
 10
124.4623426338149
 20
395.3069646906698
 30
0.0
 10
124.4623426338149
 20
395.3069646906698
 30
0.0
  0
SPLINE
  5
6E
330
69
100
AcDbEntity
  8
Layer 1
 62
   250
370
     9
100
AcDbSpline
210
0.0
220
0.0
230
1.0
 70
     8
 71
     3
 72
    11
 73
     7
 74
     0
 42
0.000000001
 43
0.0000000001
 40
0.0
 40
0.0
 40
0.0
 40
0.0
 40
1.0
 40
1.0
 40
1.0
 40
2.0
 40
2.0
 40
2.0
 40
2.0
 10
121.8165093011431
 20
390.1982325955928
 30
0.0
 10
121.6626857877267
 20
390.8159382160981
 30
0.0
 10
121.8528550585125
 20
391.6506848521742
 30
0.0
 10
121.8528550585125
 20
391.6506848521742
 30
0.0
 10
121.8905788540759
 20
391.8126043399809
 30
0.0
 10
121.9327812737703
 20
391.9807249996611
 30
0.0
 10
121.9792900628211
 20
392.1531520286978
 30
0.0
  0
POLYLINE
  5
6F
330
69
100
AcDbEntity
  8
Layer 1
 62
   250
370
     9
100
AcDb2dPolyline
 66
     1
 10
0.0
 20
0.0
 30
0.0
  0
VERTEX
  5
70
330
6F
100
AcDbEntity
  8
Layer 1
 62
   250
370
     9
100
AcDbVertex
100
AcDb2dVertex
 10
123.5667900624243
 20
391.695815603031
 30
0.0
  0
VERTEX
  5
2CE
330
6F
100
AcDbEntity
  8
0
100
AcDbVertex
100
AcDb2dVertex
 10
123.5667900624243
 20
391.695815603031
 30
0.0
  0
SEQEND
  5
71
330
6F
100
AcDbEntity
  8
Layer 1
370
     9
  0
POLYLINE
  5
72
330
69
100
AcDbEntity
  8
Layer 1
 62
   250
370
     9
100
AcDb2dPolyline
 66
     1
 10
0.0
 20
0.0
 30
0.0
  0
VERTEX
  5
73
330
72
100
AcDbEntity
  8
Layer 1
 62
   250
370
     9
100
AcDbVertex
100
AcDb2dVertex
 10
123.7473130658514
 20
388.962649099808
 30
0.0
  0
VERTEX
  5
2CF
330
72
100
AcDbEntity
  8
0
100
AcDbVertex
100
AcDb2dVertex
 10
123.7473130658514
 20
388.962649099808
 30
0.0
  0
SEQEND
  5
74
330
72
100
AcDbEntity
  8
Layer 1
370
     9
  0
SPLINE
  5
75
330
69
100
AcDbEntity
  8
Layer 1
 62
   250
370
     9
100
AcDbSpline
210
0.0
220
0.0
230
1.0
 70
     8
 71
     3
 72
    17
 73
    13
 74
     0
 42
0.000000001
 43
0.0000000001
 40
0.0
 40
0.0
 40
0.0
 40
0.0
 40
1.0
 40
1.0
 40
1.0
 40
2.0
 40
2.0
 40
2.0
 40
3.0
 40
3.0
 40
3.0
 40
4.0
 40
4.0
 40
4.0
 40
4.0
 10
124.3717366225529
 20
392.3207559240552
 30
0.0
 10
124.3717366225529
 20
392.3207559240552
 30
0.0
 10
124.9828965616362
 20
394.9000989138618
 30
0.0
 10
124.9828965616362
 20
394.9000989138618
 30
0.0
 10
124.9828965616362
 20
394.9000989138618
 30
0.0
 10
125.1889132716542
 20
395.3124768434462
 30
0.0
 10
124.8457817613233
 20
395.4492471342106
 30
0.0
 10
124.5028225057666
 20
395.5870509536207
 30
0.0
 10
124.4166951186354
 20
395.1746730240362
 30
0.0
 10
124.3650186863566
 20
395.1231688465317
 30
0.0
 10
124.3650186863566
 20
395.1231688465317
 30
0.0
 10
123.5249321522785
 20
392.3524508025196
 30
0.0
 10
123.5249321522785
 20
392.3524508025196
 30
0.0
  0
INSERT
  5
77
330
69
100
AcDbEntity
  8
Layer 1
100
AcDbBlockReference
  2
block 9
 10
0.0
 20
0.0
 30
0.0
  0
SPLINE
  5
94
330
69
100
AcDbEntity
  8
Layer 1
 62
   250
370
     9
100
AcDbSpline
210
0.0
220
0.0
230
1.0
 70
     8
 71
     3
 72
     8
 73
     4
 74
     0
 42
0.000000001
 43
0.0000000001
 40
0.0
 40
0.0
 40
0.0
 40
0.0
 40
1.0
 40
1.0
 40
1.0
 40
1.0
 10
114.6353800169141
 20
390.5344739149532
 30
0.0
 10
114.0784803317234
 20
390.5344739149532
 30
0.0
 10
113.942399060056
 20
388.5514769536434
 30
0.0
 10
114.6102308198717
 20
388.5514769536434
 30
0.0
  0
SPLINE
  5
95
330
69
100
AcDbEntity
  8
Layer 1
 62
   250
370
     9
100
AcDbSpline
210
0.0
220
0.0
230
1.0
 70
     8
 71
     3
 72
    17
 73
    13
 74
     0
 42
0.000000001
 43
0.0000000001
 40
0.0
 40
0.0
 40
0.0
 40
0.0
 40
1.0
 40
1.0
 40
1.0
 40
2.0
 40
2.0
 40
2.0
 40
3.0
 40
3.0
 40
3.0
 40
4.0
 40
4.0
 40
4.0
 40
4.0
 10
123.4448336822464
 20
392.0976859913853
 30
0.0
 10
123.4448336822464
 20
392.0976859913853
 30
0.0
 10
123.066562197966
 20
390.859863183535
 30
0.0
 10
122.9239352448766
 20
390.6271469835064
 30
0.0
 10
122.9239352448766
 20
390.6271469835064
 30
0.0
 10
122.7813082917873
 20
390.176011729713
 30
0.0
 10
122.2664387715167
 20
390.176011729713
 30
0.0
 10
121.7513969964719
 20
390.176011729713
 30
0.0
 10
120.0271267061043
 20
390.3787555990199
 30
0.0
 10
118.6883626005362
 20
390.4645384766027
 30
0.0
 10
117.3499430045167
 20
390.5506658637339
 30
0.0
 10
115.2534301469679
 20
390.5937295572995
 30
0.0
 10
115.2534301469679
 20
390.5937295572995
 30
0.0
  0
ENDBLK
  5
6C
330
69
100
AcDbEntity
  8
0
100
AcDbBlockEnd
  0
BLOCK
  5
78
330
76
100
AcDbEntity
  8
0
100
AcDbBlockBegin
  2
block 9
 70
     0
 10
0.0
 20
0.0
 30
0.0
  3
block 9
  1

  0
INSERT
  5
7B
330
76
100
AcDbEntity
  8
Layer 1
100
AcDbBlockReference
  2
block 10
 10
0.0
 20
0.0
 30
0.0
  0
ENDBLK
  5
79
330
76
100
AcDbEntity
  8
0
100
AcDbBlockEnd
  0
BLOCK
  5
7C
330
7A
100
AcDbEntity
  8
0
100
AcDbBlockBegin
  2
block 10
 70
     0
 10
0.0
 20
0.0
 30
0.0
  3
block 10
  1

  0
POLYLINE
  5
7E
330
7A
100
AcDbEntity
  8
Layer 1
 62
   250
370
     9
100
AcDb2dPolyline
 66
     1
 10
0.0
 20
0.0
 30
0.0
  0
VERTEX
  5
7F
330
7E
100
AcDbEntity
  8
Layer 1
 62
   250
370
     9
100
AcDbVertex
100
AcDb2dVertex
 10
125.1296576293078
 20
392.2921616315277
 30
0.0
  0
VERTEX
  5
80
330
7E
100
AcDbEntity
  8
Layer 1
 62
   250
370
     9
100
AcDbVertex
100
AcDb2dVertex
 10
113.8120021959393
 20
392.7193534716987
 30
0.0
  0
VERTEX
  5
81
330
7E
100
AcDbEntity
  8
Layer 1
 62
   250
370
     9
100
AcDbVertex
100
AcDb2dVertex
 10
113.8020114190321
 20
392.4621770937248
 30
0.0
  0
VERTEX
  5
82
330
7E
100
AcDbEntity
  8
Layer 1
 62
   250
370
     9
100
AcDbVertex
100
AcDb2dVertex
 10
114.6519164752433
 20
392.4301377057119
 30
0.0
  0
VERTEX
  5
83
330
7E
100
AcDbEntity
  8
Layer 1
 62
   250
370
     9
100
AcDbVertex
100
AcDb2dVertex
 10
114.5917995590256
 20
385.5142807738472
 30
0.0
  0
VERTEX
  5
84
330
7E
100
AcDbEntity
  8
Layer 1
 62
   250
370
     9
100
AcDbVertex
100
AcDb2dVertex
 10
115.3493760562321
 20
385.5142807738472
 30
0.0
  0
VERTEX
  5
85
330
7E
100
AcDbEntity
  8
Layer 1
 62
   250
370
     9
100
AcDbVertex
100
AcDb2dVertex
 10
115.292876490274
 20
388.5077242409807
 30
0.0
  0
VERTEX
  5
86
330
7E
100
AcDbEntity
  8
Layer 1
 62
   250
370
     9
100
AcDbVertex
100
AcDb2dVertex
 10
123.5595553619052
 20
388.4637992735438
 30
0.0
  0
VERTEX
  5
87
330
7E
100
AcDbEntity
  8
Layer 1
 62
   250
370
     9
100
AcDbVertex
100
AcDb2dVertex
 10
123.5201090185991
 20
385.5218599839147
 30
0.0
  0
VERTEX
  5
88
330
7E
100
AcDbEntity
  8
Layer 1
 62
   250
370
     9
100
AcDbVertex
100
AcDb2dVertex
 10
124.2663167007042
 20
385.5218599839147
 30
0.0
  0
VERTEX
  5
89
330
7E
100
AcDbEntity
  8
Layer 1
 62
   250
370
     9
100
AcDbVertex
100
AcDb2dVertex
 10
124.1910413643515
 20
392.0696084631805
 30
0.0
  0
VERTEX
  5
8A
330
7E
100
AcDbEntity
  8
Layer 1
 62
   250
370
     9
100
AcDbVertex
100
AcDb2dVertex
 10
125.1200113619491
 20
392.034468489231
 30
0.0
  0
VERTEX
  5
8B
330
7E
100
AcDbEntity
  8
Layer 1
 62
   250
370
     9
100
AcDbVertex
100
AcDb2dVertex
 10
125.1296576293078
 20
392.2921616315277
 30
0.0
  0
SEQEND
  5
8C
330
7E
100
AcDbEntity
  8
Layer 1
370
     9
  0
POLYLINE
  5
8D
330
7A
100
AcDbEntity
  8
Layer 1
 62
   250
370
     9
100
AcDb2dPolyline
 66
     1
 10
0.0
 20
0.0
 30
0.0
  0
VERTEX
  5
8E
330
8D
100
AcDbEntity
  8
Layer 1
 62
   250
370
     9
100
AcDbVertex
100
AcDb2dVertex
 10
123.56661780765
 20
388.9991671119517
 30
0.0
  0
VERTEX
  5
8F
330
8D
100
AcDbEntity
  8
Layer 1
 62
   250
370
     9
100
AcDbVertex
100
AcDb2dVertex
 10
115.282368949044
 20
389.060489811589
 30
0.0
  0
VERTEX
  5
90
330
8D
100
AcDbEntity
  8
Layer 1
 62
   250
370
     9
100
AcDbVertex
100
AcDb2dVertex
 10
115.2191514468897
 20
392.4086058589291
 30
0.0
  0
VERTEX
  5
91
330
8D
100
AcDbEntity
  8
Layer 1
 62
   250
370
     9
100
AcDbVertex
100
AcDb2dVertex
 10
123.6081312082472
 20
392.0916570742861
 30
0.0
  0
VERTEX
  5
92
330
8D
100
AcDbEntity
  8
Layer 1
 62
   250
370
     9
100
AcDbVertex
100
AcDb2dVertex
 10
123.56661780765
 20
388.9991671119517
 30
0.0
  0
SEQEND
  5
93
330
8D
100
AcDbEntity
  8
Layer 1
370
     9
  0
ENDBLK
  5
7D
330
7A
100
AcDbEntity
  8
0
100
AcDbBlockEnd
  0
BLOCK
  5
98
330
96
100
AcDbEntity
  8
0
100
AcDbBlockBegin
  2
block 11
 70
     0
 10
0.0
 20
0.0
 30
0.0
  3
block 11
  1

  0
MTEXT
  5
9A
330
96
100
AcDbEntity
  8
Layer 1
 62
   251
100
AcDbMText
 10
260.3603352213682
 20
390.4729789605415
 30
0.0
 40
1.559277777387958
 41
0.0
 46
0.0
 71
     7
 72
     1
  1
\fApercu|b0|i0|c0|p34;\W1.0004;82
 73
     1
 44
1.0
  0
MTEXT
  5
9B
330
96
100
AcDbEntity
  8
Layer 1
 62
   251
100
AcDbMText
 10
247.754041821742
 20
398.3116047181305
 30
0.0
 40
1.559277777387958
 41
0.0
 46
0.0
 71
     7
 72
     1
  1
\fApercu|b0|i0|c0|p34;\W1.0004;136
 73
     1
 44
1.0
  0
MTEXT
  5
9C
330
96
100
AcDbEntity
  8
Layer 1
 62
   251
100
AcDbMText
 10
245.8881781069308
 20
381.4373547766025
 30
0.0
 40
1.559277777387958
 41
0.0
 46
0.0
 71
     7
 72
     1
  1
\fApercu|b1|i0|c0|p34;\W1.0004;AC136 
 73
     1
 44
1.0
  0
INSERT
  5
9E
330
96
100
AcDbEntity
  8
Layer 1
100
AcDbBlockReference
  2
block 12
 10
0.0
 20
0.0
 30
0.0
  0
ENDBLK
  5
99
330
96
100
AcDbEntity
  8
0
100
AcDbBlockEnd
  0
BLOCK
  5
9F
330
9D
100
AcDbEntity
  8
0
100
AcDbBlockBegin
  2
block 12
 70
     0
 10
0.0
 20
0.0
 30
0.0
  3
block 12
  1

  0
SPLINE
  5
A1
330
9D
100
AcDbEntity
  8
Layer 1
 62
   250
370
     9
100
AcDbSpline
210
0.0
220
0.0
230
1.0
 70
     9
 71
     3
 72
    29
 73
    25
 74
     0
 42
0.000000001
 43
0.0000000001
 40
0.0
 40
0.0
 40
0.0
 40
0.0
 40
1.0
 40
1.0
 40
1.0
 40
2.0
 40
2.0
 40
2.0
 40
3.0
 40
3.0
 40
3.0
 40
4.0
 40
4.0
 40
4.0
 40
5.0
 40
5.0
 40
5.0
 40
6.0
 40
6.0
 40
6.0
 40
7.0
 40
7.0
 40
7.0
 40
8.0
 40
8.0
 40
8.0
 40
8.0
 10
241.6348632208413
 20
385.8939302963217
 30
0.0
 10
241.603857361474
 20
385.4219522148424
 30
0.0
 10
241.2696830994048
 20
385.5118692070075
 30
0.0
 10
240.8528265456896
 20
385.5394299708894
 30
0.0
 10
240.8528265456896
 20
385.5394299708894
 30
0.0
 10
240.8528265456896
 20
385.5394299708894
 30
0.0
 10
240.8528265456896
 20
385.5394299708894
 30
0.0
 10
240.4352809728773
 20
385.5676797538685
 30
0.0
 10
240.0928384816435
 20
385.5211709648177
 30
0.0
 10
240.1238443410107
 20
385.9928045367484
 30
0.0
 10
240.1238443410107
 20
385.9928045367484
 30
0.0
 10
241.1277451654125
 20
396.3477280367638
 30
0.0
 10
241.1277451654125
 20
396.3477280367638
 30
0.0
 10
241.1580620056827
 20
396.8191893539202
 30
0.0
 10
241.2965548441897
 20
396.8591524615491
 30
0.0
 10
241.6224608770944
 20
396.8372761052178
 30
0.0
 10
241.6224608770944
 20
396.8372761052178
 30
0.0
 10
241.6224608770944
 20
396.8372761052178
 30
0.0
 10
241.6224608770944
 20
396.8372761052178
 30
0.0
 10
241.8691297138383
 20
396.8214286659856
 30
0.0
 10
242.0524087936536
 20
396.7926621186838
 30
0.0
 10
242.0214029342863
 20
396.3205117824303
 30
0.0
 10
242.0214029342863
 20
396.3205117824303
 30
0.0
 10
241.6348632208413
 20
385.8939302963217
 30
0.0
 10
241.6348632208413
 20
385.8939302963217
 30
0.0
  0
SPLINE
  5
A2
330
9D
100
AcDbEntity
  8
Layer 1
 62
   250
370
     9
100
AcDbSpline
210
0.0
220
0.0
230
1.0
 70
     9
 71
     3
 72
    29
 73
    25
 74
     0
 42
0.000000001
 43
0.0000000001
 40
0.0
 40
0.0
 40
0.0
 40
0.0
 40
1.0
 40
1.0
 40
1.0
 40
2.0
 40
2.0
 40
2.0
 40
3.0
 40
3.0
 40
3.0
 40
4.0
 40
4.0
 40
4.0
 40
5.0
 40
5.0
 40
5.0
 40
6.0
 40
6.0
 40
6.0
 40
7.0
 40
7.0
 40
7.0
 40
8.0
 40
8.0
 40
8.0
 40
8.0
 10
257.3479437290658
 20
385.898753430001
 30
0.0
 10
257.3727484165596
 20
385.4271198580704
 30
0.0
 10
257.7172579650846
 20
385.5230657673345
 30
0.0
 10
258.1437607861585
 20
385.5564831935414
 30
0.0
 10
258.1437607861585
 20
385.5564831935414
 30
0.0
 10
258.1437607861585
 20
385.5564831935414
 30
0.0
 10
258.1437607861585
 20
385.5564831935414
 30
0.0
 10
258.5730196836207
 20
385.5905896388454
 30
0.0
 10
258.9237304040191
 20
385.5501097668938
 30
0.0
 10
258.8968586592341
 20
386.0210543197274
 30
0.0
 10
258.8968586592341
 20
386.0210543197274
 30
0.0
 10
257.8908907775412
 20
396.3541014634115
 30
0.0
 10
257.8908907775412
 20
396.3541014634115
 30
0.0
 10
257.8647080518532
 20
396.8233234685025
 30
0.0
 10
257.7241481560551
 20
396.8620807927116
 30
0.0
 10
257.3906629130829
 20
396.8355535574752
 30
0.0
 10
257.3906629130829
 20
396.8355535574752
 30
0.0
 10
257.3906629130829
 20
396.8355535574752
 30
0.0
 10
257.3906629130829
 20
396.8355535574752
 30
0.0
 10
257.1371038853685
 20
396.815055239338
 30
0.0
 10
256.9490016718739
 20
396.7831881060994
 30
0.0
 10
256.9744953784647
 20
396.3117267889429
 30
0.0
 10
256.9744953784647
 20
396.3117267889429
 30
0.0
 10
257.3479437290658
 20
385.898753430001
 30
0.0
 10
257.3479437290658
 20
385.898753430001
 30
0.0
  0
POLYLINE
  5
A3
330
9D
100
AcDbEntity
  8
Layer 1
 62
   250
370
     9
100
AcDb2dPolyline
 66
     1
 10
0.0
 20
0.0
 30
0.0
  0
VERTEX
  5
A4
330
A3
100
AcDbEntity
  8
Layer 1
 62
   250
370
     9
100
AcDbVertex
100
AcDb2dVertex
 10
256.9724283211736
 20
395.9205361965928
 30
0.0
  0
VERTEX
  5
A5
330
A3
100
AcDbEntity
  8
Layer 1
 62
   250
370
     9
100
AcDbVertex
100
AcDb2dVertex
 10
242.0248480297716
 20
395.9205361965928
 30
0.0
  0
VERTEX
  5
A6
330
A3
100
AcDbEntity
  8
Layer 1
 62
   250
370
     9
100
AcDbVertex
100
AcDb2dVertex
 10
241.9841959030456
 20
396.6624375093414
 30
0.0
  0
VERTEX
  5
A7
330
A3
100
AcDbEntity
  8
Layer 1
 62
   250
370
     9
100
AcDbVertex
100
AcDb2dVertex
 10
257.01997063887
 20
396.6624375093414
 30
0.0
  0
VERTEX
  5
A8
330
A3
100
AcDbEntity
  8
Layer 1
 62
   250
370
     9
100
AcDbVertex
100
AcDb2dVertex
 10
256.9724283211736
 20
395.9205361965928
 30
0.0
  0
SEQEND
  5
A9
330
A3
100
AcDbEntity
  8
Layer 1
370
     9
  0
SPLINE
  5
AA
330
9D
100
AcDbEntity
  8
Layer 1
 62
   250
370
     9
100
AcDbSpline
210
0.0
220
0.0
230
1.0
 70
     9
 71
     3
 72
    17
 73
    13
 74
     0
 42
0.000000001
 43
0.0000000001
 40
0.0
 40
0.0
 40
0.0
 40
0.0
 40
1.0
 40
1.0
 40
1.0
 40
2.0
 40
2.0
 40
2.0
 40
3.0
 40
3.0
 40
3.0
 40
4.0
 40
4.0
 40
4.0
 40
4.0
 10
241.9841959030456
 20
395.5798162531016
 30
0.0
 10
241.9841959030456
 20
395.1264416872427
 30
0.0
 10
241.9690374829105
 20
394.7500650054792
 30
0.0
 10
241.9690374829105
 20
394.7500650054792
 30
0.0
 10
241.9690374829105
 20
394.7500650054792
 30
0.0
 10
249.4862358317257
 20
393.5334295348632
 30
0.0
 10
257.01997063887
 20
394.7622950944518
 30
0.0
 10
257.01997063887
 20
394.7622950944518
 30
0.0
 10
257.0144584860936
 20
395.0716646690273
 30
0.0
 10
257.0013671232497
 20
395.5133259102363
 30
0.0
 10
256.9827636076293
 20
396.1151840915094
 30
0.0
 10
241.9841959030456
 20
395.9236367825295
 30
0.0
 10
241.9841959030456
 20
395.5798162531016
 30
0.0
  0
POLYLINE
  5
AB
330
9D
100
AcDbEntity
  8
Layer 1
 62
   250
370
     9
100
AcDb2dPolyline
 66
     1
 10
0.0
 20
0.0
 30
0.0
  0
VERTEX
  5
AC
330
AB
100
AcDbEntity
  8
Layer 1
 62
   250
370
     9
100
AcDbVertex
100
AcDb2dVertex
 10
241.6424424309088
 20
386.0973631847257
 30
0.0
  0
VERTEX
  5
AD
330
AB
100
AcDbEntity
  8
Layer 1
 62
   250
370
     9
100
AcDbVertex
100
AcDb2dVertex
 10
257.3314072707366
 20
386.0973631847257
 30
0.0
  0
SEQEND
  5
AE
330
AB
100
AcDbEntity
  8
Layer 1
370
     9
  0
ENDBLK
  5
A0
330
9D
100
AcDbEntity
  8
0
100
AcDbBlockEnd
  0
BLOCK
  5
B1
330
AF
100
AcDbEntity
  8
0
100
AcDbBlockBegin
  2
block 13
 70
     0
 10
0.0
 20
0.0
 30
0.0
  3
block 13
  1

  0
INSERT
  5
B4
330
AF
100
AcDbEntity
  8
Layer 1
100
AcDbBlockReference
  2
block 14
 10
0.0
 20
0.0
 30
0.0
  0
ENDBLK
  5
B2
330
AF
100
AcDbEntity
  8
0
100
AcDbBlockEnd
  0
BLOCK
  5
B5
330
B3
100
AcDbEntity
  8
0
100
AcDbBlockBegin
  2
block 14
 70
     0
 10
0.0
 20
0.0
 30
0.0
  3
block 14
  1

  0
SPLINE
  5
B7
330
B3
100
AcDbEntity
  8
Layer 1
 62
   250
370
     9
100
AcDbSpline
210
0.0
220
0.0
230
1.0
 70
     9
 71
     3
 72
    23
 73
    19
 74
     0
 42
0.000000001
 43
0.0000000001
 40
0.0
 40
0.0
 40
0.0
 40
0.0
 40
1.0
 40
1.0
 40
1.0
 40
2.0
 40
2.0
 40
2.0
 40
3.0
 40
3.0
 40
3.0
 40
4.0
 40
4.0
 40
4.0
 40
5.0
 40
5.0
 40
5.0
 40
6.0
 40
6.0
 40
6.0
 40
6.0
 10
157.4973632418756
 20
385.6279689248604
 30
0.0
 10
157.4973632418756
 20
385.5242715507543
 30
0.0
 10
157.2658528252669
 20
385.5142807738472
 30
0.0
 10
157.1308050822451
 20
385.5142807738472
 30
0.0
 10
157.1308050822451
 20
385.5142807738472
 30
0.0
 10
157.1308050822451
 20
385.5142807738472
 30
0.0
 10
157.1308050822451
 20
385.5142807738472
 30
0.0
 10
156.9954128296747
 20
385.5142807738472
 30
0.0
 10
156.8855142836953
 20
385.5983411036872
 30
0.0
 10
156.8855142836953
 20
385.7022107325675
 30
0.0
 10
156.8855142836953
 20
385.7022107325675
 30
0.0
 10
156.8855142836953
 20
392.4213527122245
 30
0.0
 10
156.8855142836953
 20
392.4213527122245
 30
0.0
 10
156.8855142836953
 20
392.4213527122245
 30
0.0
 10
157.3754068616978
 20
392.4213527122245
 30
0.0
 10
157.3754068616978
 20
392.4213527122245
 30
0.0
 10
157.3754068616978
 20
392.4213527122245
 30
0.0
 10
157.4973632418756
 20
385.6279689248604
 30
0.0
 10
157.4973632418756
 20
385.6279689248604
 30
0.0
  0
SPLINE
  5
B8
330
B3
100
AcDbEntity
  8
Layer 1
 62
   250
370
     9
100
AcDbSpline
210
0.0
220
0.0
230
1.0
 70
     9
 71
     3
 72
    17
 73
    13
 74
     0
 42
0.000000001
 43
0.0000000001
 40
0.0
 40
0.0
 40
0.0
 40
0.0
 40
1.0
 40
1.0
 40
1.0
 40
2.0
 40
2.0
 40
2.0
 40
3.0
 40
3.0
 40
3.0
 40
4.0
 40
4.0
 40
4.0
 40
4.0
 10
157.9631401514814
 20
392.4213527122245
 30
0.0
 10
157.9631401514814
 20
392.4213527122245
 30
0.0
 10
156.3308539105701
 20
392.4213527122245
 30
0.0
 10
156.3308539105701
 20
392.4213527122245
 30
0.0
 10
156.2399033897594
 20
392.4213527122245
 30
0.0
 10
156.2399033897594
 20
392.6826632047808
 30
0.0
 10
156.3308539105701
 20
392.6826632047808
 30
0.0
 10
156.3308539105701
 20
392.6826632047808
 30
0.0
 10
157.9631401514814
 20
392.6826632047808
 30
0.0
 10
157.9631401514814
 20
392.6826632047808
 30
0.0
 10
158.054090672292
 20
392.6826632047808
 30
0.0
 10
158.054090672292
 20
392.4213527122245
 30
0.0
 10
157.9631401514814
 20
392.4213527122245
 30
0.0
  0
POLYLINE
  5
B9
330
B3
100
AcDbEntity
  8
Layer 1
 62
   250
370
     9
100
AcDb2dPolyline
 66
     1
 10
0.0
 20
0.0
 30
0.0
  0
VERTEX
  5
BA
330
B9
100
AcDbEntity
  8
Layer 1
 62
   250
370
     9
100
AcDbVertex
100
AcDb2dVertex
 10
161.584624525576
 20
388.1399602979303
 30
0.0
  0
VERTEX
  5
BB
330
B9
100
AcDbEntity
  8
Layer 1
 62
   250
370
     9
100
AcDbVertex
100
AcDb2dVertex
 10
157.4522324910189
 20
388.1399602979303
 30
0.0
  0
VERTEX
  5
BC
330
B9
100
AcDbEntity
  8
Layer 1
 62
   250
370
     9
100
AcDbVertex
100
AcDb2dVertex
 10
157.4449977904998
 20
388.5514769536434
 30
0.0
  0
VERTEX
  5
BD
330
B9
100
AcDbEntity
  8
Layer 1
 62
   250
370
     9
100
AcDbVertex
100
AcDb2dVertex
 10
161.584624525576
 20
388.5514769536434
 30
0.0
  0
SEQEND
  5
BE
330
B9
100
AcDbEntity
  8
Layer 1
370
     9
  0
SPLINE
  5
BF
330
B3
100
AcDbEntity
  8
Layer 1
 62
   250
370
     9
100
AcDbSpline
210
0.0
220
0.0
230
1.0
 70
     8
 71
     3
 72
    20
 73
    16
 74
     0
 42
0.000000001
 43
0.0000000001
 40
0.0
 40
0.0
 40
0.0
 40
0.0
 40
1.0
 40
1.0
 40
1.0
 40
2.0
 40
2.0
 40
2.0
 40
3.0
 40
3.0
 40
3.0
 40
4.0
 40
4.0
 40
4.0
 40
5.0
 40
5.0
 40
5.0
 40
5.0
 10
161.584624525576
 20
388.5514769536434
 30
0.0
 10
161.584624525576
 20
388.5514769536434
 30
0.0
 10
157.6558376341971
 20
388.5514769536434
 30
0.0
 10
157.6558376341971
 20
388.5514769536434
 30
0.0
 10
157.5008083373609
 20
388.5514769536434
 30
0.0
 10
157.4449977904998
 20
388.6494899201987
 30
0.0
 10
157.4449977904998
 20
388.762489052115
 30
0.0
 10
157.4449977904998
 20
388.762489052115
 30
0.0
 10
157.4112358547444
 20
390.4378389865919
 30
0.0
 10
157.4112358547444
 20
390.4378389865919
 30
0.0
 10
157.4112358547444
 20
390.5510103732824
 30
0.0
 10
157.5008083373609
 20
390.6219793402785
 30
0.0
 10
157.6558376341971
 20
390.6219793402785
 30
0.0
 10
157.6558376341971
 20
390.6219793402785
 30
0.0
 10
161.584624525576
 20
390.6219793402785
 30
0.0
 10
161.584624525576
 20
390.6219793402785
 30
0.0
  0
SPLINE
  5
C0
330
B3
100
AcDbEntity
  8
Layer 1
 62
   250
370
     9
100
AcDbSpline
210
0.0
220
0.0
230
1.0
 70
     8
 71
     3
 72
    17
 73
    13
 74
     0
 42
0.000000001
 43
0.0000000001
 40
0.0
 40
0.0
 40
0.0
 40
0.0
 40
1.0
 40
1.0
 40
1.0
 40
2.0
 40
2.0
 40
2.0
 40
3.0
 40
3.0
 40
3.0
 40
4.0
 40
4.0
 40
4.0
 40
4.0
 10
157.6827093789821
 20
392.4213527122245
 30
0.0
 10
157.6427462713532
 20
391.8728935109728
 30
0.0
 10
157.6020941446272
 20
391.4696450844243
 30
0.0
 10
157.5690212279688
 20
391.4238253144704
 30
0.0
 10
157.460156210635
 20
391.2731023869908
 30
0.0
 10
157.5449055595721
 20
390.7477253254902
 30
0.0
 10
157.5449055595721
 20
390.7477253254902
 30
0.0
 10
157.5449055595721
 20
390.5920070095569
 30
0.0
 10
157.9962130681398
 20
390.6309365885402
 30
0.0
 10
158.1953395871873
 20
390.6309365885402
 30
0.0
 10
158.1953395871873
 20
390.6309365885402
 30
0.0
 10
161.584624525576
 20
390.6228406141499
 30
0.0
 10
161.584624525576
 20
390.6228406141499
 30
0.0
  0
SPLINE
  5
C1
330
B3
100
AcDbEntity
  8
Layer 1
 62
   250
370
     9
100
AcDbSpline
210
0.0
220
0.0
230
1.0
 70
     8
 71
     3
 72
    23
 73
    19
 74
     0
 42
0.000000001
 43
0.0000000001
 40
0.0
 40
0.0
 40
0.0
 40
0.0
 40
1.0
 40
1.0
 40
1.0
 40
2.0
 40
2.0
 40
2.0
 40
3.0
 40
3.0
 40
3.0
 40
4.0
 40
4.0
 40
4.0
 40
5.0
 40
5.0
 40
5.0
 40
6.0
 40
6.0
 40
6.0
 40
6.0
 10
161.584624525576
 20
396.6316039047484
 30
0.0
 10
161.584624525576
 20
396.6316039047484
 30
0.0
 10
161.2683647600301
 20
396.6350490002336
 30
0.0
 10
160.8001762835846
 20
396.6493461464974
 30
0.0
 10
160.3747069911563
 20
396.6624375093414
 30
0.0
 10
158.5405381548093
 20
396.6374605670733
 30
0.0
 10
158.5405381548093
 20
396.6374605670733
 30
0.0
 10
158.5405381548093
 20
396.6374605670733
 30
0.0
 10
158.1484862885879
 20
396.7208318778164
 30
0.0
 10
158.1484862885879
 20
396.7208318778164
 30
0.0
 10
157.9493597695404
 20
396.7208318778164
 30
0.0
 10
157.7881293008307
 20
396.5945691282819
 30
0.0
 10
157.7881293008307
 20
396.4390230671229
 30
0.0
 10
157.7881293008307
 20
396.4390230671229
 30
0.0
 10
157.8398057331095
 20
395.6976385186972
 30
0.0
 10
157.8342935803331
 20
395.4618217327318
 30
0.0
 10
157.8177571220039
 20
394.8015691829837
 30
0.0
 10
157.7619465751428
 20
393.6037094827623
 30
0.0
 10
157.7006238755054
 20
392.6826632047808
 30
0.0
  0
POLYLINE
  5
C2
330
B3
100
AcDbEntity
  8
Layer 1
 62
   250
370
     9
100
AcDb2dPolyline
 66
     1
 10
0.0
 20
0.0
 30
0.0
  0
VERTEX
  5
C3
330
C2
100
AcDbEntity
  8
Layer 1
 62
   250
370
     9
100
AcDbVertex
100
AcDb2dVertex
 10
159.2571180157412
 20
394.7736639095531
 30
0.0
  0
VERTEX
  5
C4
330
C2
100
AcDbEntity
  8
Layer 1
 62
   250
370
     9
100
AcDbVertex
100
AcDb2dVertex
 10
159.5623534757344
 20
394.4439682716147
 30
0.0
  0
SEQEND
  5
C5
330
C2
100
AcDbEntity
  8
Layer 1
370
     9
  0
POLYLINE
  5
C6
330
B3
100
AcDbEntity
  8
Layer 1
 62
   250
370
     9
100
AcDb2dPolyline
 66
     1
 10
0.0
 20
0.0
 30
0.0
  0
VERTEX
  5
C7
330
C6
100
AcDbEntity
  8
Layer 1
 62
   250
370
     9
100
AcDbVertex
100
AcDb2dVertex
 10
159.2595295825809
 20
394.4439682716147
 30
0.0
  0
VERTEX
  5
C8
330
C6
100
AcDbEntity
  8
Layer 1
 62
   250
370
     9
100
AcDbVertex
100
AcDb2dVertex
 10
159.5623534757344
 20
394.7471366743167
 30
0.0
  0
SEQEND
  5
C9
330
C6
100
AcDbEntity
  8
Layer 1
370
     9
  0
POLYLINE
  5
CA
330
B3
100
AcDbEntity
  8
Layer 1
 62
   250
370
     9
100
AcDb2dPolyline
 66
     1
 10
0.0
 20
0.0
 30
0.0
  0
VERTEX
  5
CB
330
CA
100
AcDbEntity
  8
Layer 1
 62
   250
370
     9
100
AcDbVertex
100
AcDb2dVertex
 10
161.4282171905457
 20
394.7702188140679
 30
0.0
  0
VERTEX
  5
CC
330
CA
100
AcDbEntity
  8
Layer 1
 62
   250
370
     9
100
AcDbVertex
100
AcDb2dVertex
 10
161.5853135446731
 20
394.6010646257422
 30
0.0
  0
SEQEND
  5
CD
330
CA
100
AcDbEntity
  8
Layer 1
370
     9
  0
POLYLINE
  5
CE
330
B3
100
AcDbEntity
  8
Layer 1
 62
   250
370
     9
100
AcDb2dPolyline
 66
     1
 10
0.0
 20
0.0
 30
0.0
  0
VERTEX
  5
CF
330
CE
100
AcDbEntity
  8
Layer 1
 62
   250
370
     9
100
AcDbVertex
100
AcDb2dVertex
 10
161.4268391523516
 20
394.4439682716147
 30
0.0
  0
VERTEX
  5
D0
330
CE
100
AcDbEntity
  8
Layer 1
 62
   250
370
     9
100
AcDbVertex
100
AcDb2dVertex
 10
161.5853135446731
 20
394.6010646257422
 30
0.0
  0
SEQEND
  5
D1
330
CE
100
AcDbEntity
  8
Layer 1
370
     9
  0
SPLINE
  5
D2
330
B3
100
AcDbEntity
  8
Layer 1
 62
   250
370
     9
100
AcDbSpline
210
0.0
220
0.0
230
1.0
 70
     9
 71
     3
 72
    23
 73
    19
 74
     0
 42
0.000000001
 43
0.0000000001
 40
0.0
 40
0.0
 40
0.0
 40
0.0
 40
1.0
 40
1.0
 40
1.0
 40
2.0
 40
2.0
 40
2.0
 40
3.0
 40
3.0
 40
3.0
 40
4.0
 40
4.0
 40
4.0
 40
5.0
 40
5.0
 40
5.0
 40
6.0
 40
6.0
 40
6.0
 40
6.0
 10
165.6739528665676
 20
385.6279689248604
 30
0.0
 10
165.6739528665676
 20
385.5242715507543
 30
0.0
 10
165.9047742640794
 20
385.5142807738472
 30
0.0
 10
166.0405110261982
 20
385.5142807738472
 30
0.0
 10
166.0405110261982
 20
385.5142807738472
 30
0.0
 10
166.0405110261982
 20
385.5142807738472
 30
0.0
 10
166.0405110261982
 20
385.5142807738472
 30
0.0
 10
166.17555876922
 20
385.5142807738472
 30
0.0
 10
166.2851128056509
 20
385.5983411036872
 30
0.0
 10
166.2851128056509
 20
385.7022107325675
 30
0.0
 10
166.2851128056509
 20
385.7022107325675
 30
0.0
 10
166.2851128056509
 20
392.4213527122245
 30
0.0
 10
166.2851128056509
 20
392.4213527122245
 30
0.0
 10
166.2851128056509
 20
392.4213527122245
 30
0.0
 10
165.7952202276484
 20
392.4213527122245
 30
0.0
 10
165.7952202276484
 20
392.4213527122245
 30
0.0
 10
165.7952202276484
 20
392.4213527122245
 30
0.0
 10
165.6739528665676
 20
385.6279689248604
 30
0.0
 10
165.6739528665676
 20
385.6279689248604
 30
0.0
  0
SPLINE
  5
D3
330
B3
100
AcDbEntity
  8
Layer 1
 62
   250
370
     9
100
AcDbSpline
210
0.0
220
0.0
230
1.0
 70
     9
 71
     3
 72
    17
 73
    13
 74
     0
 42
0.000000001
 43
0.0000000001
 40
0.0
 40
0.0
 40
0.0
 40
0.0
 40
1.0
 40
1.0
 40
1.0
 40
2.0
 40
2.0
 40
2.0
 40
3.0
 40
3.0
 40
3.0
 40
4.0
 40
4.0
 40
4.0
 40
4.0
 10
165.2078314474133
 20
392.4213527122245
 30
0.0
 10
165.2078314474133
 20
392.4213527122245
 30
0.0
 10
166.8397731787761
 20
392.4213527122245
 30
0.0
 10
166.8397731787761
 20
392.4213527122245
 30
0.0
 10
166.9307236995867
 20
392.4213527122245
 30
0.0
 10
166.9307236995867
 20
392.6826632047808
 30
0.0
 10
166.8397731787761
 20
392.6826632047808
 30
0.0
 10
166.8397731787761
 20
392.6826632047808
 30
0.0
 10
165.2078314474133
 20
392.6826632047808
 30
0.0
 10
165.2078314474133
 20
392.6826632047808
 30
0.0
 10
165.1172254361512
 20
392.6826632047808
 30
0.0
 10
165.1172254361512
 20
392.4213527122245
 30
0.0
 10
165.2078314474133
 20
392.4213527122245
 30
0.0
  0
POLYLINE
  5
D4
330
B3
100
AcDbEntity
  8
Layer 1
 62
   250
370
     9
100
AcDb2dPolyline
 66
     1
 10
0.0
 20
0.0
 30
0.0
  0
VERTEX
  5
D5
330
D4
100
AcDbEntity
  8
Layer 1
 62
   250
370
     9
100
AcDbVertex
100
AcDb2dVertex
 10
161.5863470733187
 20
388.1399602979303
 30
0.0
  0
VERTEX
  5
D6
330
D4
100
AcDbEntity
  8
Layer 1
 62
   250
370
     9
100
AcDbVertex
100
AcDb2dVertex
 10
165.7187391078759
 20
388.1399602979303
 30
0.0
  0
VERTEX
  5
D7
330
D4
100
AcDbEntity
  8
Layer 1
 62
   250
370
     9
100
AcDbVertex
100
AcDb2dVertex
 10
165.7263183179434
 20
388.5514769536434
 30
0.0
  0
VERTEX
  5
D8
330
D4
100
AcDbEntity
  8
Layer 1
 62
   250
370
     9
100
AcDbVertex
100
AcDb2dVertex
 10
161.5863470733187
 20
388.5514769536434
 30
0.0
  0
SEQEND
  5
D9
330
D4
100
AcDbEntity
  8
Layer 1
370
     9
  0
SPLINE
  5
DA
330
B3
100
AcDbEntity
  8
Layer 1
 62
   250
370
     9
100
AcDbSpline
210
0.0
220
0.0
230
1.0
 70
     8
 71
     3
 72
    20
 73
    16
 74
     0
 42
0.000000001
 43
0.0000000001
 40
0.0
 40
0.0
 40
0.0
 40
0.0
 40
1.0
 40
1.0
 40
1.0
 40
2.0
 40
2.0
 40
2.0
 40
3.0
 40
3.0
 40
3.0
 40
4.0
 40
4.0
 40
4.0
 40
5.0
 40
5.0
 40
5.0
 40
5.0
 10
161.5863470733187
 20
388.5514769536434
 30
0.0
 10
161.5863470733187
 20
388.5514769536434
 30
0.0
 10
165.5147894551491
 20
388.5514769536434
 30
0.0
 10
165.5147894551491
 20
388.5514769536434
 30
0.0
 10
165.6698187519853
 20
388.5514769536434
 30
0.0
 10
165.7263183179434
 20
388.6494899201987
 30
0.0
 10
165.7263183179434
 20
388.762489052115
 30
0.0
 10
165.7263183179434
 20
388.762489052115
 30
0.0
 10
165.7600802536989
 20
390.4378389865919
 30
0.0
 10
165.7600802536989
 20
390.4378389865919
 30
0.0
 10
165.7600802536989
 20
390.5510103732824
 30
0.0
 10
165.6698187519853
 20
390.6219793402785
 30
0.0
 10
165.5147894551491
 20
390.6219793402785
 30
0.0
 10
165.5147894551491
 20
390.6219793402785
 30
0.0
 10
161.5863470733187
 20
390.6219793402785
 30
0.0
 10
161.5863470733187
 20
390.6219793402785
 30
0.0
  0
SPLINE
  5
DB
330
B3
100
AcDbEntity
  8
Layer 1
 62
   250
370
     9
100
AcDbSpline
210
0.0
220
0.0
230
1.0
 70
     8
 71
     3
 72
    17
 73
    13
 74
     0
 42
0.000000001
 43
0.0000000001
 40
0.0
 40
0.0
 40
0.0
 40
0.0
 40
1.0
 40
1.0
 40
1.0
 40
2.0
 40
2.0
 40
2.0
 40
3.0
 40
3.0
 40
3.0
 40
4.0
 40
4.0
 40
4.0
 40
4.0
 10
165.5657768683308
 20
392.4213527122245
 30
0.0
 10
165.6060844855082
 20
391.8728935109728
 30
0.0
 10
165.6477701408797
 20
391.4696450844243
 30
0.0
 10
165.6815320766352
 20
391.4238253144704
 30
0.0
 10
165.7924641512602
 20
391.2731023869908
 30
0.0
 10
165.7056477450319
 20
390.7477253254902
 30
0.0
 10
165.7056477450319
 20
390.7477253254902
 30
0.0
 10
165.7056477450319
 20
390.5920070095569
 30
0.0
 10
165.245727497751
 20
390.6309365885402
 30
0.0
 10
165.0428113736698
 20
390.6309365885402
 30
0.0
 10
165.0428113736698
 20
390.6309365885402
 30
0.0
 10
161.5863470733187
 20
390.6228406141499
 30
0.0
 10
161.5863470733187
 20
390.6228406141499
 30
0.0
  0
SPLINE
  5
DC
330
B3
100
AcDbEntity
  8
Layer 1
 62
   250
370
     9
100
AcDbSpline
210
0.0
220
0.0
230
1.0
 70
     8
 71
     3
 72
    23
 73
    19
 74
     0
 42
0.000000001
 43
0.0000000001
 40
0.0
 40
0.0
 40
0.0
 40
0.0
 40
1.0
 40
1.0
 40
1.0
 40
2.0
 40
2.0
 40
2.0
 40
3.0
 40
3.0
 40
3.0
 40
4.0
 40
4.0
 40
4.0
 40
5.0
 40
5.0
 40
5.0
 40
6.0
 40
6.0
 40
6.0
 40
6.0
 10
161.5863470733187
 20
396.6316039047484
 30
0.0
 10
161.5863470733187
 20
396.6316039047484
 30
0.0
 10
161.9091525202866
 20
396.6350490002336
 30
0.0
 10
162.3862982449937
 20
396.6493461464974
 30
0.0
 10
162.8207247856837
 20
396.6624375093414
 30
0.0
 10
164.6903781055288
 20
396.6374605670733
 30
0.0
 10
164.6903781055288
 20
396.6374605670733
 30
0.0
 10
164.6903781055288
 20
396.6374605670733
 30
0.0
 10
165.0903536913663
 20
396.7208318778164
 30
0.0
 10
165.0903536913663
 20
396.7208318778164
 30
0.0
 10
165.293614324996
 20
396.7208318778164
 30
0.0
 10
165.4576008700939
 20
396.5945691282819
 30
0.0
 10
165.4576008700939
 20
396.4390230671229
 30
0.0
 10
165.4576008700939
 20
396.4390230671229
 30
0.0
 10
165.4052354187181
 20
395.6976385186972
 30
0.0
 10
165.4114365905916
 20
395.4618217327318
 30
0.0
 10
165.4279730489208
 20
394.8015691829837
 30
0.0
 10
165.4844726148789
 20
393.6037094827623
 30
0.0
 10
165.5471733527104
 20
392.6826632047808
 30
0.0
  0
POLYLINE
  5
DD
330
B3
100
AcDbEntity
  8
Layer 1
 62
   250
370
     9
100
AcDb2dPolyline
 66
     1
 10
0.0
 20
0.0
 30
0.0
  0
VERTEX
  5
DE
330
DD
100
AcDbEntity
  8
Layer 1
 62
   250
370
     9
100
AcDbVertex
100
AcDb2dVertex
 10
163.9138535831535
 20
394.7736639095531
 30
0.0
  0
VERTEX
  5
DF
330
DD
100
AcDbEntity
  8
Layer 1
 62
   250
370
     9
100
AcDbVertex
100
AcDb2dVertex
 10
163.6086181231603
 20
394.4439682716147
 30
0.0
  0
SEQEND
  5
E0
330
DD
100
AcDbEntity
  8
Layer 1
370
     9
  0
POLYLINE
  5
E1
330
B3
100
AcDbEntity
  8
Layer 1
 62
   250
370
     9
100
AcDb2dPolyline
 66
     1
 10
0.0
 20
0.0
 30
0.0
  0
VERTEX
  5
E2
330
E1
100
AcDbEntity
  8
Layer 1
 62
   250
370
     9
100
AcDbVertex
100
AcDb2dVertex
 10
163.9114420163138
 20
394.4439682716147
 30
0.0
  0
VERTEX
  5
E3
330
E1
100
AcDbEntity
  8
Layer 1
 62
   250
370
     9
100
AcDbVertex
100
AcDb2dVertex
 10
163.6086181231603
 20
394.7471366743167
 30
0.0
  0
SEQEND
  5
E4
330
E1
100
AcDbEntity
  8
Layer 1
370
     9
  0
POLYLINE
  5
E5
330
B3
100
AcDbEntity
  8
Layer 1
 62
   250
370
     9
100
AcDb2dPolyline
 66
     1
 10
0.0
 20
0.0
 30
0.0
  0
VERTEX
  5
E6
330
E5
100
AcDbEntity
  8
Layer 1
 62
   250
370
     9
100
AcDbVertex
100
AcDb2dVertex
 10
161.742754408349
 20
394.7702188140679
 30
0.0
  0
VERTEX
  5
E7
330
E5
100
AcDbEntity
  8
Layer 1
 62
   250
370
     9
100
AcDbVertex
100
AcDb2dVertex
 10
161.5853135446731
 20
394.6010646257422
 30
0.0
  0
SEQEND
  5
E8
330
E5
100
AcDbEntity
  8
Layer 1
370
     9
  0
POLYLINE
  5
E9
330
B3
100
AcDbEntity
  8
Layer 1
 62
   250
370
     9
100
AcDb2dPolyline
 66
     1
 10
0.0
 20
0.0
 30
0.0
  0
VERTEX
  5
EA
330
E9
100
AcDbEntity
  8
Layer 1
 62
   250
370
     9
100
AcDbVertex
100
AcDb2dVertex
 10
161.7437879369946
 20
394.4439682716147
 30
0.0
  0
VERTEX
  5
EB
330
E9
100
AcDbEntity
  8
Layer 1
 62
   250
370
     9
100
AcDbVertex
100
AcDb2dVertex
 10
161.5853135446731
 20
394.6010646257422
 30
0.0
  0
SEQEND
  5
EC
330
E9
100
AcDbEntity
  8
Layer 1
370
     9
  0
ENDBLK
  5
B6
330
B3
100
AcDbEntity
  8
0
100
AcDbBlockEnd
  0
BLOCK
  5
EF
330
ED
100
AcDbEntity
  8
0
100
AcDbBlockBegin
  2
block 15
 70
     0
 10
0.0
 20
0.0
 30
0.0
  3
block 15
  1

  0
ENDBLK
  5
F0
330
ED
100
AcDbEntity
  8
0
100
AcDbBlockEnd
  0
BLOCK
  5
F3
330
F1
100
AcDbEntity
  8
0
100
AcDbBlockBegin
  2
block 16
 70
     0
 10
0.0
 20
0.0
 30
0.0
  3
block 16
  1

  0
INSERT
  5
F6
330
F1
100
AcDbEntity
  8
Layer 1
100
AcDbBlockReference
  2
block 17
 10
0.0
 20
0.0
 30
0.0
  0
INSERT
  5
FA
330
F1
100
AcDbEntity
  8
Layer 1
100
AcDbBlockReference
  2
block 18
 10
0.0
 20
0.0
 30
0.0
  0
ENDBLK
  5
F4
330
F1
100
AcDbEntity
  8
0
100
AcDbBlockEnd
  0
BLOCK
  5
F7
330
F5
100
AcDbEntity
  8
0
100
AcDbBlockBegin
  2
block 17
 70
     0
 10
0.0
 20
0.0
 30
0.0
  3
block 17
  1

  0
ENDBLK
  5
F8
330
F5
100
AcDbEntity
  8
0
100
AcDbBlockEnd
  0
BLOCK
  5
FB
330
F9
100
AcDbEntity
  8
0
100
AcDbBlockBegin
  2
block 18
 70
     0
 10
0.0
 20
0.0
 30
0.0
  3
block 18
  1

  0
ENDBLK
  5
FC
330
F9
100
AcDbEntity
  8
0
100
AcDbBlockEnd
  0
BLOCK
  5
105
330
103
100
AcDbEntity
  8
0
100
AcDbBlockBegin
  2
block 19
 70
     0
 10
0.0
 20
0.0
 30
0.0
  3
block 19
  1

  0
IMAGE
  5
10A
330
103
100
AcDbEntity
  8
Layer 1
160
               140
310
8C0000000100000084000000060000000500000000000080CC18624000000040C5E97540000000000000000000000080CC186240000000F577D976400000000000000000000000EA31F86340000000F577D976400000000000000000000000EA31F8634000000040C5E97540000000000000000000000080CC186240000000
310
40C5E975400000000000000000
100
AcDbRasterImage
 90
        0
 10
144.7749633789062
 20
350.6106567382813
 30
0.0
 11
0.1269587258161124
 21
0.0
 31
0.0
 12
0.0
 22
0.1269587258161124
 32
0.0
 13
118.0
 23
118.0
340
108
 70
     3
280
     0
281
    50
282
    50
283
     0
290
     0
360
10B
 71
     1
 91
        2
 14
-0.5
 24
-0.5
 14
117.5
 24
117.5
  0
POLYLINE
  5
10C
330
103
100
AcDbEntity
  8
Layer 1
370
     0
100
AcDb2dPolyline
 66
     1
 10
0.0
 20
0.0
 30
0.0
  0
VERTEX
  5
10D
330
10C
100
AcDbEntity
  8
Layer 1
370
     0
100
AcDbVertex
100
AcDb2dVertex
 10
144.7749701243965
 20
350.6106403745869
 30
0.0
  0
VERTEX
  5
10E
330
10C
100
AcDbEntity
  8
Layer 1
370
     0
100
AcDbVertex
100
AcDb2dVertex
 10
159.7559678420054
 20
350.6106403745869
 30
0.0
  0
VERTEX
  5
10F
330
10C
100
AcDbEntity
  8
Layer 1
370
     0
100
AcDbVertex
100
AcDb2dVertex
 10
159.7559678420054
 20
365.5918103469701
 30
0.0
  0
VERTEX
  5
110
330
10C
100
AcDbEntity
  8
Layer 1
370
     0
100
AcDbVertex
100
AcDb2dVertex
 10
144.7749701243965
 20
365.5918103469701
 30
0.0
  0
VERTEX
  5
111
330
10C
100
AcDbEntity
  8
Layer 1
370
     0
100
AcDbVertex
100
AcDb2dVertex
 10
144.7749701243965
 20
350.6106403745869
 30
0.0
  0
SEQEND
  5
112
330
10C
100
AcDbEntity
  8
Layer 1
370
     0
  0
ENDBLK
  5
106
330
103
100
AcDbEntity
  8
0
100
AcDbBlockEnd
  0
BLOCK
  5
115
330
113
100
AcDbEntity
  8
0
100
AcDbBlockBegin
  2
block 20
 70
     0
 10
0.0
 20
0.0
 30
0.0
  3
block 20
  1

  0
IMAGE
  5
118
330
113
100
AcDbEntity
  8
Layer 1
160
               140
310
8C00000001000000840000000600000005000000000000E0DBB86C4000000040C5E975400000000000000000000000E0DBB86C40000000F577D9764000000000000000000000004A41986E40000000F577D9764000000000000000000000004A41986E4000000040C5E975400000000000000000000000E0DBB86C40000000
310
40C5E975400000000000000000
100
AcDbRasterImage
 90
        0
 10
229.776840209961
 20
350.6106567382813
 30
0.0
 11
0.1269587258161124
 21
0.0
 31
0.0
 12
0.0
 22
0.1269587258161124
 32
0.0
 13
118.0
 23
118.0
340
117
 70
     3
280
     0
281
    50
282
    50
283
     0
290
     0
360
119
 71
     1
 91
        2
 14
-0.5
 24
-0.5
 14
117.5
 24
117.5
  0
POLYLINE
  5
11A
330
113
100
AcDbEntity
  8
Layer 1
370
     0
100
AcDb2dPolyline
 66
     1
 10
0.0
 20
0.0
 30
0.0
  0
VERTEX
  5
11B
330
11A
100
AcDbEntity
  8
Layer 1
370
     0
100
AcDbVertex
100
AcDb2dVertex
 10
229.7768445606113
 20
350.6106403745869
 30
0.0
  0
VERTEX
  5
11C
330
11A
100
AcDbEntity
  8
Layer 1
370
     0
100
AcDbVertex
100
AcDb2dVertex
 10
244.7581867877688
 20
350.6106403745869
 30
0.0
  0
VERTEX
  5
11D
330
11A
100
AcDbEntity
  8
Layer 1
370
     0
100
AcDbVertex
100
AcDb2dVertex
 10
244.7581867877688
 20
365.5918103469701
 30
0.0
  0
VERTEX
  5
11E
330
11A
100
AcDbEntity
  8
Layer 1
370
     0
100
AcDbVertex
100
AcDb2dVertex
 10
229.7768445606113
 20
365.5918103469701
 30
0.0
  0
VERTEX
  5
11F
330
11A
100
AcDbEntity
  8
Layer 1
370
     0
100
AcDbVertex
100
AcDb2dVertex
 10
229.7768445606113
 20
350.6106403745869
 30
0.0
  0
SEQEND
  5
120
330
11A
100
AcDbEntity
  8
Layer 1
370
     0
  0
ENDBLK
  5
116
330
113
100
AcDbEntity
  8
0
100
AcDbBlockEnd
  0
BLOCK
  5
123
330
121
100
AcDbEntity
  8
0
100
AcDbBlockBegin
  2
block 21
 70
     0
 10
0.0
 20
0.0
 30
0.0
  3
block 21
  1

  0
IMAGE
  5
126
330
121
100
AcDbEntity
  8
Layer 1
160
               140
310
8C0000000100000084000000060000000500000000000080DA986A4000000040C5E97540000000000000000000000080DA986A40000000F577D976400000000000000000000000EA3F786C40000000F577D976400000000000000000000000EA3F786C4000000040C5E97540000000000000000000000080DA986A40000000
310
40C5E975400000000000000000
100
AcDbRasterImage
 90
        0
 10
212.7766723632813
 20
350.6106567382813
 30
0.0
 11
0.1269587258161124
 21
0.0
 31
0.0
 12
0.0
 22
0.1269587258161124
 32
0.0
 13
118.0
 23
118.0
340
125
 70
     3
280
     0
281
    50
282
    50
283
     0
290
     0
360
127
 71
     1
 91
        2
 14
-0.5
 24
-0.5
 14
117.5
 24
117.5
  0
POLYLINE
  5
128
330
121
100
AcDbEntity
  8
Layer 1
370
     0
100
AcDb2dPolyline
 66
     1
 10
0.0
 20
0.0
 30
0.0
  0
VERTEX
  5
129
330
128
100
AcDbEntity
  8
Layer 1
370
     0
100
AcDbVertex
100
AcDb2dVertex
 10
212.7766763790975
 20
350.6106403745869
 30
0.0
  0
VERTEX
  5
12A
330
128
100
AcDbEntity
  8
Layer 1
370
     0
100
AcDbVertex
100
AcDb2dVertex
 10
227.758018606255
 20
350.6106403745869
 30
0.0
  0
VERTEX
  5
12B
330
128
100
AcDbEntity
  8
Layer 1
370
     0
100
AcDbVertex
100
AcDb2dVertex
 10
227.758018606255
 20
365.5918103469701
 30
0.0
  0
VERTEX
  5
12C
330
128
100
AcDbEntity
  8
Layer 1
370
     0
100
AcDbVertex
100
AcDb2dVertex
 10
212.7766763790975
 20
365.5918103469701
 30
0.0
  0
VERTEX
  5
12D
330
128
100
AcDbEntity
  8
Layer 1
370
     0
100
AcDbVertex
100
AcDb2dVertex
 10
212.7766763790975
 20
350.6106403745869
 30
0.0
  0
SEQEND
  5
12E
330
128
100
AcDbEntity
  8
Layer 1
370
     0
  0
ENDBLK
  5
124
330
121
100
AcDbEntity
  8
0
100
AcDbBlockEnd
  0
BLOCK
  5
131
330
12F
100
AcDbEntity
  8
0
100
AcDbBlockBegin
  2
block 22
 70
     0
 10
0.0
 20
0.0
 30
0.0
  3
block 22
  1

  0
IMAGE
  5
134
330
12F
100
AcDbEntity
  8
Layer 1
160
               140
310
8C000000010000008400000006000000050000000000006096F15F4000000040C5E9754000000000000000000000006096F15F40000000F577D9764000000000000000000000009A30D86140000000F577D9764000000000000000000000009A30D8614000000040C5E9754000000000000000000000006096F15F40000000
310
40C5E975400000000000000000
100
AcDbRasterImage
 90
        0
 10
127.7748031616211
 20
350.6106567382813
 30
0.0
 11
0.1269587258161124
 21
0.0
 31
0.0
 12
0.0
 22
0.1269587258161124
 32
0.0
 13
118.0
 23
118.0
340
133
 70
     3
280
     0
281
    50
282
    50
283
     0
290
     0
360
135
 71
     1
 91
        2
 14
-0.5
 24
-0.5
 14
117.5
 24
117.5
  0
POLYLINE
  5
136
330
12F
100
AcDbEntity
  8
Layer 1
370
     0
100
AcDb2dPolyline
 66
     1
 10
0.0
 20
0.0
 30
0.0
  0
VERTEX
  5
137
330
136
100
AcDbEntity
  8
Layer 1
370
     0
100
AcDbVertex
100
AcDb2dVertex
 10
127.7748019428827
 20
350.6106403745869
 30
0.0
  0
VERTEX
  5
138
330
136
100
AcDbEntity
  8
Layer 1
370
     0
100
AcDbVertex
100
AcDb2dVertex
 10
142.7557996604916
 20
350.6106403745869
 30
0.0
  0
VERTEX
  5
139
330
136
100
AcDbEntity
  8
Layer 1
370
     0
100
AcDbVertex
100
AcDb2dVertex
 10
142.7557996604916
 20
365.5918103469701
 30
0.0
  0
VERTEX
  5
13A
330
136
100
AcDbEntity
  8
Layer 1
370
     0
100
AcDbVertex
100
AcDb2dVertex
 10
127.7748019428827
 20
365.5918103469701
 30
0.0
  0
VERTEX
  5
13B
330
136
100
AcDbEntity
  8
Layer 1
370
     0
100
AcDbVertex
100
AcDb2dVertex
 10
127.7748019428827
 20
350.6106403745869
 30
0.0
  0
SEQEND
  5
13C
330
136
100
AcDbEntity
  8
Layer 1
370
     0
  0
ENDBLK
  5
132
330
12F
100
AcDbEntity
  8
0
100
AcDbBlockEnd
  0
BLOCK
  5
13F
330
13D
100
AcDbEntity
  8
0
100
AcDbBlockBegin
  2
block 23
 70
     0
 10
0.0
 20
0.0
 30
0.0
  3
block 23
  1

  0
IMAGE
  5
142
330
13D
100
AcDbEntity
  8
Layer 1
160
               140
310
8C0000000100000084000000060000000500000000000080D378684000000040C5E97540000000000000000000000080D3786840000000F577D976400000000000000000000000EA38586A40000000F577D976400000000000000000000000EA38586A4000000040C5E97540000000000000000000000080D3786840000000
310
40C5E975400000000000000000
100
AcDbRasterImage
 90
        0
 10
195.7758178710937
 20
350.6106567382813
 30
0.0
 11
0.1269587258161124
 21
0.0
 31
0.0
 12
0.0
 22
0.1269587258161124
 32
0.0
 13
118.0
 23
118.0
340
141
 70
     3
280
     0
281
    50
282
    50
283
     0
290
     0
360
143
 71
     1
 91
        2
 14
-0.5
 24
-0.5
 14
117.5
 24
117.5
  0
POLYLINE
  5
144
330
13D
100
AcDbEntity
  8
Layer 1
370
     0
100
AcDb2dPolyline
 66
     1
 10
0.0
 20
0.0
 30
0.0
  0
VERTEX
  5
145
330
144
100
AcDbEntity
  8
Layer 1
370
     0
100
AcDbVertex
100
AcDb2dVertex
 10
195.7758191784866
 20
350.6106403745869
 30
0.0
  0
VERTEX
  5
146
330
144
100
AcDbEntity
  8
Layer 1
370
     0
100
AcDbVertex
100
AcDb2dVertex
 10
210.757161405644
 20
350.6106403745869
 30
0.0
  0
VERTEX
  5
147
330
144
100
AcDbEntity
  8
Layer 1
370
     0
100
AcDbVertex
100
AcDb2dVertex
 10
210.757161405644
 20
365.5918103469701
 30
0.0
  0
VERTEX
  5
148
330
144
100
AcDbEntity
  8
Layer 1
370
     0
100
AcDbVertex
100
AcDb2dVertex
 10
195.7758191784866
 20
365.5918103469701
 30
0.0
  0
VERTEX
  5
149
330
144
100
AcDbEntity
  8
Layer 1
370
     0
100
AcDbVertex
100
AcDb2dVertex
 10
195.7758191784866
 20
350.6106403745869
 30
0.0
  0
SEQEND
  5
14A
330
144
100
AcDbEntity
  8
Layer 1
370
     0
  0
ENDBLK
  5
140
330
13D
100
AcDbEntity
  8
0
100
AcDbBlockEnd
  0
BLOCK
  5
14D
330
14B
100
AcDbEntity
  8
0
100
AcDbBlockBegin
  2
block 24
 70
     0
 10
0.0
 20
0.0
 30
0.0
  3
block 24
  1

  0
IMAGE
  5
150
330
14B
100
AcDbEntity
  8
Layer 1
160
               140
310
8C0000000100000084000000060000000500000000000040DDD86E4000000040C5E97540000000000000000000000040DDD86E40000000F577D97640000000000000000000000055215C7040000000F577D97640000000000000000000000055215C704000000040C5E97540000000000000000000000040DDD86E40000000
310
40C5E975400000000000000000
100
AcDbRasterImage
 90
        0
 10
246.7770080566406
 20
350.6106567382813
 30
0.0
 11
0.1269587258161124
 21
0.0
 31
0.0
 12
0.0
 22
0.1269587258161124
 32
0.0
 13
118.0
 23
118.0
340
14F
 70
     3
280
     0
281
    50
282
    50
283
     0
290
     0
360
151
 71
     1
 91
        2
 14
-0.5
 24
-0.5
 14
117.5
 24
117.5
  0
POLYLINE
  5
152
330
14B
100
AcDbEntity
  8
Layer 1
370
     0
100
AcDb2dPolyline
 66
     1
 10
0.0
 20
0.0
 30
0.0
  0
VERTEX
  5
153
330
152
100
AcDbEntity
  8
Layer 1
370
     0
100
AcDbVertex
100
AcDb2dVertex
 10
246.7770127421252
 20
350.6106403745869
 30
0.0
  0
VERTEX
  5
154
330
152
100
AcDbEntity
  8
Layer 1
370
     0
100
AcDbVertex
100
AcDb2dVertex
 10
261.7583549692827
 20
350.6106403745869
 30
0.0
  0
VERTEX
  5
155
330
152
100
AcDbEntity
  8
Layer 1
370
     0
100
AcDbVertex
100
AcDb2dVertex
 10
261.7583549692827
 20
365.5918103469701
 30
0.0
  0
VERTEX
  5
156
330
152
100
AcDbEntity
  8
Layer 1
370
     0
100
AcDbVertex
100
AcDb2dVertex
 10
246.7770127421252
 20
365.5918103469701
 30
0.0
  0
VERTEX
  5
157
330
152
100
AcDbEntity
  8
Layer 1
370
     0
100
AcDbVertex
100
AcDb2dVertex
 10
246.7770127421252
 20
350.6106403745869
 30
0.0
  0
SEQEND
  5
158
330
152
100
AcDbEntity
  8
Layer 1
370
     0
  0
ENDBLK
  5
14E
330
14B
100
AcDbEntity
  8
0
100
AcDbBlockEnd
  0
BLOCK
  5
15B
330
159
100
AcDbEntity
  8
0
100
AcDbBlockBegin
  2
block 25
 70
     0
 10
0.0
 20
0.0
 30
0.0
  3
block 25
  1

  0
IMAGE
  5
15E
330
159
100
AcDbEntity
  8
Layer 1
160
               140
310
8C0000000100000084000000060000000500000000000020D258664000000040C5E97540000000000000000000000020D2586640000000F577D9764000000000000000000000008A37386840000000F577D9764000000000000000000000008A3738684000000040C5E97540000000000000000000000020D2586640000000
310
40C5E975400000000000000000
100
AcDbRasterImage
 90
        0
 10
178.775650024414
 20
350.6106567382813
 30
0.0
 11
0.1269587258161124
 21
0.0
 31
0.0
 12
0.0
 22
0.1269587258161124
 32
0.0
 13
118.0
 23
118.0
340
15D
 70
     3
280
     0
281
    50
282
    50
283
     0
290
     0
360
15F
 71
     1
 91
        2
 14
-0.5
 24
-0.5
 14
117.5
 24
117.5
  0
POLYLINE
  5
160
330
159
100
AcDbEntity
  8
Layer 1
370
     0
100
AcDb2dPolyline
 66
     1
 10
0.0
 20
0.0
 30
0.0
  0
VERTEX
  5
161
330
160
100
AcDbEntity
  8
Layer 1
370
     0
100
AcDbVertex
100
AcDb2dVertex
 10
178.7756509969727
 20
350.6106403745869
 30
0.0
  0
VERTEX
  5
162
330
160
100
AcDbEntity
  8
Layer 1
370
     0
100
AcDbVertex
100
AcDb2dVertex
 10
193.7569932241302
 20
350.6106403745869
 30
0.0
  0
VERTEX
  5
163
330
160
100
AcDbEntity
  8
Layer 1
370
     0
100
AcDbVertex
100
AcDb2dVertex
 10
193.7569932241302
 20
365.5918103469701
 30
0.0
  0
VERTEX
  5
164
330
160
100
AcDbEntity
  8
Layer 1
370
     0
100
AcDbVertex
100
AcDb2dVertex
 10
178.7756509969727
 20
365.5918103469701
 30
0.0
  0
VERTEX
  5
165
330
160
100
AcDbEntity
  8
Layer 1
370
     0
100
AcDbVertex
100
AcDb2dVertex
 10
178.7756509969727
 20
350.6106403745869
 30
0.0
  0
SEQEND
  5
166
330
160
100
AcDbEntity
  8
Layer 1
370
     0
  0
ENDBLK
  5
15C
330
159
100
AcDbEntity
  8
0
100
AcDbBlockEnd
  0
BLOCK
  5
169
330
167
100
AcDbEntity
  8
0
100
AcDbBlockBegin
  2
block 26
 70
     0
 10
0.0
 20
0.0
 30
0.0
  3
block 26
  1

  0
IMAGE
  5
16C
330
167
100
AcDbEntity
  8
Layer 1
160
               140
310
8C00000001000000840000000600000005000000000000C090B15B4000000040C5E975400000000000000000000000C090B15B40000000F577D976400000000000000000000000945B705F40000000F577D976400000000000000000000000945B705F4000000040C5E975400000000000000000000000C090B15B40000000
310
40C5E975400000000000000000
100
AcDbRasterImage
 90
        0
 10
110.7744598388672
 20
350.6106567382813
 30
0.0
 11
0.1269587258161124
 21
0.0
 31
0.0
 12
0.0
 22
0.1269587258161124
 32
0.0
 13
118.0
 23
118.0
340
16B
 70
     3
280
     0
281
    50
282
    50
283
     0
290
     0
360
16D
 71
     1
 91
        2
 14
-0.5
 24
-0.5
 14
117.5
 24
117.5
  0
POLYLINE
  5
16E
330
167
100
AcDbEntity
  8
Layer 1
370
     0
100
AcDb2dPolyline
 66
     1
 10
0.0
 20
0.0
 30
0.0
  0
VERTEX
  5
16F
330
16E
100
AcDbEntity
  8
Layer 1
370
     0
100
AcDbVertex
100
AcDb2dVertex
 10
110.7744615065946
 20
350.6106403745869
 30
0.0
  0
VERTEX
  5
170
330
16E
100
AcDbEntity
  8
Layer 1
370
     0
100
AcDbVertex
100
AcDb2dVertex
 10
125.7556314789777
 20
350.6106403745869
 30
0.0
  0
VERTEX
  5
171
330
16E
100
AcDbEntity
  8
Layer 1
370
     0
100
AcDbVertex
100
AcDb2dVertex
 10
125.7556314789777
 20
365.5918103469701
 30
0.0
  0
VERTEX
  5
172
330
16E
100
AcDbEntity
  8
Layer 1
370
     0
100
AcDbVertex
100
AcDb2dVertex
 10
110.7744615065946
 20
365.5918103469701
 30
0.0
  0
VERTEX
  5
173
330
16E
100
AcDbEntity
  8
Layer 1
370
     0
100
AcDbVertex
100
AcDb2dVertex
 10
110.7744615065946
 20
350.6106403745869
 30
0.0
  0
SEQEND
  5
174
330
16E
100
AcDbEntity
  8
Layer 1
370
     0
  0
ENDBLK
  5
16A
330
167
100
AcDbEntity
  8
0
100
AcDbBlockEnd
  0
BLOCK
  5
177
330
175
100
AcDbEntity
  8
0
100
AcDbBlockBegin
  2
block 27
 70
     0
 10
0.0
 20
0.0
 30
0.0
  3
block 27
  1

  0
IMAGE
  5
17A
330
175
100
AcDbEntity
  8
Layer 1
160
               140
310
8C00000001000000840000000600000005000000000000C0D038644000000040C5E975400000000000000000000000C0D0386440000000F577D9764000000000000000000000002A36186640000000F577D9764000000000000000000000002A3618664000000040C5E975400000000000000000000000C0D0386440000000
310
40C5E975400000000000000000
100
AcDbRasterImage
 90
        0
 10
161.7754821777344
 20
350.6106567382813
 30
0.0
 11
0.1269587258161124
 21
0.0
 31
0.0
 12
0.0
 22
0.1269587258161124
 32
0.0
 13
118.0
 23
118.0
340
179
 70
     3
280
     0
281
    50
282
    50
283
     0
290
     0
360
17B
 71
     1
 91
        2
 14
-0.5
 24
-0.5
 14
117.5
 24
117.5
  0
POLYLINE
  5
17C
330
175
100
AcDbEntity
  8
Layer 1
370
     0
100
AcDb2dPolyline
 66
     1
 10
0.0
 20
0.0
 30
0.0
  0
VERTEX
  5
17D
330
17C
100
AcDbEntity
  8
Layer 1
370
     0
100
AcDbVertex
100
AcDb2dVertex
 10
161.7754828154589
 20
350.6106403745869
 30
0.0
  0
VERTEX
  5
17E
330
17C
100
AcDbEntity
  8
Layer 1
370
     0
100
AcDbVertex
100
AcDb2dVertex
 10
176.7568250426163
 20
350.6106403745869
 30
0.0
  0
VERTEX
  5
17F
330
17C
100
AcDbEntity
  8
Layer 1
370
     0
100
AcDbVertex
100
AcDb2dVertex
 10
176.7568250426163
 20
365.5918103469701
 30
0.0
  0
VERTEX
  5
180
330
17C
100
AcDbEntity
  8
Layer 1
370
     0
100
AcDbVertex
100
AcDb2dVertex
 10
161.7754828154589
 20
365.5918103469701
 30
0.0
  0
VERTEX
  5
181
330
17C
100
AcDbEntity
  8
Layer 1
370
     0
100
AcDbVertex
100
AcDb2dVertex
 10
161.7754828154589
 20
350.6106403745869
 30
0.0
  0
SEQEND
  5
182
330
17C
100
AcDbEntity
  8
Layer 1
370
     0
  0
ENDBLK
  5
178
330
175
100
AcDbEntity
  8
0
100
AcDbBlockEnd
  0
BLOCK
  5
196
330
194
100
AcDbEntity
  8
0
100
AcDbBlockBegin
  2
block 28
 70
     0
 10
0.0
 20
0.0
 30
0.0
  3
block 28
  1

  0
SPLINE
  5
198
330
194
100
AcDbEntity
  8
Layer 1
 62
   250
370
     9
100
AcDbSpline
210
0.0
220
0.0
230
1.0
 70
     9
 71
     3
 72
    29
 73
    25
 74
     0
 42
0.000000001
 43
0.0000000001
 40
0.0
 40
0.0
 40
0.0
 40
0.0
 40
1.0
 40
1.0
 40
1.0
 40
2.0
 40
2.0
 40
2.0
 40
3.0
 40
3.0
 40
3.0
 40
4.0
 40
4.0
 40
4.0
 40
5.0
 40
5.0
 40
5.0
 40
6.0
 40
6.0
 40
6.0
 40
7.0
 40
7.0
 40
7.0
 40
8.0
 40
8.0
 40
8.0
 40
8.0
 10
174.1847167533288
 20
-91.46573484041482
 30
0.0
 10
174.1537108939615
 20
-91.93771292189405
 30
0.0
 10
173.8195366318923
 20
-91.84779592972903
 30
0.0
 10
173.4026800781771
 20
-91.82023516584703
 30
0.0
 10
173.4026800781771
 20
-91.82023516584703
 30
0.0
 10
173.4026800781771
 20
-91.82023516584703
 30
0.0
 10
173.4026800781771
 20
-91.82023516584703
 30
0.0
 10
172.9851345053648
 20
-91.79198538286797
 30
0.0
 10
172.642692014131
 20
-91.83849417191884
 30
0.0
 10
172.6736978734982
 20
-91.36686059998814
 30
0.0
 10
172.6736978734982
 20
-91.36686059998814
 30
0.0
 10
173.6775986979
 20
-81.01193709997271
 30
0.0
 10
173.6775986979
 20
-81.01193709997271
 30
0.0
 10
173.7079155381702
 20
-80.54047578281627
 30
0.0
 10
173.8464083766773
 20
-80.50051267518737
 30
0.0
 10
174.1716253904848
 20
-80.52238903151872
 30
0.0
 10
174.1716253904848
 20
-80.52238903151872
 30
0.0
 10
174.1716253904848
 20
-80.52238903151872
 30
0.0
 10
174.1716253904848
 20
-80.52238903151872
 30
0.0
 10
174.4189832463258
 20
-80.53823647075086
 30
0.0
 10
174.6022623261411
 20
-80.56700301805269
 30
0.0
 10
174.5712564667738
 20
-81.03915335430619
 30
0.0
 10
174.5712564667738
 20
-81.03915335430619
 30
0.0
 10
174.1847167533288
 20
-91.46573484041482
 30
0.0
 10
174.1847167533288
 20
-91.46573484041482
 30
0.0
  0
SPLINE
  5
199
330
194
100
AcDbEntity
  8
Layer 1
 62
   250
370
     9
100
AcDbSpline
210
0.0
220
0.0
230
1.0
 70
     9
 71
     3
 72
    29
 73
    25
 74
     0
 42
0.000000001
 43
0.0000000001
 40
0.0
 40
0.0
 40
0.0
 40
0.0
 40
1.0
 40
1.0
 40
1.0
 40
2.0
 40
2.0
 40
2.0
 40
3.0
 40
3.0
 40
3.0
 40
4.0
 40
4.0
 40
4.0
 40
5.0
 40
5.0
 40
5.0
 40
6.0
 40
6.0
 40
6.0
 40
7.0
 40
7.0
 40
7.0
 40
8.0
 40
8.0
 40
8.0
 40
8.0
 10
181.7191405795702
 20
-91.46091170673548
 30
0.0
 10
181.7446342861611
 20
-91.93254527866617
 30
0.0
 10
182.088454815589
 20
-91.83659936940196
 30
0.0
 10
182.51564665576
 20
-91.80318194319504
 30
0.0
 10
182.51564665576
 20
-91.80318194319504
 30
0.0
 10
182.51564665576
 20
-91.80318194319504
 30
0.0
 10
182.51564665576
 20
-91.80318194319504
 30
0.0
 10
182.9449055532221
 20
-91.76907549789106
 30
0.0
 10
183.2949272545235
 20
-91.80955536984276
 30
0.0
 10
183.2680555097385
 20
-91.3386108170091
 30
0.0
 10
183.2680555097385
 20
-91.3386108170091
 30
0.0
 10
182.2620876280456
 20
-81.00556367332499
 30
0.0
 10
182.2620876280456
 20
-81.00556367332499
 30
0.0
 10
182.2365939214547
 20
-80.53634166823398
 30
0.0
 10
182.0960340256565
 20
-80.49758434402491
 30
0.0
 10
181.7618597635873
 20
-80.52411157926133
 30
0.0
 10
181.7618597635873
 20
-80.52411157926133
 30
0.0
 10
181.7618597635873
 20
-80.52411157926133
 30
0.0
 10
181.7618597635873
 20
-80.52411157926133
 30
0.0
 10
181.5083007358729
 20
-80.54460989739856
 30
0.0
 10
181.3201985223783
 20
-80.57647703063713
 30
0.0
 10
181.3463812480662
 20
-81.04793834779357
 30
0.0
 10
181.3463812480662
 20
-81.04793834779357
 30
0.0
 10
181.7191405795702
 20
-91.46091170673548
 30
0.0
 10
181.7191405795702
 20
-91.46091170673548
 30
0.0
  0
POLYLINE
  5
19A
330
194
100
AcDbEntity
  8
Layer 1
 62
   250
370
     9
100
AcDb2dPolyline
 66
     1
 10
0.0
 20
0.0
 30
0.0
  0
VERTEX
  5
19B
330
19A
100
AcDbEntity
  8
Layer 1
 62
   250
370
     9
100
AcDbVertex
100
AcDb2dVertex
 10
181.343625171678
 20
-81.43912894014368
 30
0.0
  0
VERTEX
  5
19C
330
19A
100
AcDbEntity
  8
Layer 1
 62
   250
370
     9
100
AcDbVertex
100
AcDb2dVertex
 10
174.5747015622591
 20
-81.43912894014368
 30
0.0
  0
VERTEX
  5
19D
330
19A
100
AcDbEntity
  8
Layer 1
 62
   250
370
     9
100
AcDbVertex
100
AcDb2dVertex
 10
174.5340494355331
 20
-80.69722762739514
 30
0.0
  0
VERTEX
  5
19E
330
19A
100
AcDbEntity
  8
Layer 1
 62
   250
370
     9
100
AcDbVertex
100
AcDb2dVertex
 10
181.3918565084714
 20
-80.69722762739514
 30
0.0
  0
VERTEX
  5
19F
330
19A
100
AcDbEntity
  8
Layer 1
 62
   250
370
     9
100
AcDbVertex
100
AcDb2dVertex
 10
181.343625171678
 20
-81.43912894014368
 30
0.0
  0
SEQEND
  5
1A0
330
19A
100
AcDbEntity
  8
Layer 1
370
     9
  0
SPLINE
  5
1A1
330
194
100
AcDbEntity
  8
Layer 1
 62
   250
370
     9
100
AcDbSpline
210
0.0
220
0.0
230
1.0
 70
     9
 71
     3
 72
    17
 73
    13
 74
     0
 42
0.000000001
 43
0.0000000001
 40
0.0
 40
0.0
 40
0.0
 40
0.0
 40
1.0
 40
1.0
 40
1.0
 40
2.0
 40
2.0
 40
2.0
 40
3.0
 40
3.0
 40
3.0
 40
4.0
 40
4.0
 40
4.0
 40
4.0
 10
174.5340494355331
 20
-81.77984888363489
 30
0.0
 10
174.5340494355331
 20
-82.23322344949378
 30
0.0
 10
174.5195800344951
 20
-82.60960013125732
 30
0.0
 10
174.5195800344951
 20
-82.60960013125732
 30
0.0
 10
174.5195800344951
 20
-82.60960013125732
 30
0.0
 10
177.9474500423187
 20
-83.85775822556334
 30
0.0
 10
181.3918565084714
 20
-82.59737004228469
 30
0.0
 10
181.3918565084714
 20
-82.59737004228469
 30
0.0
 10
181.3863443556951
 20
-82.28800046770926
 30
0.0
 10
181.3725639737541
 20
-81.84633922650021
 30
0.0
 10
181.3546494772308
 20
-81.24448104522707
 30
0.0
 10
174.5340494355331
 20
-81.43602835420697
 30
0.0
 10
174.5340494355331
 20
-81.77984888363489
 30
0.0
  0
POLYLINE
  5
1A2
330
194
100
AcDbEntity
  8
Layer 1
 62
   250
370
     9
100
AcDb2dPolyline
 66
     1
 10
0.0
 20
0.0
 30
0.0
  0
VERTEX
  5
1A3
330
1A2
100
AcDbEntity
  8
Layer 1
 62
   250
370
     9
100
AcDbVertex
100
AcDb2dVertex
 10
174.1916069442993
 20
-91.26230195201081
 30
0.0
  0
VERTEX
  5
1A4
330
1A2
100
AcDbEntity
  8
Layer 1
 62
   250
370
     9
100
AcDbVertex
100
AcDb2dVertex
 10
181.7032931403381
 20
-91.26230195201081
 30
0.0
  0
SEQEND
  5
1A5
330
1A2
100
AcDbEntity
  8
Layer 1
370
     9
  0
ENDBLK
  5
197
330
194
100
AcDbEntity
  8
0
100
AcDbBlockEnd
  0
BLOCK
  5
1AD
330
1AB
100
AcDbEntity
  8
0
100
AcDbBlockBegin
  2
block 29
 70
     0
 10
0.0
 20
0.0
 30
0.0
  3
block 29
  1

  0
SPLINE
  5
1AF
330
1AB
100
AcDbEntity
  8
Layer 1
 62
   250
370
     9
100
AcDbSpline
210
0.0
220
0.0
230
1.0
 70
     8
 71
     3
 72
    14
 73
    10
 74
     0
 42
0.000000001
 43
0.0000000001
 40
0.0
 40
0.0
 40
0.0
 40
0.0
 40
1.0
 40
1.0
 40
1.0
 40
2.0
 40
2.0
 40
2.0
 40
3.0
 40
3.0
 40
3.0
 40
3.0
 10
96.88900415329513
 20
-84.95140378735589
 30
0.0
 10
97.33445499953793
 20
-83.39990503557364
 30
0.0
 10
98.10340031184567
 20
-81.57262639019712
 30
0.0
 10
99.03736569789693
 20
-80.63883325892016
 30
0.0
 10
99.03736569789693
 20
-80.63883325892016
 30
0.0
 10
99.44560951289902
 20
-80.77767060697572
 30
0.0
 10
99.44560951289902
 20
-80.77767060697572
 30
0.0
 10
99.44560951289902
 20
-80.77767060697572
 30
0.0
 10
99.30091550251852
 20
-82.05270044606669
 30
0.0
 10
99.30091550251852
 20
-82.05270044606669
 30
0.0
  0
SPLINE
  5
1B0
330
1AB
100
AcDbEntity
  8
Layer 1
 62
   250
370
     9
100
AcDbSpline
210
0.0
220
0.0
230
1.0
 70
     8
 71
     3
 72
    11
 73
     7
 74
     0
 42
0.000000001
 43
0.0000000001
 40
0.0
 40
0.0
 40
0.0
 40
0.0
 40
1.0
 40
1.0
 40
1.0
 40
2.0
 40
2.0
 40
2.0
 40
2.0
 10
96.65508216984665
 20
-87.16143254114367
 30
0.0
 10
96.50143091120451
 20
-86.54372692063837
 30
0.0
 10
96.69160018199029
 20
-85.70898028456234
 30
0.0
 10
96.69160018199029
 20
-85.70898028456234
 30
0.0
 10
96.72915172277953
 20
-85.54706079675559
 30
0.0
 10
96.77152639724809
 20
-85.37894013707541
 30
0.0
 10
96.81769067675045
 20
-85.20651310803865
 30
0.0
  0
POLYLINE
  5
1B1
330
1AB
100
AcDbEntity
  8
Layer 1
 62
   250
370
     9
100
AcDb2dPolyline
 66
     1
 10
0.0
 20
0.0
 30
0.0
  0
VERTEX
  5
1B2
330
1B1
100
AcDbEntity
  8
Layer 1
 62
   250
370
     9
100
AcDbVertex
100
AcDb2dVertex
 10
98.40519067635357
 20
-85.66384953370556
 30
0.0
  0
VERTEX
  5
2D0
330
1B1
100
AcDbEntity
  8
0
100
AcDbVertex
100
AcDb2dVertex
 10
98.40519067635357
 20
-85.66384953370556
 30
0.0
  0
SEQEND
  5
1B3
330
1B1
100
AcDbEntity
  8
Layer 1
370
     9
  0
POLYLINE
  5
1B4
330
1AB
100
AcDbEntity
  8
Layer 1
 62
   250
370
     9
100
AcDb2dPolyline
 66
     1
 10
0.0
 20
0.0
 30
0.0
  0
VERTEX
  5
1B5
330
1B4
100
AcDbEntity
  8
Layer 1
 62
   250
370
     9
100
AcDbVertex
100
AcDb2dVertex
 10
98.58571367978065
 20
-88.39701603692853
 30
0.0
  0
VERTEX
  5
2D1
330
1B4
100
AcDbEntity
  8
0
100
AcDbVertex
100
AcDb2dVertex
 10
98.58571367978065
 20
-88.39701603692853
 30
0.0
  0
SEQEND
  5
1B6
330
1B4
100
AcDbEntity
  8
Layer 1
370
     9
  0
SPLINE
  5
1B7
330
1AB
100
AcDbEntity
  8
Layer 1
 62
   250
370
     9
100
AcDbSpline
210
0.0
220
0.0
230
1.0
 70
     8
 71
     3
 72
    17
 73
    13
 74
     0
 42
0.000000001
 43
0.0000000001
 40
0.0
 40
0.0
 40
0.0
 40
0.0
 40
1.0
 40
1.0
 40
1.0
 40
2.0
 40
2.0
 40
2.0
 40
3.0
 40
3.0
 40
3.0
 40
4.0
 40
4.0
 40
4.0
 40
4.0
 10
99.21030949125645
 20
-85.03890921268125
 30
0.0
 10
99.21030949125645
 20
-85.03890921268125
 30
0.0
 10
99.82146943033978
 20
-82.4595662228747
 30
0.0
 10
99.82146943033978
 20
-82.4595662228747
 30
0.0
 10
99.82146943033978
 20
-82.4595662228747
 30
0.0
 10
100.0274861403577
 20
-82.0471882932903
 30
0.0
 10
99.68435463002684
 20
-81.91041800252587
 30
0.0
 10
99.34156762924448
 20
-81.77261418311587
 30
0.0
 10
99.25544024211323
 20
-82.18499211270028
 30
0.0
 10
99.20376380983448
 20
-82.23649629020476
 30
0.0
 10
99.20376380983448
 20
-82.23649629020476
 30
0.0
 10
98.36350502098206
 20
-85.00721433421695
 30
0.0
 10
98.36350502098206
 20
-85.00721433421695
 30
0.0
  0
INSERT
  5
1B9
330
1AB
100
AcDbEntity
  8
Layer 1
100
AcDbBlockReference
  2
block 30
 10
0.0
 20
0.0
 30
0.0
  0
SPLINE
  5
1D6
330
1AB
100
AcDbEntity
  8
Layer 1
 62
   250
370
     9
100
AcDbSpline
210
0.0
220
0.0
230
1.0
 70
     8
 71
     3
 72
     8
 73
     4
 74
     0
 42
0.000000001
 43
0.0000000001
 40
0.0
 40
0.0
 40
0.0
 40
0.0
 40
1.0
 40
1.0
 40
1.0
 40
1.0
 10
89.47412514039189
 20
-86.82519122178328
 30
0.0
 10
88.91705320042699
 20
-86.82519122178328
 30
0.0
 10
88.78097192875962
 20
-88.80818818309309
 30
0.0
 10
89.44863143380104
 20
-88.80818818309309
 30
0.0
  0
SPLINE
  5
1D7
330
1AB
100
AcDbEntity
  8
Layer 1
 62
   250
370
     9
100
AcDbSpline
210
0.0
220
0.0
230
1.0
 70
     8
 71
     3
 72
    17
 73
    13
 74
     0
 42
0.000000001
 43
0.0000000001
 40
0.0
 40
0.0
 40
0.0
 40
0.0
 40
1.0
 40
1.0
 40
1.0
 40
2.0
 40
2.0
 40
2.0
 40
3.0
 40
3.0
 40
3.0
 40
4.0
 40
4.0
 40
4.0
 40
4.0
 10
98.28323429617572
 20
-85.26197914535117
 30
0.0
 10
98.28323429617572
 20
-85.26197914535117
 30
0.0
 10
97.90496281189529
 20
-86.49980195320145
 30
0.0
 10
97.76233585880596
 20
-86.73251815323007
 30
0.0
 10
97.76233585880596
 20
-86.73251815323007
 30
0.0
 10
97.6197089057166
 20
-87.18365340702353
 30
0.0
 10
97.10501164022028
 20
-87.18365340702353
 30
0.0
 10
96.58996986517543
 20
-87.18365340702353
 30
0.0
 10
94.86569957480789
 20
-86.98090953771659
 30
0.0
 10
93.5269354692398
 20
-86.89512666013385
 30
0.0
 10
92.18851587322024
 20
-86.80899927300261
 30
0.0
 10
90.09217527044571
 20
-86.765935579437
 30
0.0
 10
90.09217527044571
 20
-86.765935579437
 30
0.0
  0
ENDBLK
  5
1AE
330
1AB
100
AcDbEntity
  8
0
100
AcDbBlockEnd
  0
BLOCK
  5
1BA
330
1B8
100
AcDbEntity
  8
0
100
AcDbBlockBegin
  2
block 30
 70
     0
 10
0.0
 20
0.0
 30
0.0
  3
block 30
  1

  0
INSERT
  5
1BD
330
1B8
100
AcDbEntity
  8
Layer 1
100
AcDbBlockReference
  2
block 31
 10
0.0
 20
0.0
 30
0.0
  0
ENDBLK
  5
1BB
330
1B8
100
AcDbEntity
  8
0
100
AcDbBlockEnd
  0
BLOCK
  5
1BE
330
1BC
100
AcDbEntity
  8
0
100
AcDbBlockBegin
  2
block 31
 70
     0
 10
0.0
 20
0.0
 30
0.0
  3
block 31
  1

  0
POLYLINE
  5
1C0
330
1BC
100
AcDbEntity
  8
Layer 1
 62
   250
370
     9
100
AcDb2dPolyline
 66
     1
 10
0.0
 20
0.0
 30
0.0
  0
VERTEX
  5
1C1
330
1C0
100
AcDbEntity
  8
Layer 1
 62
   250
370
     9
100
AcDbVertex
100
AcDb2dVertex
 10
99.96823049801143
 20
-85.06750350520881
 30
0.0
  0
VERTEX
  5
1C2
330
1C0
100
AcDbEntity
  8
Layer 1
 62
   250
370
     9
100
AcDbVertex
100
AcDb2dVertex
 10
88.65074731941717
 20
-84.64031166503785
 30
0.0
  0
VERTEX
  5
1C3
330
1C0
100
AcDbEntity
  8
Layer 1
 62
   250
370
     9
100
AcDbVertex
100
AcDb2dVertex
 10
88.64041203296144
 20
-84.89748804301175
 30
0.0
  0
VERTEX
  5
1C4
330
1C0
100
AcDbEntity
  8
Layer 1
 62
   250
370
     9
100
AcDbVertex
100
AcDb2dVertex
 10
89.49031708917257
 20
-84.92952743102456
 30
0.0
  0
VERTEX
  5
1C5
330
1C0
100
AcDbEntity
  8
Layer 1
 62
   250
370
     9
100
AcDbVertex
100
AcDb2dVertex
 10
89.43037242772922
 20
-91.84538436288935
 30
0.0
  0
VERTEX
  5
1C6
330
1C0
100
AcDbEntity
  8
Layer 1
 62
   250
370
     9
100
AcDbVertex
100
AcDb2dVertex
 10
90.18794892493565
 20
-91.84538436288935
 30
0.0
  0
VERTEX
  5
1C7
330
1C0
100
AcDbEntity
  8
Layer 1
 62
   250
370
     9
100
AcDbVertex
100
AcDb2dVertex
 10
90.13144935897756
 20
-88.85194089575577
 30
0.0
  0
VERTEX
  5
1C8
330
1C0
100
AcDbEntity
  8
Layer 1
 62
   250
370
     9
100
AcDbVertex
100
AcDb2dVertex
 10
98.39830048538308
 20
-88.89586586319271
 30
0.0
  0
VERTEX
  5
1C9
330
1C0
100
AcDbEntity
  8
Layer 1
 62
   250
370
     9
100
AcDbVertex
100
AcDb2dVertex
 10
98.3586818873027
 20
-91.8378051528218
 30
0.0
  0
VERTEX
  5
1CA
330
1C0
100
AcDbEntity
  8
Layer 1
 62
   250
370
     9
100
AcDbVertex
100
AcDb2dVertex
 10
99.10488956940781
 20
-91.8378051528218
 30
0.0
  0
VERTEX
  5
1CB
330
1C0
100
AcDbEntity
  8
Layer 1
 62
   250
370
     9
100
AcDbVertex
100
AcDb2dVertex
 10
99.02978648782937
 20
-85.29005667355596
 30
0.0
  0
VERTEX
  5
1CC
330
1C0
100
AcDbEntity
  8
Layer 1
 62
   250
370
     9
100
AcDbVertex
100
AcDb2dVertex
 10
99.95858423065271
 20
-85.3251966475055
 30
0.0
  0
VERTEX
  5
1CD
330
1C0
100
AcDbEntity
  8
Layer 1
 62
   250
370
     9
100
AcDbVertex
100
AcDb2dVertex
 10
99.96823049801143
 20
-85.06750350520881
 30
0.0
  0
SEQEND
  5
1CE
330
1C0
100
AcDbEntity
  8
Layer 1
370
     9
  0
POLYLINE
  5
1CF
330
1BC
100
AcDbEntity
  8
Layer 1
 62
   250
370
     9
100
AcDb2dPolyline
 66
     1
 10
0.0
 20
0.0
 30
0.0
  0
VERTEX
  5
1D0
330
1CF
100
AcDbEntity
  8
Layer 1
 62
   250
370
     9
100
AcDbVertex
100
AcDb2dVertex
 10
98.40519067635357
 20
-88.36049802478488
 30
0.0
  0
VERTEX
  5
1D1
330
1CF
100
AcDbEntity
  8
Layer 1
 62
   250
370
     9
100
AcDbVertex
100
AcDb2dVertex
 10
90.12111407252181
 20
-88.29917532514743
 30
0.0
  0
VERTEX
  5
1D2
330
1CF
100
AcDbEntity
  8
Layer 1
 62
   250
370
     9
100
AcDbVertex
100
AcDb2dVertex
 10
90.0577243155932
 20
-84.95105927780738
 30
0.0
  0
VERTEX
  5
1D3
330
1CF
100
AcDbEntity
  8
Layer 1
 62
   250
370
     9
100
AcDbVertex
100
AcDb2dVertex
 10
98.4468763317251
 20
-85.26800806245036
 30
0.0
  0
VERTEX
  5
1D4
330
1CF
100
AcDbEntity
  8
Layer 1
 62
   250
370
     9
100
AcDbVertex
100
AcDb2dVertex
 10
98.40519067635357
 20
-88.36049802478488
 30
0.0
  0
SEQEND
  5
1D5
330
1CF
100
AcDbEntity
  8
Layer 1
370
     9
  0
ENDBLK
  5
1BF
330
1BC
100
AcDbEntity
  8
0
100
AcDbBlockEnd
  0
BLOCK
  5
1DA
330
1D8
100
AcDbEntity
  8
0
100
AcDbBlockBegin
  2
block 32
 70
     0
 10
0.0
 20
0.0
 30
0.0
  3
block 32
  1

  0
MTEXT
  5
1DC
330
1D8
100
AcDbEntity
  8
Layer 1
 62
   251
100
AcDbMText
 10
235.1987358352976
 20
-86.886686176195
 30
0.0
 40
1.559277777387958
 41
0.0
 46
0.0
 71
     7
 72
     1
  1
\fApercu|b0|i0|c0|p34;\W1.0004;82
 73
     1
 44
1.0
  0
MTEXT
  5
1DD
330
1D8
100
AcDbEntity
  8
Layer 1
 62
   251
100
AcDbMText
 10
222.5924424356713
 20
-79.04806041860604
 30
0.0
 40
1.559277777387958
 41
0.0
 46
0.0
 71
     7
 72
     1
  1
\fApercu|b0|i0|c0|p34;\W1.0004;136
 73
     1
 44
1.0
  0
MTEXT
  5
1DE
330
1D8
100
AcDbEntity
  8
Layer 1
 62
   251
100
AcDbMText
 10
220.7265787208601
 20
-95.922310360134
 30
0.0
 40
1.559277777387958
 41
0.0
 46
0.0
 71
     7
 72
     1
  1
\fApercu|b1|i0|c0|p34;\W1.0004;AC136 
 73
     1
 44
1.0
  0
INSERT
  5
1E0
330
1D8
100
AcDbEntity
  8
Layer 1
100
AcDbBlockReference
  2
block 33
 10
0.0
 20
0.0
 30
0.0
  0
ENDBLK
  5
1DB
330
1D8
100
AcDbEntity
  8
0
100
AcDbBlockEnd
  0
BLOCK
  5
1E1
330
1DF
100
AcDbEntity
  8
0
100
AcDbBlockBegin
  2
block 33
 70
     0
 10
0.0
 20
0.0
 30
0.0
  3
block 33
  1

  0
SPLINE
  5
1E3
330
1DF
100
AcDbEntity
  8
Layer 1
 62
   250
370
     9
100
AcDbSpline
210
0.0
220
0.0
230
1.0
 70
     9
 71
     3
 72
    29
 73
    25
 74
     0
 42
0.000000001
 43
0.0000000001
 40
0.0
 40
0.0
 40
0.0
 40
0.0
 40
1.0
 40
1.0
 40
1.0
 40
2.0
 40
2.0
 40
2.0
 40
3.0
 40
3.0
 40
3.0
 40
4.0
 40
4.0
 40
4.0
 40
5.0
 40
5.0
 40
5.0
 40
6.0
 40
6.0
 40
6.0
 40
7.0
 40
7.0
 40
7.0
 40
8.0
 40
8.0
 40
8.0
 40
8.0
 10
216.4732638347706
 20
-91.46573484041482
 30
0.0
 10
216.4422579754033
 20
-91.93771292189405
 30
0.0
 10
216.1080837133341
 20
-91.84779592972903
 30
0.0
 10
215.6912271596189
 20
-91.82023516584703
 30
0.0
 10
215.6912271596189
 20
-91.82023516584703
 30
0.0
 10
215.6912271596189
 20
-91.82023516584703
 30
0.0
 10
215.6912271596189
 20
-91.82023516584703
 30
0.0
 10
215.2736815868066
 20
-91.79198538286797
 30
0.0
 10
214.9312390955727
 20
-91.83849417191884
 30
0.0
 10
214.96224495494
 20
-91.36686059998814
 30
0.0
 10
214.96224495494
 20
-91.36686059998814
 30
0.0
 10
215.9661457793418
 20
-81.01193709997271
 30
0.0
 10
215.9661457793418
 20
-81.01193709997271
 30
0.0
 10
215.996462619612
 20
-80.54047578281627
 30
0.0
 10
216.134955458119
 20
-80.50051267518737
 30
0.0
 10
216.4608614910237
 20
-80.52238903151872
 30
0.0
 10
216.4608614910237
 20
-80.52238903151872
 30
0.0
 10
216.4608614910237
 20
-80.52238903151872
 30
0.0
 10
216.4608614910237
 20
-80.52238903151872
 30
0.0
 10
216.7075303277676
 20
-80.53823647075086
 30
0.0
 10
216.8908094075828
 20
-80.56700301805269
 30
0.0
 10
216.8598035482156
 20
-81.03915335430619
 30
0.0
 10
216.8598035482156
 20
-81.03915335430619
 30
0.0
 10
216.4732638347706
 20
-91.46573484041482
 30
0.0
 10
216.4732638347706
 20
-91.46573484041482
 30
0.0
  0
SPLINE
  5
1E4
330
1DF
100
AcDbEntity
  8
Layer 1
 62
   250
370
     9
100
AcDbSpline
210
0.0
220
0.0
230
1.0
 70
     9
 71
     3
 72
    29
 73
    25
 74
     0
 42
0.000000001
 43
0.0000000001
 40
0.0
 40
0.0
 40
0.0
 40
0.0
 40
1.0
 40
1.0
 40
1.0
 40
2.0
 40
2.0
 40
2.0
 40
3.0
 40
3.0
 40
3.0
 40
4.0
 40
4.0
 40
4.0
 40
5.0
 40
5.0
 40
5.0
 40
6.0
 40
6.0
 40
6.0
 40
7.0
 40
7.0
 40
7.0
 40
8.0
 40
8.0
 40
8.0
 40
8.0
 10
232.1863443429951
 20
-91.46091170673548
 30
0.0
 10
232.2111490304889
 20
-91.93254527866617
 30
0.0
 10
232.5556585790139
 20
-91.83659936940196
 30
0.0
 10
232.9821614000878
 20
-91.80318194319504
 30
0.0
 10
232.9821614000878
 20
-91.80318194319504
 30
0.0
 10
232.9821614000878
 20
-91.80318194319504
 30
0.0
 10
232.9821614000878
 20
-91.80318194319504
 30
0.0
 10
233.4114202975499
 20
-91.76907549789106
 30
0.0
 10
233.7621310179484
 20
-91.80955536984276
 30
0.0
 10
233.7352592731634
 20
-91.3386108170091
 30
0.0
 10
233.7352592731634
 20
-91.3386108170091
 30
0.0
 10
232.7292913914705
 20
-81.00556367332499
 30
0.0
 10
232.7292913914705
 20
-81.00556367332499
 30
0.0
 10
232.7031086657826
 20
-80.53634166823398
 30
0.0
 10
232.5625487699844
 20
-80.49758434402491
 30
0.0
 10
232.2290635270122
 20
-80.52411157926133
 30
0.0
 10
232.2290635270122
 20
-80.52411157926133
 30
0.0
 10
232.2290635270122
 20
-80.52411157926133
 30
0.0
 10
232.2290635270122
 20
-80.52411157926133
 30
0.0
 10
231.9755044992978
 20
-80.54460989739856
 30
0.0
 10
231.7874022858032
 20
-80.57647703063713
 30
0.0
 10
231.812895992394
 20
-81.04793834779357
 30
0.0
 10
231.812895992394
 20
-81.04793834779357
 30
0.0
 10
232.1863443429951
 20
-91.46091170673548
 30
0.0
 10
232.1863443429951
 20
-91.46091170673548
 30
0.0
  0
POLYLINE
  5
1E5
330
1DF
100
AcDbEntity
  8
Layer 1
 62
   250
370
     9
100
AcDb2dPolyline
 66
     1
 10
0.0
 20
0.0
 30
0.0
  0
VERTEX
  5
1E6
330
1E5
100
AcDbEntity
  8
Layer 1
 62
   250
370
     9
100
AcDbVertex
100
AcDb2dVertex
 10
231.8108289351028
 20
-81.43912894014368
 30
0.0
  0
VERTEX
  5
1E7
330
1E5
100
AcDbEntity
  8
Layer 1
 62
   250
370
     9
100
AcDbVertex
100
AcDb2dVertex
 10
216.8632486437009
 20
-81.43912894014368
 30
0.0
  0
VERTEX
  5
1E8
330
1E5
100
AcDbEntity
  8
Layer 1
 62
   250
370
     9
100
AcDbVertex
100
AcDb2dVertex
 10
216.8225965169749
 20
-80.69722762739514
 30
0.0
  0
VERTEX
  5
1E9
330
1E5
100
AcDbEntity
  8
Layer 1
 62
   250
370
     9
100
AcDbVertex
100
AcDb2dVertex
 10
231.8583712527993
 20
-80.69722762739514
 30
0.0
  0
VERTEX
  5
1EA
330
1E5
100
AcDbEntity
  8
Layer 1
 62
   250
370
     9
100
AcDbVertex
100
AcDb2dVertex
 10
231.8108289351028
 20
-81.43912894014368
 30
0.0
  0
SEQEND
  5
1EB
330
1E5
100
AcDbEntity
  8
Layer 1
370
     9
  0
SPLINE
  5
1EC
330
1DF
100
AcDbEntity
  8
Layer 1
 62
   250
370
     9
100
AcDbSpline
210
0.0
220
0.0
230
1.0
 70
     9
 71
     3
 72
    17
 73
    13
 74
     0
 42
0.000000001
 43
0.0000000001
 40
0.0
 40
0.0
 40
0.0
 40
0.0
 40
1.0
 40
1.0
 40
1.0
 40
2.0
 40
2.0
 40
2.0
 40
3.0
 40
3.0
 40
3.0
 40
4.0
 40
4.0
 40
4.0
 40
4.0
 10
216.8225965169749
 20
-81.77984888363489
 30
0.0
 10
216.8225965169749
 20
-82.23322344949378
 30
0.0
 10
216.8074380968398
 20
-82.60960013125732
 30
0.0
 10
216.8074380968398
 20
-82.60960013125732
 30
0.0
 10
216.8074380968398
 20
-82.60960013125732
 30
0.0
 10
224.3246364456549
 20
-83.82623560187331
 30
0.0
 10
231.8583712527993
 20
-82.59737004228469
 30
0.0
 10
231.8583712527993
 20
-82.59737004228469
 30
0.0
 10
231.8528591000229
 20
-82.28800046770926
 30
0.0
 10
231.839767737179
 20
-81.84633922650021
 30
0.0
 10
231.8211642215586
 20
-81.24448104522707
 30
0.0
 10
216.8225965169749
 20
-81.43602835420697
 30
0.0
 10
216.8225965169749
 20
-81.77984888363489
 30
0.0
  0
POLYLINE
  5
1ED
330
1DF
100
AcDbEntity
  8
Layer 1
 62
   250
370
     9
100
AcDb2dPolyline
 66
     1
 10
0.0
 20
0.0
 30
0.0
  0
VERTEX
  5
1EE
330
1ED
100
AcDbEntity
  8
Layer 1
 62
   250
370
     9
100
AcDbVertex
100
AcDb2dVertex
 10
216.4808430448381
 20
-91.26230195201081
 30
0.0
  0
VERTEX
  5
1EF
330
1ED
100
AcDbEntity
  8
Layer 1
 62
   250
370
     9
100
AcDbVertex
100
AcDb2dVertex
 10
232.1698078846659
 20
-91.26230195201081
 30
0.0
  0
SEQEND
  5
1F0
330
1ED
100
AcDbEntity
  8
Layer 1
370
     9
  0
ENDBLK
  5
1E2
330
1DF
100
AcDbEntity
  8
0
100
AcDbBlockEnd
  0
BLOCK
  5
1F3
330
1F1
100
AcDbEntity
  8
0
100
AcDbBlockBegin
  2
block 34
 70
     0
 10
0.0
 20
0.0
 30
0.0
  3
block 34
  1

  0
INSERT
  5
1F6
330
1F1
100
AcDbEntity
  8
Layer 1
100
AcDbBlockReference
  2
block 35
 10
0.0
 20
0.0
 30
0.0
  0
ENDBLK
  5
1F4
330
1F1
100
AcDbEntity
  8
0
100
AcDbBlockEnd
  0
BLOCK
  5
1F7
330
1F5
100
AcDbEntity
  8
0
100
AcDbBlockBegin
  2
block 35
 70
     0
 10
0.0
 20
0.0
 30
0.0
  3
block 35
  1

  0
SPLINE
  5
1F9
330
1F5
100
AcDbEntity
  8
Layer 1
 62
   250
370
     9
100
AcDbSpline
210
0.0
220
0.0
230
1.0
 70
     9
 71
     3
 72
    23
 73
    19
 74
     0
 42
0.000000001
 43
0.0000000001
 40
0.0
 40
0.0
 40
0.0
 40
0.0
 40
1.0
 40
1.0
 40
1.0
 40
2.0
 40
2.0
 40
2.0
 40
3.0
 40
3.0
 40
3.0
 40
4.0
 40
4.0
 40
4.0
 40
5.0
 40
5.0
 40
5.0
 40
6.0
 40
6.0
 40
6.0
 40
6.0
 10
132.3359361105792
 20
-91.73169621187611
 30
0.0
 10
132.3359361105792
 20
-91.83539358598213
 30
0.0
 10
132.1044256939704
 20
-91.84538436288935
 30
0.0
 10
131.9693779509486
 20
-91.84538436288935
 30
0.0
 10
131.9693779509486
 20
-91.84538436288935
 30
0.0
 10
131.9693779509486
 20
-91.84538436288935
 30
0.0
 10
131.9693779509486
 20
-91.84538436288935
 30
0.0
 10
131.8339856983783
 20
-91.84538436288935
 30
0.0
 10
131.7240871523988
 20
-91.76132403304926
 30
0.0
 10
131.7240871523988
 20
-91.65745440416896
 30
0.0
 10
131.7240871523988
 20
-91.65745440416896
 30
0.0
 10
131.7240871523988
 20
-84.93831242451195
 30
0.0
 10
131.7240871523988
 20
-84.93831242451195
 30
0.0
 10
131.7240871523988
 20
-84.93831242451195
 30
0.0
 10
132.2139797304014
 20
-84.93831242451195
 30
0.0
 10
132.2139797304014
 20
-84.93831242451195
 30
0.0
 10
132.2139797304014
 20
-84.93831242451195
 30
0.0
 10
132.3359361105792
 20
-91.73169621187611
 30
0.0
 10
132.3359361105792
 20
-91.73169621187611
 30
0.0
  0
SPLINE
  5
1FA
330
1F5
100
AcDbEntity
  8
Layer 1
 62
   250
370
     9
100
AcDbSpline
210
0.0
220
0.0
230
1.0
 70
     9
 71
     3
 72
    17
 73
    13
 74
     0
 42
0.000000001
 43
0.0000000001
 40
0.0
 40
0.0
 40
0.0
 40
0.0
 40
1.0
 40
1.0
 40
1.0
 40
2.0
 40
2.0
 40
2.0
 40
3.0
 40
3.0
 40
3.0
 40
4.0
 40
4.0
 40
4.0
 40
4.0
 10
132.801713020185
 20
-84.93831242451195
 30
0.0
 10
132.801713020185
 20
-84.93831242451195
 30
0.0
 10
131.1694267792736
 20
-84.93831242451195
 30
0.0
 10
131.1694267792736
 20
-84.93831242451195
 30
0.0
 10
131.078476258463
 20
-84.93831242451195
 30
0.0
 10
131.078476258463
 20
-84.67700193195575
 30
0.0
 10
131.1694267792736
 20
-84.67700193195575
 30
0.0
 10
131.1694267792736
 20
-84.67700193195575
 30
0.0
 10
132.801713020185
 20
-84.67700193195575
 30
0.0
 10
132.801713020185
 20
-84.67700193195575
 30
0.0
 10
132.8926635409956
 20
-84.67700193195575
 30
0.0
 10
132.8926635409956
 20
-84.93831242451195
 30
0.0
 10
132.801713020185
 20
-84.93831242451195
 30
0.0
  0
POLYLINE
  5
1FB
330
1F5
100
AcDbEntity
  8
Layer 1
 62
   250
370
     9
100
AcDb2dPolyline
 66
     1
 10
0.0
 20
0.0
 30
0.0
  0
VERTEX
  5
1FC
330
1FB
100
AcDbEntity
  8
Layer 1
 62
   250
370
     9
100
AcDbVertex
100
AcDb2dVertex
 10
136.4231973942796
 20
-89.21970483880619
 30
0.0
  0
VERTEX
  5
1FD
330
1FB
100
AcDbEntity
  8
Layer 1
 62
   250
370
     9
100
AcDbVertex
100
AcDb2dVertex
 10
132.2908053597224
 20
-89.21970483880619
 30
0.0
  0
VERTEX
  5
1FE
330
1FB
100
AcDbEntity
  8
Layer 1
 62
   250
370
     9
100
AcDbVertex
100
AcDb2dVertex
 10
132.2835706592034
 20
-88.80818818309309
 30
0.0
  0
VERTEX
  5
1FF
330
1FB
100
AcDbEntity
  8
Layer 1
 62
   250
370
     9
100
AcDbVertex
100
AcDb2dVertex
 10
136.4231973942796
 20
-88.80818818309309
 30
0.0
  0
SEQEND
  5
200
330
1FB
100
AcDbEntity
  8
Layer 1
370
     9
  0
SPLINE
  5
201
330
1F5
100
AcDbEntity
  8
Layer 1
 62
   250
370
     9
100
AcDbSpline
210
0.0
220
0.0
230
1.0
 70
     8
 71
     3
 72
    20
 73
    16
 74
     0
 42
0.000000001
 43
0.0000000001
 40
0.0
 40
0.0
 40
0.0
 40
0.0
 40
1.0
 40
1.0
 40
1.0
 40
2.0
 40
2.0
 40
2.0
 40
3.0
 40
3.0
 40
3.0
 40
4.0
 40
4.0
 40
4.0
 40
5.0
 40
5.0
 40
5.0
 40
5.0
 10
136.4231973942796
 20
-88.80818818309309
 30
0.0
 10
136.4231973942796
 20
-88.80818818309309
 30
0.0
 10
132.4944105029007
 20
-88.80818818309309
 30
0.0
 10
132.4944105029007
 20
-88.80818818309309
 30
0.0
 10
132.3393812060644
 20
-88.80818818309309
 30
0.0
 10
132.2835706592034
 20
-88.71017521653774
 30
0.0
 10
132.2835706592034
 20
-88.59717608462153
 30
0.0
 10
132.2835706592034
 20
-88.59717608462153
 30
0.0
 10
132.249808723448
 20
-86.92182615014456
 30
0.0
 10
132.249808723448
 20
-86.92182615014456
 30
0.0
 10
132.249808723448
 20
-86.80865476345408
 30
0.0
 10
132.3393812060644
 20
-86.73768579645793
 30
0.0
 10
132.4944105029007
 20
-86.73768579645793
 30
0.0
 10
132.4944105029007
 20
-86.73768579645793
 30
0.0
 10
136.4231973942796
 20
-86.73768579645793
 30
0.0
 10
136.4231973942796
 20
-86.73768579645793
 30
0.0
  0
SPLINE
  5
202
330
1F5
100
AcDbEntity
  8
Layer 1
 62
   250
370
     9
100
AcDbSpline
210
0.0
220
0.0
230
1.0
 70
     8
 71
     3
 72
    17
 73
    13
 74
     0
 42
0.000000001
 43
0.0000000001
 40
0.0
 40
0.0
 40
0.0
 40
0.0
 40
1.0
 40
1.0
 40
1.0
 40
2.0
 40
2.0
 40
2.0
 40
3.0
 40
3.0
 40
3.0
 40
4.0
 40
4.0
 40
4.0
 40
4.0
 10
132.5212822476856
 20
-84.93831242451195
 30
0.0
 10
132.4813191400567
 20
-85.48677162576373
 30
0.0
 10
132.4406670133308
 20
-85.89002005231222
 30
0.0
 10
132.4075940966724
 20
-85.93583982226604
 30
0.0
 10
132.2987290793385
 20
-86.08656274974572
 30
0.0
 10
132.3834784282756
 20
-86.61193981124633
 30
0.0
 10
132.3834784282756
 20
-86.61193981124633
 30
0.0
 10
132.3834784282756
 20
-86.76765812717961
 30
0.0
 10
132.8347859368434
 20
-86.7287285481963
 30
0.0
 10
133.0339124558908
 20
-86.7287285481963
 30
0.0
 10
133.0339124558908
 20
-86.7287285481963
 30
0.0
 10
136.4231973942796
 20
-86.73682452258663
 30
0.0
 10
136.4231973942796
 20
-86.73682452258663
 30
0.0
  0
SPLINE
  5
203
330
1F5
100
AcDbEntity
  8
Layer 1
 62
   250
370
     9
100
AcDbSpline
210
0.0
220
0.0
230
1.0
 70
     8
 71
     3
 72
    23
 73
    19
 74
     0
 42
0.000000001
 43
0.0000000001
 40
0.0
 40
0.0
 40
0.0
 40
0.0
 40
1.0
 40
1.0
 40
1.0
 40
2.0
 40
2.0
 40
2.0
 40
3.0
 40
3.0
 40
3.0
 40
4.0
 40
4.0
 40
4.0
 40
5.0
 40
5.0
 40
5.0
 40
6.0
 40
6.0
 40
6.0
 40
6.0
 10
136.4231973942796
 20
-80.72806123198812
 30
0.0
 10
136.4231973942796
 20
-80.72806123198812
 30
0.0
 10
136.1069376287336
 20
-80.72461613650288
 30
0.0
 10
135.6387491522882
 20
-80.71031899023909
 30
0.0
 10
135.2132798598599
 20
-80.69722762739514
 30
0.0
 10
133.3791110235128
 20
-80.7222045696632
 30
0.0
 10
133.3791110235128
 20
-80.7222045696632
 30
0.0
 10
133.3791110235128
 20
-80.7222045696632
 30
0.0
 10
132.9870591572914
 20
-80.63883325892016
 30
0.0
 10
132.9870591572914
 20
-80.63883325892016
 30
0.0
 10
132.787932638244
 20
-80.63883325892016
 30
0.0
 10
132.6267021695343
 20
-80.76509600845456
 30
0.0
 10
132.6267021695343
 20
-80.92064206961358
 30
0.0
 10
132.6267021695343
 20
-80.92064206961358
 30
0.0
 10
132.678378601813
 20
-81.66202661803936
 30
0.0
 10
132.6728664490366
 20
-81.89784340400469
 30
0.0
 10
132.6563299907074
 20
-82.55809595375284
 30
0.0
 10
132.6005194438464
 20
-83.75595565397421
 30
0.0
 10
132.5391967442089
 20
-84.67700193195575
 30
0.0
  0
POLYLINE
  5
204
330
1F5
100
AcDbEntity
  8
Layer 1
 62
   250
370
     9
100
AcDb2dPolyline
 66
     1
 10
0.0
 20
0.0
 30
0.0
  0
VERTEX
  5
205
330
204
100
AcDbEntity
  8
Layer 1
 62
   250
370
     9
100
AcDbVertex
100
AcDb2dVertex
 10
134.0956908844448
 20
-82.58600122718336
 30
0.0
  0
VERTEX
  5
206
330
204
100
AcDbEntity
  8
Layer 1
 62
   250
370
     9
100
AcDbVertex
100
AcDb2dVertex
 10
134.400926344438
 20
-82.91569686512177
 30
0.0
  0
SEQEND
  5
207
330
204
100
AcDbEntity
  8
Layer 1
370
     9
  0
POLYLINE
  5
208
330
1F5
100
AcDbEntity
  8
Layer 1
 62
   250
370
     9
100
AcDb2dPolyline
 66
     1
 10
0.0
 20
0.0
 30
0.0
  0
VERTEX
  5
209
330
208
100
AcDbEntity
  8
Layer 1
 62
   250
370
     9
100
AcDbVertex
100
AcDb2dVertex
 10
134.0981024512845
 20
-82.91569686512177
 30
0.0
  0
VERTEX
  5
20A
330
208
100
AcDbEntity
  8
Layer 1
 62
   250
370
     9
100
AcDbVertex
100
AcDb2dVertex
 10
134.400926344438
 20
-82.61252846241978
 30
0.0
  0
SEQEND
  5
20B
330
208
100
AcDbEntity
  8
Layer 1
370
     9
  0
POLYLINE
  5
20C
330
1F5
100
AcDbEntity
  8
Layer 1
 62
   250
370
     9
100
AcDb2dPolyline
 66
     1
 10
0.0
 20
0.0
 30
0.0
  0
VERTEX
  5
20D
330
20C
100
AcDbEntity
  8
Layer 1
 62
   250
370
     9
100
AcDbVertex
100
AcDb2dVertex
 10
136.2667900592493
 20
-82.58944632266862
 30
0.0
  0
VERTEX
  5
20E
330
20C
100
AcDbEntity
  8
Layer 1
 62
   250
370
     9
100
AcDbVertex
100
AcDb2dVertex
 10
136.4238864133766
 20
-82.75860051099439
 30
0.0
  0
SEQEND
  5
20F
330
20C
100
AcDbEntity
  8
Layer 1
370
     9
  0
POLYLINE
  5
210
330
1F5
100
AcDbEntity
  8
Layer 1
 62
   250
370
     9
100
AcDb2dPolyline
 66
     1
 10
0.0
 20
0.0
 30
0.0
  0
VERTEX
  5
211
330
210
100
AcDbEntity
  8
Layer 1
 62
   250
370
     9
100
AcDbVertex
100
AcDb2dVertex
 10
136.2654120210551
 20
-82.91569686512177
 30
0.0
  0
VERTEX
  5
212
330
210
100
AcDbEntity
  8
Layer 1
 62
   250
370
     9
100
AcDbVertex
100
AcDb2dVertex
 10
136.4238864133766
 20
-82.75860051099439
 30
0.0
  0
SEQEND
  5
213
330
210
100
AcDbEntity
  8
Layer 1
370
     9
  0
SPLINE
  5
214
330
1F5
100
AcDbEntity
  8
Layer 1
 62
   250
370
     9
100
AcDbSpline
210
0.0
220
0.0
230
1.0
 70
     9
 71
     3
 72
    23
 73
    19
 74
     0
 42
0.000000001
 43
0.0000000001
 40
0.0
 40
0.0
 40
0.0
 40
0.0
 40
1.0
 40
1.0
 40
1.0
 40
2.0
 40
2.0
 40
2.0
 40
3.0
 40
3.0
 40
3.0
 40
4.0
 40
4.0
 40
4.0
 40
5.0
 40
5.0
 40
5.0
 40
6.0
 40
6.0
 40
6.0
 40
6.0
 10
140.5125257352711
 20
-91.73169621187611
 30
0.0
 10
140.5125257352711
 20
-91.83539358598213
 30
0.0
 10
140.7433471327829
 20
-91.84538436288935
 30
0.0
 10
140.8790838949017
 20
-91.84538436288935
 30
0.0
 10
140.8790838949017
 20
-91.84538436288935
 30
0.0
 10
140.8790838949017
 20
-91.84538436288935
 30
0.0
 10
140.8790838949017
 20
-91.84538436288935
 30
0.0
 10
141.0141316379235
 20
-91.84538436288935
 30
0.0
 10
141.1236856743545
 20
-91.76132403304926
 30
0.0
 10
141.1236856743545
 20
-91.65745440416896
 30
0.0
 10
141.1236856743545
 20
-91.65745440416896
 30
0.0
 10
141.1236856743545
 20
-84.93831242451195
 30
0.0
 10
141.1236856743545
 20
-84.93831242451195
 30
0.0
 10
141.1236856743545
 20
-84.93831242451195
 30
0.0
 10
140.633793096352
 20
-84.93831242451195
 30
0.0
 10
140.633793096352
 20
-84.93831242451195
 30
0.0
 10
140.633793096352
 20
-84.93831242451195
 30
0.0
 10
140.5125257352711
 20
-91.73169621187611
 30
0.0
 10
140.5125257352711
 20
-91.73169621187611
 30
0.0
  0
SPLINE
  5
215
330
1F5
100
AcDbEntity
  8
Layer 1
 62
   250
370
     9
100
AcDbSpline
210
0.0
220
0.0
230
1.0
 70
     9
 71
     3
 72
    17
 73
    13
 74
     0
 42
0.000000001
 43
0.0000000001
 40
0.0
 40
0.0
 40
0.0
 40
0.0
 40
1.0
 40
1.0
 40
1.0
 40
2.0
 40
2.0
 40
2.0
 40
3.0
 40
3.0
 40
3.0
 40
4.0
 40
4.0
 40
4.0
 40
4.0
 10
140.0464043161169
 20
-84.93831242451195
 30
0.0
 10
140.0464043161169
 20
-84.93831242451195
 30
0.0
 10
141.6783460474797
 20
-84.93831242451195
 30
0.0
 10
141.6783460474797
 20
-84.93831242451195
 30
0.0
 10
141.7692965682903
 20
-84.93831242451195
 30
0.0
 10
141.7692965682903
 20
-84.67700193195575
 30
0.0
 10
141.6783460474797
 20
-84.67700193195575
 30
0.0
 10
141.6783460474797
 20
-84.67700193195575
 30
0.0
 10
140.0464043161169
 20
-84.67700193195575
 30
0.0
 10
140.0464043161169
 20
-84.67700193195575
 30
0.0
 10
139.9557983048548
 20
-84.67700193195575
 30
0.0
 10
139.9557983048548
 20
-84.93831242451195
 30
0.0
 10
140.0464043161169
 20
-84.93831242451195
 30
0.0
  0
POLYLINE
  5
216
330
1F5
100
AcDbEntity
  8
Layer 1
 62
   250
370
     9
100
AcDb2dPolyline
 66
     1
 10
0.0
 20
0.0
 30
0.0
  0
VERTEX
  5
217
330
216
100
AcDbEntity
  8
Layer 1
 62
   250
370
     9
100
AcDbVertex
100
AcDb2dVertex
 10
136.4249199420222
 20
-89.21970483880619
 30
0.0
  0
VERTEX
  5
218
330
216
100
AcDbEntity
  8
Layer 1
 62
   250
370
     9
100
AcDbVertex
100
AcDb2dVertex
 10
140.5573119765794
 20
-89.21970483880619
 30
0.0
  0
VERTEX
  5
219
330
216
100
AcDbEntity
  8
Layer 1
 62
   250
370
     9
100
AcDbVertex
100
AcDb2dVertex
 10
140.5648911866469
 20
-88.80818818309309
 30
0.0
  0
VERTEX
  5
21A
330
216
100
AcDbEntity
  8
Layer 1
 62
   250
370
     9
100
AcDbVertex
100
AcDb2dVertex
 10
136.4249199420222
 20
-88.80818818309309
 30
0.0
  0
SEQEND
  5
21B
330
216
100
AcDbEntity
  8
Layer 1
370
     9
  0
SPLINE
  5
21C
330
1F5
100
AcDbEntity
  8
Layer 1
 62
   250
370
     9
100
AcDbSpline
210
0.0
220
0.0
230
1.0
 70
     8
 71
     3
 72
    20
 73
    16
 74
     0
 42
0.000000001
 43
0.0000000001
 40
0.0
 40
0.0
 40
0.0
 40
0.0
 40
1.0
 40
1.0
 40
1.0
 40
2.0
 40
2.0
 40
2.0
 40
3.0
 40
3.0
 40
3.0
 40
4.0
 40
4.0
 40
4.0
 40
5.0
 40
5.0
 40
5.0
 40
5.0
 10
136.4249199420222
 20
-88.80818818309309
 30
0.0
 10
136.4249199420222
 20
-88.80818818309309
 30
0.0
 10
140.3533623238526
 20
-88.80818818309309
 30
0.0
 10
140.3533623238526
 20
-88.80818818309309
 30
0.0
 10
140.5083916206889
 20
-88.80818818309309
 30
0.0
 10
140.5648911866469
 20
-88.71017521653774
 30
0.0
 10
140.5648911866469
 20
-88.59717608462153
 30
0.0
 10
140.5648911866469
 20
-88.59717608462153
 30
0.0
 10
140.5986531224024
 20
-86.92182615014456
 30
0.0
 10
140.5986531224024
 20
-86.92182615014456
 30
0.0
 10
140.5986531224024
 20
-86.80865476345408
 30
0.0
 10
140.5083916206889
 20
-86.73768579645793
 30
0.0
 10
140.3533623238526
 20
-86.73768579645793
 30
0.0
 10
140.3533623238526
 20
-86.73768579645793
 30
0.0
 10
136.4249199420222
 20
-86.73768579645793
 30
0.0
 10
136.4249199420222
 20
-86.73768579645793
 30
0.0
  0
SPLINE
  5
21D
330
1F5
100
AcDbEntity
  8
Layer 1
 62
   250
370
     9
100
AcDbSpline
210
0.0
220
0.0
230
1.0
 70
     8
 71
     3
 72
    17
 73
    13
 74
     0
 42
0.000000001
 43
0.0000000001
 40
0.0
 40
0.0
 40
0.0
 40
0.0
 40
1.0
 40
1.0
 40
1.0
 40
2.0
 40
2.0
 40
2.0
 40
3.0
 40
3.0
 40
3.0
 40
4.0
 40
4.0
 40
4.0
 40
4.0
 10
140.4043497370343
 20
-84.93831242451195
 30
0.0
 10
140.4446573542117
 20
-85.48677162576373
 30
0.0
 10
140.4863430095833
 20
-85.89002005231222
 30
0.0
 10
140.5201049453387
 20
-85.93583982226604
 30
0.0
 10
140.6310370199638
 20
-86.08656274974572
 30
0.0
 10
140.5442206137355
 20
-86.61193981124633
 30
0.0
 10
140.5442206137355
 20
-86.61193981124633
 30
0.0
 10
140.5442206137355
 20
-86.76765812717961
 30
0.0
 10
140.0843003664546
 20
-86.7287285481963
 30
0.0
 10
139.8813842423734
 20
-86.7287285481963
 30
0.0
 10
139.8813842423734
 20
-86.7287285481963
 30
0.0
 10
136.4249199420222
 20
-86.73682452258663
 30
0.0
 10
136.4249199420222
 20
-86.73682452258663
 30
0.0
  0
SPLINE
  5
21E
330
1F5
100
AcDbEntity
  8
Layer 1
 62
   250
370
     9
100
AcDbSpline
210
0.0
220
0.0
230
1.0
 70
     8
 71
     3
 72
    23
 73
    19
 74
     0
 42
0.000000001
 43
0.0000000001
 40
0.0
 40
0.0
 40
0.0
 40
0.0
 40
1.0
 40
1.0
 40
1.0
 40
2.0
 40
2.0
 40
2.0
 40
3.0
 40
3.0
 40
3.0
 40
4.0
 40
4.0
 40
4.0
 40
5.0
 40
5.0
 40
5.0
 40
6.0
 40
6.0
 40
6.0
 40
6.0
 10
136.4249199420222
 20
-80.72806123198812
 30
0.0
 10
136.4249199420222
 20
-80.72806123198812
 30
0.0
 10
136.7477253889901
 20
-80.72461613650288
 30
0.0
 10
137.2248711136972
 20
-80.71031899023909
 30
0.0
 10
137.6592976543872
 20
-80.69722762739514
 30
0.0
 10
139.5289509742323
 20
-80.7222045696632
 30
0.0
 10
139.5289509742323
 20
-80.7222045696632
 30
0.0
 10
139.5289509742323
 20
-80.7222045696632
 30
0.0
 10
139.9289265600699
 20
-80.63883325892016
 30
0.0
 10
139.9289265600699
 20
-80.63883325892016
 30
0.0
 10
140.1321871936996
 20
-80.63883325892016
 30
0.0
 10
140.2961737387975
 20
-80.76509600845456
 30
0.0
 10
140.2961737387975
 20
-80.92064206961358
 30
0.0
 10
140.2961737387975
 20
-80.92064206961358
 30
0.0
 10
140.2438082874217
 20
-81.66202661803936
 30
0.0
 10
140.2500094592951
 20
-81.89784340400469
 30
0.0
 10
140.2665459176243
 20
-82.55809595375284
 30
0.0
 10
140.3230454835824
 20
-83.75595565397421
 30
0.0
 10
140.385746221414
 20
-84.67700193195575
 30
0.0
  0
POLYLINE
  5
21F
330
1F5
100
AcDbEntity
  8
Layer 1
 62
   250
370
     9
100
AcDb2dPolyline
 66
     1
 10
0.0
 20
0.0
 30
0.0
  0
VERTEX
  5
220
330
21F
100
AcDbEntity
  8
Layer 1
 62
   250
370
     9
100
AcDbVertex
100
AcDb2dVertex
 10
138.752426451857
 20
-82.58600122718336
 30
0.0
  0
VERTEX
  5
221
330
21F
100
AcDbEntity
  8
Layer 1
 62
   250
370
     9
100
AcDbVertex
100
AcDb2dVertex
 10
138.4471909918639
 20
-82.91569686512177
 30
0.0
  0
SEQEND
  5
222
330
21F
100
AcDbEntity
  8
Layer 1
370
     9
  0
POLYLINE
  5
223
330
1F5
100
AcDbEntity
  8
Layer 1
 62
   250
370
     9
100
AcDb2dPolyline
 66
     1
 10
0.0
 20
0.0
 30
0.0
  0
VERTEX
  5
224
330
223
100
AcDbEntity
  8
Layer 1
 62
   250
370
     9
100
AcDbVertex
100
AcDb2dVertex
 10
138.7500148850173
 20
-82.91569686512177
 30
0.0
  0
VERTEX
  5
225
330
223
100
AcDbEntity
  8
Layer 1
 62
   250
370
     9
100
AcDbVertex
100
AcDb2dVertex
 10
138.4471909918639
 20
-82.61252846241978
 30
0.0
  0
SEQEND
  5
226
330
223
100
AcDbEntity
  8
Layer 1
370
     9
  0
POLYLINE
  5
227
330
1F5
100
AcDbEntity
  8
Layer 1
 62
   250
370
     9
100
AcDb2dPolyline
 66
     1
 10
0.0
 20
0.0
 30
0.0
  0
VERTEX
  5
228
330
227
100
AcDbEntity
  8
Layer 1
 62
   250
370
     9
100
AcDbVertex
100
AcDb2dVertex
 10
136.5813272770526
 20
-82.58944632266862
 30
0.0
  0
VERTEX
  5
229
330
227
100
AcDbEntity
  8
Layer 1
 62
   250
370
     9
100
AcDbVertex
100
AcDb2dVertex
 10
136.4238864133766
 20
-82.75860051099439
 30
0.0
  0
SEQEND
  5
22A
330
227
100
AcDbEntity
  8
Layer 1
370
     9
  0
POLYLINE
  5
22B
330
1F5
100
AcDbEntity
  8
Layer 1
 62
   250
370
     9
100
AcDb2dPolyline
 66
     1
 10
0.0
 20
0.0
 30
0.0
  0
VERTEX
  5
22C
330
22B
100
AcDbEntity
  8
Layer 1
 62
   250
370
     9
100
AcDbVertex
100
AcDb2dVertex
 10
136.5823608056981
 20
-82.91569686512177
 30
0.0
  0
VERTEX
  5
22D
330
22B
100
AcDbEntity
  8
Layer 1
 62
   250
370
     9
100
AcDbVertex
100
AcDb2dVertex
 10
136.4238864133766
 20
-82.75860051099439
 30
0.0
  0
SEQEND
  5
22E
330
22B
100
AcDbEntity
  8
Layer 1
370
     9
  0
ENDBLK
  5
1F8
330
1F5
100
AcDbEntity
  8
0
100
AcDbBlockEnd
  0
BLOCK
  5
231
330
22F
100
AcDbEntity
  8
0
100
AcDbBlockBegin
  2
block 36
 70
     0
 10
0.0
 20
0.0
 30
0.0
  3
block 36
  1

  0
INSERT
  5
234
330
22F
100
AcDbEntity
  8
Layer 1
100
AcDbBlockReference
  2
block 37
 10
0.0
 20
0.0
 30
0.0
  0
INSERT
  5
238
330
22F
100
AcDbEntity
  8
Layer 1
100
AcDbBlockReference
  2
block 38
 10
0.0
 20
0.0
 30
0.0
  0
ENDBLK
  5
232
330
22F
100
AcDbEntity
  8
0
100
AcDbBlockEnd
  0
BLOCK
  5
235
330
233
100
AcDbEntity
  8
0
100
AcDbBlockBegin
  2
block 37
 70
     0
 10
0.0
 20
0.0
 30
0.0
  3
block 37
  1

  0
ENDBLK
  5
236
330
233
100
AcDbEntity
  8
0
100
AcDbBlockEnd
  0
BLOCK
  5
239
330
237
100
AcDbEntity
  8
0
100
AcDbBlockBegin
  2
block 38
 70
     0
 10
0.0
 20
0.0
 30
0.0
  3
block 38
  1

  0
ENDBLK
  5
23A
330
237
100
AcDbEntity
  8
0
100
AcDbBlockEnd
  0
BLOCK
  5
243
330
241
100
AcDbEntity
  8
0
100
AcDbBlockBegin
  2
block 39
 70
     0
 10
0.0
 20
0.0
 30
0.0
  3
block 39
  1

  0
IMAGE
  5
246
330
241
100
AcDbEntity
  8
Layer 1
160
               140
310
8C000000010000008400000006000000050000000000004044E75D4000000060EFAF5FC000000000000000000000004044E75D400000008C24F15BC000000000000000000000008A07D360400000008C24F15BC000000000000000000000008A07D3604000000060EFAF5FC000000000000000000000004044E75D40000000
310
60EFAF5FC00000000000000000
100
AcDbRasterImage
 90
        0
 10
119.613540649414
 20
-126.7489852905273
 30
0.0
 11
0.1269587258161124
 21
0.0
 31
0.0
 12
0.0
 22
0.1269587258161124
 32
0.0
 13
118.0
 23
118.0
340
245
 70
     3
280
     0
281
    50
282
    50
283
     0
290
     0
360
247
 71
     1
 91
        2
 14
-0.5
 24
-0.5
 14
117.5
 24
117.5
  0
POLYLINE
  5
248
330
241
100
AcDbEntity
  8
Layer 1
370
     0
100
AcDb2dPolyline
 66
     1
 10
0.0
 20
0.0
 30
0.0
  0
VERTEX
  5
249
330
248
100
AcDbEntity
  8
Layer 1
370
     0
100
AcDbVertex
100
AcDb2dVertex
 10
119.6135429931001
 20
-126.7488525073753
 30
0.0
  0
VERTEX
  5
24A
330
248
100
AcDbEntity
  8
Layer 1
370
     0
100
AcDbVertex
100
AcDb2dVertex
 10
134.594540710709
 20
-126.7488525073753
 30
0.0
  0
VERTEX
  5
24B
330
248
100
AcDbEntity
  8
Layer 1
370
     0
100
AcDbVertex
100
AcDb2dVertex
 10
134.594540710709
 20
-111.7678547897664
 30
0.0
  0
VERTEX
  5
24C
330
248
100
AcDbEntity
  8
Layer 1
370
     0
100
AcDbVertex
100
AcDb2dVertex
 10
119.6135429931001
 20
-111.7678547897664
 30
0.0
  0
VERTEX
  5
24D
330
248
100
AcDbEntity
  8
Layer 1
370
     0
100
AcDbVertex
100
AcDb2dVertex
 10
119.6135429931001
 20
-126.7488525073753
 30
0.0
  0
SEQEND
  5
24E
330
248
100
AcDbEntity
  8
Layer 1
370
     0
  0
ENDBLK
  5
244
330
241
100
AcDbEntity
  8
0
100
AcDbBlockEnd
  0
BLOCK
  5
251
330
24F
100
AcDbEntity
  8
0
100
AcDbBlockBegin
  2
block 40
 70
     0
 10
0.0
 20
0.0
 30
0.0
  3
block 40
  1

  0
IMAGE
  5
254
330
24F
100
AcDbEntity
  8
Layer 1
160
               140
310
8C0000000100000084000000060000000500000000000020B093694000000060EFAF5FC0000000000000000000000020B09369400000008C24F15BC000000000000000000000008A15736B400000008C24F15BC000000000000000000000008A15736B4000000060EFAF5FC0000000000000000000000020B0936940000000
310
60EFAF5FC00000000000000000
100
AcDbRasterImage
 90
        0
 10
204.615249633789
 20
-126.7489852905273
 30
0.0
 11
0.1269587258161124
 21
0.0
 31
0.0
 12
0.0
 22
0.1269587258161124
 32
0.0
 13
118.0
 23
118.0
340
253
 70
     3
280
     0
281
    50
282
    50
283
     0
290
     0
360
255
 71
     1
 91
        2
 14
-0.5
 24
-0.5
 14
117.5
 24
117.5
  0
POLYLINE
  5
256
330
24F
100
AcDbEntity
  8
Layer 1
370
     0
100
AcDb2dPolyline
 66
     1
 10
0.0
 20
0.0
 30
0.0
  0
VERTEX
  5
257
330
256
100
AcDbEntity
  8
Layer 1
370
     0
100
AcDbVertex
100
AcDb2dVertex
 10
204.6152451745406
 20
-126.7488525073753
 30
0.0
  0
VERTEX
  5
258
330
256
100
AcDbEntity
  8
Layer 1
370
     0
100
AcDbVertex
100
AcDb2dVertex
 10
219.5965874016981
 20
-126.7488525073753
 30
0.0
  0
VERTEX
  5
259
330
256
100
AcDbEntity
  8
Layer 1
370
     0
100
AcDbVertex
100
AcDb2dVertex
 10
219.5965874016981
 20
-111.7678547897664
 30
0.0
  0
VERTEX
  5
25A
330
256
100
AcDbEntity
  8
Layer 1
370
     0
100
AcDbVertex
100
AcDb2dVertex
 10
204.6152451745406
 20
-111.7678547897664
 30
0.0
  0
VERTEX
  5
25B
330
256
100
AcDbEntity
  8
Layer 1
370
     0
100
AcDbVertex
100
AcDb2dVertex
 10
204.6152451745406
 20
-126.7488525073753
 30
0.0
  0
SEQEND
  5
25C
330
256
100
AcDbEntity
  8
Layer 1
370
     0
  0
ENDBLK
  5
252
330
24F
100
AcDbEntity
  8
0
100
AcDbBlockEnd
  0
BLOCK
  5
25F
330
25D
100
AcDbEntity
  8
0
100
AcDbBlockBegin
  2
block 41
 70
     0
 10
0.0
 20
0.0
 30
0.0
  3
block 41
  1

  0
IMAGE
  5
262
330
25D
100
AcDbEntity
  8
Layer 1
160
               140
310
8C00000001000000840000000600000005000000000000C0AE73674000000060EFAF5FC00000000000000000000000C0AE7367400000008C24F15BC000000000000000000000002A145369400000008C24F15BC000000000000000000000002A1453694000000060EFAF5FC00000000000000000000000C0AE736740000000
310
60EFAF5FC00000000000000000
100
AcDbRasterImage
 90
        0
 10
187.6150817871094
 20
-126.7489852905273
 30
0.0
 11
0.1269587258161124
 21
0.0
 31
0.0
 12
0.0
 22
0.1269587258161124
 32
0.0
 13
118.0
 23
118.0
340
261
 70
     3
280
     0
281
    50
282
    50
283
     0
290
     0
360
263
 71
     1
 91
        2
 14
-0.5
 24
-0.5
 14
117.5
 24
117.5
  0
POLYLINE
  5
264
330
25D
100
AcDbEntity
  8
Layer 1
370
     0
100
AcDb2dPolyline
 66
     1
 10
0.0
 20
0.0
 30
0.0
  0
VERTEX
  5
265
330
264
100
AcDbEntity
  8
Layer 1
370
     0
100
AcDbVertex
100
AcDb2dVertex
 10
187.6150769930268
 20
-126.7488525073753
 30
0.0
  0
VERTEX
  5
266
330
264
100
AcDbEntity
  8
Layer 1
370
     0
100
AcDbVertex
100
AcDb2dVertex
 10
202.5964192201842
 20
-126.7488525073753
 30
0.0
  0
VERTEX
  5
267
330
264
100
AcDbEntity
  8
Layer 1
370
     0
100
AcDbVertex
100
AcDb2dVertex
 10
202.5964192201842
 20
-111.7678547897664
 30
0.0
  0
VERTEX
  5
268
330
264
100
AcDbEntity
  8
Layer 1
370
     0
100
AcDbVertex
100
AcDb2dVertex
 10
187.6150769930268
 20
-111.7678547897664
 30
0.0
  0
VERTEX
  5
269
330
264
100
AcDbEntity
  8
Layer 1
370
     0
100
AcDbVertex
100
AcDb2dVertex
 10
187.6150769930268
 20
-126.7488525073753
 30
0.0
  0
SEQEND
  5
26A
330
264
100
AcDbEntity
  8
Layer 1
370
     0
  0
ENDBLK
  5
260
330
25D
100
AcDbEntity
  8
0
100
AcDbBlockEnd
  0
BLOCK
  5
26D
330
26B
100
AcDbEntity
  8
0
100
AcDbBlockBegin
  2
block 42
 70
     0
 10
0.0
 20
0.0
 30
0.0
  3
block 42
  1

  0
IMAGE
  5
270
330
26B
100
AcDbEntity
  8
Layer 1
160
               140
310
8C000000010000008400000006000000050000000000008041A7594000000060EFAF5FC000000000000000000000008041A759400000008C24F15BC00000000000000000000000540C665D400000008C24F15BC00000000000000000000000540C665D4000000060EFAF5FC000000000000000000000008041A75940000000
310
60EFAF5FC00000000000000000
100
AcDbRasterImage
 90
        0
 10
102.6133728027343
 20
-126.7489852905273
 30
0.0
 11
0.1269587258161124
 21
0.0
 31
0.0
 12
0.0
 22
0.1269587258161124
 32
0.0
 13
118.0
 23
118.0
340
26F
 70
     3
280
     0
281
    50
282
    50
283
     0
290
     0
360
271
 71
     1
 91
        2
 14
-0.5
 24
-0.5
 14
117.5
 24
117.5
  0
POLYLINE
  5
272
330
26B
100
AcDbEntity
  8
Layer 1
370
     0
100
AcDb2dPolyline
 66
     1
 10
0.0
 20
0.0
 30
0.0
  0
VERTEX
  5
273
330
272
100
AcDbEntity
  8
Layer 1
370
     0
100
AcDbVertex
100
AcDb2dVertex
 10
102.6133748115862
 20
-126.7488525073753
 30
0.0
  0
VERTEX
  5
274
330
272
100
AcDbEntity
  8
Layer 1
370
     0
100
AcDbVertex
100
AcDb2dVertex
 10
117.5943725291951
 20
-126.7488525073753
 30
0.0
  0
VERTEX
  5
275
330
272
100
AcDbEntity
  8
Layer 1
370
     0
100
AcDbVertex
100
AcDb2dVertex
 10
117.5943725291951
 20
-111.7678547897664
 30
0.0
  0
VERTEX
  5
276
330
272
100
AcDbEntity
  8
Layer 1
370
     0
100
AcDbVertex
100
AcDb2dVertex
 10
102.6133748115862
 20
-111.7678547897664
 30
0.0
  0
VERTEX
  5
277
330
272
100
AcDbEntity
  8
Layer 1
370
     0
100
AcDbVertex
100
AcDb2dVertex
 10
102.6133748115862
 20
-126.7488525073753
 30
0.0
  0
SEQEND
  5
278
330
272
100
AcDbEntity
  8
Layer 1
370
     0
  0
ENDBLK
  5
26E
330
26B
100
AcDbEntity
  8
0
100
AcDbBlockEnd
  0
BLOCK
  5
27B
330
279
100
AcDbEntity
  8
0
100
AcDbBlockBegin
  2
block 43
 70
     0
 10
0.0
 20
0.0
 30
0.0
  3
block 43
  1

  0
IMAGE
  5
27E
330
279
100
AcDbEntity
  8
Layer 1
160
               140
310
8C00000001000000840000000600000005000000000000C0A753654000000060EFAF5FC00000000000000000000000C0A75365400000008C24F15BC000000000000000000000002A0D3367400000008C24F15BC000000000000000000000002A0D33674000000060EFAF5FC00000000000000000000000C0A7536540000000
310
60EFAF5FC00000000000000000
100
AcDbRasterImage
 90
        0
 10
170.6142272949219
 20
-126.7489852905273
 30
0.0
 11
0.1269587258161124
 21
0.0
 31
0.0
 12
0.0
 22
0.1269587258161124
 32
0.0
 13
118.0
 23
118.0
340
27D
 70
     3
280
     0
281
    50
282
    50
283
     0
290
     0
360
27F
 71
     1
 91
        2
 14
-0.5
 24
-0.5
 14
117.5
 24
117.5
  0
POLYLINE
  5
280
330
279
100
AcDbEntity
  8
Layer 1
370
     0
100
AcDb2dPolyline
 66
     1
 10
0.0
 20
0.0
 30
0.0
  0
VERTEX
  5
281
330
280
100
AcDbEntity
  8
Layer 1
370
     0
100
AcDbVertex
100
AcDb2dVertex
 10
170.6142197924159
 20
-126.7488525073753
 30
0.0
  0
VERTEX
  5
282
330
280
100
AcDbEntity
  8
Layer 1
370
     0
100
AcDbVertex
100
AcDb2dVertex
 10
185.5955620195733
 20
-126.7488525073753
 30
0.0
  0
VERTEX
  5
283
330
280
100
AcDbEntity
  8
Layer 1
370
     0
100
AcDbVertex
100
AcDb2dVertex
 10
185.5955620195733
 20
-111.7678547897664
 30
0.0
  0
VERTEX
  5
284
330
280
100
AcDbEntity
  8
Layer 1
370
     0
100
AcDbVertex
100
AcDb2dVertex
 10
170.6142197924159
 20
-111.7678547897664
 30
0.0
  0
VERTEX
  5
285
330
280
100
AcDbEntity
  8
Layer 1
370
     0
100
AcDbVertex
100
AcDb2dVertex
 10
170.6142197924159
 20
-126.7488525073753
 30
0.0
  0
SEQEND
  5
286
330
280
100
AcDbEntity
  8
Layer 1
370
     0
  0
ENDBLK
  5
27C
330
279
100
AcDbEntity
  8
0
100
AcDbBlockEnd
  0
BLOCK
  5
289
330
287
100
AcDbEntity
  8
0
100
AcDbBlockBegin
  2
block 44
 70
     0
 10
0.0
 20
0.0
 30
0.0
  3
block 44
  1

  0
IMAGE
  5
28C
330
287
100
AcDbEntity
  8
Layer 1
160
               140
310
8C0000000100000084000000060000000500000000000080B1B36B4000000060EFAF5FC0000000000000000000000080B1B36B400000008C24F15BC00000000000000000000000EA16936D400000008C24F15BC00000000000000000000000EA16936D4000000060EFAF5FC0000000000000000000000080B1B36B40000000
310
60EFAF5FC00000000000000000
100
AcDbRasterImage
 90
        0
 10
221.6154174804688
 20
-126.7489852905273
 30
0.0
 11
0.1269587258161124
 21
0.0
 31
0.0
 12
0.0
 22
0.1269587258161124
 32
0.0
 13
118.0
 23
118.0
340
28B
 70
     3
280
     0
281
    50
282
    50
283
     0
290
     0
360
28D
 71
     1
 91
        2
 14
-0.5
 24
-0.5
 14
117.5
 24
117.5
  0
POLYLINE
  5
28E
330
287
100
AcDbEntity
  8
Layer 1
370
     0
100
AcDb2dPolyline
 66
     1
 10
0.0
 20
0.0
 30
0.0
  0
VERTEX
  5
28F
330
28E
100
AcDbEntity
  8
Layer 1
370
     0
100
AcDbVertex
100
AcDb2dVertex
 10
221.6154133560545
 20
-126.7488525073753
 30
0.0
  0
VERTEX
  5
290
330
28E
100
AcDbEntity
  8
Layer 1
370
     0
100
AcDbVertex
100
AcDb2dVertex
 10
236.5967555832119
 20
-126.7488525073753
 30
0.0
  0
VERTEX
  5
291
330
28E
100
AcDbEntity
  8
Layer 1
370
     0
100
AcDbVertex
100
AcDb2dVertex
 10
236.5967555832119
 20
-111.7678547897664
 30
0.0
  0
VERTEX
  5
292
330
28E
100
AcDbEntity
  8
Layer 1
370
     0
100
AcDbVertex
100
AcDb2dVertex
 10
221.6154133560545
 20
-111.7678547897664
 30
0.0
  0
VERTEX
  5
293
330
28E
100
AcDbEntity
  8
Layer 1
370
     0
100
AcDbVertex
100
AcDb2dVertex
 10
221.6154133560545
 20
-126.7488525073753
 30
0.0
  0
SEQEND
  5
294
330
28E
100
AcDbEntity
  8
Layer 1
370
     0
  0
ENDBLK
  5
28A
330
287
100
AcDbEntity
  8
0
100
AcDbBlockEnd
  0
BLOCK
  5
297
330
295
100
AcDbEntity
  8
0
100
AcDbBlockBegin
  2
block 45
 70
     0
 10
0.0
 20
0.0
 30
0.0
  3
block 45
  1

  0
IMAGE
  5
29A
330
295
100
AcDbEntity
  8
Layer 1
160
               140
310
8C0000000100000084000000060000000500000000000060A633634000000060EFAF5FC0000000000000000000000060A63363400000008C24F15BC00000000000000000000000CA0B1365400000008C24F15BC00000000000000000000000CA0B13654000000060EFAF5FC0000000000000000000000060A6336340000000
310
60EFAF5FC00000000000000000
100
AcDbRasterImage
 90
        0
 10
153.6140594482422
 20
-126.7489852905273
 30
0.0
 11
0.1269587258161124
 21
0.0
 31
0.0
 12
0.0
 22
0.1269587258161124
 32
0.0
 13
118.0
 23
118.0
340
299
 70
     3
280
     0
281
    50
282
    50
283
     0
290
     0
360
29B
 71
     1
 91
        2
 14
-0.5
 24
-0.5
 14
117.5
 24
117.5
  0
POLYLINE
  5
29C
330
295
100
AcDbEntity
  8
Layer 1
370
     0
100
AcDb2dPolyline
 66
     1
 10
0.0
 20
0.0
 30
0.0
  0
VERTEX
  5
29D
330
29C
100
AcDbEntity
  8
Layer 1
370
     0
100
AcDbVertex
100
AcDb2dVertex
 10
153.614051610902
 20
-126.7488525073753
 30
0.0
  0
VERTEX
  5
29E
330
29C
100
AcDbEntity
  8
Layer 1
370
     0
100
AcDbVertex
100
AcDb2dVertex
 10
168.5953938380595
 20
-126.7488525073753
 30
0.0
  0
VERTEX
  5
29F
330
29C
100
AcDbEntity
  8
Layer 1
370
     0
100
AcDbVertex
100
AcDb2dVertex
 10
168.5953938380595
 20
-111.7678547897664
 30
0.0
  0
VERTEX
  5
2A0
330
29C
100
AcDbEntity
  8
Layer 1
370
     0
100
AcDbVertex
100
AcDb2dVertex
 10
153.614051610902
 20
-111.7678547897664
 30
0.0
  0
VERTEX
  5
2A1
330
29C
100
AcDbEntity
  8
Layer 1
370
     0
100
AcDbVertex
100
AcDb2dVertex
 10
153.614051610902
 20
-126.7488525073753
 30
0.0
  0
SEQEND
  5
2A2
330
29C
100
AcDbEntity
  8
Layer 1
370
     0
  0
ENDBLK
  5
298
330
295
100
AcDbEntity
  8
0
100
AcDbBlockEnd
  0
BLOCK
  5
2A5
330
2A3
100
AcDbEntity
  8
0
100
AcDbBlockBegin
  2
block 46
 70
     0
 10
0.0
 20
0.0
 30
0.0
  3
block 46
  1

  0
IMAGE
  5
2A8
330
2A3
100
AcDbEntity
  8
Layer 1
160
               140
310
8C00000001000000840000000600000005000000000000203967554000000060EFAF5FC0000000000000000000000020396755400000008C24F15BC00000000000000000000000F4032659400000008C24F15BC00000000000000000000000F40326594000000060EFAF5FC000000000000000000000002039675540000000
310
60EFAF5FC00000000000000000
100
AcDbRasterImage
 90
        0
 10
85.61286163330079
 20
-126.7489852905273
 30
0.0
 11
0.1269587258161124
 21
0.0
 31
0.0
 12
0.0
 22
0.1269587258161124
 32
0.0
 13
118.0
 23
118.0
340
2A7
 70
     3
280
     0
281
    50
282
    50
283
     0
290
     0
360
2A9
 71
     1
 91
        2
 14
-0.5
 24
-0.5
 14
117.5
 24
117.5
  0
POLYLINE
  5
2AA
330
2A3
100
AcDbEntity
  8
Layer 1
370
     0
100
AcDb2dPolyline
 66
     1
 10
0.0
 20
0.0
 30
0.0
  0
VERTEX
  5
2AB
330
2AA
100
AcDbEntity
  8
Layer 1
370
     0
100
AcDbVertex
100
AcDb2dVertex
 10
85.61286212052387
 20
-126.7488525073753
 30
0.0
  0
VERTEX
  5
2AC
330
2AA
100
AcDbEntity
  8
Layer 1
370
     0
100
AcDbVertex
100
AcDb2dVertex
 10
100.5942043476813
 20
-126.7488525073753
 30
0.0
  0
VERTEX
  5
2AD
330
2AA
100
AcDbEntity
  8
Layer 1
370
     0
100
AcDbVertex
100
AcDb2dVertex
 10
100.5942043476813
 20
-111.7678547897664
 30
0.0
  0
VERTEX
  5
2AE
330
2AA
100
AcDbEntity
  8
Layer 1
370
     0
100
AcDbVertex
100
AcDb2dVertex
 10
85.61286212052387
 20
-111.7678547897664
 30
0.0
  0
VERTEX
  5
2AF
330
2AA
100
AcDbEntity
  8
Layer 1
370
     0
100
AcDbVertex
100
AcDb2dVertex
 10
85.61286212052387
 20
-126.7488525073753
 30
0.0
  0
SEQEND
  5
2B0
330
2AA
100
AcDbEntity
  8
Layer 1
370
     0
  0
ENDBLK
  5
2A6
330
2A3
100
AcDbEntity
  8
0
100
AcDbBlockEnd
  0
BLOCK
  5
2B3
330
2B1
100
AcDbEntity
  8
0
100
AcDbBlockBegin
  2
block 47
 70
     0
 10
0.0
 20
0.0
 30
0.0
  3
block 47
  1

  0
IMAGE
  5
2B6
330
2B1
100
AcDbEntity
  8
Layer 1
160
               140
310
8C0000000100000084000000060000000500000000000060A613614000000060EFAF5FC0000000000000000000000060A61361400000008C24F15BC00000000000000000000000CA0BF362400000008C24F15BC00000000000000000000000CA0BF3624000000060EFAF5FC0000000000000000000000060A6136140000000
310
60EFAF5FC00000000000000000
100
AcDbRasterImage
 90
        0
 10
136.6140594482422
 20
-126.7489852905273
 30
0.0
 11
0.1269587258161124
 21
0.0
 31
0.0
 12
0.0
 22
0.1269587258161124
 32
0.0
 13
118.0
 23
118.0
340
2B5
 70
     3
280
     0
281
    50
282
    50
283
     0
290
     0
360
2B7
 71
     1
 91
        2
 14
-0.5
 24
-0.5
 14
117.5
 24
117.5
  0
POLYLINE
  5
2B8
330
2B1
100
AcDbEntity
  8
Layer 1
370
     0
100
AcDb2dPolyline
 66
     1
 10
0.0
 20
0.0
 30
0.0
  0
VERTEX
  5
2B9
330
2B8
100
AcDbEntity
  8
Layer 1
370
     0
100
AcDbVertex
100
AcDb2dVertex
 10
136.6140556841624
 20
-126.7488525073753
 30
0.0
  0
VERTEX
  5
2BA
330
2B8
100
AcDbEntity
  8
Layer 1
370
     0
100
AcDbVertex
100
AcDb2dVertex
 10
151.5952256565456
 20
-126.7488525073753
 30
0.0
  0
VERTEX
  5
2BB
330
2B8
100
AcDbEntity
  8
Layer 1
370
     0
100
AcDbVertex
100
AcDb2dVertex
 10
151.5952256565456
 20
-111.7678547897664
 30
0.0
  0
VERTEX
  5
2BC
330
2B8
100
AcDbEntity
  8
Layer 1
370
     0
100
AcDbVertex
100
AcDb2dVertex
 10
136.6140556841624
 20
-111.7678547897664
 30
0.0
  0
VERTEX
  5
2BD
330
2B8
100
AcDbEntity
  8
Layer 1
370
     0
100
AcDbVertex
100
AcDb2dVertex
 10
136.6140556841624
 20
-126.7488525073753
 30
0.0
  0
SEQEND
  5
2BE
330
2B8
100
AcDbEntity
  8
Layer 1
370
     0
  0
ENDBLK
  5
2B4
330
2B1
100
AcDbEntity
  8
0
100
AcDbBlockEnd
  0
BLOCK
  5
36C
330
36B
100
AcDbEntity
  8
0
100
AcDbBlockBegin
  2
*U47
 70
     1
 10
0.0
 20
0.0
 30
0.0
  3
*U47
  1

  0
ENDBLK
  5
36D
330
36B
100
AcDbEntity
  8
0
100
AcDbBlockEnd
  0
BLOCK
  5
3A7
330
3A5
100
AcDbEntity
  8
0
100
AcDbBlockBegin
  2
GENAXEH
 70
     0
 10
0.0
 20
0.0
 30
0.0
  3
GENAXEH
  1

  0
LINE
  5
3A6
330
3A5
100
AcDbEntity
  8
0
100
AcDbLine
 10
-1.0
 20
0.0
 30
0.0
 11
1.0
 21
0.0
 31
0.0
  0
ENDBLK
  5
3A8
330
3A5
100
AcDbEntity
  8
0
100
AcDbBlockEnd
  0
BLOCK
  5
4B0
330
4AF
100
AcDbEntity
  8
0
100
AcDbBlockBegin
  2
_ACMFILLEDHALF
 70
     0
 10
0.0
 20
0.0
 30
0.0
  3
_ACMFILLEDHALF
  1

  0
TRACE
  5
4B2
330
4AF
100
AcDbEntity
  8
0
 62
     0
100
AcDbTrace
 10
-0.8
 20
0.0
 30
0.0
 11
-1.0
 21
0.166666666
 31
0.0
 12
0.0
 22
0.0
 32
0.0
 13
0.0
 23
0.0
 33
0.0
  0
LINE
  5
4B3
330
4AF
100
AcDbEntity
  8
0
 62
     0
100
AcDbLine
 10
-1.0
 20
0.0
 30
0.0
 11
-0.8
 21
0.0
 31
0.0
  0
ENDBLK
  5
4B1
330
4AF
100
AcDbEntity
  8
0
100
AcDbBlockEnd
  0
ENDSEC
  0
SECTION
  2
ENTITIES
  0
INSERT
  5
3D
330
1F
100
AcDbEntity
  8
Layer 1
100
AcDbBlockReference
  2
block 2
 10
0.0
 20
0.0
 30
0.0
  0
INSERT
  5
41
330
1F
100
AcDbEntity
  8
Layer 1
100
AcDbBlockReference
  2
block 3
 10
0.0
 20
0.0
 30
0.0
  0
INSERT
  5
45
330
1F
100
AcDbEntity
  8
Layer 1
100
AcDbBlockReference
  2
block 4
 10
0.0
 20
0.0
 30
0.0
  0
INSERT
  5
EE
330
1F
100
AcDbEntity
  8
Layer 1
100
AcDbBlockReference
  2
block 15
 10
0.0
 20
0.0
 30
0.0
  0
INSERT
  5
F2
330
1F
100
AcDbEntity
  8
Layer 1
100
AcDbBlockReference
  2
block 16
 10
0.0
 20
0.0
 30
0.0
  0
MTEXT
  5
1A6
330
1F
100
AcDbEntity
  8
DIMENSIONS
100
AcDbMText
 10
6239.424019660752
 20
312.7047595950508
 30
0.0
 40
111.3166557104935
 41
0.0
 46
0.0
 71
     7
 72
     1
  1
\fApercu|b0|i0|c0|p34;\W1.0004;82
 73
     1
 44
1.0
  0
MTEXT
  5
1A7
330
1F
100
AcDbEntity
  8
DIMENSIONS
100
AcDbMText
 10
5668.880905272136
 20
821.220555486896
 30
0.0
 40
111.3166557104935
 41
0.0
 46
113.8610364124476
 71
     7
 72
     1
  1
76
 73
     1
 44
1.0
  0
MTEXT
  5
1A8
330
1F
100
AcDbEntity
  8
TEXT
100
AcDbMText
 10
5538.431699361402
 20
-383.4301477768168
 30
0.0
 40
111.3166557104935
 41
0.0
 46
0.0
 71
     7
 72
     1
  1
AC76 
 73
     1
 44
1.0
  0
MTEXT
  5
1A9
330
1F
100
AcDbEntity
  8
DIMENSIONS
100
AcDbMText
 10
293.3603285214549
 20
257.293360477991
 30
0.0
 40
111.3166557104935
 41
0.0
 46
0.0
 71
     7
 72
     1
  1
\fApercu|b0|i0|c0|p34;\W1.0004;80
 73
     1
 44
1.0
  0
MTEXT
  5
1AA
330
1F
100
AcDbEntity
  8
DIMENSIONS
100
AcDbMText
 10
-290.5867860974313
 20
802.3319826853422
 30
0.0
 40
111.3166557104935
 41
0.0
 46
0.0
 71
     7
 72
     1
  1
\fApercu|b0|i0|c0|p34;\W1.0004;82
 73
     1
 44
1.0
  0
INSERT
  5
230
330
1F
100
AcDbEntity
  8
Layer 1
100
AcDbBlockReference
  2
block 36
 10
0.0
 20
0.0
 30
0.0
  0
MTEXT
  5
240
330
1F
100
AcDbEntity
  8
DIMENSIONS
100
AcDbMText
 10
3278.295910075417
 20
39.60747783924399
 30
0.0
 40
111.3166557104935
 41
0.0
 46
0.0
 71
     7
 72
     1
  1
42
 73
     1
 44
1.0
  0
SPLINE
  5
3ED
330
1F
100
AcDbEntity
  8
FURNITURE
370
     9
100
AcDbSpline
210
0.0
220
0.0
230
1.0
 70
     8
 71
     3
 72
    14
 73
    10
 74
     0
 42
0.000000001
 43
0.0000000001
 40
0.0
 40
0.0
 40
0.0
 40
0.0
 40
1.0
 40
1.0
 40
1.0
 40
2.0
 40
2.0
 40
2.0
 40
3.0
 40
3.0
 40
3.0
 40
3.0
 10
-32.82417249496939
 20
399.7815721001334
 30
0.0
 10
-1.023489379852435
 20
510.5428840946642
 30
0.0
 10
53.8714253246635
 20
640.9920900053984
 30
0.0
 10
120.547103534318
 20
707.6554709671345
 30
0.0
 10
120.547103534318
 20
707.6554709671345
 30
0.0
 10
149.6915810992159
 20
697.7438891454858
 30
0.0
 10
149.6915810992159
 20
697.7438891454858
 30
0.0
 10
149.6915810992159
 20
697.7438891454858
 30
0.0
 10
139.3618928483656
 20
606.7196600588276
 30
0.0
 10
139.3618928483656
 20
606.7196600588276
 30
0.0
  0
SPLINE
  5
3EE
330
1F
100
AcDbEntity
  8
FURNITURE
370
     9
100
AcDbSpline
210
0.0
220
0.0
230
1.0
 70
     8
 71
     3
 72
    11
 73
     7
 74
     0
 42
0.000000001
 43
0.0000000001
 40
0.0
 40
0.0
 40
0.0
 40
0.0
 40
1.0
 40
1.0
 40
1.0
 40
2.0
 40
2.0
 40
2.0
 40
2.0
 10
-49.52383516717782
 20
242.0078813163172
 30
0.0
 10
-60.4929803097466
 20
286.1058123491121
 30
0.0
 10
-46.91681860862991
 20
345.6982757581827
 30
0.0
 10
-46.91681860862991
 20
345.6982757581827
 30
0.0
 10
-44.23601856257573
 20
357.2576888007997
 30
0.0
 10
-41.21089557482719
 20
369.2598027684553
 30
0.0
 10
-37.91523313288872
 20
381.5693479340507
 30
0.0
  0
SPLINE
  5
3F7
330
1F
100
AcDbEntity
  8
FURNITURE
370
     9
100
AcDbSpline
210
0.0
220
0.0
230
1.0
 70
     8
 71
     3
 72
    17
 73
    13
 74
     0
 42
0.000000001
 43
0.0000000001
 40
0.0
 40
0.0
 40
0.0
 40
0.0
 40
1.0
 40
1.0
 40
1.0
 40
2.0
 40
2.0
 40
2.0
 40
3.0
 40
3.0
 40
3.0
 40
4.0
 40
4.0
 40
4.0
 40
4.0
 10
132.893540443667
 20
393.5345701579527
 30
0.0
 10
132.893540443667
 20
393.5345701579527
 30
0.0
 10
176.52417605559
 20
577.6735604772711
 30
0.0
 10
176.52417605559
 20
577.6735604772711
 30
0.0
 10
176.52417605559
 20
577.6735604772711
 30
0.0
 10
191.2316845651348
 20
607.1131719921941
 30
0.0
 10
166.7355667131178
 20
616.8771868388303
 30
0.0
 10
142.2640433569386
 20
626.7149851729737
 30
0.0
 10
136.1154193980983
 20
597.2753736580507
 30
0.0
 10
132.4262450227952
 20
593.5984965306651
 30
0.0
 10
132.4262450227952
 20
593.5984965306651
 30
0.0
 10
72.44026968035905
 20
395.7972637748044
 30
0.0
 10
72.44026968035905
 20
395.7972637748044
 30
0.0
  0
SPLINE
  5
3F9
330
1F
100
AcDbEntity
  8
FURNITURE
370
     9
100
AcDbSpline
210
0.0
220
0.0
230
1.0
 70
     8
 71
     3
 72
     8
 73
     4
 74
     0
 42
0.000000001
 43
0.0000000001
 40
0.0
 40
0.0
 40
0.0
 40
0.0
 40
1.0
 40
1.0
 40
1.0
 40
1.0
 10
-562.1715063593629
 20
266.0121092516256
 30
0.0
 10
-601.9408061251351
 20
266.0121092516256
 30
0.0
 10
-611.6556319801011
 20
124.4461912233091
 30
0.0
 10
-563.9914990511797
 20
124.4461912233091
 30
0.0
  0
SPLINE
  5
3FA
330
1F
100
AcDbEntity
  8
FURNITURE
370
     9
100
AcDbSpline
210
0.0
220
0.0
230
1.0
 70
     8
 71
     3
 72
    17
 73
    13
 74
     0
 42
0.000000001
 43
0.0000000001
 40
0.0
 40
0.0
 40
0.0
 40
0.0
 40
1.0
 40
1.0
 40
1.0
 40
2.0
 40
2.0
 40
2.0
 40
3.0
 40
3.0
 40
3.0
 40
4.0
 40
4.0
 40
4.0
 40
4.0
 10
66.7097521507203
 20
377.6096341045586
 30
0.0
 10
66.7097521507203
 20
377.6096341045586
 30
0.0
 10
39.70499572349763
 20
289.2416105681204
 30
0.0
 10
29.5228744476608
 20
272.6280286313358
 30
0.0
 10
29.5228744476608
 20
272.6280286313358
 30
0.0
 10
19.34075317182305
 20
240.4215363349358
 30
0.0
 10
-17.4034236062007
 20
240.4215363349358
 30
0.0
 10
-54.17219488005958
 20
240.4215363349358
 30
0.0
 10
-177.2676465360227
 20
254.8953971340434
 30
0.0
 10
-272.8418573522203
 20
261.0194265970477
 30
0.0
 10
-368.3914736725837
 20
267.168050555887
 30
0.0
 10
-518.048980830732
 20
270.2423625353058
 30
0.0
 10
-518.048980830732
 20
270.2423625353058
 30
0.0
  0
SPLINE
  5
3FB
330
1F
100
AcDbEntity
  8
FURNITURE
370
     9
100
AcDbSpline
210
0.0
220
0.0
230
1.0
 70
     9
 71
     3
 72
    29
 73
    25
 74
     0
 42
0.000000001
 43
0.0000000001
 40
0.0
 40
0.0
 40
0.0
 40
0.0
 40
1.0
 40
1.0
 40
1.0
 40
2.0
 40
2.0
 40
2.0
 40
3.0
 40
3.0
 40
3.0
 40
4.0
 40
4.0
 40
4.0
 40
5.0
 40
5.0
 40
5.0
 40
6.0
 40
6.0
 40
6.0
 40
7.0
 40
7.0
 40
7.0
 40
8.0
 40
8.0
 40
8.0
 40
8.0
 10
5485.307588357032
 20
-82.73687359303471
 30
0.0
 10
5483.094083731848
 20
-116.4313328874739
 30
0.0
 10
5459.23742277155
 20
-110.0121694744464
 30
0.0
 10
5429.47808281077
 20
-108.044609807617
 30
0.0
 10
5429.47808281077
 20
-108.044609807617
 30
0.0
 10
5429.47808281077
 20
-108.044609807617
 30
0.0
 10
5429.47808281077
 20
-108.044609807617
 30
0.0
 10
5399.669553858316
 20
-106.0278611491173
 30
0.0
 10
5375.222624997971
 20
-109.3481180868909
 30
0.0
 10
5377.436129623154
 20
-75.67825328828688
 30
0.0
 10
5377.436129623154
 20
-75.67825328828688
 30
0.0
 10
5449.104490487385
 20
681.0196319774422
 30
0.0
 10
5449.104490487385
 20
681.0196319774422
 30
0.0
 10
5451.268806120896
 20
714.6771995281287
 30
0.0
 10
5461.155793446708
 20
717.5301610450296
 30
0.0
 10
5484.372997515286
 20
715.9684105594851
 30
0.0
 10
5484.372997515286
 20
715.9684105594851
 30
0.0
 10
5484.372997515286
 20
715.9684105594851
 30
0.0
 10
5484.372997515286
 20
715.9684105594851
 30
0.0
 10
5502.031845525071
 20
714.8370637510588
 30
0.0
 10
5515.116117309483
 20
712.7834233488056
 30
0.0
 10
5512.902612684301
 20
679.0766668064488
 30
0.0
 10
5512.902612684301
 20
679.0766668064488
 30
0.0
 10
5485.307588357032
 20
-82.73687359303471
 30
0.0
 10
5485.307588357032
 20
-82.73687359303471
 30
0.0
  0
SPLINE
  5
3FC
330
1F
100
AcDbEntity
  8
FURNITURE
370
     9
100
AcDbSpline
210
0.0
220
0.0
230
1.0
 70
     9
 71
     3
 72
    29
 73
    25
 74
     0
 42
0.000000001
 43
0.0000000001
 40
0.0
 40
0.0
 40
0.0
 40
0.0
 40
1.0
 40
1.0
 40
1.0
 40
2.0
 40
2.0
 40
2.0
 40
3.0
 40
3.0
 40
3.0
 40
4.0
 40
4.0
 40
4.0
 40
5.0
 40
5.0
 40
5.0
 40
6.0
 40
6.0
 40
6.0
 40
7.0
 40
7.0
 40
7.0
 40
8.0
 40
8.0
 40
8.0
 40
8.0
 10
6023.189212276292
 20
-82.39255065133942
 30
0.0
 10
6025.009204968108
 20
-116.0624154499435
 30
0.0
 10
6049.554511811796
 20
-109.2128483597969
 30
0.0
 10
6080.051686647639
 20
-106.8271822637668
 30
0.0
 10
6080.051686647639
 20
-106.8271822637668
 30
0.0
 10
6080.051686647639
 20
-106.8271822637668
 30
0.0
 10
6080.051686647639
 20
-106.8271822637668
 30
0.0
 10
6110.696428458495
 20
-104.3923271760666
 30
0.0
 10
6135.684436227214
 20
-107.2821804367211
 30
0.0
 10
6133.766065552059
 20
-73.66150462978724
 30
0.0
 10
6133.766065552059
 20
-73.66150462978724
 30
0.0
 10
6061.950137712815
 20
681.4746301503965
 30
0.0
 10
6061.950137712815
 20
681.4746301503965
 30
0.0
 10
6060.130145020998
 20
714.9723334781529
 30
0.0
 10
6050.095590720174
 20
717.7392142596309
 30
0.0
 10
6026.238929759876
 20
715.8454380803086
 30
0.0
 10
6026.238929759876
 20
715.8454380803086
 30
0.0
 10
6026.238929759876
 20
715.8454380803086
 30
0.0
 10
6026.238929759876
 20
715.8454380803086
 30
0.0
 10
6008.137380825053
 20
714.3820655781046
 30
0.0
 10
5994.708786098947
 20
712.1070747133335
 30
0.0
 10
5996.577967782436
 20
678.4495071626479
 30
0.0
 10
5996.577967782436
 20
678.4495071626479
 30
0.0
 10
6023.189212276292
 20
-82.39255065133942
 30
0.0
 10
6023.189212276292
 20
-82.39255065133942
 30
0.0
  0
POLYLINE
  5
3FD
330
1F
100
AcDbEntity
  8
FURNITURE
370
     9
100
AcDb2dPolyline
 66
     1
 10
0.0
 20
0.0
 30
0.0
  0
VERTEX
  5
3FE
330
3FD
100
AcDbEntity
  8
FURNITURE
370
     9
100
AcDbVertex
100
AcDb2dVertex
 10
5996.381211815752
 20
650.5224571416001
 30
0.0
  0
VERTEX
  5
3FF
330
3FD
100
AcDbEntity
  8
FURNITURE
370
     9
100
AcDbVertex
100
AcDb2dVertex
 10
5513.148557642655
 20
650.5224571416001
 30
0.0
  0
VERTEX
  5
400
330
3FD
100
AcDbEntity
  8
FURNITURE
370
     9
100
AcDbVertex
100
AcDb2dVertex
 10
5510.246407134081
 20
703.4867039230412
 30
0.0
  0
VERTEX
  5
401
330
3FD
100
AcDbEntity
  8
FURNITURE
370
     9
100
AcDbVertex
100
AcDb2dVertex
 10
5999.824441232701
 20
703.4867039230412
 30
0.0
  0
VERTEX
  5
402
330
3FD
100
AcDbEntity
  8
FURNITURE
370
     9
100
AcDbVertex
100
AcDb2dVertex
 10
5996.381211815752
 20
650.5224571416001
 30
0.0
  0
SEQEND
  5
403
330
3FD
100
AcDbEntity
  8
FURNITURE
370
     9
  0
SPLINE
  5
404
330
1F
100
AcDbEntity
  8
FURNITURE
370
     9
100
AcDbSpline
210
0.0
220
0.0
230
1.0
 70
     9
 71
     3
 72
    17
 73
    13
 74
     0
 42
0.000000001
 43
0.0000000001
 40
0.0
 40
0.0
 40
0.0
 40
0.0
 40
1.0
 40
1.0
 40
1.0
 40
2.0
 40
2.0
 40
2.0
 40
3.0
 40
3.0
 40
3.0
 40
4.0
 40
4.0
 40
4.0
 40
4.0
 10
5510.246407134081
 20
626.1985007604316
 30
0.0
 10
5510.246407134081
 20
593.8321442411015
 30
0.0
 10
5509.213438308997
 20
566.9626575409738
 30
0.0
 10
5509.213438308997
 20
566.9626575409738
 30
0.0
 10
5509.213438308997
 20
566.9626575409738
 30
0.0
 10
5753.928671870802
 20
477.856799129474
 30
0.0
 10
5999.824441232701
 20
567.8357621431278
 30
0.0
 10
5999.824441232701
 20
567.8357621431278
 30
0.0
 10
5999.430929299338
 20
589.9216194032796
 30
0.0
 10
5998.447149465924
 20
621.4517630642076
 30
0.0
 10
5997.168235682485
 20
664.4183472885761
 30
0.0
 10
5510.246407134081
 20
650.743807604118
 30
0.0
 10
5510.246407134081
 20
626.1985007604316
 30
0.0
  0
POLYLINE
  5
405
330
1F
100
AcDbEntity
  8
FURNITURE
370
     9
100
AcDb2dPolyline
 66
     1
 10
0.0
 20
0.0
 30
0.0
  0
VERTEX
  5
406
330
405
100
AcDbEntity
  8
FURNITURE
370
     9
100
AcDbVertex
100
AcDb2dVertex
 10
5485.799478273738
 20
-68.21382380225599
 30
0.0
  0
VERTEX
  5
407
330
405
100
AcDbEntity
  8
FURNITURE
370
     9
100
AcDbVertex
100
AcDb2dVertex
 10
6022.057865467866
 20
-68.21382380225599
 30
0.0
  0
SEQEND
  5
408
330
405
100
AcDbEntity
  8
FURNITURE
370
     9
  0
MTEXT
  5
409
330
1F
100
AcDbEntity
  8
DIMENSIONS
100
AcDbMText
 10
9841.091178782132
 20
261.6219917450135
 30
0.0
 40
111.3166557104935
 41
0.0
 46
0.0
 71
     7
 72
     1
  1
\fApercu|b0|i0|c0|p34;\W1.0004;82
 73
     1
 44
1.0
  0
MTEXT
  5
40A
330
1F
100
AcDbEntity
  8
DIMENSIONS
100
AcDbMText
 10
8941.12938717474
 20
821.220555486896
 30
0.0
 40
111.3166557104935
 41
0.0
 46
0.0
 71
     7
 72
     1
  1
\fApercu|b0|i0|c0|p34;\W1.0004;136
 73
     1
 44
1.0
  0
MTEXT
  5
40B
330
1F
100
AcDbEntity
  8
TEXT
100
AcDbMText
 10
8807.925597730445
 20
-383.4301477768168
 30
0.0
 40
111.3166557104935
 41
0.0
 46
0.0
 71
     7
 72
     1
  1
AC136 
 73
     1
 44
1.0
  0
SPLINE
  5
40D
330
1F
100
AcDbEntity
  8
FURNITURE
370
     9
100
AcDbSpline
210
0.0
220
0.0
230
1.0
 70
     9
 71
     3
 72
    29
 73
    25
 74
     0
 42
0.000000001
 43
0.0000000001
 40
0.0
 40
0.0
 40
0.0
 40
0.0
 40
1.0
 40
1.0
 40
1.0
 40
2.0
 40
2.0
 40
2.0
 40
3.0
 40
3.0
 40
3.0
 40
4.0
 40
4.0
 40
4.0
 40
5.0
 40
5.0
 40
5.0
 40
6.0
 40
6.0
 40
6.0
 40
7.0
 40
7.0
 40
7.0
 40
8.0
 40
8.0
 40
8.0
 40
8.0
 10
8486.771462837491
 20
-65.27574965063649
 30
0.0
 10
8484.557958212304
 20
-98.97020894507569
 30
0.0
 10
8460.701297252011
 20
-92.55104553204819
 30
0.0
 10
8430.94195729123
 20
-90.58348586521878
 30
0.0
 10
8430.94195729123
 20
-90.58348586521878
 30
0.0
 10
8430.94195729123
 20
-90.58348586521878
 30
0.0
 10
8430.94195729123
 20
-90.58348586521878
 30
0.0
 10
8401.133428338775
 20
-88.56673720671915
 30
0.0
 10
8376.686499478429
 20
-91.88699414449274
 30
0.0
 10
8378.900004103611
 20
-58.21712934588868
 30
0.0
 10
8378.900004103611
 20
-58.21712934588868
 30
0.0
 10
8450.568364967844
 20
681.0196319774422
 30
0.0
 10
8450.568364967844
 20
681.0196319774422
 30
0.0
 10
8452.732680601354
 20
714.6771995281287
 30
0.0
 10
8462.619667927166
 20
717.5301610450296
 30
0.0
 10
8485.886060987416
 20
715.9684105594851
 30
0.0
 10
8485.886060987416
 20
715.9684105594851
 30
0.0
 10
8485.886060987416
 20
715.9684105594851
 30
0.0
 10
8485.886060987416
 20
715.9684105594851
 30
0.0
 10
8503.495720005535
 20
714.8370637510588
 30
0.0
 10
8516.57999178994
 20
712.7834233488056
 30
0.0
 10
8514.366487164759
 20
679.0766668064488
 30
0.0
 10
8514.366487164759
 20
679.0766668064488
 30
0.0
 10
8486.771462837491
 20
-65.27574965063649
 30
0.0
 10
8486.771462837491
 20
-65.27574965063649
 30
0.0
  0
SPLINE
  5
40E
330
1F
100
AcDbEntity
  8
FURNITURE
370
     9
100
AcDbSpline
210
0.0
220
0.0
230
1.0
 70
     9
 71
     3
 72
    29
 73
    25
 74
     0
 42
0.000000001
 43
0.0000000001
 40
0.0
 40
0.0
 40
0.0
 40
0.0
 40
1.0
 40
1.0
 40
1.0
 40
2.0
 40
2.0
 40
2.0
 40
3.0
 40
3.0
 40
3.0
 40
4.0
 40
4.0
 40
4.0
 40
5.0
 40
5.0
 40
5.0
 40
6.0
 40
6.0
 40
6.0
 40
7.0
 40
7.0
 40
7.0
 40
8.0
 40
8.0
 40
8.0
 40
8.0
 10
9626.03690719777
 20
-64.93142670894122
 30
0.0
 10
9627.807710897917
 20
-98.60129150754529
 30
0.0
 10
9652.402206733274
 20
-91.75172441739869
 30
0.0
 10
9682.850192577443
 20
-89.36605832136866
 30
0.0
 10
9682.850192577443
 20
-89.36605832136866
 30
0.0
 10
9682.850192577443
 20
-89.36605832136866
 30
0.0
 10
9682.850192577443
 20
-89.36605832136866
 30
0.0
 10
9713.494934388299
 20
-86.93120323366839
 30
0.0
 10
9738.532131148694
 20
-89.82105649432288
 30
0.0
 10
9736.613760473534
 20
-56.20038068738904
 30
0.0
 10
9736.613760473534
 20
-56.20038068738904
 30
0.0
 10
9664.797832634292
 20
681.4746301503965
 30
0.0
 10
9664.797832634292
 20
681.4746301503965
 30
0.0
 10
9662.928650950806
 20
714.9723334781529
 30
0.0
 10
9652.89409664998
 20
717.7392142596309
 30
0.0
 10
9629.086624681354
 20
715.8454380803086
 30
0.0
 10
9629.086624681354
 20
715.8454380803086
 30
0.0
 10
9629.086624681354
 20
715.8454380803086
 30
0.0
 10
9629.086624681354
 20
715.8454380803086
 30
0.0
 10
9610.985075746533
 20
714.3820655781046
 30
0.0
 10
9597.556481020424
 20
712.1070747133335
 30
0.0
 10
9599.37647371224
 20
678.4495071626479
 30
0.0
 10
9599.37647371224
 20
678.4495071626479
 30
0.0
 10
9626.03690719777
 20
-64.93142670894122
 30
0.0
 10
9626.03690719777
 20
-64.93142670894122
 30
0.0
  0
POLYLINE
  5
40F
330
1F
100
AcDbEntity
  8
FURNITURE
370
     9
100
AcDb2dPolyline
 66
     1
 10
0.0
 20
0.0
 30
0.0
  0
VERTEX
  5
410
330
40F
100
AcDbEntity
  8
FURNITURE
370
     9
100
AcDbVertex
100
AcDb2dVertex
 10
9599.228906737229
 20
650.5224571416001
 30
0.0
  0
VERTEX
  5
411
330
40F
100
AcDbEntity
  8
FURNITURE
370
     9
100
AcDbVertex
100
AcDb2dVertex
 10
8514.612432123113
 20
650.5224571416001
 30
0.0
  0
VERTEX
  5
412
330
40F
100
AcDbEntity
  8
FURNITURE
370
     9
100
AcDbVertex
100
AcDb2dVertex
 10
8511.71028161454
 20
703.4867039230412
 30
0.0
  0
VERTEX
  5
413
330
40F
100
AcDbEntity
  8
FURNITURE
370
     9
100
AcDbVertex
100
AcDb2dVertex
 10
9602.622947162508
 20
703.4867039230412
 30
0.0
  0
VERTEX
  5
414
330
40F
100
AcDbEntity
  8
FURNITURE
370
     9
100
AcDbVertex
100
AcDb2dVertex
 10
9599.228906737229
 20
650.5224571416001
 30
0.0
  0
SEQEND
  5
415
330
40F
100
AcDbEntity
  8
FURNITURE
370
     9
  0
SPLINE
  5
416
330
1F
100
AcDbEntity
  8
FURNITURE
370
     9
100
AcDbSpline
210
0.0
220
0.0
230
1.0
 70
     9
 71
     3
 72
    17
 73
    13
 74
     0
 42
0.000000001
 43
0.0000000001
 40
0.0
 40
0.0
 40
0.0
 40
0.0
 40
1.0
 40
1.0
 40
1.0
 40
2.0
 40
2.0
 40
2.0
 40
3.0
 40
3.0
 40
3.0
 40
4.0
 40
4.0
 40
4.0
 40
4.0
 10
8511.71028161454
 20
626.1985007604316
 30
0.0
 10
8511.71028161454
 20
593.8321442411015
 30
0.0
 10
8510.628123797784
 20
566.9626575409738
 30
0.0
 10
8510.628123797784
 20
566.9626575409738
 30
0.0
 10
8510.628123797784
 20
566.9626575409738
 30
0.0
 10
9047.280022925276
 20
480.107195498409
 30
0.0
 10
9602.622947162508
 20
567.8357621431278
 30
0.0
 10
9602.622947162508
 20
567.8357621431278
 30
0.0
 10
9602.229435229142
 20
589.9216194032796
 30
0.0
 10
9601.294844387401
 20
621.4517630642076
 30
0.0
 10
9599.96674161229
 20
664.4183472885761
 30
0.0
 10
8511.71028161454
 20
650.743807604118
 30
0.0
 10
8511.71028161454
 20
626.1985007604316
 30
0.0
  0
POLYLINE
  5
417
330
1F
100
AcDbEntity
  8
FURNITURE
370
     9
100
AcDb2dPolyline
 66
     1
 10
0.0
 20
0.0
 30
0.0
  0
VERTEX
  5
418
330
417
100
AcDbEntity
  8
FURNITURE
370
     9
100
AcDbVertex
100
AcDb2dVertex
 10
8487.312541745867
 20
-50.75269985985778
 30
0.0
  0
VERTEX
  5
419
330
417
100
AcDbEntity
  8
FURNITURE
370
     9
100
AcDbVertex
100
AcDb2dVertex
 10
9624.856371397674
 20
-50.75269985985778
 30
0.0
  0
SEQEND
  5
41A
330
417
100
AcDbEntity
  8
FURNITURE
370
     9
  0
SPLINE
  5
41B
330
1F
100
AcDbEntity
  8
FURNITURE
370
     9
100
AcDbSpline
210
0.0
220
0.0
230
1.0
 70
     9
 71
     3
 72
    23
 73
    19
 74
     0
 42
0.000000001
 43
0.0000000001
 40
0.0
 40
0.0
 40
0.0
 40
0.0
 40
1.0
 40
1.0
 40
1.0
 40
2.0
 40
2.0
 40
2.0
 40
3.0
 40
3.0
 40
3.0
 40
4.0
 40
4.0
 40
4.0
 40
5.0
 40
5.0
 40
5.0
 40
6.0
 40
6.0
 40
6.0
 40
6.0
 10
2497.728098500767
 20
-84.26270043553268
 30
0.0
 10
2497.728098500767
 20
-91.66564368197487
 30
0.0
 10
2481.200597299408
 20
-92.37888406119964
 30
0.0
 10
2471.559554931947
 20
-92.37888406119964
 30
0.0
 10
2471.559554931947
 20
-92.37888406119964
 30
0.0
 10
2471.559554931947
 20
-92.37888406119964
 30
0.0
 10
2471.559554931947
 20
-92.37888406119964
 30
0.0
 10
2461.893918068651
 20
-92.37888406119964
 30
0.0
 10
2454.048273897174
 20
-86.3778270773737
 30
0.0
 10
2454.048273897174
 20
-78.96258658301303
 30
0.0
 10
2454.048273897174
 20
-78.96258658301303
 30
0.0
 10
2454.048273897174
 20
400.7161629418769
 30
0.0
 10
2454.048273897174
 20
400.7161629418769
 30
0.0
 10
2454.048273897174
 20
400.7161629418769
 30
0.0
 10
2489.021646975051
 20
400.7161629418769
 30
0.0
 10
2489.021646975051
 20
400.7161629418769
 30
0.0
 10
2489.021646975051
 20
400.7161629418769
 30
0.0
 10
2497.728098500767
 20
-84.26270043553268
 30
0.0
 10
2497.728098500767
 20
-84.26270043553268
 30
0.0
  0
SPLINE
  5
41C
330
1F
100
AcDbEntity
  8
FURNITURE
370
     9
100
AcDbSpline
210
0.0
220
0.0
230
1.0
 70
     9
 71
     3
 72
    17
 73
    13
 74
     0
 42
0.000000001
 43
0.0000000001
 40
0.0
 40
0.0
 40
0.0
 40
0.0
 40
1.0
 40
1.0
 40
1.0
 40
2.0
 40
2.0
 40
2.0
 40
3.0
 40
3.0
 40
3.0
 40
4.0
 40
4.0
 40
4.0
 40
4.0
 10
2530.979856870171
 20
400.7161629418769
 30
0.0
 10
2530.979856870171
 20
400.7161629418769
 30
0.0
 10
2414.451135602249
 20
400.7161629418769
 30
0.0
 10
2414.451135602249
 20
400.7161629418769
 30
0.0
 10
2407.958188701713
 20
400.7161629418769
 30
0.0
 10
2407.958188701713
 20
419.3710880329945
 30
0.0
 10
2414.451135602249
 20
419.3710880329945
 30
0.0
 10
2414.451135602249
 20
419.3710880329945
 30
0.0
 10
2530.979856870171
 20
419.3710880329945
 30
0.0
 10
2530.979856870171
 20
419.3710880329945
 30
0.0
 10
2537.472803770704
 20
419.3710880329945
 30
0.0
 10
2537.472803770704
 20
400.7161629418769
 30
0.0
 10
2530.979856870171
 20
400.7161629418769
 30
0.0
  0
POLYLINE
  5
41D
330
1F
100
AcDbEntity
  8
FURNITURE
370
     9
100
AcDb2dPolyline
 66
     1
 10
0.0
 20
0.0
 30
0.0
  0
VERTEX
  5
41E
330
41D
100
AcDbEntity
  8
FURNITURE
370
     9
100
AcDbVertex
100
AcDb2dVertex
 10
2789.517197091444
 20
95.0680659479749
 30
0.0
  0
VERTEX
  5
41F
330
41D
100
AcDbEntity
  8
FURNITURE
370
     9
100
AcDbVertex
100
AcDb2dVertex
 10
2494.506219546335
 20
95.0680659479749
 30
0.0
  0
VERTEX
  5
420
330
41D
100
AcDbEntity
  8
FURNITURE
370
     9
100
AcDbVertex
100
AcDb2dVertex
 10
2493.989735133792
 20
124.4461912233091
 30
0.0
  0
VERTEX
  5
421
330
41D
100
AcDbEntity
  8
FURNITURE
370
     9
100
AcDbVertex
100
AcDb2dVertex
 10
2789.517197091444
 20
124.4461912233091
 30
0.0
  0
SEQEND
  5
422
330
41D
100
AcDbEntity
  8
FURNITURE
370
     9
  0
SPLINE
  5
423
330
1F
100
AcDbEntity
  8
FURNITURE
370
     9
100
AcDbSpline
210
0.0
220
0.0
230
1.0
 70
     8
 71
     3
 72
    20
 73
    16
 74
     0
 42
0.000000001
 43
0.0000000001
 40
0.0
 40
0.0
 40
0.0
 40
0.0
 40
1.0
 40
1.0
 40
1.0
 40
2.0
 40
2.0
 40
2.0
 40
3.0
 40
3.0
 40
3.0
 40
4.0
 40
4.0
 40
4.0
 40
5.0
 40
5.0
 40
5.0
 40
5.0
 10
2789.517197091444
 20
124.4461912233091
 30
0.0
 10
2789.517197091444
 20
124.4461912233091
 30
0.0
 10
2509.041566585032
 20
124.4461912233091
 30
0.0
 10
2509.041566585032
 20
124.4461912233091
 30
0.0
 10
2497.974043459122
 20
124.4461912233091
 30
0.0
 10
2493.989735133792
 20
131.4433252884682
 30
0.0
 10
2493.989735133792
 20
139.5103199224659
 30
0.0
 10
2493.989735133792
 20
139.5103199224659
 30
0.0
 10
2491.579474541929
 20
259.1133531698069
 30
0.0
 10
2491.579474541929
 20
259.1133531698069
 30
0.0
 10
2491.579474541929
 20
267.1926450517221
 30
0.0
 10
2497.974043459122
 20
272.2591111938064
 30
0.0
 10
2509.041566585032
 20
272.2591111938064
 30
0.0
 10
2509.041566585032
 20
272.2591111938064
 30
0.0
 10
2789.517197091444
 20
272.2591111938064
 30
0.0
 10
2789.517197091444
 20
272.2591111938064
 30
0.0
  0
SPLINE
  5
424
330
1F
100
AcDbEntity
  8
FURNITURE
370
     9
100
AcDbSpline
210
0.0
220
0.0
230
1.0
 70
     8
 71
     3
 72
    17
 73
    13
 74
     0
 42
0.000000001
 43
0.0000000001
 40
0.0
 40
0.0
 40
0.0
 40
0.0
 40
1.0
 40
1.0
 40
1.0
 40
2.0
 40
2.0
 40
2.0
 40
3.0
 40
3.0
 40
3.0
 40
4.0
 40
4.0
 40
4.0
 40
4.0
 10
2510.959937260191
 20
400.7161629418769
 30
0.0
 10
2508.10697574329
 20
361.5617255719881
 30
0.0
 10
2505.204825234717
 20
332.7738681967021
 30
0.0
 10
2502.843753634522
 20
329.5028002505997
 30
0.0
 10
2495.07189295055
 20
318.7427083226312
 30
0.0
 10
2501.122138926046
 20
281.2361021737106
 30
0.0
 10
2501.122138926046
 20
281.2361021737106
 30
0.0
 10
2501.122138926046
 20
270.1193900561302
 30
0.0
 10
2533.340928470364
 20
272.8985680855249
 30
0.0
 10
2547.5565470632
 20
272.8985680855249
 30
0.0
 10
2547.5565470632
 20
272.8985680855249
 30
0.0
 10
2789.517197091444
 20
272.3205974333942
 30
0.0
 10
2789.517197091444
 20
272.3205974333942
 30
0.0
  0
SPLINE
  5
425
330
1F
100
AcDbEntity
  8
FURNITURE
370
     9
100
AcDbSpline
210
0.0
220
0.0
230
1.0
 70
     8
 71
     3
 72
    23
 73
    19
 74
     0
 42
0.000000001
 43
0.0000000001
 40
0.0
 40
0.0
 40
0.0
 40
0.0
 40
1.0
 40
1.0
 40
1.0
 40
2.0
 40
2.0
 40
2.0
 40
3.0
 40
3.0
 40
3.0
 40
4.0
 40
4.0
 40
4.0
 40
5.0
 40
5.0
 40
5.0
 40
6.0
 40
6.0
 40
6.0
 40
6.0
 10
2789.517197091444
 20
701.2854965457773
 30
0.0
 10
2789.517197091444
 20
701.2854965457773
 30
0.0
 10
2766.939449914587
 20
701.5314415041302
 30
0.0
 10
2733.515530074337
 20
702.5521130812976
 30
0.0
 10
2703.141327717672
 20
703.4867039230412
 30
0.0
 10
2572.20023189023
 20
701.7036029749779
 30
0.0
 10
2572.20023189023
 20
701.7036029749779
 30
0.0
 10
2572.20023189023
 20
701.7036029749779
 30
0.0
 10
2544.211695629594
 20
707.6554709671345
 30
0.0
 10
2544.211695629594
 20
707.6554709671345
 30
0.0
 10
2529.996077036757
 20
707.6554709671345
 30
0.0
 10
2518.48585298581
 20
698.6415882434758
 30
0.0
 10
2518.48585298581
 20
687.537173373812
 30
0.0
 10
2518.48585298581
 20
687.537173373812
 30
0.0
 10
2522.175027361113
 20
634.6098183361227
 30
0.0
 10
2521.781515427748
 20
617.7748859368221
 30
0.0
 10
2520.600979627651
 20
570.6395346683593
 30
0.0
 10
2516.616671302321
 20
485.1244726488221
 30
0.0
 10
2512.23885104363
 20
419.3710880329945
 30
0.0
  0
POLYLINE
  5
426
330
1F
100
AcDbEntity
  8
FURNITURE
370
     9
100
AcDb2dPolyline
 66
     1
 10
0.0
 20
0.0
 30
0.0
  0
VERTEX
  5
427
330
426
100
AcDbEntity
  8
FURNITURE
370
     9
100
AcDbVertex
100
AcDb2dVertex
 10
2623.35678322777
 20
568.6473805056957
 30
0.0
  0
VERTEX
  5
428
330
426
100
AcDbEntity
  8
FURNITURE
370
     9
100
AcDbVertex
100
AcDb2dVertex
 10
2645.147506537899
 20
545.1104479912583
 30
0.0
  0
SEQEND
  5
429
330
426
100
AcDbEntity
  8
FURNITURE
370
     9
  0
POLYLINE
  5
42A
330
1F
100
AcDbEntity
  8
FURNITURE
370
     9
100
AcDb2dPolyline
 66
     1
 10
0.0
 20
0.0
 30
0.0
  0
VERTEX
  5
42B
330
42A
100
AcDbEntity
  8
FURNITURE
370
     9
100
AcDbVertex
100
AcDb2dVertex
 10
2623.52894469862
 20
545.1104479912583
 30
0.0
  0
VERTEX
  5
42C
330
42A
100
AcDbEntity
  8
FURNITURE
370
     9
100
AcDbVertex
100
AcDb2dVertex
 10
2645.147506537899
 20
566.7536043263726
 30
0.0
  0
SEQEND
  5
42D
330
42A
100
AcDbEntity
  8
FURNITURE
370
     9
  0
POLYLINE
  5
42E
330
1F
100
AcDbEntity
  8
FURNITURE
370
     9
100
AcDb2dPolyline
 66
     1
 10
0.0
 20
0.0
 30
0.0
  0
VERTEX
  5
42F
330
42E
100
AcDbEntity
  8
FURNITURE
370
     9
100
AcDbVertex
100
AcDb2dVertex
 10
2778.351295982192
 20
568.4014355473409
 30
0.0
  0
VERTEX
  5
430
330
42E
100
AcDbEntity
  8
FURNITURE
370
     9
100
AcDbVertex
100
AcDb2dVertex
 10
2789.566386083115
 20
556.3255380921809
 30
0.0
  0
SEQEND
  5
431
330
42E
100
AcDbEntity
  8
FURNITURE
370
     9
  0
POLYLINE
  5
432
330
1F
100
AcDbEntity
  8
FURNITURE
370
     9
100
AcDb2dPolyline
 66
     1
 10
0.0
 20
0.0
 30
0.0
  0
VERTEX
  5
433
330
432
100
AcDbEntity
  8
FURNITURE
370
     9
100
AcDbVertex
100
AcDb2dVertex
 10
2778.252917998852
 20
545.1104479912583
 30
0.0
  0
VERTEX
  5
434
330
432
100
AcDbEntity
  8
FURNITURE
370
     9
100
AcDbVertex
100
AcDb2dVertex
 10
2789.566386083115
 20
556.3255380921809
 30
0.0
  0
SEQEND
  5
435
330
432
100
AcDbEntity
  8
FURNITURE
370
     9
  0
SPLINE
  5
436
330
1F
100
AcDbEntity
  8
FURNITURE
370
     9
100
AcDbSpline
210
0.0
220
0.0
230
1.0
 70
     9
 71
     3
 72
    23
 73
    19
 74
     0
 42
0.000000001
 43
0.0000000001
 40
0.0
 40
0.0
 40
0.0
 40
0.0
 40
1.0
 40
1.0
 40
1.0
 40
2.0
 40
2.0
 40
2.0
 40
3.0
 40
3.0
 40
3.0
 40
4.0
 40
4.0
 40
4.0
 40
5.0
 40
5.0
 40
5.0
 40
6.0
 40
6.0
 40
6.0
 40
6.0
 10
3081.453862657135
 20
-84.26270043553268
 30
0.0
 10
3081.453862657135
 20
-91.66564368197487
 30
0.0
 10
3097.932174866826
 20
-92.37888406119964
 30
0.0
 10
3107.622406225955
 20
-92.37888406119964
 30
0.0
 10
3107.622406225955
 20
-92.37888406119964
 30
0.0
 10
3107.622406225955
 20
-92.37888406119964
 30
0.0
 10
3107.622406225955
 20
-92.37888406119964
 30
0.0
 10
3117.263448593415
 20
-92.37888406119964
 30
0.0
 10
3125.084498269059
 20
-86.3778270773737
 30
0.0
 10
3125.084498269059
 20
-78.96258658301303
 30
0.0
 10
3125.084498269059
 20
-78.96258658301303
 30
0.0
 10
3125.084498269059
 20
400.7161629418769
 30
0.0
 10
3125.084498269059
 20
400.7161629418769
 30
0.0
 10
3125.084498269059
 20
400.7161629418769
 30
0.0
 10
3090.111125191182
 20
400.7161629418769
 30
0.0
 10
3090.111125191182
 20
400.7161629418769
 30
0.0
 10
3090.111125191182
 20
400.7161629418769
 30
0.0
 10
3081.453862657135
 20
-84.26270043553268
 30
0.0
 10
3081.453862657135
 20
-84.26270043553268
 30
0.0
  0
SPLINE
  5
437
330
1F
100
AcDbEntity
  8
FURNITURE
370
     9
100
AcDbSpline
210
0.0
220
0.0
230
1.0
 70
     9
 71
     3
 72
    17
 73
    13
 74
     0
 42
0.000000001
 43
0.0000000001
 40
0.0
 40
0.0
 40
0.0
 40
0.0
 40
1.0
 40
1.0
 40
1.0
 40
2.0
 40
2.0
 40
2.0
 40
3.0
 40
3.0
 40
3.0
 40
4.0
 40
4.0
 40
4.0
 40
4.0
 10
3048.177509791897
 20
400.7161629418769
 30
0.0
 10
3048.177509791897
 20
400.7161629418769
 30
0.0
 10
3164.681636563984
 20
400.7161629418769
 30
0.0
 10
3164.681636563984
 20
400.7161629418769
 30
0.0
 10
3171.174583464518
 20
400.7161629418769
 30
0.0
 10
3171.174583464518
 20
419.3710880329945
 30
0.0
 10
3164.681636563984
 20
419.3710880329945
 30
0.0
 10
3164.681636563984
 20
419.3710880329945
 30
0.0
 10
3048.177509791897
 20
419.3710880329945
 30
0.0
 10
3048.177509791897
 20
419.3710880329945
 30
0.0
 10
3041.709157387197
 20
419.3710880329945
 30
0.0
 10
3041.709157387197
 20
400.7161629418769
 30
0.0
 10
3048.177509791897
 20
400.7161629418769
 30
0.0
  0
POLYLINE
  5
438
330
1F
100
AcDbEntity
  8
FURNITURE
370
     9
100
AcDb2dPolyline
 66
     1
 10
0.0
 20
0.0
 30
0.0
  0
VERTEX
  5
439
330
438
100
AcDbEntity
  8
FURNITURE
370
     9
100
AcDbVertex
100
AcDb2dVertex
 10
2789.640169570622
 20
95.0680659479749
 30
0.0
  0
VERTEX
  5
43A
330
438
100
AcDbEntity
  8
FURNITURE
370
     9
100
AcDbVertex
100
AcDb2dVertex
 10
3084.651147115731
 20
95.0680659479749
 30
0.0
  0
VERTEX
  5
43B
330
438
100
AcDbEntity
  8
FURNITURE
370
     9
100
AcDbVertex
100
AcDb2dVertex
 10
3085.192226024109
 20
124.4461912233091
 30
0.0
  0
VERTEX
  5
43C
330
438
100
AcDbEntity
  8
FURNITURE
370
     9
100
AcDbVertex
100
AcDb2dVertex
 10
2789.640169570622
 20
124.4461912233091
 30
0.0
  0
SEQEND
  5
43D
330
438
100
AcDbEntity
  8
FURNITURE
370
     9
  0
SPLINE
  5
43E
330
1F
100
AcDbEntity
  8
FURNITURE
370
     9
100
AcDbSpline
210
0.0
220
0.0
230
1.0
 70
     8
 71
     3
 72
    20
 73
    16
 74
     0
 42
0.000000001
 43
0.0000000001
 40
0.0
 40
0.0
 40
0.0
 40
0.0
 40
1.0
 40
1.0
 40
1.0
 40
2.0
 40
2.0
 40
2.0
 40
3.0
 40
3.0
 40
3.0
 40
4.0
 40
4.0
 40
4.0
 40
5.0
 40
5.0
 40
5.0
 40
5.0
 10
2789.640169570622
 20
124.4461912233091
 30
0.0
 10
2789.640169570622
 20
124.4461912233091
 30
0.0
 10
3070.091205581201
 20
124.4461912233091
 30
0.0
 10
3070.091205581201
 20
124.4461912233091
 30
0.0
 10
3081.158728707112
 20
124.4461912233091
 30
0.0
 10
3085.192226024109
 20
131.4433252884682
 30
0.0
 10
3085.192226024109
 20
139.5103199224659
 30
0.0
 10
3085.192226024109
 20
139.5103199224659
 30
0.0
 10
3087.602486615975
 20
259.1133531698069
 30
0.0
 10
3087.602486615975
 20
259.1133531698069
 30
0.0
 10
3087.602486615975
 20
267.1926450517221
 30
0.0
 10
3081.158728707112
 20
272.2591111938064
 30
0.0
 10
3070.091205581201
 20
272.2591111938064
 30
0.0
 10
3070.091205581201
 20
272.2591111938064
 30
0.0
 10
2789.640169570622
 20
272.2591111938064
 30
0.0
 10
2789.640169570622
 20
272.2591111938064
 30
0.0
  0
SPLINE
  5
43F
330
1F
100
AcDbEntity
  8
FURNITURE
370
     9
100
AcDbSpline
210
0.0
220
0.0
230
1.0
 70
     8
 71
     3
 72
    17
 73
    13
 74
     0
 42
0.000000001
 43
0.0000000001
 40
0.0
 40
0.0
 40
0.0
 40
0.0
 40
1.0
 40
1.0
 40
1.0
 40
2.0
 40
2.0
 40
2.0
 40
3.0
 40
3.0
 40
3.0
 40
4.0
 40
4.0
 40
4.0
 40
4.0
 10
3073.731190964832
 20
400.7161629418769
 30
0.0
 10
3076.60874697757
 20
361.5617255719881
 30
0.0
 10
3079.58468097365
 20
332.7738681967021
 30
0.0
 10
3081.994941565515
 20
329.5028002505997
 30
0.0
 10
3089.914369224497
 20
318.7427083226312
 30
0.0
 10
3083.716556273989
 20
281.2361021737106
 30
0.0
 10
3083.716556273989
 20
281.2361021737106
 30
0.0
 10
3083.716556273989
 20
270.1193900561302
 30
0.0
 10
3050.882904333786
 20
272.8985680855249
 30
0.0
 10
3036.39674628676
 20
272.8985680855249
 30
0.0
 10
3036.39674628676
 20
272.8985680855249
 30
0.0
 10
2789.640169570622
 20
272.3205974333942
 30
0.0
 10
2789.640169570622
 20
272.3205974333942
 30
0.0
  0
SPLINE
  5
440
330
1F
100
AcDbEntity
  8
FURNITURE
370
     9
100
AcDbSpline
210
0.0
220
0.0
230
1.0
 70
     8
 71
     3
 72
    23
 73
    19
 74
     0
 42
0.000000001
 43
0.0000000001
 40
0.0
 40
0.0
 40
0.0
 40
0.0
 40
1.0
 40
1.0
 40
1.0
 40
2.0
 40
2.0
 40
2.0
 40
3.0
 40
3.0
 40
3.0
 40
4.0
 40
4.0
 40
4.0
 40
5.0
 40
5.0
 40
5.0
 40
6.0
 40
6.0
 40
6.0
 40
6.0
 10
2789.640169570622
 20
701.2854965457773
 30
0.0
 10
2789.640169570622
 20
701.2854965457773
 30
0.0
 10
2812.68521216835
 20
701.5314415041302
 30
0.0
 10
2846.748588900321
 20
702.5521130812976
 30
0.0
 10
2877.762248148708
 20
703.4867039230412
 30
0.0
 10
3011.236577047191
 20
701.7036029749779
 30
0.0
 10
3011.236577047191
 20
701.7036029749779
 30
0.0
 10
3011.236577047191
 20
701.7036029749779
 30
0.0
 10
3039.79078671204
 20
707.6554709671345
 30
0.0
 10
3039.79078671204
 20
707.6554709671345
 30
0.0
 10
3054.301539254899
 20
707.6554709671345
 30
0.0
 10
3066.00851927253
 20
698.6415882434758
 30
0.0
 10
3066.00851927253
 20
687.537173373812
 30
0.0
 10
3066.00851927253
 20
687.537173373812
 30
0.0
 10
3062.270155905558
 20
634.6098183361227
 30
0.0
 10
3062.712856830593
 20
617.7748859368221
 30
0.0
 10
3063.89339263069
 20
570.6395346683593
 30
0.0
 10
3067.926889947687
 20
485.1244726488221
 30
0.0
 10
3072.403088189724
 20
419.3710880329945
 30
0.0
  0
POLYLINE
  5
441
330
1F
100
AcDbEntity
  8
FURNITURE
370
     9
100
AcDb2dPolyline
 66
     1
 10
0.0
 20
0.0
 30
0.0
  0
VERTEX
  5
442
330
441
100
AcDbEntity
  8
FURNITURE
370
     9
100
AcDbVertex
100
AcDb2dVertex
 10
2955.800583434296
 20
568.6473805056957
 30
0.0
  0
VERTEX
  5
443
330
441
100
AcDbEntity
  8
FURNITURE
370
     9
100
AcDbVertex
100
AcDb2dVertex
 10
2934.009860124167
 20
545.1104479912583
 30
0.0
  0
SEQEND
  5
444
330
441
100
AcDbEntity
  8
FURNITURE
370
     9
  0
POLYLINE
  5
445
330
1F
100
AcDbEntity
  8
FURNITURE
370
     9
100
AcDb2dPolyline
 66
     1
 10
0.0
 20
0.0
 30
0.0
  0
VERTEX
  5
446
330
445
100
AcDbEntity
  8
FURNITURE
370
     9
100
AcDbVertex
100
AcDb2dVertex
 10
2955.628421963446
 20
545.1104479912583
 30
0.0
  0
VERTEX
  5
447
330
445
100
AcDbEntity
  8
FURNITURE
370
     9
100
AcDbVertex
100
AcDb2dVertex
 10
2934.009860124167
 20
566.7536043263726
 30
0.0
  0
SEQEND
  5
448
330
445
100
AcDbEntity
  8
FURNITURE
370
     9
  0
POLYLINE
  5
449
330
1F
100
AcDbEntity
  8
FURNITURE
370
     9
100
AcDb2dPolyline
 66
     1
 10
0.0
 20
0.0
 30
0.0
  0
VERTEX
  5
44A
330
449
100
AcDbEntity
  8
FURNITURE
370
     9
100
AcDbVertex
100
AcDb2dVertex
 10
2800.806070679874
 20
568.4014355473409
 30
0.0
  0
VERTEX
  5
44B
330
449
100
AcDbEntity
  8
FURNITURE
370
     9
100
AcDbVertex
100
AcDb2dVertex
 10
2789.566386083115
 20
556.3255380921809
 30
0.0
  0
SEQEND
  5
44C
330
449
100
AcDbEntity
  8
FURNITURE
370
     9
  0
POLYLINE
  5
44D
330
1F
100
AcDbEntity
  8
FURNITURE
370
     9
100
AcDb2dPolyline
 66
     1
 10
0.0
 20
0.0
 30
0.0
  0
VERTEX
  5
44E
330
44D
100
AcDbEntity
  8
FURNITURE
370
     9
100
AcDbVertex
100
AcDb2dVertex
 10
2800.87985416738
 20
545.1104479912583
 30
0.0
  0
VERTEX
  5
44F
330
44D
100
AcDbEntity
  8
FURNITURE
370
     9
100
AcDbVertex
100
AcDb2dVertex
 10
2789.566386083115
 20
556.3255380921809
 30
0.0
  0
SEQEND
  5
450
330
44D
100
AcDbEntity
  8
FURNITURE
370
     9
  0
POLYLINE
  5
452
330
1F
100
AcDbEntity
  8
FURNITURE
370
     9
100
AcDb2dPolyline
 66
     1
 10
0.0
 20
0.0
 30
0.0
  0
VERTEX
  5
453
330
452
100
AcDbEntity
  8
FURNITURE
370
     9
100
AcDbVertex
100
AcDb2dVertex
 10
187.0014312814528
 20
391.4932270036179
 30
0.0
  0
VERTEX
  5
454
330
452
100
AcDbEntity
  8
FURNITURE
370
     9
100
AcDbVertex
100
AcDb2dVertex
 10
-620.9523514058664
 20
421.99040183946
 30
0.0
  0
VERTEX
  5
455
330
452
100
AcDbEntity
  8
FURNITURE
370
     9
100
AcDbVertex
100
AcDb2dVertex
 10
-621.6901862809272
 20
403.6306106983657
 30
0.0
  0
VERTEX
  5
456
330
452
100
AcDbEntity
  8
FURNITURE
370
     9
100
AcDbVertex
100
AcDb2dVertex
 10
-561.0155650551014
 20
401.3433225856779
 30
0.0
  0
VERTEX
  5
457
330
452
100
AcDbEntity
  8
FURNITURE
370
     9
100
AcDbVertex
100
AcDb2dVertex
 10
-565.2950073304537
 20
-92.37888406119964
 30
0.0
  0
VERTEX
  5
458
330
452
100
AcDbEntity
  8
FURNITURE
370
     9
100
AcDbVertex
100
AcDb2dVertex
 10
-511.211710988503
 20
-92.37888406119964
 30
0.0
  0
VERTEX
  5
459
330
452
100
AcDbEntity
  8
FURNITURE
370
     9
100
AcDbVertex
100
AcDb2dVertex
 10
-515.2452083055013
 20
121.3226902522183
 30
0.0
  0
VERTEX
  5
45A
330
452
100
AcDbEntity
  8
FURNITURE
370
     9
100
AcDbVertex
100
AcDb2dVertex
 10
74.92431375973047
 20
118.1868920332099
 30
0.0
  0
VERTEX
  5
45B
330
452
100
AcDbEntity
  8
FURNITURE
370
     9
100
AcDbVertex
100
AcDb2dVertex
 10
72.09594673866376
 20
-91.8378051528216
 30
0.0
  0
VERTEX
  5
45C
330
452
100
AcDbEntity
  8
FURNITURE
370
     9
100
AcDbVertex
100
AcDb2dVertex
 10
125.3676247180483
 20
-91.8378051528216
 30
0.0
  0
VERTEX
  5
45D
330
452
100
AcDbEntity
  8
FURNITURE
370
     9
100
AcDbVertex
100
AcDb2dVertex
 10
120.0060246259399
 20
375.6051826939765
 30
0.0
  0
VERTEX
  5
45E
330
452
100
AcDbEntity
  8
FURNITURE
370
     9
100
AcDbVertex
100
AcDb2dVertex
 10
186.3127853980622
 20
373.0965441187709
 30
0.0
  0
VERTEX
  5
45F
330
452
100
AcDbEntity
  8
FURNITURE
370
     9
100
AcDbVertex
100
AcDb2dVertex
 10
187.0014312814528
 20
391.4932270036179
 30
0.0
  0
SEQEND
  5
460
330
452
100
AcDbEntity
  8
FURNITURE
370
     9
  0
POLYLINE
  5
461
330
1F
100
AcDbEntity
  8
FURNITURE
370
     9
100
AcDb2dPolyline
 66
     1
 10
0.0
 20
0.0
 30
0.0
  0
VERTEX
  5
462
330
461
100
AcDbEntity
  8
FURNITURE
370
     9
100
AcDbVertex
100
AcDb2dVertex
 10
75.41620367643736
 20
156.4067385613562
 30
0.0
  0
VERTEX
  5
463
330
461
100
AcDbEntity
  8
FURNITURE
370
     9
100
AcDbVertex
100
AcDb2dVertex
 10
-515.9830431805621
 20
160.7845588200498
 30
0.0
  0
VERTEX
  5
464
330
461
100
AcDbEntity
  8
FURNITURE
370
     9
100
AcDbVertex
100
AcDb2dVertex
 10
-520.5084304142683
 20
399.8061665959685
 30
0.0
  0
VERTEX
  5
465
330
461
100
AcDbEntity
  8
FURNITURE
370
     9
100
AcDbVertex
100
AcDb2dVertex
 10
78.39213767251568
 20
377.1792304274395
 30
0.0
  0
VERTEX
  5
466
330
461
100
AcDbEntity
  8
FURNITURE
370
     9
100
AcDbVertex
100
AcDb2dVertex
 10
75.41620367643736
 20
156.4067385613562
 30
0.0
  0
SEQEND
  5
467
330
461
100
AcDbEntity
  8
FURNITURE
370
     9
  0
LINE
  5
468
330
1F
100
AcDbEntity
  8
FURNITURE
370
     9
100
AcDbLine
 10
88.30371949416349
 20
153.7997220028073
 30
0.0
 11
88.30371949416349
 21
153.7997220028073
 31
0.0
  0
TEXT
  5
506
330
1F
100
AcDbEntity
  8
TEXT
100
AcDbText
 10
-2814.486245969704
 20
589.4247553241503
 30
0.0
 40
233.9816249415046
  1
Armchair
 41
1.000399999999999
100
AcDbText
  0
LINE
  5
507
330
1F
100
AcDbEntity
  8
TEXT
370
     9
100
AcDbLine
 10
-2814.486245969704
 20
1329.871621105836
 30
0.0
 11
10707.82269605953
 21
1329.871621105836
 31
0.0
  0
TEXT
  5
508
330
1F
100
AcDbEntity
  8
TEXT
100
AcDbText
 10
-2814.486245969704
 20
3073.362161197309
 30
0.0
 40
192.6907499518273
  1
ARCHIE
 41
1.000399999999999
100
AcDbText
  0
TEXT
  5
509
330
1F
100
AcDbEntity
  8
TEXT
100
AcDbText
 10
-2814.486245969704
 20
2470.739192842105
 30
0.0
 40
192.6907499518273
  1
—
 41
1.000399999999999
100
AcDbText
  0
TEXT
  5
50A
330
1F
100
AcDbEntity
  8
TEXT
100
AcDbText
 10
-2814.486245969704
 20
1795.768676963641
 30
0.0
 40
233.9816249415046
  1
DIMENSIONS
 41
1.000399999999999
100
AcDbText
  0
ENDSEC
  0
SECTION
  2
OBJECTS
  0
DICTIONARY
  5
C
330
0
100
AcDbDictionary
281
     1
  3
ACAD_CIP_PREVIOUS_PRODUCT_INFO
350
4A0
  3
ACAD_COLOR
350
2F0
  3
ACAD_DETAILVIEWSTYLE
350
498
  3
ACAD_FIELDLIST
350
4B9
  3
ACAD_GROUP
350
D
  3
ACAD_IMAGE_DICT
350
107
  3
ACAD_IMAGE_VARS
350
109
  3
ACAD_LAYOUT
350
1A
  3
ACAD_MATERIAL
350
2D4
  3
ACAD_MLEADERSTYLE
350
314
  3
ACAD_MLINESTYLE
350
17
  3
ACAD_PLOTSETTINGS
350
19
  3
ACAD_PLOTSTYLENAME
350
E
  3
ACAD_SCALELIST
350
2F2
  3
ACAD_SECTIONVIEWSTYLE
350
496
  3
ACAD_TABLESTYLE
350
2D2
  3
ACAD_VISUALSTYLE
350
2A
  3
ACDB_RECOMPOSE_DATA
350
628
  3
AcDbVariableDictionary
350
3C6
  3
ACDMSYSVARMGR
350
331
  3
ACGREF_MASTER
350
329
  3
ACGREFACAD_MASTER
350
354
  3
AcmDictionary
350
374
  3
ACME_COMMAND_HISTORY
350
322
  3
ACME_SCOPE_NAME
350
321
  3
ACMESTATEMGR
350
328
  3
AcmeSysVarManager
350
323
  3
AcmSystemVariableManager
350
359
  3
ADSYSVARMGR
350
360
  3
AmdtNamedDwgMgr
350
34F
  3
AMG
350
31A
  3
AMGSNAPSETTINGS
350
4C3
  3
AMI_MASTER
350
357
  3
AUTOCAD_ASSEMBLIES_PROJECT
350
36A
  3
Designer_Assemblies_SysVars
350
364
  3
GREFAM_MODULE
350
358
  3
StructToggleButtonState
350
3BA
  0
DICTIONARY
  5
3BE
330
2
100
AcDbDictionary
280
     1
281
     1
  3
ACAD_LAYERSTATES
360
3BF
  0
DICTIONARY
  5
3B6
330
10
100
AcDbDictionary
280
     1
281
     1
  3
ADSK_XREC_LAYER_RECONCILED
360
3B7
  0
DICTIONARY
  5
3B8
330
3B
100
AcDbDictionary
280
     1
281
     1
  3
ADSK_XREC_LAYER_RECONCILED
360
3B9
  0
DICTIONARY
  5
3EB
330
1F
100
AcDbDictionary
280
     1
281
     1
  3
ACAD_SORTENTS
360
3EC
  0
IMAGEDEF_REACTOR
  5
10B
330
10A
100
AcDbRasterImageDefReactor
 90
        2
330
10A
  0
IMAGEDEF_REACTOR
  5
119
330
118
100
AcDbRasterImageDefReactor
 90
        2
330
118
  0
IMAGEDEF_REACTOR
  5
127
330
126
100
AcDbRasterImageDefReactor
 90
        2
330
126
  0
IMAGEDEF_REACTOR
  5
135
330
134
100
AcDbRasterImageDefReactor
 90
        2
330
134
  0
IMAGEDEF_REACTOR
  5
143
330
142
100
AcDbRasterImageDefReactor
 90
        2
330
142
  0
IMAGEDEF_REACTOR
  5
151
330
150
100
AcDbRasterImageDefReactor
 90
        2
330
150
  0
IMAGEDEF_REACTOR
  5
15F
330
15E
100
AcDbRasterImageDefReactor
 90
        2
330
15E
  0
IMAGEDEF_REACTOR
  5
16D
330
16C
100
AcDbRasterImageDefReactor
 90
        2
330
16C
  0
IMAGEDEF_REACTOR
  5
17B
330
17A
100
AcDbRasterImageDefReactor
 90
        2
330
17A
  0
IMAGEDEF_REACTOR
  5
247
330
246
100
AcDbRasterImageDefReactor
 90
        2
330
246
  0
IMAGEDEF_REACTOR
  5
255
330
254
100
AcDbRasterImageDefReactor
 90
        2
330
254
  0
IMAGEDEF_REACTOR
  5
263
330
262
100
AcDbRasterImageDefReactor
 90
        2
330
262
  0
IMAGEDEF_REACTOR
  5
271
330
270
100
AcDbRasterImageDefReactor
 90
        2
330
270
  0
IMAGEDEF_REACTOR
  5
27F
330
27E
100
AcDbRasterImageDefReactor
 90
        2
330
27E
  0
IMAGEDEF_REACTOR
  5
28D
330
28C
100
AcDbRasterImageDefReactor
 90
        2
330
28C
  0
IMAGEDEF_REACTOR
  5
29B
330
29A
100
AcDbRasterImageDefReactor
 90
        2
330
29A
  0
IMAGEDEF_REACTOR
  5
2A9
330
2A8
100
AcDbRasterImageDefReactor
 90
        2
330
2A8
  0
IMAGEDEF_REACTOR
  5
2B7
330
2B6
100
AcDbRasterImageDefReactor
 90
        2
330
2B6
  0
XRECORD
  5
4A0
102
{ACAD_REACTORS
330
C
102
}
330
C
100
AcDbXrecord
280
     1
300
ACD
300
2019
300
BDSADV_F_S
  0
DICTIONARY
  5
2F0
102
{ACAD_REACTORS
330
C
102
}
330
C
100
AcDbDictionary
281
     1
  0
DICTIONARY
  5
498
102
{ACAD_REACTORS
330
C
102
}
330
C
100
AcDbDictionary
281
     1
  3
ASME Y14.35 - 1987
350
4AE
  3
Imperial24
350
499
  0
FIELDLIST
  5
4B9
102
{ACAD_REACTORS
330
C
102
}
330
C
100
AcDbIdSet
 90
        4
330
4B7
330
4B8
330
4BA
330
4BB
100
AcDbFieldList
  0
DICTIONARY
  5
D
102
{ACAD_REACTORS
330
C
102
}
330
C
100
AcDbDictionary
281
     1
  0
DICTIONARY
  5
107
102
{ACAD_REACTORS
330
C
102
}
330
C
100
AcDbDictionary
281
     1
  3
J:\Design and Development\Cad Drawings\Jardan CAD Drawings\Sofas and chairs\Archie\ARCHIE RANGE 2013_1.png
350
108
  3
J:\Design and Development\Cad Drawings\Jardan CAD Drawings\Sofas and chairs\Archie\ARCHIE RANGE 2013_10.png
350
245
  3
J:\Design and Development\Cad Drawings\Jardan CAD Drawings\Sofas and chairs\Archie\ARCHIE RANGE 2013_11.png
350
253
  3
J:\Design and Development\Cad Drawings\Jardan CAD Drawings\Sofas and chairs\Archie\ARCHIE RANGE 2013_12.png
350
261
  3
J:\Design and Development\Cad Drawings\Jardan CAD Drawings\Sofas and chairs\Archie\ARCHIE RANGE 2013_13.png
350
26F
  3
J:\Design and Development\Cad Drawings\Jardan CAD Drawings\Sofas and chairs\Archie\ARCHIE RANGE 2013_14.png
350
27D
  3
J:\Design and Development\Cad Drawings\Jardan CAD Drawings\Sofas and chairs\Archie\ARCHIE RANGE 2013_15.png
350
28B
  3
J:\Design and Development\Cad Drawings\Jardan CAD Drawings\Sofas and chairs\Archie\ARCHIE RANGE 2013_16.png
350
299
  3
J:\Design and Development\Cad Drawings\Jardan CAD Drawings\Sofas and chairs\Archie\ARCHIE RANGE 2013_17.png
350
2A7
  3
J:\Design and Development\Cad Drawings\Jardan CAD Drawings\Sofas and chairs\Archie\ARCHIE RANGE 2013_18.png
350
2B5
  3
J:\Design and Development\Cad Drawings\Jardan CAD Drawings\Sofas and chairs\Archie\ARCHIE RANGE 2013_2.png
350
117
  3
J:\Design and Development\Cad Drawings\Jardan CAD Drawings\Sofas and chairs\Archie\ARCHIE RANGE 2013_3.png
350
125
  3
J:\Design and Development\Cad Drawings\Jardan CAD Drawings\Sofas and chairs\Archie\ARCHIE RANGE 2013_4.png
350
133
  3
J:\Design and Development\Cad Drawings\Jardan CAD Drawings\Sofas and chairs\Archie\ARCHIE RANGE 2013_5.png
350
141
  3
J:\Design and Development\Cad Drawings\Jardan CAD Drawings\Sofas and chairs\Archie\ARCHIE RANGE 2013_6.png
350
14F
  3
J:\Design and Development\Cad Drawings\Jardan CAD Drawings\Sofas and chairs\Archie\ARCHIE RANGE 2013_7.png
350
15D
  3
J:\Design and Development\Cad Drawings\Jardan CAD Drawings\Sofas and chairs\Archie\ARCHIE RANGE 2013_8.png
350
16B
  3
J:\Design and Development\Cad Drawings\Jardan CAD Drawings\Sofas and chairs\Archie\ARCHIE RANGE 2013_9.png
350
179
  0
RASTERVARIABLES
  5
109
102
{ACAD_REACTORS
330
C
102
}
330
C
100
AcDbRasterVariables
 90
        0
 70
     0
 71
     1
 72
     5
  0
DICTIONARY
  5
1A
102
{ACAD_REACTORS
330
C
102
}
330
C
100
AcDbDictionary
281
     1
  3
Layout1
350
1E
  3
Layout2
350
26
  3
Model
350
22
  0
DICTIONARY
  5
2D4
102
{ACAD_REACTORS
330
C
102
}
330
C
100
AcDbDictionary
281
     1
  3
ByBlock
350
2DD
  3
ByLayer
350
2D5
  3
Global
350
2E5
  0
DICTIONARY
  5
314
102
{ACAD_REACTORS
330
C
102
}
330
C
100
AcDbDictionary
281
     1
  3
Standard
350
315
  0
DICTIONARY
  5
17
102
{ACAD_REACTORS
330
C
102
}
330
C
100
AcDbDictionary
281
     1
  3
Standard
350
18
  0
DICTIONARY
  5
19
102
{ACAD_REACTORS
330
C
102
}
330
C
100
AcDbDictionary
281
     1
  0
ACDBDICTIONARYWDFLT
  5
E
102
{ACAD_REACTORS
330
C
102
}
330
C
100
AcDbDictionary
281
     1
  3
Normal
350
F
100
AcDbDictionaryWithDefault
340
F
  0
DICTIONARY
  5
2F2
102
{ACAD_REACTORS
330
C
102
}
330
C
100
AcDbDictionary
281
     1
  3
A0
350
2F3
  3
A1
350
2F4
  3
A2
350
2F5
  3
A3
350
2F6
  3
A4
350
2F7
  3
A5
350
2F8
  3
A6
350
2F9
  3
A7
350
2FA
  3
A8
350
2FB
  3
A9
350
2FC
  3
B0
350
2FD
  3
B1
350
2FE
  3
B2
350
2FF
  3
B3
350
300
  3
B4
350
301
  3
B5
350
302
  3
B6
350
303
  3
B7
350
304
  3
B8
350
305
  3
B9
350
306
  3
C0
350
307
  3
C1
350
308
  3
C2
350
309
  3
C3
350
30A
  3
C4
350
30B
  3
C5
350
30C
  3
C6
350
30D
  3
C7
350
30E
  3
C8
350
30F
  3
C9
350
310
  3
D0
350
311
  3
D1
350
312
  3
D2
350
313
  0
DICTIONARY
  5
496
102
{ACAD_REACTORS
330
C
102
}
330
C
100
AcDbDictionary
281
     1
  3
ASME Y14.3 - 2003
350
4B4
  3
Imperial24
350
497
  0
DICTIONARY
  5
2D2
102
{ACAD_REACTORS
330
C
102
}
330
C
100
AcDbDictionary
281
     1
  3
Standard
350
2F1
  0
DICTIONARY
  5
2A
102
{ACAD_REACTORS
330
C
102
}
330
C
100
AcDbDictionary
281
     1
  3
2dWireframe
350
2F
  3
3D Hidden
350
31
  3
3dWireframe
350
30
  3
Basic
350
32
  3
Brighten
350
36
  3
ColorChange
350
3A
  3
Conceptual
350
34
  3
Dim
350
35
  3
EdgeColorOff
350
2EF
  3
Facepattern
350
39
  3
Flat
350
2B
  3
FlatWithEdges
350
2C
  3
Gouraud
350
2D
  3
GouraudWithEdges
350
2E
  3
Hidden
350
490
  3
JitterOff
350
2ED
  3
Linepattern
350
38
  3
OverhangOff
350
2EE
  3
Realistic
350
33
  3
Shaded
350
495
  3
Shaded with edges
350
494
  3
Shades of Gray
350
491
  3
Sketchy
350
492
  3
Thicken
350
37
  3
Wireframe
350
48F
  3
X-Ray
350
493
  0
XRECORD
  5
628
102
{ACAD_REACTORS
330
C
102
}
330
C
100
AcDbXrecord
280
     1
 90
        1
330
2F1
  0
DICTIONARY
  5
3C6
102
{ACAD_REACTORS
330
C
102
}
330
C
100
AcDbDictionary
281
     1
  3
CANNOSCALE
350
3CA
  3
CMLEADERSTYLE
350
3C8
  3
CTABLESTYLE
350
3C7
  3
CVIEWDETAILSTYLE
350
4DA
  3
CVIEWSECTIONSTYLE
350
4DB
  3
LAYEREVAL
350
3CC
  3
LAYERNOTIFY
350
3CD
  3
LIGHTINGUNITS
350
3CB
  3
MSLTSCALE
350
3C9
  0
ACAD_PROXY_OBJECT
  5
331
102
{ACAD_REACTORS
330
C
102
}
330
C
100
AcDbProxyObject
 90
      499
 91
      514
 71
    31
 97
       83
 70
     0
162
                 0
161
               240
310
4C51A47A000000000000000000000000000000000000000000000000000034
330
332
330
333
330
334
330
335
330
336
330
337
330
338
330
339
330
33A
330
33B
330
33C
330
33D
330
33E
330
33F
330
340
330
341
330
342
330
343
330
344
330
345
330
346
330
347
330
348
330
349
330
34A
330
34B
 94
        0
  0
ACAD_PROXY_OBJECT
  5
329
102
{ACAD_REACTORS
330
C
102
}
330
C
100
AcDbProxyObject
 90
      499
 91
      520
 71
    31
 97
       83
 70
     0
162
                 0
161
                34
310
0C000042CC
 94
        0
  0
ACAD_PROXY_OBJECT
  5
354
102
{ACAD_REACTORS
330
C
102
}
330
C
100
AcDbProxyObject
 90
      499
 91
      530
 71
    31
 97
       83
 70
     0
162
                 0
161
               114
310
04000041C08000000000000000000C
 94
        0
  0
DICTIONARY
  5
374
102
{ACAD_REACTORS
330
C
102
}
330
C
100
AcDbDictionary
281
     1
  3
AcmBOMDATA
350
375
  3
AcmStdDictionary
350
380
  0
ACAD_PROXY_OBJECT
  5
322
102
{ACAD_REACTORS
330
C
102
}
330
C
100
AcDbProxyObject
 90
      499
 91
      513
 71
    31
 97
       83
 70
     0
162
              2844
311
4390401340110015001480114014C01140150011001080134013C011001084E0020002D00200055004E0044004F0042138008000B40080015401380110013C010455004E0044004F004115401380110013C0105510053004100560045004B934014C011C008000B4008001400140010400E80080008000800190019401CC01
311
AC01D001BC01C000B8018401C801E00080011801A401B001940158019401C801CC01A401BC01B800E8008000C400D000B800C800B800C000B800D0010856004C005400440055004D004D00590041168013C013C013401045A004F004F004D0041168013C013C013401054500520041005300450041544014C0104015801140
311
1324D005300470020002D0020005000500041003A002000200020006400650073006B0074006F0070002E006100720078002000460069006C006500560065007200730069006F006E003A002000310039002E0030002E003200300036002E0030002E003000C
161
               166
310
428050201010180601404040601806018060140404
 94
        0
  0
ACAD_PROXY_OBJECT
  5
321
102
{ACAD_REACTORS
330
C
102
}
330
C
100
AcDbProxyObject
 90
      499
 91
      512
 71
    31
 97
       83
 70
     0
162
                 0
161
               522
310
13000052C080000000000000000012C4D60000000000000000000000000000000000000000000000000000000000000000000000000000000000000000AAA406AA8C
360
324
360
32A
360
32B
360
32C
360
32D
360
32E
360
32F
360
332
360
333
360
334
360
335
360
336
360
337
360
338
360
339
360
33A
360
33B
360
33C
360
33D
360
33E
360
33F
360
340
360
341
360
342
360
343
360
344
360
345
360
346
360
347
360
348
360
349
360
34A
360
34B
360
35A
360
365
360
366
360
367
360
368
360
369
360
36E
360
36F
360
370
360
371
360
372
 94
        0
  0
ACAD_PROXY_OBJECT
  5
328
102
{ACAD_REACTORS
330
C
102
}
330
C
100
AcDbProxyObject
 90
      499
 91
      519
 71
    31
 97
       83
 70
     0
162
                 0
161
                50
310
13000044E4128C
 94
        0
  0
ACAD_PROXY_OBJECT
  5
323
102
{ACAD_REACTORS
330
C
102
}
330
C
100
AcDbProxyObject
 90
      499
 91
      514
 71
    31
 97
       83
 70
     0
162
                 0
161
                32
310
90140A0000
330
324
 94
        0
  0
ACAD_PROXY_OBJECT
  5
359
102
{ACAD_REACTORS
330
C
102
}
330
C
100
AcDbProxyObject
 90
      499
 91
      514
 71
    31
 97
       83
 70
     0
162
                 0
161
                32
310
90140A0000
330
35A
 94
        0
  0
ACAD_PROXY_OBJECT
  5
360
102
{ACAD_REACTORS
330
C
102
}
330
C
100
AcDbProxyObject
 90
      499
 91
      514
 71
    31
 97
       83
 70
     0
162
                 0
161
                 8
310
AA00
 94
        0
  0
ACAD_PROXY_OBJECT
  5
34F
102
{ACAD_REACTORS
330
C
102
}
330
C
100
AcDbProxyObject
 90
      499
 91
      527
 71
    31
 97
       83
 70
     0
162
                 0
161
                42
310
000100005E8C
330
32A
 94
        0
  0
DICTIONARY
  5
31A
102
{ACAD_REACTORS
330
C
102
}
330
C
100
AcDbDictionary
281
     1
  3
AcMgSettings
350
31B
  3
AMGLAYCFG
350
394
  0
DICTIONARY
  5
4C3
102
{ACAD_REACTORS
330
C
102
}
330
C
100
AcDbDictionary
281
     1
  3
DIMENSION
350
4C8
  3
FEA
350
4C7
  3
HATCH (1)
350
4C4
  3
HATCH (2)
350
4C5
  3
SIMPLE WELD
350
4C9
  3
SYMBOLS
350
4C6
  0
ACAD_PROXY_OBJECT
  5
357
102
{ACAD_REACTORS
330
C
102
}
330
C
100
AcDbProxyObject
 90
      499
 91
      533
 71
    31
 97
       83
 70
     0
162
                 0
161
                34
310
050000428C
 94
        0
  0
ACAD_PROXY_OBJECT
  5
36A
102
{ACAD_REACTORS
330
C
102
}
330
C
100
AcDbProxyObject
 90
      499
 91
      544
 71
    31
 97
       83
 70
     0
162
                 0
161
                98
310
0E000053C0000000000000000C
330
370
330
0
330
371
330
0
330
0
330
0
330
0
330
0
 94
        0
  0
ACAD_PROXY_OBJECT
  5
364
102
{ACAD_REACTORS
330
C
102
}
330
C
100
AcDbProxyObject
 90
      499
 91
      514
 71
    31
 97
       83
 70
     0
162
                 0
161
                64
310
90541A000000000053
330
365
330
366
330
367
330
368
330
369
 94
        0
  0
ACAD_PROXY_OBJECT
  5
358
102
{ACAD_REACTORS
330
C
102
}
330
C
100
AcDbProxyObject
 90
      499
 91
      534
 71
    31
 97
       83
 70
     0
162
                 0
161
                 8
310
0500
 94
        0
  0
ACAD_PROXY_OBJECT
  5
3BA
102
{ACAD_REACTORS
330
C
102
}
330
C
100
AcDbProxyObject
 90
      499
 91
      578
 71
    31
 97
       83
 70
     0
162
                 0
161
                 1
310
4C
 94
        0
  0
DICTIONARY
  5
3BF
102
{ACAD_REACTORS
330
3BE
102
}
330
3BE
100
AcDbDictionary
281
     1
  0
XRECORD
  5
3B7
102
{ACAD_REACTORS
330
3B6
102
}
330
3B6
100
AcDbXrecord
280
     1
290
     1
  0
XRECORD
  5
3B9
102
{ACAD_REACTORS
330
3B8
102
}
330
3B8
100
AcDbXrecord
280
     1
290
     1
  0
SORTENTSTABLE
  5
3EC
102
{ACAD_REACTORS
330
3EB
102
}
330
3EB
100
AcDbSortentsTable
330
1F
331
1A6
  5
1D9
331
1A7
  5
230
331
1A8
  5
23B
331
1A9
  5
23F
331
1AA
  5
240
331
230
  5
44D
331
240
  5
461
331
3ED
  5
2CA
331
3EE
  5
3EA
331
3F7
  5
3F8
331
3F9
  5
3FC
331
3FA
  5
404
331
3FB
  5
1A6
331
3FC
  5
1A7
331
3FD
  5
1A8
331
404
  5
1A9
331
405
  5
1AA
331
409
  5
405
331
40A
  5
409
331
40B
  5
40A
331
40D
  5
40B
331
40E
  5
40D
331
40F
  5
40E
331
416
  5
40F
331
417
  5
416
331
41B
  5
417
331
41C
  5
41B
331
41D
  5
41C
331
423
  5
41D
331
424
  5
423
331
425
  5
424
331
426
  5
425
331
42A
  5
426
331
42E
  5
42A
331
432
  5
42E
331
436
  5
432
331
437
  5
436
331
438
  5
437
331
43E
  5
438
331
43F
  5
43E
331
440
  5
43F
331
441
  5
440
331
445
  5
441
331
449
  5
445
331
44D
  5
449
331
452
  5
3FA
331
461
  5
3FB
331
468
  5
3EF
  0
ACDBDETAILVIEWSTYLE
  5
4AE
102
{ACAD_REACTORS
330
388
330
498
102
}
330
498
100
AcDbModelDocViewStyle
 70
     0
  3

290
     0
300
ASME Y14.35 - 1987
 90
        1
100
AcDbDetailViewStyle
 70
     0
 71
     0
 90
        3
 71
     1
340
11
 62
    30
 40
0.24
340
4AF
 62
   256
 40
0.24
300

 40
0.36
280
     2
 71
     2
340
16
 90
       25
 62
   256
 71
     3
340
11
 62
    30
 40
0.24
 90
        1
 40
0.0
 90
        1
300
%<\AcVar ViewType \f "%tc1">% %<\AcVar ViewDetailId>%\PSCALE %<\AcVar ViewScale \f "%sn">%
 71
     4
340
16
 90
       25
 62
   256
340
16
 90
       25
 62
   256
280
     0
  0
ACDBDETAILVIEWSTYLE
  5
499
102
{ACAD_REACTORS
330
498
330
4AD
102
}
330
498
100
AcDbModelDocViewStyle
 70
     0
  3
Imperial24
290
     0
300
Imperial24
 90
        0
100
AcDbDetailViewStyle
 70
     0
 71
     0
 90
        3
 71
     1
340
11
 62
   256
 40
0.24
340
0
 62
   256
 40
0.24
300

 40
0.36
280
     3
 71
     2
340
16
 90
       25
 62
   256
 71
     3
340
11
 62
   256
 40
0.24
 90
        1
 40
0.75
 90
        1
300
%<\AcVar ViewType \f "%tc1">% %<\AcVar ViewDetailId>%\PSCALE %<\AcVar ViewScale \f "%sn">%
 71
     4
340
16
 90
       25
 62
   256
340
16
 90
       25
 62
   256
280
     0
  0
IMAGEDEF
  5
108
102
{ACAD_REACTORS
330
107
330
10B
102
}
330
107
100
AcDbRasterImageDef
 90
        0
  1
J:\Design and Development\Cad Drawings\Jardan CAD Drawings\Sofas and chairs\Archie\ARCHIE RANGE 2013_1.png
 10
118.0
 20
118.0
 11
0.3527777777777778
 21
0.3527777777777778
280
     1
281
     5
  0
IMAGEDEF
  5
245
102
{ACAD_REACTORS
330
107
330
247
102
}
330
107
100
AcDbRasterImageDef
 90
        0
  1
J:\Design and Development\Cad Drawings\Jardan CAD Drawings\Sofas and chairs\Archie\ARCHIE RANGE 2013_10.png
 10
118.0
 20
118.0
 11
0.3527777777777778
 21
0.3527777777777778
280
     1
281
     5
  0
IMAGEDEF
  5
253
102
{ACAD_REACTORS
330
107
330
255
102
}
330
107
100
AcDbRasterImageDef
 90
        0
  1
J:\Design and Development\Cad Drawings\Jardan CAD Drawings\Sofas and chairs\Archie\ARCHIE RANGE 2013_11.png
 10
118.0
 20
118.0
 11
0.3527777777777778
 21
0.3527777777777778
280
     1
281
     5
  0
IMAGEDEF
  5
261
102
{ACAD_REACTORS
330
107
330
263
102
}
330
107
100
AcDbRasterImageDef
 90
        0
  1
J:\Design and Development\Cad Drawings\Jardan CAD Drawings\Sofas and chairs\Archie\ARCHIE RANGE 2013_12.png
 10
118.0
 20
118.0
 11
0.3527777777777778
 21
0.3527777777777778
280
     1
281
     5
  0
IMAGEDEF
  5
26F
102
{ACAD_REACTORS
330
107
330
271
102
}
330
107
100
AcDbRasterImageDef
 90
        0
  1
J:\Design and Development\Cad Drawings\Jardan CAD Drawings\Sofas and chairs\Archie\ARCHIE RANGE 2013_13.png
 10
118.0
 20
118.0
 11
0.3527777777777778
 21
0.3527777777777778
280
     1
281
     5
  0
IMAGEDEF
  5
27D
102
{ACAD_REACTORS
330
107
330
27F
102
}
330
107
100
AcDbRasterImageDef
 90
        0
  1
J:\Design and Development\Cad Drawings\Jardan CAD Drawings\Sofas and chairs\Archie\ARCHIE RANGE 2013_14.png
 10
118.0
 20
118.0
 11
0.3527777777777778
 21
0.3527777777777778
280
     1
281
     5
  0
IMAGEDEF
  5
28B
102
{ACAD_REACTORS
330
107
330
28D
102
}
330
107
100
AcDbRasterImageDef
 90
        0
  1
J:\Design and Development\Cad Drawings\Jardan CAD Drawings\Sofas and chairs\Archie\ARCHIE RANGE 2013_15.png
 10
118.0
 20
118.0
 11
0.3527777777777778
 21
0.3527777777777778
280
     1
281
     5
  0
IMAGEDEF
  5
299
102
{ACAD_REACTORS
330
107
330
29B
102
}
330
107
100
AcDbRasterImageDef
 90
        0
  1
J:\Design and Development\Cad Drawings\Jardan CAD Drawings\Sofas and chairs\Archie\ARCHIE RANGE 2013_16.png
 10
118.0
 20
118.0
 11
0.3527777777777778
 21
0.3527777777777778
280
     1
281
     5
  0
IMAGEDEF
  5
2A7
102
{ACAD_REACTORS
330
107
330
2A9
102
}
330
107
100
AcDbRasterImageDef
 90
        0
  1
J:\Design and Development\Cad Drawings\Jardan CAD Drawings\Sofas and chairs\Archie\ARCHIE RANGE 2013_17.png
 10
118.0
 20
118.0
 11
0.3527777777777778
 21
0.3527777777777778
280
     1
281
     5
  0
IMAGEDEF
  5
2B5
102
{ACAD_REACTORS
330
107
330
2B7
102
}
330
107
100
AcDbRasterImageDef
 90
        0
  1
J:\Design and Development\Cad Drawings\Jardan CAD Drawings\Sofas and chairs\Archie\ARCHIE RANGE 2013_18.png
 10
118.0
 20
118.0
 11
0.3527777777777778
 21
0.3527777777777778
280
     1
281
     5
  0
IMAGEDEF
  5
117
102
{ACAD_REACTORS
330
107
330
119
102
}
330
107
100
AcDbRasterImageDef
 90
        0
  1
J:\Design and Development\Cad Drawings\Jardan CAD Drawings\Sofas and chairs\Archie\ARCHIE RANGE 2013_2.png
 10
118.0
 20
118.0
 11
0.3527777777777778
 21
0.3527777777777778
280
     1
281
     5
  0
IMAGEDEF
  5
125
102
{ACAD_REACTORS
330
107
330
127
102
}
330
107
100
AcDbRasterImageDef
 90
        0
  1
J:\Design and Development\Cad Drawings\Jardan CAD Drawings\Sofas and chairs\Archie\ARCHIE RANGE 2013_3.png
 10
118.0
 20
118.0
 11
0.3527777777777778
 21
0.3527777777777778
280
     1
281
     5
  0
IMAGEDEF
  5
133
102
{ACAD_REACTORS
330
107
330
135
102
}
330
107
100
AcDbRasterImageDef
 90
        0
  1
J:\Design and Development\Cad Drawings\Jardan CAD Drawings\Sofas and chairs\Archie\ARCHIE RANGE 2013_4.png
 10
118.0
 20
118.0
 11
0.3527777777777778
 21
0.3527777777777778
280
     1
281
     5
  0
IMAGEDEF
  5
141
102
{ACAD_REACTORS
330
107
330
143
102
}
330
107
100
AcDbRasterImageDef
 90
        0
  1
J:\Design and Development\Cad Drawings\Jardan CAD Drawings\Sofas and chairs\Archie\ARCHIE RANGE 2013_5.png
 10
118.0
 20
118.0
 11
0.3527777777777778
 21
0.3527777777777778
280
     1
281
     5
  0
IMAGEDEF
  5
14F
102
{ACAD_REACTORS
330
107
330
151
102
}
330
107
100
AcDbRasterImageDef
 90
        0
  1
J:\Design and Development\Cad Drawings\Jardan CAD Drawings\Sofas and chairs\Archie\ARCHIE RANGE 2013_6.png
 10
118.0
 20
118.0
 11
0.3527777777777778
 21
0.3527777777777778
280
     1
281
     5
  0
IMAGEDEF
  5
15D
102
{ACAD_REACTORS
330
107
330
15F
102
}
330
107
100
AcDbRasterImageDef
 90
        0
  1
J:\Design and Development\Cad Drawings\Jardan CAD Drawings\Sofas and chairs\Archie\ARCHIE RANGE 2013_7.png
 10
118.0
 20
118.0
 11
0.3527777777777778
 21
0.3527777777777778
280
     1
281
     5
  0
IMAGEDEF
  5
16B
102
{ACAD_REACTORS
330
107
330
16D
102
}
330
107
100
AcDbRasterImageDef
 90
        0
  1
J:\Design and Development\Cad Drawings\Jardan CAD Drawings\Sofas and chairs\Archie\ARCHIE RANGE 2013_8.png
 10
118.0
 20
118.0
 11
0.3527777777777778
 21
0.3527777777777778
280
     1
281
     5
  0
IMAGEDEF
  5
179
102
{ACAD_REACTORS
330
107
330
17B
102
}
330
107
100
AcDbRasterImageDef
 90
        0
  1
J:\Design and Development\Cad Drawings\Jardan CAD Drawings\Sofas and chairs\Archie\ARCHIE RANGE 2013_9.png
 10
118.0
 20
118.0
 11
0.3527777777777778
 21
0.3527777777777778
280
     1
281
     5
  0
LAYOUT
  5
1E
102
{ACAD_REACTORS
330
1A
102
}
330
1A
100
AcDbPlotSettings
  1

  2
none_device
  4

  6

 40
0.0
 41
0.0
 42
0.0
 43
0.0
 44
0.0
 45
0.0
 46
0.0
 47
0.0
 48
0.0
 49
0.0
140
0.0
141
0.0
142
1.0
143
1.0
 70
   688
 72
     0
 73
     0
 74
     5
  7

 75
    16
147
1.0
 76
     0
 77
     2
 78
   300
148
0.0
149
0.0
100
AcDbLayout
  1
Layout1
 70
     1
 71
     1
 10
0.0
 20
0.0
 11
12.0
 21
9.0
 12
0.0
 22
0.0
 32
0.0
 14
1.000000000000000E+20
 24
1.000000000000000E+20
 34
1.000000000000000E+20
 15
-1.000000000000000E+20
 25
-1.000000000000000E+20
 35
-1.000000000000000E+20
146
0.0
 13
0.0
 23
0.0
 33
0.0
 16
1.0
 26
0.0
 36
0.0
 17
0.0
 27
1.0
 37
0.0
 76
     0
330
1B
  0
LAYOUT
  5
26
102
{ACAD_REACTORS
330
1A
102
}
330
1A
100
AcDbPlotSettings
  1

  2
none_device
  4

  6

 40
0.0
 41
0.0
 42
0.0
 43
0.0
 44
0.0
 45
0.0
 46
0.0
 47
0.0
 48
0.0
 49
0.0
140
0.0
141
0.0
142
1.0
143
1.0
 70
   688
 72
     0
 73
     0
 74
     5
  7

 75
    16
147
1.0
 76
     0
 77
     2
 78
   300
148
0.0
149
0.0
100
AcDbLayout
  1
Layout2
 70
     1
 71
     2
 10
0.0
 20
0.0
 11
0.0
 21
0.0
 12
0.0
 22
0.0
 32
0.0
 14
0.0
 24
0.0
 34
0.0
 15
0.0
 25
0.0
 35
0.0
146
0.0
 13
0.0
 23
0.0
 33
0.0
 16
1.0
 26
0.0
 36
0.0
 17
0.0
 27
1.0
 37
0.0
 76
     0
330
23
  0
LAYOUT
  5
22
102
{ACAD_XDICTIONARY
360
3C4
102
}
102
{ACAD_REACTORS
330
1A
102
}
330
1A
100
AcDbPlotSettings
  1

  2
none_device
  4

  6

 40
0.0
 41
0.0
 42
0.0
 43
0.0
 44
0.0
 45
0.0
 46
0.0
 47
0.0
 48
0.0
 49
0.0
140
0.0
141
0.0
142
1.0
143
1.0
 70
  1712
 72
     0
 73
     0
 74
     0
  7

 75
     0
147
1.0
 76
     0
 77
     2
 78
   300
148
0.0
149
0.0
100
AcDbLayout
  1
Model
 70
     1
 71
     0
 10
0.0
 20
0.0
 11
12.0
 21
9.0
 12
0.0
 22
0.0
 32
0.0
 14
1.000000000000000E+20
 24
1.000000000000000E+20
 34
1.000000000000000E+20
 15
-1.000000000000000E+20
 25
-1.000000000000000E+20
 35
-1.000000000000000E+20
146
0.0
 13
0.0
 23
0.0
 33
0.0
 16
1.0
 26
0.0
 36
0.0
 17
0.0
 27
1.0
 37
0.0
 76
     0
330
1F
331
29
  0
MATERIAL
  5
2DD
102
{ACAD_XDICTIONARY
360
2DE
102
}
102
{ACAD_REACTORS
330
2D4
102
}
330
2D4
100
AcDbMaterial
  1
ByBlock
 72
     0
 43
0.0208333333333333
 43
0.0
 43
0.0
 43
0.0
 43
0.0
 43
0.0208333333333333
 43
0.0
 43
0.0
 43
0.0
 43
0.0
 43
1.0
 43
0.0
 43
0.0
 43
0.0
 43
0.0
 43
1.0
 77
     0
 47
0.0208333333333333
 47
0.0
 47
0.0
 47
0.0
 47
0.0
 47
0.0208333333333333
 47
0.0
 47
0.0
 47
0.0
 47
0.0
 47
1.0
 47
0.0
 47
0.0
 47
0.0
 47
0.0
 47
1.0
171
     0
 49
0.0208333333333333
 49
0.0
 49
0.0
 49
0.0
 49
0.0
 49
0.0208333333333333
 49
0.0
 49
0.0
 49
0.0
 49
0.0
 49
1.0
 49
0.0
 49
0.0
 49
0.0
 49
0.0
 49
1.0
175
     0
142
0.0208333333333333
142
0.0
142
0.0
142
0.0
142
0.0
142
0.0208333333333333
142
0.0
142
0.0
142
0.0
142
0.0
142
1.0
142
0.0
142
0.0
142
0.0
142
0.0
142
1.0
179
     0
144
0.0208333333333333
144
0.0
144
0.0
144
0.0
144
0.0
144
0.0208333333333333
144
0.0
144
0.0
144
0.0
144
0.0
144
1.0
144
0.0
144
0.0
144
0.0
144
0.0
144
1.0
147
0.0208333333333333
147
0.0
147
0.0
147
0.0
147
0.0
147
0.0208333333333333
147
0.0
147
0.0
147
0.0
147
0.0
147
1.0
147
0.0
147
0.0
147
0.0
147
0.0
147
1.0
  0
MATERIAL
  5
2D5
102
{ACAD_XDICTIONARY
360
2D6
102
}
102
{ACAD_REACTORS
330
2D4
102
}
330
2D4
100
AcDbMaterial
  1
ByLayer
 72
     0
 43
0.0208333333333333
 43
0.0
 43
0.0
 43
0.0
 43
0.0
 43
0.0208333333333333
 43
0.0
 43
0.0
 43
0.0
 43
0.0
 43
1.0
 43
0.0
 43
0.0
 43
0.0
 43
0.0
 43
1.0
 77
     0
 47
0.0208333333333333
 47
0.0
 47
0.0
 47
0.0
 47
0.0
 47
0.0208333333333333
 47
0.0
 47
0.0
 47
0.0
 47
0.0
 47
1.0
 47
0.0
 47
0.0
 47
0.0
 47
0.0
 47
1.0
171
     0
 49
0.0208333333333333
 49
0.0
 49
0.0
 49
0.0
 49
0.0
 49
0.0208333333333333
 49
0.0
 49
0.0
 49
0.0
 49
0.0
 49
1.0
 49
0.0
 49
0.0
 49
0.0
 49
0.0
 49
1.0
175
     0
142
0.0208333333333333
142
0.0
142
0.0
142
0.0
142
0.0
142
0.0208333333333333
142
0.0
142
0.0
142
0.0
142
0.0
142
1.0
142
0.0
142
0.0
142
0.0
142
0.0
142
1.0
179
     0
144
0.0208333333333333
144
0.0
144
0.0
144
0.0
144
0.0
144
0.0208333333333333
144
0.0
144
0.0
144
0.0
144
0.0
144
1.0
144
0.0
144
0.0
144
0.0
144
0.0
144
1.0
147
0.0208333333333333
147
0.0
147
0.0
147
0.0
147
0.0
147
0.0208333333333333
147
0.0
147
0.0
147
0.0
147
0.0
147
1.0
147
0.0
147
0.0
147
0.0
147
0.0
147
1.0
  0
MATERIAL
  5
2E5
102
{ACAD_XDICTIONARY
360
2E6
102
}
102
{ACAD_REACTORS
330
2D4
102
}
330
2D4
100
AcDbMaterial
  1
Global
 72
     0
 43
0.0208333333333333
 43
0.0
 43
0.0
 43
0.0
 43
0.0
 43
0.0208333333333333
 43
0.0
 43
0.0
 43
0.0
 43
0.0
 43
1.0
 43
0.0
 43
0.0
 43
0.0
 43
0.0
 43
1.0
 77
     0
 47
0.0208333333333333
 47
0.0
 47
0.0
 47
0.0
 47
0.0
 47
0.0208333333333333
 47
0.0
 47
0.0
 47
0.0
 47
0.0
 47
1.0
 47
0.0
 47
0.0
 47
0.0
 47
0.0
 47
1.0
171
     0
 49
0.0208333333333333
 49
0.0
 49
0.0
 49
0.0
 49
0.0
 49
0.0208333333333333
 49
0.0
 49
0.0
 49
0.0
 49
0.0
 49
1.0
 49
0.0
 49
0.0
 49
0.0
 49
0.0
 49
1.0
175
     0
142
0.0208333333333333
142
0.0
142
0.0
142
0.0
142
0.0
142
0.0208333333333333
142
0.0
142
0.0
142
0.0
142
0.0
142
1.0
142
0.0
142
0.0
142
0.0
142
0.0
142
1.0
179
     0
144
0.0208333333333333
144
0.0
144
0.0
144
0.0
144
0.0
144
0.0208333333333333
144
0.0
144
0.0
144
0.0
144
0.0
144
1.0
144
0.0
144
0.0
144
0.0
144
0.0
144
1.0
147
0.0208333333333333
147
0.0
147
0.0
147
0.0
147
0.0
147
0.0208333333333333
147
0.0
147
0.0
147
0.0
147
0.0
147
1.0
147
0.0
147
0.0
147
0.0
147
0.0
147
1.0
  0
MLEADERSTYLE
  5
315
102
{ACAD_REACTORS
330
314
102
}
330
314
100
AcDbMLeaderStyle
179
     2
170
     2
171
     1
172
     0
 90
        2
 40
0.0
 41
0.0
173
     1
 91
-1056964608
340
14
 92
       -2
290
     1
 42
0.09
291
     1
 43
0.36
  3
Standard
 44
0.18
300

342
11
174
     1
178
     6
175
     1
176
     0
 93
-1056964608
 45
0.18
292
     0
297
     0
 46
0.18
 94
-1056964608
 47
1.0
 49
1.0
140
1.0
293
     1
141
0.0
294
     1
177
     0
142
1.0
295
     0
296
     0
143
0.125
271
     0
272
     9
273
     9
298
     0
  0
MLINESTYLE
  5
18
102
{ACAD_REACTORS
330
17
102
}
330
17
100
AcDbMlineStyle
  2
STANDARD
 70
     0
  3

 62
   256
 51
90.0
 52
90.0
 71
     2
 49
0.5
 62
   256
  6
BYLAYER
 49
-0.5
 62
   256
  6
BYLAYER
  0
ACDBPLACEHOLDER
  5
F
102
{ACAD_REACTORS
330
E
102
}
330
E
  0
SCALE
  5
2F3
102
{ACAD_REACTORS
330
2F2
102
}
330
2F2
100
AcDbScale
 70
     0
300
1:1
140
1.0
141
1.0
290
     1
  0
SCALE
  5
2F4
102
{ACAD_REACTORS
330
2F2
102
}
330
2F2
100
AcDbScale
 70
     0
300
1:2
140
1.0
141
2.0
290
     0
  0
SCALE
  5
2F5
102
{ACAD_REACTORS
330
2F2
102
}
330
2F2
100
AcDbScale
 70
     0
300
1:4
140
1.0
141
4.0
290
     0
  0
SCALE
  5
2F6
102
{ACAD_REACTORS
330
2F2
102
}
330
2F2
100
AcDbScale
 70
     0
300
1:5
140
1.0
141
5.0
290
     0
  0
SCALE
  5
2F7
102
{ACAD_REACTORS
330
2F2
102
}
330
2F2
100
AcDbScale
 70
     0
300
1:8
140
1.0
141
8.0
290
     0
  0
SCALE
  5
2F8
102
{ACAD_REACTORS
330
2F2
102
}
330
2F2
100
AcDbScale
 70
     0
300
1:10
140
1.0
141
10.0
290
     0
  0
SCALE
  5
2F9
102
{ACAD_REACTORS
330
2F2
102
}
330
2F2
100
AcDbScale
 70
     0
300
1:16
140
1.0
141
16.0
290
     0
  0
SCALE
  5
2FA
102
{ACAD_REACTORS
330
2F2
102
}
330
2F2
100
AcDbScale
 70
     0
300
1:20
140
1.0
141
20.0
290
     0
  0
SCALE
  5
2FB
102
{ACAD_REACTORS
330
2F2
102
}
330
2F2
100
AcDbScale
 70
     0
300
1:30
140
1.0
141
30.0
290
     0
  0
SCALE
  5
2FC
102
{ACAD_REACTORS
330
2F2
102
}
330
2F2
100
AcDbScale
 70
     0
300
1:40
140
1.0
141
40.0
290
     0
  0
SCALE
  5
2FD
102
{ACAD_REACTORS
330
2F2
102
}
330
2F2
100
AcDbScale
 70
     0
300
1:50
140
1.0
141
50.0
290
     0
  0
SCALE
  5
2FE
102
{ACAD_REACTORS
330
2F2
102
}
330
2F2
100
AcDbScale
 70
     0
300
1:100
140
1.0
141
100.0
290
     0
  0
SCALE
  5
2FF
102
{ACAD_REACTORS
330
2F2
102
}
330
2F2
100
AcDbScale
 70
     0
300
2:1
140
2.0
141
1.0
290
     0
  0
SCALE
  5
300
102
{ACAD_REACTORS
330
2F2
102
}
330
2F2
100
AcDbScale
 70
     0
300
4:1
140
4.0
141
1.0
290
     0
  0
SCALE
  5
301
102
{ACAD_REACTORS
330
2F2
102
}
330
2F2
100
AcDbScale
 70
     0
300
8:1
140
8.0
141
1.0
290
     0
  0
SCALE
  5
302
102
{ACAD_REACTORS
330
2F2
102
}
330
2F2
100
AcDbScale
 70
     0
300
10:1
140
10.0
141
1.0
290
     0
  0
SCALE
  5
303
102
{ACAD_REACTORS
330
2F2
102
}
330
2F2
100
AcDbScale
 70
     0
300
100:1
140
100.0
141
1.0
290
     0
  0
SCALE
  5
304
102
{ACAD_REACTORS
330
2F2
102
}
330
2F2
100
AcDbScale
 70
     0
300
1/128" = 1'-0"
140
0.0078125
141
12.0
290
     0
  0
SCALE
  5
305
102
{ACAD_REACTORS
330
2F2
102
}
330
2F2
100
AcDbScale
 70
     0
300
1/64" = 1'-0"
140
0.015625
141
12.0
290
     0
  0
SCALE
  5
306
102
{ACAD_REACTORS
330
2F2
102
}
330
2F2
100
AcDbScale
 70
     0
300
1/32" = 1'-0"
140
0.03125
141
12.0
290
     0
  0
SCALE
  5
307
102
{ACAD_REACTORS
330
2F2
102
}
330
2F2
100
AcDbScale
 70
     0
300
1/16" = 1'-0"
140
0.0625
141
12.0
290
     0
  0
SCALE
  5
308
102
{ACAD_REACTORS
330
2F2
102
}
330
2F2
100
AcDbScale
 70
     0
300
3/32" = 1'-0"
140
0.09375
141
12.0
290
     0
  0
SCALE
  5
309
102
{ACAD_REACTORS
330
2F2
102
}
330
2F2
100
AcDbScale
 70
     0
300
1/8" = 1'-0"
140
0.125
141
12.0
290
     0
  0
SCALE
  5
30A
102
{ACAD_REACTORS
330
2F2
102
}
330
2F2
100
AcDbScale
 70
     0
300
3/16" = 1'-0"
140
0.1875
141
12.0
290
     0
  0
SCALE
  5
30B
102
{ACAD_REACTORS
330
2F2
102
}
330
2F2
100
AcDbScale
 70
     0
300
1/4" = 1'-0"
140
0.25
141
12.0
290
     0
  0
SCALE
  5
30C
102
{ACAD_REACTORS
330
2F2
102
}
330
2F2
100
AcDbScale
 70
     0
300
3/8" = 1'-0"
140
0.375
141
12.0
290
     0
  0
SCALE
  5
30D
102
{ACAD_REACTORS
330
2F2
102
}
330
2F2
100
AcDbScale
 70
     0
300
1/2" = 1'-0"
140
0.5
141
12.0
290
     0
  0
SCALE
  5
30E
102
{ACAD_REACTORS
330
2F2
102
}
330
2F2
100
AcDbScale
 70
     0
300
3/4" = 1'-0"
140
0.75
141
12.0
290
     0
  0
SCALE
  5
30F
102
{ACAD_REACTORS
330
2F2
102
}
330
2F2
100
AcDbScale
 70
     0
300
1" = 1'-0"
140
1.0
141
12.0
290
     0
  0
SCALE
  5
310
102
{ACAD_REACTORS
330
2F2
102
}
330
2F2
100
AcDbScale
 70
     0
300
1-1/2" = 1'-0"
140
1.5
141
12.0
290
     0
  0
SCALE
  5
311
102
{ACAD_REACTORS
330
2F2
102
}
330
2F2
100
AcDbScale
 70
     0
300
3" = 1'-0"
140
3.0
141
12.0
290
     0
  0
SCALE
  5
312
102
{ACAD_REACTORS
330
2F2
102
}
330
2F2
100
AcDbScale
 70
     0
300
6" = 1'-0"
140
6.0
141
12.0
290
     0
  0
SCALE
  5
313
102
{ACAD_REACTORS
330
2F2
102
}
330
2F2
100
AcDbScale
 70
     0
300
1'-0" = 1'-0"
140
12.0
141
12.0
290
     0
  0
ACDBSECTIONVIEWSTYLE
  5
4B4
102
{ACAD_XDICTIONARY
360
4B5
102
}
102
{ACAD_REACTORS
330
389
330
496
102
}
330
496
100
AcDbModelDocViewStyle
 70
     0
  3

290
     0
300
ASME Y14.3 - 2003
 90
        1
100
AcDbSectionViewStyle
 70
     0
 71
     0
 90
       78
 71
     1
340
11
 62
    30
 40
0.24
340
0
340
0
 62
     7
 40
0.24
300
I,O,Q,S,X,Z
 40
0.4
 90
        3
 40
0.12
 90
        1
 71
     2
340
34D
 90
       -1
 62
   256
340
15
 90
       -1
 62
   256
 40
0.4
 40
0.0
 40
0.4
 71
     3
340
11
 62
    30
 40
0.24
 90
        0
 40
0.18
 90
        1
300
%<\AcVar ViewType \f "%tc1">% %<\AcVar ViewSectionStartId>%-%<\AcVar ViewSectionEndId>%
 71
     4
 62
   256
 62
   257
300
ANSI31
 40
1.0
 90
        0
290
     0
290
     0
 90
        6
 40
0.0
 40
1.570796326794896
 40
0.2617993877991494
 40
1.308996938995747
 40
-0.2617993877991494
 40
1.832595714594046
  0
ACDBSECTIONVIEWSTYLE
  5
497
102
{ACAD_REACTORS
330
496
330
4AC
102
}
330
496
100
AcDbModelDocViewStyle
 70
     0
  3
Imperial24
290
     0
300
Imperial24
 90
        0
100
AcDbSectionViewStyle
 70
     0
 71
     0
 90
       78
 71
     1
340
11
 62
   256
 40
0.24
340
0
340
0
 62
   256
 40
0.24
300
I, O, Q, S, X, Z
 40
0.48
 90
        3
 40
0.18
 90
        1
 71
     2
340
16
 90
       25
 62
   256
340
16
 90
       50
 62
   256
 40
0.24
 40
0.0
 40
0.24
 71
     3
340
11
 62
   256
 40
0.24
 90
        1
 40
0.75
 90
        1
300
%<\AcVar ViewType \f "%tc1">% %<\AcVar ViewSectionStartId>%-%<\AcVar ViewSectionEndId>%\PSCALE %<\AcVar ViewScale \f "%sn">%
 71
     4
 62
   256
 62
   257
300
ANSI31
 40
1.0
 90
        0
290
     0
290
     0
 90
        6
 40
0.0
 40
1.570796326794896
 40
0.2617993877991494
 40
1.308996938995747
 40
-0.2617993877991494
 40
1.832595714594046
  0
TABLESTYLE
  5
2F1
102
{ACAD_XDICTIONARY
360
626
102
}
102
{ACAD_REACTORS
330
2D2
102
}
330
2D2
100
AcDbTableStyle
280
     0
  3
Standard
 70
     0
 71
     0
 40
0.06
 41
0.06
280
     0
281
     0
  7
Standard
140
0.18
170
     2
 62
     0
 63
     7
283
     0
 90
      512
 91
        0
  1

274
    -2
284
     1
 64
     0
275
    -2
285
     1
 65
     0
276
    -2
286
     1
 66
     0
277
    -2
287
     1
 67
     0
278
    -2
288
     1
 68
     0
279
    -2
289
     1
 69
     0
  7
Standard
140
0.25
170
     5
 62
     0
 63
     7
283
     0
 90
      512
 91
        0
  1

274
    -2
284
     1
 64
     0
275
    -2
285
     1
 65
     0
276
    -2
286
     1
 66
     0
277
    -2
287
     1
 67
     0
278
    -2
288
     1
 68
     0
279
    -2
289
     1
 69
     0
  7
Standard
140
0.18
170
     5
 62
     0
 63
     7
283
     0
 90
      512
 91
        0
  1

274
    -2
284
     1
 64
     0
275
    -2
285
     1
 65
     0
276
    -2
286
     1
 66
     0
277
    -2
287
     1
 67
     0
278
    -2
288
     1
 68
     0
279
    -2
289
     1
 69
     0
  0
VISUALSTYLE
  5
2F
102
{ACAD_REACTORS
330
2A
102
}
330
2A
100
AcDbVisualStyle
  2
2dWireframe
 70
     4
177
     3
291
     0
 70
    58
 90
        0
176
     1
 90
        2
176
     1
 90
        0
176
     1
 90
        0
176
     1
 40
0.6
176
     1
 40
30.0
176
     1
 62
     7
420
 16777215
176
     1
 90
        1
176
     1
 90
        4
176
     1
 62
     7
176
     1
 62
   257
176
     1
 90
        1
176
     1
 90
        1
176
     1
 40
1.0
176
     1
 90
        0
176
     1
 62
   257
176
     1
 40
1.0
176
     1
 90
        1
176
     1
 90
        6
176
     1
 90
        2
176
     1
 62
     7
176
     1
 90
        5
176
     1
 90
        0
176
     1
 90
        0
176
     1
290
     0
176
     1
 90
        1
176
     1
 40
0.0
176
     1
 90
        0
176
     1
290
     1
176
     1
290
     1
176
     1
290
     0
176
     1
290
     0
176
     1
290
     0
176
     1
290
     0
176
     1
290
     0
176
     1
290
     0
176
     1
290
     0
176
     1
 90
       50
176
     1
 40
0.0
176
     1
 40
1.0
176
     1
 90
        0
176
     1
 62
    18
420
        0
176
     1
 90
       50
176
     1
 90
        3
176
     1
 62
     5
420
      255
176
     1
290
     0
176
     1
 90
       50
176
     1
 90
       50
176
     1
 90
       50
176
     1
290
     0
176
     1
 90
       50
176
     1
 62
   256
176
     0
 40
1.0
176
     0
 90
        2
176
     1
  1
strokes_ogs.tif
176
     1
290
     0
176
     1
 40
1.0
176
     1
 40
1.0
176
     1
  0
VISUALSTYLE
  5
31
102
{ACAD_REACTORS
330
2A
102
}
330
2A
100
AcDbVisualStyle
  2
3D Hidden
 70
     6
177
     3
291
     0
 70
    58
 90
        1
176
     1
 90
        2
176
     1
 90
        2
176
     1
 90
        0
176
     1
 40
0.6
176
     1
 40
30.0
176
     1
 62
     7
420
 16777215
176
     1
 90
        2
176
     1
 90
        2
176
     1
 62
     7
176
     1
 62
   257
176
     1
 90
        2
176
     1
 90
        1
176
     1
 40
40.0
176
     1
 90
        0
176
     1
 62
   257
176
     1
 40
1.0
176
     1
 90
        1
176
     1
 90
        6
176
     1
 90
        2
176
     1
 62
     7
176
     1
 90
        3
176
     1
 90
        0
176
     1
 90
        0
176
     1
290
     0
176
     1
 90
        1
176
     1
 40
0.0
176
     1
 90
        0
176
     1
290
     0
176
     1
290
     1
176
     1
290
     1
176
     1
290
     0
176
     1
290
     0
176
     1
290
     0
176
     1
290
     0
176
     1
290
     0
176
     1
290
     0
176
     1
 90
       50
176
     1
 40
0.0
176
     1
 40
1.0
176
     1
 90
        0
176
     1
 62
    18
420
        0
176
     1
 90
       50
176
     1
 90
        3
176
     1
 62
     5
420
      255
176
     1
290
     0
176
     1
 90
       50
176
     1
 90
       50
176
     1
 90
       50
176
     1
290
     0
176
     1
 90
       50
176
     1
 62
   256
176
     0
 40
1.0
176
     0
 90
        2
176
     1
  1
strokes_ogs.tif
176
     1
290
     0
176
     1
 40
1.0
176
     1
 40
1.0
176
     1
  0
VISUALSTYLE
  5
30
102
{ACAD_REACTORS
330
2A
102
}
330
2A
100
AcDbVisualStyle
  2
3dWireframe
 70
     5
177
     3
291
     0
 70
    58
 90
        0
176
     1
 90
        2
176
     1
 90
        0
176
     1
 90
        0
176
     1
 40
0.6
176
     1
 40
30.0
176
     1
 62
     7
420
 16777215
176
     1
 90
        1
176
     1
 90
        4
176
     1
 62
     7
176
     1
 62
   257
176
     1
 90
        1
176
     1
 90
        1
176
     1
 40
1.0
176
     1
 90
        0
176
     1
 62
   257
176
     1
 40
1.0
176
     1
 90
        1
176
     1
 90
        6
176
     1
 90
        2
176
     1
 62
     7
176
     1
 90
        5
176
     1
 90
        0
176
     1
 90
        0
176
     1
290
     0
176
     1
 90
        1
176
     1
 40
0.0
176
     1
 90
        0
176
     1
290
     0
176
     1
290
     1
176
     1
290
     1
176
     1
290
     0
176
     1
290
     0
176
     1
290
     0
176
     1
290
     0
176
     1
290
     0
176
     1
290
     0
176
     1
 90
       50
176
     1
 40
0.0
176
     1
 40
1.0
176
     1
 90
        0
176
     1
 62
    18
420
        0
176
     1
 90
       50
176
     1
 90
        3
176
     1
 62
     5
420
      255
176
     1
290
     0
176
     1
 90
       50
176
     1
 90
       50
176
     1
 90
       50
176
     1
290
     0
176
     1
 90
       50
176
     1
 62
   256
176
     0
 40
1.0
176
     0
 90
        2
176
     1
  1
strokes_ogs.tif
176
     1
290
     0
176
     1
 40
1.0
176
     1
 40
1.0
176
     1
  0
VISUALSTYLE
  5
32
102
{ACAD_REACTORS
330
2A
102
}
330
2A
100
AcDbVisualStyle
  2
Basic
 70
     7
177
     3
291
     1
 70
    58
 90
        1
176
     1
 90
        0
176
     1
 90
        1
176
     1
 90
        0
176
     1
 40
0.6
176
     1
 40
30.0
176
     1
 62
     7
420
 16777215
176
     1
 90
        0
176
     1
 90
        4
176
     1
 62
     7
176
     1
 62
   257
176
     1
 90
        1
176
     1
 90
        1
176
     1
 40
1.0
176
     1
 90
        8
176
     1
 62
     7
176
     1
 40
1.0
176
     1
 90
        1
176
     1
 90
        6
176
     1
 90
        2
176
     1
 62
     7
176
     1
 90
        5
176
     1
 90
        0
176
     1
 90
        0
176
     1
290
     0
176
     1
 90
        1
176
     1
 40
0.0
176
     1
 90
        0
176
     1
290
     0
176
     1
290
     1
176
     1
290
     1
176
     1
290
     0
176
     1
290
     0
176
     1
290
     0
176
     1
290
     0
176
     1
290
     0
176
     1
290
     0
176
     1
 90
       50
176
     1
 40
0.0
176
     1
 40
1.0
176
     1
 90
        0
176
     1
 62
    18
420
        0
176
     1
 90
       50
176
     1
 90
        3
176
     1
 62
     5
420
      255
176
     1
290
     0
176
     1
 90
       50
176
     1
 90
       50
176
     1
 90
       50
176
     1
290
     0
176
     1
 90
       50
176
     1
 62
   256
176
     0
 40
1.0
176
     0
 90
        2
176
     1
  1
strokes_ogs.tif
176
     1
290
     0
176
     1
 40
1.0
176
     1
 40
1.0
176
     1
  0
VISUALSTYLE
  5
36
102
{ACAD_REACTORS
330
2A
102
}
330
2A
100
AcDbVisualStyle
  2
Brighten
 70
    12
177
     3
291
     1
 70
    58
 90
        2
176
     1
 90
        2
176
     1
 90
        0
176
     1
 90
        0
176
     1
 40
0.6
176
     1
 40
30.0
176
     1
 62
     7
420
 16777215
176
     1
 90
        1
176
     1
 90
        4
176
     1
 62
     7
176
     1
 62
   257
176
     1
 90
        1
176
     1
 90
        1
176
     1
 40
1.0
176
     1
 90
        8
176
     1
 62
     7
176
     1
 40
1.0
176
     1
 90
        1
176
     1
 90
        6
176
     1
 90
        2
176
     1
 62
     7
176
     1
 90
        5
176
     1
 90
        0
176
     1
 90
        0
176
     1
290
     0
176
     1
 90
        1
176
     1
 40
50.0
176
     1
 90
        0
176
     1
290
     0
176
     1
290
     1
176
     1
290
     1
176
     1
290
     0
176
     1
290
     0
176
     1
290
     0
176
     1
290
     0
176
     1
290
     0
176
     1
290
     0
176
     1
 90
       50
176
     1
 40
0.0
176
     1
 40
1.0
176
     1
 90
        0
176
     1
 62
    18
420
        0
176
     1
 90
       50
176
     1
 90
        3
176
     1
 62
     5
420
      255
176
     1
290
     0
176
     1
 90
       50
176
     1
 90
       50
176
     1
 90
       50
176
     1
290
     0
176
     1
 90
       50
176
     1
 62
   256
176
     0
 40
1.0
176
     0
 90
        2
176
     1
  1
strokes_ogs.tif
176
     1
290
     0
176
     1
 40
1.0
176
     1
 40
1.0
176
     1
  0
VISUALSTYLE
  5
3A
102
{ACAD_REACTORS
330
2A
102
}
330
2A
100
AcDbVisualStyle
  2
ColorChange
 70
    16
177
     3
291
     1
 70
    58
 90
        2
176
     1
 90
        2
176
     1
 90
        3
176
     1
 90
        0
176
     1
 40
0.6
176
     1
 40
30.0
176
     1
 62
     8
420
  8421504
176
     1
 90
        1
176
     1
 90
        4
176
     1
 62
     7
176
     1
 62
   257
176
     1
 90
        1
176
     1
 90
        1
176
     1
 40
1.0
176
     1
 90
        8
176
     1
 62
     8
420
  8421504
176
     1
 40
1.0
176
     1
 90
        1
176
     1
 90
        6
176
     1
 90
        2
176
     1
 62
     7
176
     1
 90
        5
176
     1
 90
        0
176
     1
 90
        0
176
     1
290
     0
176
     1
 90
        1
176
     1
 40
0.0
176
     1
 90
        0
176
     1
290
     0
176
     1
290
     1
176
     1
290
     1
176
     1
290
     0
176
     1
290
     0
176
     1
290
     0
176
     1
290
     0
176
     1
290
     0
176
     1
290
     0
176
     1
 90
       50
176
     1
 40
0.0
176
     1
 40
1.0
176
     1
 90
        0
176
     1
 62
    18
420
        0
176
     1
 90
       50
176
     1
 90
        3
176
     1
 62
     5
420
      255
176
     1
290
     0
176
     1
 90
       50
176
     1
 90
       50
176
     1
 90
       50
176
     1
290
     0
176
     1
 90
       50
176
     1
 62
   256
176
     0
 40
1.0
176
     0
 90
        2
176
     1
  1
strokes_ogs.tif
176
     1
290
     0
176
     1
 40
1.0
176
     1
 40
1.0
176
     1
  0
VISUALSTYLE
  5
34
102
{ACAD_REACTORS
330
2A
102
}
330
2A
100
AcDbVisualStyle
  2
Conceptual
 70
     9
177
     3
291
     0
 70
    58
 90
        3
176
     1
 90
        2
176
     1
 90
        0
176
     1
 90
        0
176
     1
 40
0.6
176
     1
 40
30.0
176
     1
 62
     7
420
 16777215
176
     1
 90
        2
176
     1
 90
        2
176
     1
 62
     7
176
     1
 62
   257
176
     1
 90
        1
176
     1
 90
        1
176
     1
 40
40.0
176
     1
 90
        8
176
     1
 62
     7
176
     1
 40
1.0
176
     1
 90
        1
176
     1
 90
        6
176
     1
 90
        2
176
     1
 62
     7
176
     1
 90
        3
176
     1
 90
        0
176
     1
 90
        0
176
     1
290
     0
176
     1
 90
        1
176
     1
 40
0.0
176
     1
 90
        0
176
     1
290
     0
176
     1
290
     1
176
     1
290
     1
176
     1
290
     0
176
     1
290
     0
176
     1
290
     0
176
     1
290
     0
176
     1
290
     0
176
     1
290
     0
176
     1
 90
       50
176
     1
 40
0.0
176
     1
 40
1.0
176
     1
 90
        0
176
     1
 62
    18
420
        0
176
     1
 90
       50
176
     1
 90
        3
176
     1
 62
     5
420
      255
176
     1
290
     0
176
     1
 90
       50
176
     1
 90
       50
176
     1
 90
       50
176
     1
290
     0
176
     1
 90
       50
176
     1
 62
   256
176
     0
 40
1.0
176
     0
 90
        2
176
     1
  1
strokes_ogs.tif
176
     1
290
     0
176
     1
 40
1.0
176
     1
 40
1.0
176
     1
  0
VISUALSTYLE
  5
35
102
{ACAD_REACTORS
330
2A
102
}
330
2A
100
AcDbVisualStyle
  2
Dim
 70
    11
177
     3
291
     1
 70
    58
 90
        2
176
     1
 90
        2
176
     1
 90
        0
176
     1
 90
        0
176
     1
 40
0.6
176
     1
 40
30.0
176
     1
 62
     7
420
 16777215
176
     1
 90
        1
176
     1
 90
        4
176
     1
 62
     7
176
     1
 62
   257
176
     1
 90
        1
176
     1
 90
        1
176
     1
 40
1.0
176
     1
 90
        8
176
     1
 62
     7
176
     1
 40
1.0
176
     1
 90
        1
176
     1
 90
        6
176
     1
 90
        2
176
     1
 62
     7
176
     1
 90
        5
176
     1
 90
        0
176
     1
 90
        0
176
     1
290
     0
176
     1
 90
        1
176
     1
 40
-50.0
176
     1
 90
        0
176
     1
290
     0
176
     1
290
     1
176
     1
290
     1
176
     1
290
     0
176
     1
290
     0
176
     1
290
     0
176
     1
290
     0
176
     1
290
     0
176
     1
290
     0
176
     1
 90
       50
176
     1
 40
0.0
176
     1
 40
1.0
176
     1
 90
        0
176
     1
 62
    18
420
        0
176
     1
 90
       50
176
     1
 90
        3
176
     1
 62
     5
420
      255
176
     1
290
     0
176
     1
 90
       50
176
     1
 90
       50
176
     1
 90
       50
176
     1
290
     0
176
     1
 90
       50
176
     1
 62
   256
176
     0
 40
1.0
176
     0
 90
        2
176
     1
  1
strokes_ogs.tif
176
     1
290
     0
176
     1
 40
1.0
176
     1
 40
1.0
176
     1
  0
VISUALSTYLE
  5
2EF
102
{ACAD_REACTORS
330
2A
102
}
330
2A
100
AcDbVisualStyle
  2
EdgeColorOff
 70
    22
177
     3
291
     1
 70
    58
 90
        2
176
     0
 90
        2
176
     0
 90
        0
176
     0
 90
        0
176
     0
 40
0.6
176
     0
 40
30.0
176
     0
 62
     7
420
 16777215
176
     0
 90
        1
176
     0
 90
        4
176
     0
 62
     7
176
     0
 62
   257
176
     0
 90
        1
176
     0
 90
        1
176
     0
 40
1.0
176
     0
 90
        8
176
     2
 62
     7
176
     0
 40
1.0
176
     0
 90
        1
176
     0
 90
        6
176
     0
 90
        2
176
     0
 62
     7
176
     0
 90
        5
176
     0
 90
        0
176
     0
 90
        0
176
     0
290
     0
176
     0
 90
        1
176
     0
 40
0.0
176
     0
 90
        0
176
     0
290
     0
176
     1
290
     1
176
     1
290
     1
176
     1
290
     0
176
     1
290
     0
176
     1
290
     0
176
     1
290
     0
176
     1
290
     0
176
     1
290
     0
176
     1
 90
       50
176
     1
 40
0.0
176
     1
 40
1.0
176
     1
 90
        0
176
     1
 62
    18
420
        0
176
     1
 90
       50
176
     1
 90
        3
176
     1
 62
     5
420
      255
176
     1
290
     0
176
     1
 90
       50
176
     1
 90
       50
176
     1
 90
       50
176
     1
290
     0
176
     1
 90
       50
176
     1
 62
   256
176
     0
 40
1.0
176
     0
 90
        2
176
     1
  1
strokes_ogs.tif
176
     1
290
     0
176
     1
 40
1.0
176
     1
 40
1.0
176
     1
  0
VISUALSTYLE
  5
39
102
{ACAD_REACTORS
330
2A
102
}
330
2A
100
AcDbVisualStyle
  2
Facepattern
 70
    15
177
     3
291
     1
 70
    58
 90
        2
176
     1
 90
        2
176
     1
 90
        0
176
     1
 90
        0
176
     1
 40
0.6
176
     1
 40
30.0
176
     1
 62
     7
420
 16777215
176
     1
 90
        1
176
     1
 90
        4
176
     1
 62
     7
176
     1
 62
   257
176
     1
 90
        1
176
     1
 90
        1
176
     1
 40
1.0
176
     1
 90
        8
176
     1
 62
     7
176
     1
 40
1.0
176
     1
 90
        1
176
     1
 90
        6
176
     1
 90
        2
176
     1
 62
     7
176
     1
 90
        5
176
     1
 90
        0
176
     1
 90
        0
176
     1
290
     0
176
     1
 90
        1
176
     1
 40
0.0
176
     1
 90
        0
176
     1
290
     0
176
     1
290
     1
176
     1
290
     1
176
     1
290
     0
176
     1
290
     0
176
     1
290
     0
176
     1
290
     0
176
     1
290
     0
176
     1
290
     0
176
     1
 90
       50
176
     1
 40
0.0
176
     1
 40
1.0
176
     1
 90
        0
176
     1
 62
    18
420
        0
176
     1
 90
       50
176
     1
 90
        3
176
     1
 62
     5
420
      255
176
     1
290
     0
176
     1
 90
       50
176
     1
 90
       50
176
     1
 90
       50
176
     1
290
     0
176
     1
 90
       50
176
     1
 62
   256
176
     0
 40
1.0
176
     0
 90
        2
176
     1
  1
strokes_ogs.tif
176
     1
290
     0
176
     1
 40
1.0
176
     1
 40
1.0
176
     1
  0
VISUALSTYLE
  5
2B
102
{ACAD_REACTORS
330
2A
102
}
330
2A
100
AcDbVisualStyle
  2
Flat
 70
     0
177
     3
291
     1
 70
    58
 90
        2
176
     1
 90
        1
176
     1
 90
        1
176
     1
 90
        2
176
     1
 40
0.6
176
     1
 40
30.0
176
     1
 62
     7
420
 16777215
176
     1
 90
        0
176
     1
 90
        4
176
     1
 62
     7
176
     1
 62
   257
176
     1
 90
        1
176
     1
 90
        1
176
     1
 40
1.0
176
     1
 90
        8
176
     1
 62
     7
176
     1
 40
1.0
176
     1
 90
        1
176
     1
 90
        6
176
     1
 90
        2
176
     1
 62
     7
176
     1
 90
        5
176
     1
 90
        0
176
     1
 90
        0
176
     1
290
     0
176
     1
 90
       13
176
     1
 40
0.0
176
     1
 90
        0
176
     1
290
     0
176
     1
290
     1
176
     1
290
     1
176
     1
290
     0
176
     1
290
     0
176
     1
290
     0
176
     1
290
     0
176
     1
290
     0
176
     1
290
     0
176
     1
 90
       50
176
     1
 40
0.0
176
     1
 40
1.0
176
     1
 90
        0
176
     1
 62
    18
420
        0
176
     1
 90
       50
176
     1
 90
        3
176
     1
 62
     5
420
      255
176
     1
290
     0
176
     1
 90
       50
176
     1
 90
       50
176
     1
 90
       50
176
     1
290
     0
176
     1
 90
       50
176
     1
 62
   256
176
     0
 40
1.0
176
     0
 90
        2
176
     1
  1
strokes_ogs.tif
176
     1
290
     0
176
     1
 40
1.0
176
     1
 40
1.0
176
     1
  0
VISUALSTYLE
  5
2C
102
{ACAD_REACTORS
330
2A
102
}
330
2A
100
AcDbVisualStyle
  2
FlatWithEdges
 70
     1
177
     3
291
     1
 70
    58
 90
        2
176
     1
 90
        1
176
     1
 90
        1
176
     1
 90
        2
176
     1
 40
0.6
176
     1
 40
30.0
176
     1
 62
     7
420
 16777215
176
     1
 90
        1
176
     1
 90
        4
176
     1
 62
     7
176
     1
 62
   257
176
     1
 90
        1
176
     1
 90
        1
176
     1
 40
1.0
176
     1
 90
        0
176
     1
 62
   257
176
     1
 40
1.0
176
     1
 90
        1
176
     1
 90
        6
176
     1
 90
        2
176
     1
 62
     7
176
     1
 90
        5
176
     1
 90
        0
176
     1
 90
        0
176
     1
290
     0
176
     1
 90
       13
176
     1
 40
0.0
176
     1
 90
        0
176
     1
290
     0
176
     1
290
     1
176
     1
290
     1
176
     1
290
     0
176
     1
290
     0
176
     1
290
     0
176
     1
290
     0
176
     1
290
     0
176
     1
290
     0
176
     1
 90
       50
176
     1
 40
0.0
176
     1
 40
1.0
176
     1
 90
        0
176
     1
 62
    18
420
        0
176
     1
 90
       50
176
     1
 90
        3
176
     1
 62
     5
420
      255
176
     1
290
     0
176
     1
 90
       50
176
     1
 90
       50
176
     1
 90
       50
176
     1
290
     0
176
     1
 90
       50
176
     1
 62
   256
176
     0
 40
1.0
176
     0
 90
        2
176
     1
  1
strokes_ogs.tif
176
     1
290
     0
176
     1
 40
1.0
176
     1
 40
1.0
176
     1
  0
VISUALSTYLE
  5
2D
102
{ACAD_REACTORS
330
2A
102
}
330
2A
100
AcDbVisualStyle
  2
Gouraud
 70
     2
177
     3
291
     1
 70
    58
 90
        2
176
     1
 90
        2
176
     1
 90
        1
176
     1
 90
        2
176
     1
 40
0.6
176
     1
 40
30.0
176
     1
 62
     7
420
 16777215
176
     1
 90
        0
176
     1
 90
        4
176
     1
 62
     7
176
     1
 62
   257
176
     1
 90
        1
176
     1
 90
        1
176
     1
 40
1.0
176
     1
 90
        0
176
     1
 62
     7
176
     1
 40
1.0
176
     1
 90
        1
176
     1
 90
        6
176
     1
 90
        2
176
     1
 62
     7
176
     1
 90
        5
176
     1
 90
        0
176
     1
 90
        0
176
     1
290
     0
176
     1
 90
       13
176
     1
 40
0.0
176
     1
 90
        0
176
     1
290
     0
176
     1
290
     1
176
     1
290
     1
176
     1
290
     0
176
     1
290
     0
176
     1
290
     0
176
     1
290
     0
176
     1
290
     0
176
     1
290
     0
176
     1
 90
       50
176
     1
 40
0.0
176
     1
 40
1.0
176
     1
 90
        0
176
     1
 62
    18
420
        0
176
     1
 90
       50
176
     1
 90
        3
176
     1
 62
     5
420
      255
176
     1
290
     0
176
     1
 90
       50
176
     1
 90
       50
176
     1
 90
       50
176
     1
290
     0
176
     1
 90
       50
176
     1
 62
   256
176
     0
 40
1.0
176
     0
 90
        2
176
     1
  1
strokes_ogs.tif
176
     1
290
     0
176
     1
 40
1.0
176
     1
 40
1.0
176
     1
  0
VISUALSTYLE
  5
2E
102
{ACAD_REACTORS
330
2A
102
}
330
2A
100
AcDbVisualStyle
  2
GouraudWithEdges
 70
     3
177
     3
291
     1
 70
    58
 90
        2
176
     1
 90
        2
176
     1
 90
        1
176
     1
 90
        2
176
     1
 40
0.6
176
     1
 40
30.0
176
     1
 62
     7
420
 16777215
176
     1
 90
        1
176
     1
 90
        4
176
     1
 62
     7
176
     1
 62
   257
176
     1
 90
        1
176
     1
 90
        1
176
     1
 40
1.0
176
     1
 90
        0
176
     1
 62
   257
176
     1
 40
1.0
176
     1
 90
        1
176
     1
 90
        6
176
     1
 90
        2
176
     1
 62
     7
176
     1
 90
        5
176
     1
 90
        0
176
     1
 90
        0
176
     1
290
     0
176
     1
 90
       13
176
     1
 40
0.0
176
     1
 90
        0
176
     1
290
     0
176
     1
290
     1
176
     1
290
     1
176
     1
290
     0
176
     1
290
     0
176
     1
290
     0
176
     1
290
     0
176
     1
290
     0
176
     1
290
     0
176
     1
 90
       50
176
     1
 40
0.0
176
     1
 40
1.0
176
     1
 90
        0
176
     1
 62
    18
420
        0
176
     1
 90
       50
176
     1
 90
        3
176
     1
 62
     5
420
      255
176
     1
290
     0
176
     1
 90
       50
176
     1
 90
       50
176
     1
 90
       50
176
     1
290
     0
176
     1
 90
       50
176
     1
 62
   256
176
     0
 40
1.0
176
     0
 90
        2
176
     1
  1
strokes_ogs.tif
176
     1
290
     0
176
     1
 40
1.0
176
     1
 40
1.0
176
     1
  0
VISUALSTYLE
  5
490
102
{ACAD_REACTORS
330
2A
102
}
330
2A
100
AcDbVisualStyle
  2
Hidden
 70
     6
177
     3
291
     0
 70
    58
 90
        1
176
     1
 90
        2
176
     1
 90
        2
176
     1
 90
        0
176
     1
 40
0.6
176
     1
 40
30.0
176
     1
 62
     7
420
 16777215
176
     1
 90
        2
176
     1
 90
        2
176
     1
 62
     7
176
     1
 62
   257
176
     1
 90
        2
176
     1
 90
        1
176
     1
 40
40.0
176
     1
 90
        0
176
     1
 62
   257
176
     1
 40
1.0
176
     1
 90
        1
176
     1
 90
        6
176
     1
 90
        2
176
     1
 62
     7
176
     1
 90
        3
176
     1
 90
        0
176
     1
 90
        0
176
     1
290
     0
176
     1
 90
        1
176
     1
 40
0.0
176
     1
 90
        0
176
     1
290
     0
176
     1
290
     1
176
     1
290
     1
176
     1
290
     0
176
     1
290
     0
176
     1
290
     0
176
     1
290
     0
176
     1
290
     0
176
     1
290
     0
176
     1
 90
       50
176
     1
 40
0.0
176
     1
 40
1.0
176
     1
 90
        0
176
     1
 62
    18
420
        0
176
     1
 90
       50
176
     1
 90
        3
176
     1
 62
     5
420
      255
176
     1
290
     0
176
     1
 90
       50
176
     1
 90
       50
176
     1
 90
       50
176
     1
290
     0
176
     1
 90
       50
176
     1
 62
   256
176
     0
 40
1.0
176
     0
 90
        2
176
     1
  1
strokes_ogs.tif
176
     1
290
     0
176
     1
 40
1.0
176
     1
 40
1.0
176
     1
  0
VISUALSTYLE
  5
2ED
102
{ACAD_REACTORS
330
2A
102
}
330
2A
100
AcDbVisualStyle
  2
JitterOff
 70
    20
177
     3
291
     1
 70
    58
 90
        2
176
     0
 90
        2
176
     0
 90
        0
176
     0
 90
        0
176
     0
 40
0.6
176
     0
 40
30.0
176
     0
 62
     7
420
 16777215
176
     0
 90
        1
176
     0
 90
        4
176
     0
 62
     7
176
     0
 62
   257
176
     0
 90
        1
176
     0
 90
        1
176
     0
 40
1.0
176
     0
 90
       10
176
     2
 62
     7
176
     0
 40
1.0
176
     0
 90
        1
176
     0
 90
        6
176
     0
 90
        2
176
     0
 62
     7
176
     0
 90
        5
176
     0
 90
        0
176
     0
 90
        0
176
     0
290
     0
176
     0
 90
        1
176
     0
 40
0.0
176
     0
 90
        0
176
     0
290
     0
176
     1
290
     1
176
     1
290
     1
176
     1
290
     0
176
     1
290
     0
176
     1
290
     0
176
     1
290
     0
176
     1
290
     0
176
     1
290
     0
176
     1
 90
       50
176
     1
 40
0.0
176
     1
 40
1.0
176
     1
 90
        0
176
     1
 62
    18
420
        0
176
     1
 90
       50
176
     1
 90
        3
176
     1
 62
     5
420
      255
176
     1
290
     0
176
     1
 90
       50
176
     1
 90
       50
176
     1
 90
       50
176
     1
290
     0
176
     1
 90
       50
176
     1
 62
   256
176
     0
 40
1.0
176
     0
 90
        2
176
     1
  1
strokes_ogs.tif
176
     1
290
     0
176
     1
 40
1.0
176
     1
 40
1.0
176
     1
  0
VISUALSTYLE
  5
38
102
{ACAD_REACTORS
330
2A
102
}
330
2A
100
AcDbVisualStyle
  2
Linepattern
 70
    14
177
     3
291
     1
 70
    58
 90
        2
176
     1
 90
        2
176
     1
 90
        0
176
     1
 90
        0
176
     1
 40
0.6
176
     1
 40
30.0
176
     1
 62
     7
420
 16777215
176
     1
 90
        1
176
     1
 90
        4
176
     1
 62
     7
176
     1
 62
   257
176
     1
 90
        7
176
     1
 90
        7
176
     1
 40
1.0
176
     1
 90
        8
176
     1
 62
     7
176
     1
 40
1.0
176
     1
 90
        1
176
     1
 90
        6
176
     1
 90
        2
176
     1
 62
     7
176
     1
 90
        5
176
     1
 90
        0
176
     1
 90
        0
176
     1
290
     0
176
     1
 90
        1
176
     1
 40
0.0
176
     1
 90
        0
176
     1
290
     0
176
     1
290
     1
176
     1
290
     1
176
     1
290
     0
176
     1
290
     0
176
     1
290
     0
176
     1
290
     0
176
     1
290
     0
176
     1
290
     0
176
     1
 90
       50
176
     1
 40
0.0
176
     1
 40
1.0
176
     1
 90
        0
176
     1
 62
    18
420
        0
176
     1
 90
       50
176
     1
 90
        3
176
     1
 62
     5
420
      255
176
     1
290
     0
176
     1
 90
       50
176
     1
 90
       50
176
     1
 90
       50
176
     1
290
     0
176
     1
 90
       50
176
     1
 62
   256
176
     0
 40
1.0
176
     0
 90
        2
176
     1
  1
strokes_ogs.tif
176
     1
290
     0
176
     1
 40
1.0
176
     1
 40
1.0
176
     1
  0
VISUALSTYLE
  5
2EE
102
{ACAD_REACTORS
330
2A
102
}
330
2A
100
AcDbVisualStyle
  2
OverhangOff
 70
    21
177
     3
291
     1
 70
    58
 90
        2
176
     0
 90
        2
176
     0
 90
        0
176
     0
 90
        0
176
     0
 40
0.6
176
     0
 40
30.0
176
     0
 62
     7
420
 16777215
176
     0
 90
        1
176
     0
 90
        4
176
     0
 62
     7
176
     0
 62
   257
176
     0
 90
        1
176
     0
 90
        1
176
     0
 40
1.0
176
     0
 90
        9
176
     2
 62
     7
176
     0
 40
1.0
176
     0
 90
        1
176
     0
 90
        6
176
     0
 90
        2
176
     0
 62
     7
176
     0
 90
        5
176
     0
 90
        0
176
     0
 90
        0
176
     0
290
     0
176
     0
 90
        1
176
     0
 40
0.0
176
     0
 90
        0
176
     0
290
     0
176
     1
290
     1
176
     1
290
     1
176
     1
290
     0
176
     1
290
     0
176
     1
290
     0
176
     1
290
     0
176
     1
290
     0
176
     1
290
     0
176
     1
 90
       50
176
     1
 40
0.0
176
     1
 40
1.0
176
     1
 90
        0
176
     1
 62
    18
420
        0
176
     1
 90
       50
176
     1
 90
        3
176
     1
 62
     5
420
      255
176
     1
290
     0
176
     1
 90
       50
176
     1
 90
       50
176
     1
 90
       50
176
     1
290
     0
176
     1
 90
       50
176
     1
 62
   256
176
     0
 40
1.0
176
     0
 90
        2
176
     1
  1
strokes_ogs.tif
176
     1
290
     0
176
     1
 40
1.0
176
     1
 40
1.0
176
     1
  0
VISUALSTYLE
  5
33
102
{ACAD_REACTORS
330
2A
102
}
330
2A
100
AcDbVisualStyle
  2
Realistic
 70
     8
177
     3
291
     0
 70
    58
 90
        2
176
     1
 90
        2
176
     1
 90
        0
176
     1
 90
        0
176
     1
 40
0.6
176
     1
 40
30.0
176
     1
 62
     7
420
 16777215
176
     1
 90
        1
176
     1
 90
        0
176
     1
 62
     7
176
     1
 62
   257
176
     1
 90
        1
176
     1
 90
        1
176
     1
 40
1.0
176
     1
 90
        8
176
     1
 62
     8
420
  7895160
176
     1
 40
1.0
176
     1
 90
        1
176
     1
 90
        6
176
     1
 90
        2
176
     1
 62
     7
176
     1
 90
        5
176
     1
 90
        0
176
     1
 90
        0
176
     1
290
     0
176
     1
 90
       13
176
     1
 40
0.0
176
     1
 90
        0
176
     1
290
     0
176
     1
290
     1
176
     1
290
     1
176
     1
290
     0
176
     1
290
     0
176
     1
290
     0
176
     1
290
     0
176
     1
290
     0
176
     1
290
     0
176
     1
 90
       50
176
     1
 40
0.0
176
     1
 40
1.0
176
     1
 90
        0
176
     1
 62
    18
420
        0
176
     1
 90
       50
176
     1
 90
        3
176
     1
 62
     5
420
      255
176
     1
290
     0
176
     1
 90
       50
176
     1
 90
       50
176
     1
 90
       50
176
     1
290
     0
176
     1
 90
       50
176
     1
 62
   256
176
     0
 40
1.0
176
     0
 90
        2
176
     1
  1
strokes_ogs.tif
176
     1
290
     0
176
     1
 40
1.0
176
     1
 40
1.0
176
     1
  0
VISUALSTYLE
  5
495
102
{ACAD_REACTORS
330
2A
102
}
330
2A
100
AcDbVisualStyle
  2
Shaded
 70
    27
177
     3
291
     0
 70
    58
 90
        2
176
     1
 90
        2
176
     1
 90
        1
176
     1
 90
        2
176
     1
 40
0.6
176
     1
 40
30.0
176
     1
 62
     7
420
 16777215
176
     1
 90
        0
176
     1
 90
        4
176
     1
 62
     7
176
     1
 62
   257
176
     1
 90
        1
176
     1
 90
        1
176
     1
 40
1.0
176
     1
 90
        8
176
     1
 62
   257
176
     1
 40
1.0
176
     1
 90
        1
176
     1
 90
        6
176
     1
 90
        2
176
     1
 62
     8
420
  7895160
176
     1
 90
        3
176
     1
 90
        0
176
     1
 90
        0
176
     1
290
     0
176
     1
 90
        5
176
     1
 40
0.0
176
     1
 90
        0
176
     1
290
     0
176
     1
290
     1
176
     1
290
     1
176
     1
290
     0
176
     1
290
     0
176
     1
290
     0
176
     1
290
     0
176
     1
290
     0
176
     1
290
     0
176
     1
 90
       50
176
     1
 40
0.0
176
     1
 40
1.0
176
     1
 90
        0
176
     1
 62
    18
420
        0
176
     1
 90
       50
176
     1
 90
        3
176
     1
 62
     5
420
      255
176
     1
290
     0
176
     1
 90
       50
176
     1
 90
       50
176
     1
 90
       50
176
     1
290
     0
176
     1
 90
       50
176
     1
 62
   256
176
     0
 40
1.0
176
     0
 90
        2
176
     1
  1
strokes_ogs.tif
176
     1
290
     0
176
     1
 40
1.0
176
     1
 40
1.0
176
     1
  0
VISUALSTYLE
  5
494
102
{ACAD_REACTORS
330
2A
102
}
330
2A
100
AcDbVisualStyle
  2
Shaded with edges
 70
    26
177
     3
291
     0
 70
    58
 90
        2
176
     1
 90
        2
176
     1
 90
        1
176
     1
 90
        2
176
     1
 40
0.6
176
     1
 40
30.0
176
     1
 62
     7
420
 16777215
176
     1
 90
        1
176
     1
 90
        2
176
     1
 62
     7
176
     1
 62
   257
176
     1
 90
        2
176
     1
 90
        1
176
     1
 40
1.0
176
     1
 90
        8
176
     1
 62
   257
176
     1
 40
1.0
176
     1
 90
        1
176
     1
 90
        6
176
     1
 90
        2
176
     1
 62
     7
176
     1
 90
        3
176
     1
 90
        0
176
     1
 90
        0
176
     1
290
     0
176
     1
 90
        5
176
     1
 40
0.0
176
     1
 90
        0
176
     1
290
     0
176
     1
290
     1
176
     1
290
     1
176
     1
290
     0
176
     1
290
     0
176
     1
290
     0
176
     1
290
     0
176
     1
290
     0
176
     1
290
     0
176
     1
 90
       50
176
     1
 40
0.0
176
     1
 40
1.0
176
     1
 90
        0
176
     1
 62
    18
420
        0
176
     1
 90
       50
176
     1
 90
        3
176
     1
 62
     5
420
      255
176
     1
290
     0
176
     1
 90
       50
176
     1
 90
       50
176
     1
 90
       50
176
     1
290
     0
176
     1
 90
       50
176
     1
 62
   256
176
     0
 40
1.0
176
     0
 90
        2
176
     1
  1
strokes_ogs.tif
176
     1
290
     0
176
     1
 40
1.0
176
     1
 40
1.0
176
     1
  0
VISUALSTYLE
  5
491
102
{ACAD_REACTORS
330
2A
102
}
330
2A
100
AcDbVisualStyle
  2
Shades of Gray
 70
    23
177
     3
291
     0
 70
    58
 90
        2
176
     1
 90
        2
176
     1
 90
        3
176
     1
 90
        0
176
     1
 40
0.6
176
     1
 40
30.0
176
     1
 62
     7
420
 16777215
176
     1
 90
        2
176
     1
 90
        2
176
     1
 62
     7
176
     1
 62
     7
176
     1
 90
        1
176
     1
 90
        1
176
     1
 40
40.0
176
     1
 90
        8
176
     1
 62
     7
176
     1
 40
1.0
176
     1
 90
        1
176
     1
 90
        6
176
     1
 90
        2
176
     1
 62
     7
176
     1
 90
        3
176
     1
 90
        0
176
     1
 90
        0
176
     1
290
     0
176
     1
 90
        1
176
     1
 40
0.0
176
     1
 90
        0
176
     1
290
     0
176
     1
290
     1
176
     1
290
     1
176
     1
290
     0
176
     1
290
     0
176
     1
290
     0
176
     1
290
     0
176
     1
290
     0
176
     1
290
     0
176
     1
 90
       50
176
     1
 40
0.0
176
     1
 40
1.0
176
     1
 90
        0
176
     1
 62
    18
420
        0
176
     1
 90
       50
176
     1
 90
        3
176
     1
 62
     5
420
      255
176
     1
290
     0
176
     1
 90
       50
176
     1
 90
       50
176
     1
 90
       50
176
     1
290
     0
176
     1
 90
       50
176
     1
 62
   256
176
     0
 40
1.0
176
     0
 90
        2
176
     1
  1
strokes_ogs.tif
176
     1
290
     0
176
     1
 40
1.0
176
     1
 40
1.0
176
     1
  0
VISUALSTYLE
  5
492
102
{ACAD_REACTORS
330
2A
102
}
330
2A
100
AcDbVisualStyle
  2
Sketchy
 70
    24
177
     3
291
     0
 70
    58
 90
        1
176
     1
 90
        2
176
     1
 90
        2
176
     1
 90
        0
176
     1
 40
0.6
176
     1
 40
30.0
176
     1
 62
     7
420
 16777215
176
     1
 90
        2
176
     1
 90
        2
176
     1
 62
     7
176
     1
 62
     7
176
     1
 90
        1
176
     1
 90
        1
176
     1
 40
40.0
176
     1
 90
       11
176
     1
 62
     7
176
     1
 40
1.0
176
     1
 90
        1
176
     1
 90
        6
176
     1
 90
        2
176
     1
 62
     7
176
     1
 90
        6
176
     1
 90
        0
176
     1
 90
        0
176
     1
290
     0
176
     1
 90
        1
176
     1
 40
0.0
176
     1
 90
        0
176
     1
290
     0
176
     1
290
     1
176
     1
290
     1
176
     1
290
     0
176
     1
290
     0
176
     1
290
     0
176
     1
290
     0
176
     1
290
     0
176
     1
290
     0
176
     1
 90
       50
176
     1
 40
0.0
176
     1
 40
1.0
176
     1
 90
        0
176
     1
 62
    18
420
        0
176
     1
 90
       50
176
     1
 90
        3
176
     1
 62
     5
420
      255
176
     1
290
     0
176
     1
 90
       50
176
     1
 90
       50
176
     1
 90
       50
176
     1
290
     0
176
     1
 90
       50
176
     1
 62
   256
176
     0
 40
1.0
176
     0
 90
        2
176
     1
  1
strokes_ogs.tif
176
     1
290
     0
176
     1
 40
1.0
176
     1
 40
1.0
176
     1
  0
VISUALSTYLE
  5
37
102
{ACAD_REACTORS
330
2A
102
}
330
2A
100
AcDbVisualStyle
  2
Thicken
 70
    13
177
     3
291
     1
 70
    58
 90
        2
176
     1
 90
        2
176
     1
 90
        0
176
     1
 90
        0
176
     1
 40
0.6
176
     1
 40
30.0
176
     1
 62
     7
420
 16777215
176
     1
 90
        1
176
     1
 90
        4
176
     1
 62
     7
176
     1
 62
   257
176
     1
 90
        1
176
     1
 90
        1
176
     1
 40
1.0
176
     1
 90
       12
176
     1
 62
     7
176
     1
 40
1.0
176
     1
 90
        1
176
     1
 90
        6
176
     1
 90
        2
176
     1
 62
     7
176
     1
 90
        5
176
     1
 90
        0
176
     1
 90
        0
176
     1
290
     0
176
     1
 90
        1
176
     1
 40
0.0
176
     1
 90
        0
176
     1
290
     0
176
     1
290
     1
176
     1
290
     1
176
     1
290
     0
176
     1
290
     0
176
     1
290
     0
176
     1
290
     0
176
     1
290
     0
176
     1
290
     0
176
     1
 90
       50
176
     1
 40
0.0
176
     1
 40
1.0
176
     1
 90
        0
176
     1
 62
    18
420
        0
176
     1
 90
       50
176
     1
 90
        3
176
     1
 62
     5
420
      255
176
     1
290
     0
176
     1
 90
       50
176
     1
 90
       50
176
     1
 90
       50
176
     1
290
     0
176
     1
 90
       50
176
     1
 62
   256
176
     0
 40
1.0
176
     0
 90
        2
176
     1
  1
strokes_ogs.tif
176
     1
290
     0
176
     1
 40
1.0
176
     1
 40
1.0
176
     1
  0
VISUALSTYLE
  5
48F
102
{ACAD_REACTORS
330
2A
102
}
330
2A
100
AcDbVisualStyle
  2
Wireframe
 70
     5
177
     3
291
     0
 70
    58
 90
        0
176
     1
 90
        2
176
     1
 90
        0
176
     1
 90
        0
176
     1
 40
0.6
176
     1
 40
30.0
176
     1
 62
     7
420
 16777215
176
     1
 90
        1
176
     1
 90
        4
176
     1
 62
     7
176
     1
 62
   257
176
     1
 90
        1
176
     1
 90
        1
176
     1
 40
1.0
176
     1
 90
        0
176
     1
 62
   257
176
     1
 40
1.0
176
     1
 90
        1
176
     1
 90
        6
176
     1
 90
        2
176
     1
 62
     7
176
     1
 90
        3
176
     1
 90
        0
176
     1
 90
        0
176
     1
290
     0
176
     1
 90
        1
176
     1
 40
0.0
176
     1
 90
        0
176
     1
290
     0
176
     1
290
     1
176
     1
290
     1
176
     1
290
     0
176
     1
290
     0
176
     1
290
     0
176
     1
290
     0
176
     1
290
     0
176
     1
290
     0
176
     1
 90
       50
176
     1
 40
0.0
176
     1
 40
1.0
176
     1
 90
        0
176
     1
 62
    18
420
        0
176
     1
 90
       50
176
     1
 90
        3
176
     1
 62
     5
420
      255
176
     1
290
     0
176
     1
 90
       50
176
     1
 90
       50
176
     1
 90
       50
176
     1
290
     0
176
     1
 90
       50
176
     1
 62
   256
176
     0
 40
1.0
176
     0
 90
        2
176
     1
  1
strokes_ogs.tif
176
     1
290
     0
176
     1
 40
1.0
176
     1
 40
1.0
176
     1
  0
VISUALSTYLE
  5
493
102
{ACAD_REACTORS
330
2A
102
}
330
2A
100
AcDbVisualStyle
  2
X-Ray
 70
    25
177
     3
291
     0
 70
    58
 90
        2
176
     1
 90
        2
176
     1
 90
        1
176
     1
 90
        1
176
     1
 40
0.5
176
     1
 40
30.0
176
     1
 62
     7
420
 16777215
176
     1
 90
        1
176
     1
 90
        0
176
     1
 62
     7
176
     1
 62
   257
176
     1
 90
        1
176
     1
 90
        1
176
     1
 40
1.0
176
     1
 90
        8
176
     1
 62
     7
176
     1
 40
1.0
176
     1
 90
        1
176
     1
 90
        6
176
     1
 90
        2
176
     1
 62
     7
176
     1
 90
        3
176
     1
 90
        0
176
     1
 90
        0
176
     1
290
     0
176
     1
 90
       13
176
     1
 40
0.0
176
     1
 90
        0
176
     1
290
     0
176
     1
290
     1
176
     1
290
     1
176
     1
290
     0
176
     1
290
     0
176
     1
290
     0
176
     1
290
     0
176
     1
290
     0
176
     1
290
     0
176
     1
 90
       50
176
     1
 40
0.0
176
     1
 40
1.0
176
     1
 90
        0
176
     1
 62
    18
420
        0
176
     1
 90
       50
176
     1
 90
        3
176
     1
 62
     5
420
      255
176
     1
290
     0
176
     1
 90
       50
176
     1
 90
       50
176
     1
 90
       50
176
     1
290
     0
176
     1
 90
       50
176
     1
 62
   256
176
     0
 40
1.0
176
     0
 90
        2
176
     1
  1
strokes_ogs.tif
176
     1
290
     0
176
     1
 40
1.0
176
     1
 40
1.0
176
     1
  0
DICTIONARYVAR
  5
3CA
102
{ACAD_REACTORS
330
3C6
102
}
330
3C6
100
DictionaryVariables
280
     0
  1
1:1
  0
DICTIONARYVAR
  5
3C8
102
{ACAD_REACTORS
330
3C6
102
}
330
3C6
100
DictionaryVariables
280
     0
  1
STANDARD
  0
DICTIONARYVAR
  5
3C7
102
{ACAD_REACTORS
330
3C6
102
}
330
3C6
100
DictionaryVariables
280
     0
  1
STANDARD
  0
DICTIONARYVAR
  5
4DA
102
{ACAD_REACTORS
330
3C6
102
}
330
3C6
100
DictionaryVariables
280
     0
  1
ASME Y14.35 - 1987
  0
DICTIONARYVAR
  5
4DB
102
{ACAD_REACTORS
330
3C6
102
}
330
3C6
100
DictionaryVariables
280
     0
  1
ASME Y14.3 - 2003
  0
DICTIONARYVAR
  5
3CC
102
{ACAD_REACTORS
330
3C6
102
}
330
3C6
100
DictionaryVariables
280
     0
  1
1
  0
DICTIONARYVAR
  5
3CD
102
{ACAD_REACTORS
330
3C6
102
}
330
3C6
100
DictionaryVariables
280
     0
  1
15
  0
DICTIONARYVAR
  5
3CB
102
{ACAD_REACTORS
330
3C6
102
}
330
3C6
100
DictionaryVariables
280
     0
  1
0
  0
DICTIONARYVAR
  5
3C9
102
{ACAD_REACTORS
330
3C6
102
}
330
3C6
100
DictionaryVariables
280
     0
  1
0
  0
ACAD_PROXY_OBJECT
  5
375
102
{ACAD_REACTORS
330
374
102
}
330
374
100
AcDbProxyObject
 90
      499
 91
      550
 71
    31
 97
       83
 70
     0
162
                 0
161
                84
310
90100057356C1DCD406AAC
 94
        0
  0
DICTIONARY
  5
380
102
{ACAD_REACTORS
330
374
102
}
330
374
100
AcDbDictionary
281
     1
  3
ANSI
350
381
  0
ACAD_PROXY_OBJECT
  5
324
330
0
100
AcDbProxyObject
 90
      499
 91
      515
 71
    31
 97
       83
 70
     0
162
               234
311
43904010C01340114014C016401340108013C0130014C01240168011400C
161
                34
310
000101420C
330
321
 94
        0
  0
ACAD_PROXY_OBJECT
  5
32A
330
0
100
AcDbProxyObject
 90
      499
 91
      521
 71
    31
 97
       83
 70
     0
162
               562
311
41190018401D001940109310034002E0030002E00340038002E00300041190018401D001940109310039002E0030002E00340038002E003000419040138014C012400CC00C400C
161
                92
310
00010101010140501000096C
330
321
330
32B
330
331
 94
        0
  0
ACAD_PROXY_OBJECT
  5
32B
330
0
100
AcDbProxyObject
 90
      499
 91
      522
 71
    31
 97
       83
 70
     0
162
                 0
161
                56
310
000190240E000000
330
321
330
32C
330
32E
 94
        0
  0
ACAD_PROXY_OBJECT
  5
32C
330
0
100
AcDbProxyObject
 90
      499
 91
      523
 71
    31
 97
       83
 70
     0
162
                 0
161
                48
310
0001AA00000042
330
321
330
1E
330
32D
330
0
 94
        0
  0
ACAD_PROXY_OBJECT
  5
32D
330
0
100
AcDbProxyObject
 90
      499
 91
      524
 71
    31
 97
       83
 70
     0
162
                 0
161
                28
310
0001AAAC
330
321
 94
        0
  0
ACAD_PROXY_OBJECT
  5
32E
330
0
100
AcDbProxyObject
 90
      499
 91
      523
 71
    31
 97
       83
 70
     0
162
                 0
161
                48
310
0001AA00000061
330
321
330
26
330
32F
330
0
 94
        0
  0
ACAD_PROXY_OBJECT
  5
32F
330
0
100
AcDbProxyObject
 90
      499
 91
      524
 71
    31
 97
       83
 70
     0
162
                 0
161
                28
310
0001AAAC
330
321
 94
        0
  0
ACAD_PROXY_OBJECT
  5
332
330
0
100
AcDbProxyObject
 90
      499
 91
      515
 71
    31
 97
       83
 70
     0
162
               138
311
42104013401200130010C01040130010C00C
161
                34
310
000101404C
330
321
 94
        0
  0
ACAD_PROXY_OBJECT
  5
333
330
0
100
AcDbProxyObject
 90
      499
 91
      515
 71
    31
 97
       83
 70
     0
162
               170
311
429040134014801140154014C011401100124013400C
161
                34
310
000101404C
330
321
 94
        0
  0
ACAD_PROXY_OBJECT
  5
334
330
0
100
AcDbProxyObject
 90
      499
 91
      515
 71
    31
 97
       83
 70
     0
162
               202
311
431040134014C0114010C01500124013C013801100124013400C
161
                26
310
0001018C
330
321
 94
        0
  0
ACAD_PROXY_OBJECT
  5
335
330
0
100
AcDbProxyObject
 90
      499
 91
      515
 71
    31
 97
       83
 70
     0
162
               170
311
429040134015801400108013C014801100114014800C
161
                34
310
000101404C
330
321
 94
        0
  0
ACAD_PROXY_OBJECT
  5
336
330
0
100
AcDbProxyObject
 90
      499
 91
      515
 71
    31
 97
       83
 70
     0
162
               170
311
4290401340110015C011C010C013C0130013C014800C
161
                26
310
0001018C
330
321
 94
        0
  0
ACAD_PROXY_OBJECT
  5
337
330
0
100
AcDbProxyObject
 90
      499
 91
      515
 71
    31
 97
       83
 70
     0
162
               218
311
435040134015801240114015C01480114011801480114014C012000C
161
                34
310
000101404C
330
321
 94
        0
  0
ACAD_PROXY_OBJECT
  5
338
330
0
100
AcDbProxyObject
 90
      499
 91
      515
 71
    31
 97
       83
 70
     0
162
               266
311
441040134010401380138013C01500114014001480114014C011401480158011400C
161
                34
310
000101404C
330
321
 94
        0
  0
ACAD_PROXY_OBJECT
  5
339
330
0
100
AcDbProxyObject
 90
      499
 91
      515
 71
    31
 97
       83
 70
     0
162
               266
311
441040134010401540150013C01100124013401040148014801040138011C011400C
161
                34
310
000101404C
330
321
 94
        0
  0
ACAD_PROXY_OBJECT
  5
33A
330
0
100
AcDbProxyObject
 90
      499
 91
      515
 71
    31
 97
       83
 70
     0
162
               186
311
42D04013401140160015001480114011801100124013400C
161
                26
310
0001018C
330
321
 94
        0
  0
ACAD_PROXY_OBJECT
  5
33B
330
0
100
AcDbProxyObject
 90
      499
 91
      515
 71
    31
 97
       83
 70
     0
162
               186
311
42D040134015001040140010401380138013C0150011400C
161
                34
310
000101404C
330
321
 94
        0
  0
ACAD_PROXY_OBJECT
  5
33C
330
0
100
AcDbProxyObject
 90
      499
 91
      515
 71
    31
 97
       83
 70
     0
162
               138
311
421040134010401540150013C010C013000C
161
                34
310
000101404C
330
321
 94
        0
  0
ACAD_PROXY_OBJECT
  5
33D
330
0
100
AcDbProxyObject
 90
      499
 91
      515
 71
    31
 97
       83
 70
     0
162
               138
311
421040134010C0130011801140104015000C
161
                34
310
000101414C
330
321
 94
        0
  0
ACAD_PROXY_OBJECT
  5
33E
330
0
100
AcDbProxyObject
 90
      499
 91
      515
 71
    31
 97
       83
 70
     0
162
               138
311
421040134010C0130015801240114015C00C
161
                34
310
0001014FCC
330
321
 94
        0
  0
ACAD_PROXY_OBJECT
  5
33F
330
0
100
AcDbProxyObject
 90
      499
 91
      515
 71
    31
 97
       83
 70
     0
162
               218
311
4350401340120012401100114016801140148013C01100124013400C
161
                34
310
000101404C
330
321
 94
        0
  0
ACAD_PROXY_OBJECT
  5
340
330
0
100
AcDbProxyObject
 90
      499
 91
      515
 71
    31
 97
       83
 70
     0
162
               170
311
429040134012001040150010C01200124014C013C00C
161
                34
310
000101404C
330
321
 94
        0
  0
ACAD_PROXY_OBJECT
  5
341
330
0
100
AcDbProxyObject
 90
      499
 91
      515
 71
    31
 97
       83
 70
     0
162
               234
311
439040134014C01240138011C0130011401200104015001300104016400C
161
                26
310
0001018C
330
321
 94
        0
  0
ACAD_PROXY_OBJECT
  5
342
330
0
100
AcDbProxyObject
 90
      499
 91
      515
 71
    31
 97
       83
 70
     0
162
               186
311
42D0401340110015C011C0118013001100124014C014000C
161
                26
310
0001018C
330
321
 94
        0
  0
ACAD_PROXY_OBJECT
  5
343
330
0
100
AcDbProxyObject
 90
      499
 91
      515
 71
    31
 97
       83
 70
     0
162
               138
311
421040134010401540150013C0120013800C
161
                26
310
0001018C
330
321
 94
        0
  0
ACAD_PROXY_OBJECT
  5
344
330
0
100
AcDbProxyObject
 90
      499
 91
      515
 71
    31
 97
       83
 70
     0
162
               154
311
42504013401200138010C013C01540138015000C
161
                34
310
000101404C
330
321
 94
        0
  0
ACAD_PROXY_OBJECT
  5
345
330
0
100
AcDbProxyObject
 90
      499
 91
      515
 71
    31
 97
       83
 70
     0
162
               138
311
4210401340120013801400148013C012800C
161
                34
310
000101404C
330
321
 94
        0
  0
ACAD_PROXY_OBJECT
  5
346
330
0
100
AcDbProxyObject
 90
      499
 91
      515
 71
    31
 97
       83
 70
     0
162
               138
311
42104013401200138015001640140011400C
161
                34
310
00010141CC
330
321
 94
        0
  0
ACAD_PROXY_OBJECT
  5
347
330
0
100
AcDbProxyObject
 90
      499
 91
      515
 71
    31
 97
       83
 70
     0
162
               138
311
42104013401200138015801240114015C00C
161
                34
310
00010143CC
330
321
 94
        0
  0
ACAD_PROXY_OBJECT
  5
348
330
0
100
AcDbProxyObject
 90
      499
 91
      515
 71
    31
 97
       83
 70
     0
162
               218
311
435040134014C0114010C01500124013C0138010C013C0140016400C
161
                26
310
0001018C
330
321
 94
        0
  0
ACAD_PROXY_OBJECT
  5
349
330
0
100
AcDbProxyObject
 90
      499
 91
      515
 71
    31
 97
       83
 70
     0
162
               138
311
421040134010C013001400148013C012800C
161
                34
310
00010140CC
330
321
 94
        0
  0
ACAD_PROXY_OBJECT
  5
34A
330
0
100
AcDbProxyObject
 90
      499
 91
      526
 71
    31
 97
       83
 70
     0
162
               234
311
439040134010401540150013C012001040150010C01200148013C015000C
161
                90
310
0001010000000000000B900C
330
321
 94
        0
  0
ACAD_PROXY_OBJECT
  5
34B
330
0
100
AcDbProxyObject
 90
      499
 91
      515
 71
    31
 97
       83
 70
     0
162
               234
311
439040134010401540150013C012001040150010C012001100114015000C
161
                34
310
000101404C
330
321
 94
        0
  0
ACAD_PROXY_OBJECT
  5
35A
330
0
100
AcDbProxyObject
 90
      499
 91
      535
 71
    31
 97
       83
 70
     0
162
               212
311
421040134010C01540148014C01500110010441004E0053004900C
161
                32
310
0001010100
330
321
 94
        0
  0
ACAD_PROXY_OBJECT
  5
365
330
0
100
AcDbProxyObject
 90
      499
 91
      535
 71
    31
 97
       83
 70
     0
162
               276
311
431040104010C013C01340140011001180138010401340114010443004F004D005000C
161
                32
310
0001010100
330
321
 94
        0
  0
ACAD_PROXY_OBJECT
  5
366
330
0
100
AcDbProxyObject
 90
      499
 91
      535
 71
    31
 97
       83
 70
     0
162
               340
311
4390401040118013C0130011001140148011001180138010401340114010646006F006C00640065007200C
161
                32
310
0001010100
330
321
 94
        0
  0
ACAD_PROXY_OBJECT
  5
367
330
0
100
AcDbProxyObject
 90
      499
 91
      535
 71
    31
 97
       83
 70
     0
162
               260
311
431040104010401380138013C01100118013801040134011401035F0041005600C
161
                32
310
0001010100
330
321
 94
        0
  0
ACAD_PROXY_OBJECT
  5
368
330
0
100
AcDbProxyObject
 90
      499
 91
      535
 71
    31
 97
       83
 70
     0
162
               756
311
439040104010C013C01340140015801240114015C01300124014C0150012054006F0070000A00460072006F006E0074000A00520069006700680074000A004C006500660074000A0042006F00740074006F006D000A004100750078003100C
161
                32
310
0001010100
330
321
 94
        0
  0
ACAD_PROXY_OBJECT
  5
369
330
0
100
AcDbProxyObject
 90
      499
 91
      515
 71
    31
 97
       83
 70
     0
162
               234
311
439040134014C014C0150014801040130015C01040164014C013C013800C
161
                26
310
0001018C
330
321
 94
        0
  0
ACAD_PROXY_OBJECT
  5
36E
330
0
100
AcDbProxyObject
 90
      499
 91
      545
 71
    31
 97
       83
 70
     0
162
                 0
161
                32
310
0001000000
330
321
340
36B
330
36F
330
36B
 94
        0
  0
ACAD_PROXY_OBJECT
  5
36F
330
0
100
AcDbProxyObject
 90
      499
 91
      546
 71
    31
 97
       83
 70
     0
162
               202
311
431040148010C0120012401140080014801040138011C011400C
161
                80
310
00010141401550055400AA
330
321
330
36E
330
0
 94
        0
  0
ACAD_PROXY_OBJECT
  5
370
330
0
100
AcDbProxyObject
 90
      499
 91
      547
 71
    31
 97
       83
 70
     0
162
                 0
161
               178
310
000100AAAAAA9CD6B6778A6AA8D36FADF94F88385EF14C
330
321
330
36F
 94
        0
  0
ACAD_PROXY_OBJECT
  5
371
330
0
100
AcDbProxyObject
 90
      499
 91
      548
 71
    31
 97
       83
 70
     0
162
                 0
161
               108
310
000190140A000000000000AAAAAC
330
321
330
372
330
372
330
372
330
372
330
372
330
0
 94
        0
  0
ACAD_PROXY_OBJECT
  5
372
330
0
100
AcDbProxyObject
 90
      499
 91
      549
 71
    31
 97
       83
 70
     0
162
                 0
161
                51
310
00010000AAAA8C
330
321
330
371
330
36F
 94
        0
  0
DICTIONARY
  5
31B
102
{ACAD_REACTORS
330
31A
102
}
330
31A
100
AcDbDictionary
281
     1
  3
DWGSETTINGS
350
31C
  3
TRANSSETTINGS
350
31D
  0
ACAD_PROXY_OBJECT
  5
394
102
{ACAD_REACTORS
330
31A
102
}
330
31A
100
AcDbProxyObject
 90
      499
 91
      574
 71
    31
 97
       83
 70
     0
162
             15940
311
404C0010441004D005F0030009013100411040134017C00C402404C8010441004D005F0032009013300411040134017C00CC02404D0010441004D005F0034009013500411040134017C00D402404D8010441004D005F0036009013700411040134017C00DC02404E0010441004D005F0038009013900411040134017C00E40
311
2408C80104010541004D005F003100300090234004100415040134017C00C400C402409240140010541004D005F003100320090230004E00415040134017C00C0013802408C40138010541004D005F0031004E0090232004E00415040134017C00C8013802408CC0138010541004D005F0033004E0090234004E0041504013
311
4017C00D0013802408D40138010541004D005F0035004E0090236004E00415040134017C00D8013802408DC0138010541004D005F0037004E0090238004E00415040134017C00E0013802408E40138010541004D005F0039004E00903320041004E00419040134017C00C400C001380240CD001040138010641004D005F003
311
10031004E00903490050004E00419040134017C00C400C80138024112C013001240138010541004D005F0043004C0090449004E0046004F00421040134017C01400104014801140118024154801040120013400D4010641004D005F0042004F0052009045600490045005700421040134017C015801240114015C014C02419
311
0801140120012401380110010641004D005F0049004E00560090554005200410049004C00415040134017C015001480240D2001240110010641004D005F00480049004400903560049005300419040134017C01580124014C024194001040148011001240134010941004D005F00500041005200440049004D009065200450
311
04600440049004D00425040134017C01480114011801100124013402411080120013801580101390041508012001380158014C010642004500480049004E00440041108013C014800C801055200410048004D00350041108013C014800CC01055200410048004D00350041108013C014800D401055200410048004D0035004
311
110C0104013000C8010134004110C0104013000CC010134004110C0104013000D4010134004110C0104013000DC010134004110C011401380138010137004110C01140138015C010137004110C01300124013801044B004C0049004E004110C013C013800C4010130004110C013C013800C8010131004110C013C013800CC0
311
10132004110C013C013800D00101320041110011401500104010134004111001240104011C010135004111001240130012401013500411100124013401400106500041005200440049004D00411100124013401480106520045004600440049004D00411180114013401380101380041518011401340140013801013800415
311
1801140134014C01400102340041004151801140134014C015001023400410041518011401340158013801013200415180114013401580150010132004112001040150010C0101380041120012401100138010133004112001240110015C01013300411200130012401380101340041120013C010C01380101370041120013
311
C010C015C010137004112401380118013C010449004E0046004F00411300114010401100101350041938017C0108012001380158010239004E0041938017C010C013C013800C4010230004E0041938017C010C013C013800C8010231004E0041938017C010C013C013800CC010232004E0041938017C010C013C013800D001
311
0232004E0041938017C010C011401380138010237004E0041938017C010C01140138015C010237004E0041938017C0110012401300124010235004E0041938017C012001040150010C010238004E0041938017C0120012401100138010233004E0041938017C012001240110015C010233004E0041938017C0130011401040
311
110010235004E0041938017C0138011C012401400103490050004E0041938017C01400120010401380103340041004E0041938017C0150010C013C0138010230004E0041938017C0150012001300124010234004E0041938017C0150013001140138010230004E0041938017C01580140013001240103320041004E0041138
311
011C01240140010249005000411400104013000C801055200410048004D003500411400104013000CC01055200410048004D003500411400104013000D401055200410048004D0035004114001200104013801023400410041140013C014C01380101350041148010C011C01380101370041148010C011C015C01013700411
311
4C01080148012C010134004114C0114010C0150010134004114C0164010800CC0101350041134014C016401340101350041150010C013C0138010130004115001200130012401013400411500124015000C801055200410048004D003500411500124015000CC01055200410048004D003500411500124015000D401055200
311
410048004D0035004115001300114013801013000415500148010401240130010554005200410049004C004115001480130012401013400411500160015000C401013600411500160015000C801013600411500160015000CC01013600411500160015000D401013600411500160015000DC010136004115801240114015C0
311
10456004900450057004115801140110012001034800490044004115801140110015801035600490053004115801400130012401023200410041168012401680104010134004114C014001300124010232004100404FC02C
161
              9020
310
4250349201C00030C011E44203800030C011E44201400030C011E44201800030C010FA17000030C010FA17000030C010FA23000030C011EA23800030C010FA00400030C010FA3F400030C0241201C00030C011EA17000030C010FA01C00030C011E40A01C00030C011EA03800030C011EA01400030C011EA01800030C010FA
310
17000030C010FA17000030C010FA23000030C011EA23800030C010FA00400030C010FA3F400030C0241201C00030C011EA17000030C010FA01C00030C011E40A00400030C010F42623800030C010F42E01C00030C011E42600400030C010F42E3F400030C0243617000030C010F42601C00030C010F42601C00030C011E426
310
17000030C010F42623800030C010F425548000000C0003FFFFFFFE8000000C0003FFFFFFFE8010000C30043E88C0000C30047A8000000C0003FFFFFFFE8000000C0003FFFFFFFE88C0000C30047A8070000C30047A81E0000C3004F28000000C0003FFFFFFFE8000000C0003FFFFFFFE8000000C0003FFFFFFFE8000000C00
310
03FFFFFFFD038000000C0003FFFFFFFD038000000C0003FFFFFFFD038000000C0003FFFFFFFD038000000C0003FFFFFFFE8000000C0003FFFFFFFE8000000C0003FFFFFFFE8000000C0003FFFFFFFE8000000C0003FFFFFFFE8000000C0003FFFFFFFE85C0000C3003FFFFFFFE8000000C0003FFFFFFFE85C0000C30043E80
310
00000C0003FFFFFFFE85C0000C30043E8000000C0003FFFFFFFD018000000C0003FFFFFFFD038000000C0003FFFFFFFD038000000C0003FFFFFFFD018000000C0003FFFFFFFE8000000C0003FFFFFFFE8000000C0003FFFFFFFE8000000C0003FFFFFFFE8000000C0003FFFFFFFE8000000C0003FFFFFFFD038000000C0003
310
FFFFFFFD038000000C0003FFFFFFFD038000000C0003FFFFFFFD038000000C0003FFFFFFFE8000000C0003FFFFFFFE8000000C0003FFFFFFFE8000000C0003FFFFFFFD018000000C0003FFFFFFFD038000000C0003FFFFFFFD038000000C0003FFFFFFFE8000000C0003FFFFFFFE8000000C0003FFFFFFFE8000000C0003FF
310
FFFFFD038000000C0003FFFFFFFD018000000C0003FFFFFFFD038000000C0003FFFFFFFE8000000C0003FFFFFFFE8010000C3003FFFFFFFE88C0000C3003FFFFFFFE8070000C3003FFFFFFFE8000000C0003FFFFFFFE8000000C0003FFFFFFFE8000000C0003FFFFFFFE8000000C0003FFFFFFFE8070000C30047901800000
310
0C0003FFFFFFFD0188C0000C30047A88C0000C3003FFFFFFFE8000000C0003FFFFFFFD038000000C0003FFFFFFFD018010000C30043E88C0000C30047A8000000C0003FFFFFFFE8000000C0003FFFFFFFD038000000C0003FFFFFFFE8000000C0003FFFFFFFD0185C0000C30043E85C0000C30043E8000000C0003FFFFFFFE
310
8070000C30047A81E0000C3004F28000000C0003FFFFFFFE8000000C0003FFFFFFFD028000000C0003FFFFFFFD028000000C0003FFFFFFFE8000000C0003FFFFFFFD018070000C3003FFFFFFFEAAA3F400030C010A4391E4151E4091E4793C41D1E4110F4050F7F64190F40D0F80200C
340
16
340
16
340
16
340
34C
340
16
340
16
340
16
340
34E
340
16
340
16
340
34D
340
34D
340
16
340
16
340
16
340
16
340
34C
340
16
340
16
340
16
340
34E
340
16
340
16
340
34D
340
34D
340
16
340
398
340
16
340
16
340
16
340
16
340
16
340
34C
340
16
340
16
340
16
340
15
340
15
340
15
340
15
340
15
340
15
340
15
340
15
340
15
340
39E
340
15
340
15
340
15
340
15
340
15
340
15
340
16
340
15
340
15
340
15
340
15
340
15
340
15
340
16
340
15
340
15
340
15
340
15
340
39F
340
15
340
15
340
39E
340
15
340
15
340
15
340
15
340
15
340
15
340
15
340
15
340
39E
340
15
340
15
340
15
340
39F
340
15
340
15
340
15
340
15
340
15
340
39F
340
15
340
15
340
15
340
16
340
16
340
16
340
15
340
15
340
39E
340
15
340
15
340
15
340
15
340
15
340
15
340
39F
340
15
340
15
340
15
340
15
340
15
340
15
340
15
340
15
340
15
340
15
340
15
340
15
340
15
340
15
340
15
340
3A0
340
15
 94
        0
  0
ACAD_PROXY_OBJECT
  5
4C8
102
{ACAD_REACTORS
330
4C3
102
}
330
4C3
100
AcDbProxyObject
 90
      499
 91
      587
 71
    31
 97
       83
 70
     0
162
               434
311
451100124013401140138014C0124013C013800B00104013401100150017C00A8017C01100124013401012A00404A801012A00404A800C
161
                11
310
43EC
 94
        0
  0
ACAD_PROXY_OBJECT
  5
4C7
102
{ACAD_REACTORS
330
4C3
102
}
330
4C3
100
AcDbProxyObject
 90
      499
 91
      587
 71
    31
 97
       83
 70
     0
162
               290
311
404A8010B41004D005F004600450041002D0041004D005F002A00404A801012A00404A800C
161
                11
310
43EC
 94
        0
  0
ACAD_PROXY_OBJECT
  5
4C4
102
{ACAD_REACTORS
330
4C3
102
}
330
4C3
100
AcDbProxyObject
 90
      499
 91
      587
 71
    31
 97
       83
 70
     0
162
               194
311
4152001040150010C012001012A00404A801012A00404A800C
161
                11
310
43EC
 94
        0
  0
ACAD_PROXY_OBJECT
  5
4C5
102
{ACAD_REACTORS
330
4C3
102
}
330
4C3
100
AcDbProxyObject
 90
      499
 91
      587
 71
    31
 97
       83
 70
     0
162
              1026
311
41130012401380114012738002C0038004E002C002A002D0038002C002A002D0038004E002C0041004D005F0038002C0041004D005F0038004E002C002A002D0041004D005F0038002C002A002D0041004D005F0038004E00404A801012A00441240138014C01140148015000B0014C01500110014001040148015000C8011
311
000C
161
                11
310
43EC
 94
        0
  0
ACAD_PROXY_OBJECT
  5
4C9
102
{ACAD_REACTORS
330
4C3
102
}
330
4C3
100
AcDbProxyObject
 90
      499
 91
      587
 71
    31
 97
       83
 70
     0
162
               290
311
40D040148010C010441004D005F003500404A801013200419240138014C01140148015000C
161
                11
310
43CC
 94
        0
  0
ACAD_PROXY_OBJECT
  5
4C6
102
{ACAD_REACTORS
330
4C3
102
}
330
4C3
100
AcDbProxyObject
 90
      499
 91
      587
 71
    31
 97
       83
 70
     0
162
              2242
311
61504010C01340118010C0118014801040134011400B00104010C013401100104015001540134015001040148011C0114015000B00104010C0134011001040150015401340124011000B00104010C0134015C011401300110014C0164013400B00104010C0134014C015401480118014C0164013400B00104010C013401180
311
114010401500124011000B00104010C0134014001040148015001480114011800B00104010C01340108010401300130013C013C013800B0010401340110015001140110011C0114014C0164013400B001040134011C014C010C01480114015C010C01040130010C0150010401080130011400B00104010C013401340104014
311
8012C014C015001040134014001012A00404A801012A00404A800C
161
                11
310
43EC
 94
        0
  0
DICTIONARY
  5
3C4
330
22
100
AcDbDictionary
280
     1
281
     1
  0
DICTIONARY
  5
2DE
330
2DD
100
AcDbDictionary
280
     1
281
     1
  3
BUMPTILE
360
2E0
  3
DIFFUSETILE
360
2DF
  3
OPACITYTILE
360
2E3
  3
REFLECTIONTILE
360
2E2
  3
REFRACTIONTILE
360
2E4
  3
SPECULARTILE
360
2E1
  0
DICTIONARY
  5
2D6
330
2D5
100
AcDbDictionary
280
     1
281
     1
  3
BUMPTILE
360
2D8
  3
DIFFUSETILE
360
2D7
  3
OPACITYTILE
360
2DB
  3
REFLECTIONTILE
360
2DA
  3
REFRACTIONTILE
360
2DC
  3
SPECULARTILE
360
2D9
  0
DICTIONARY
  5
2E6
330
2E5
100
AcDbDictionary
280
     1
281
     1
  3
BUMPTILE
360
2E8
  3
DIFFUSETILE
360
2E7
  3
OPACITYTILE
360
2EB
  3
REFLECTIONTILE
360
2EA
  3
REFRACTIONTILE
360
2EC
  3
SPECULARTILE
360
2E9
  0
DICTIONARY
  5
4B5
330
4B4
100
AcDbDictionary
280
     1
281
     1
  3
ACAD_FIELD
360
4B6
  0
DICTIONARY
  5
626
330
2F1
100
AcDbDictionary
280
     1
281
     1
  3
ACAD_ROUNDTRIP_2008_TABLESTYLE_CELLSTYLEMAP
360
627
  0
ACAD_PROXY_OBJECT
  5
381
102
{ACAD_REACTORS
330
380
102
}
330
380
100
AcDbProxyObject
 90
      499
 91
      558
 71
    31
 97
       83
 70
     0
162
              3734
311
411040138014C01240243904018C01B4014C01D401C801980150019401E001D0014C01D001900109410063006D0046004300460053007400640043504018C01B4015C019401B0019001A401B8019C014C01D001900108410063006D004900640053007400640042D04018C01B40110018401D001D401B4014C01D001900109
311
410063006D0042004F004D005300740064004410401B4019001D00110019401D0018401A401B0014C01E401B4014C01D00190011141006D0064007400530065006300740069006F006E00530079006D005300740064004450401B4019001D0010C019401B801D0019401C8013001A401B80194014C01D00190011141006D00
311
640074005400680072006500610064004C0069006E00650053007400640042D0401B4019001D0013801BC01D00194014C01D00190010B410063006D00540061007000650072005300740064004350401B4019001D0010401B8015801A4019401DC014C01D00190010B4100630041006D0067004C0061007900530074006400
311
42D04018C010401B4019C011001A401B4014C01D0019001114100630041006D00670048006F006C0065004300680061007200740053007400640043504018C010401B4019C015001A401D001B00194014C01D0019000
161
               725
310
734B81E85EB51B8BE3F8000000C00040540623000030C0200000030000B81E85EB51B8BE3F495222812028120281202812028120281202812048120481202812028120281202812028120281202812028120280A04809FFFE7FFFC
340
11
360
382
360
383
360
384
360
385
360
386
360
387
360
388
360
4AD
360
389
360
4AC
360
38A
360
38B
360
38C
360
38D
360
38E
360
38F
360
390
360
3AA
360
3AB
340
391
340
0
340
15
340
15
 94
        0
  0
ACAD_PROXY_OBJECT
  5
31C
102
{ACAD_REACTORS
330
31B
102
}
330
31B
100
AcDbProxyObject
 90
      499
 91
      511
 71
    31
 97
       83
 70
     0
162
              4140
311
42D10015C011C014C01140150015001240138011C014C0109430041004E00470041005200520041005900420CC00C001F000D000D401F000D800C00106430045004E0041004E004700424D000D401F000E400C001F000C400CC00D40106430045004E0044004900410041D0C01140138011001240104014C010B30002E0035
311
007C0031002E0030007C0031002E00350041D0C0114013801100124014C01500106430045004E004C0045004E004190C01140138013C01180118010E4300480041004D00460045005200440049004D004D004F00440045004550C0120010401340118011401480110012401340134013C01100114011001140118010401540
311
1300150010943004C0049004E0041005200520041005900438C000B800C400C800D401F000C000B800C800D401F000C000B800D4010843004C0049004E004500540059005000415600130012401380114010944005700470055005300430041004C00450041D300104014C0150013C0108012801013000421340104012C011
311
4015801240114015C010650005300430041004C00450041948011401580124014C0124010130004154C010C010401300114010331003A00310042550012401340114014C01500104013401400107560045005200530049004F004E00414C400D400B800C000C001107B00440057004700530045005400540049004E0047005
311
30045004E0044007D00C
161
               572
310
40682A0A940000000000001C07E82A50000000000000601FA50000000000000701FA50000000000000701FA7F27F20A82A50A0A9FA040C008000105415281856D9E4AE8DDCD0505C
 94
        0
  0
ACAD_PROXY_OBJECT
  5
31D
102
{ACAD_REACTORS
330
31B
102
}
330
31B
100
AcDbProxyObject
 90
      499
 91
      511
 71
    31
 97
       83
 70
     0
162
              1382
311
43550014801040138014C014C01140150015001240138011C014C0112440052004100570049004E0047005400520041004E0053004C004100540049004F004E004353C01480124011C012401380104013001300164017C013C0138010A53004F0055005200430045004C0041004E00470040D1401380154010955005000520
311
0450053004500520056004500441EC0110015C011C014C01140150015001240138011C014C01140138011001F400
161
               126
310
4060C00800041801000020A0C0080000
 94
        0
  0
XRECORD
  5
2E0
102
{ACAD_REACTORS
330
2DE
102
}
330
2DE
100
AcDbXrecord
280
     1
270
     1
271
     1
  0
XRECORD
  5
2DF
102
{ACAD_REACTORS
330
2DE
102
}
330
2DE
100
AcDbXrecord
280
     1
270
     1
271
     1
  0
XRECORD
  5
2E3
102
{ACAD_REACTORS
330
2DE
102
}
330
2DE
100
AcDbXrecord
280
     1
270
     1
271
     1
  0
XRECORD
  5
2E2
102
{ACAD_REACTORS
330
2DE
102
}
330
2DE
100
AcDbXrecord
280
     1
270
     1
271
     1
  0
XRECORD
  5
2E4
102
{ACAD_REACTORS
330
2DE
102
}
330
2DE
100
AcDbXrecord
280
     1
270
     1
271
     1
  0
XRECORD
  5
2E1
102
{ACAD_REACTORS
330
2DE
102
}
330
2DE
100
AcDbXrecord
280
     1
270
     1
271
     1
  0
XRECORD
  5
2D8
102
{ACAD_REACTORS
330
2D6
102
}
330
2D6
100
AcDbXrecord
280
     1
270
     1
271
     1
  0
XRECORD
  5
2D7
102
{ACAD_REACTORS
330
2D6
102
}
330
2D6
100
AcDbXrecord
280
     1
270
     1
271
     1
  0
XRECORD
  5
2DB
102
{ACAD_REACTORS
330
2D6
102
}
330
2D6
100
AcDbXrecord
280
     1
270
     1
271
     1
  0
XRECORD
  5
2DA
102
{ACAD_REACTORS
330
2D6
102
}
330
2D6
100
AcDbXrecord
280
     1
270
     1
271
     1
  0
XRECORD
  5
2DC
102
{ACAD_REACTORS
330
2D6
102
}
330
2D6
100
AcDbXrecord
280
     1
270
     1
271
     1
  0
XRECORD
  5
2D9
102
{ACAD_REACTORS
330
2D6
102
}
330
2D6
100
AcDbXrecord
280
     1
270
     1
271
     1
  0
XRECORD
  5
2E8
102
{ACAD_REACTORS
330
2E6
102
}
330
2E6
100
AcDbXrecord
280
     1
270
     1
271
     1
  0
XRECORD
  5
2E7
102
{ACAD_REACTORS
330
2E6
102
}
330
2E6
100
AcDbXrecord
280
     1
270
     1
271
     1
  0
XRECORD
  5
2EB
102
{ACAD_REACTORS
330
2E6
102
}
330
2E6
100
AcDbXrecord
280
     1
270
     1
271
     1
  0
XRECORD
  5
2EA
102
{ACAD_REACTORS
330
2E6
102
}
330
2E6
100
AcDbXrecord
280
     1
270
     1
271
     1
  0
XRECORD
  5
2EC
102
{ACAD_REACTORS
330
2E6
102
}
330
2E6
100
AcDbXrecord
280
     1
270
     1
271
     1
  0
XRECORD
  5
2E9
102
{ACAD_REACTORS
330
2E6
102
}
330
2E6
100
AcDbXrecord
280
     1
270
     1
271
     1
  0
DICTIONARY
  5
4B6
102
{ACAD_REACTORS
330
4B5
102
}
330
4B5
100
AcDbDictionary
280
     1
281
     1
  3
TEXT
360
4B7
  0
CELLSTYLEMAP
  5
627
102
{ACAD_REACTORS
330
626
102
}
330
626
100
AcDbCellStyleMap
 90
        3
300
CELLSTYLE
  1
TABLEFORMAT_BEGIN
 90
        5
170
     1
 91
        0
 92
    32768
 62
   257
 93
        1
300
CONTENTFORMAT
  1
CONTENTFORMAT_BEGIN
 90
        0
 91
        0
 92
      512
 93
        0
300

 40
0.0
140
1.0
 94
        5
 62
     0
340
11
144
0.25
309
CONTENTFORMAT_END
171
     0
 94
        0
309
TABLEFORMAT_END
  1
CELLSTYLE_BEGIN
 90
        1
 91
        1
300
_TITLE
309
CELLSTYLE_END
300
CELLSTYLE
  1
TABLEFORMAT_BEGIN
 90
        5
170
     1
 91
        0
 92
        0
 62
   257
 93
        1
300
CONTENTFORMAT
  1
CONTENTFORMAT_BEGIN
 90
        0
 91
        0
 92
      512
 93
        0
300

 40
0.0
140
1.0
 94
        5
 62
     0
340
11
144
0.18
309
CONTENTFORMAT_END
171
     0
 94
        0
309
TABLEFORMAT_END
  1
CELLSTYLE_BEGIN
 90
        2
 91
        1
300
_HEADER
309
CELLSTYLE_END
300
CELLSTYLE
  1
TABLEFORMAT_BEGIN
 90
        5
170
     1
 91
        0
 92
        0
 62
   257
 93
        1
300
CONTENTFORMAT
  1
CONTENTFORMAT_BEGIN
 90
        0
 91
        0
 92
      512
 93
        0
300

 40
0.0
140
1.0
 94
        2
 62
     0
340
11
144
0.18
309
CONTENTFORMAT_END
171
     0
 94
        0
309
TABLEFORMAT_END
  1
CELLSTYLE_BEGIN
 90
        3
 91
        2
300
_DATA
309
CELLSTYLE_END
  0
ACAD_PROXY_OBJECT
  5
382
330
381
100
AcDbProxyObject
 90
      499
 91
      559
 71
    31
 97
       83
 70
     0
162
                 0
161
               493
310
734B81E85EB51B8BE3F2E07A17AD46E2F8FE23000030C02000000300012AF841D01405014050140501083C80A0481A0882A0D55554000000000000785FA4
 94
        0
  0
ACAD_PROXY_OBJECT
  5
383
330
381
100
AcDbProxyObject
 90
      499
 91
      560
 71
    31
 97
       83
 70
     0
162
                 0
161
               645
310
734B81E85EB51B8BE3F2E07A17AD46E2F8FE23000030C02000000300012AFA1C80A0280A0280A0280A0280A0280A0280A0284A0280A0280A0280A0280A024000000000000000805C0F42F5A8DC5F1FD214
340
3AD
 94
        0
  0
ACAD_PROXY_OBJECT
  5
384
330
381
100
AcDbProxyObject
 90
      499
 91
      561
 71
    31
 97
       83
 70
     0
162
                 0
161
               780
310
734B81E85EB51B8BE3F2E07A17AD46E2F8FE23000030C02000000300012AF98333333333333D33F24080A0280A0280A0280A0280A0280A0280A0280A0280A0280A0280A0280A0280A0280A0280A0280A020D0CCCCCCCCCFCCFC3BDF4F8D976EA23FC
340
0
 94
        0
  0
ACAD_PROXY_OBJECT
  5
385
330
381
100
AcDbProxyObject
 90
      499
 91
      562
 71
    31
 97
       83
 70
     0
162
                 0
161
               315
310
734B81E85EB51B8BE3F2E07A17AD46E2F8FE23000030C02000000300012AFC0000000000003C2FCC
340
0
 94
        0
  0
ACAD_PROXY_OBJECT
  5
386
330
381
100
AcDbProxyObject
 90
      499
 91
      563
 71
    31
 97
       83
 70
     0
162
                 0
161
               493
310
734B81E85EB51B8BE3F2E07A17AD46E2F8FE23000030C02000000300012AFC521D4454FB21E93F26A6666666666E4FE89A9999999999B93F88C0000C3004
340
3AE
340
3AF
 94
        0
  0
ACAD_PROXY_OBJECT
  5
387
330
381
100
AcDbProxyObject
 90
      499
 91
      564
 71
    31
 97
       83
 70
     0
162
             23548
311
4112401500114013401044900540045004D004CD1C01140138015001480104010C013C00B001140138015400B000C000B0012401500114013400B0011C011401380150014801040150016000B0009401CC00B000A0011C011401380134014C011C0080019C019401B8019001DC019C008000C800C800C800A4029035100540
311
0590040D44015001640132470045004E0054005200410043004F002C0045004E0055002C0030002C005100540059002C00470045004E00540052004100540058002C00250073002C002800470045004E004D00530047002000670065006E0064007700670020003200320033002900A4113801040134011401044E0041004D
311
0045004CD1C01140138015001480104010C013C00B001140138015400B000C000B0013801040134011400B0011C011401380150014801040150016000B0009401CC00B000A0011C011401380134014C011C0080019C019401B8019001DC019C008000C800C800D800A4012C3D004900460028004900530042004C0041004E0
311
04B00280050004100520054003A004E0041004D00450029002C0042004C004F0043004B003A004E0041004D0045002C0050004100520054003A004E0041004D00450029009054400450053004300520042D100114014C010C01480124014001500124013C0138013A470045004E0054005200410043004F002C0045004E005
311
5002C0030002C004400450053004300520049005000540049004F004E002C00470045004E00540052004100540058002C00250073002C002800470045004E004D00530047002000670065006E0064007700670020003200310037002900A4214C015001040138011001040148011001085300540041004E004400410052004
311
4004DD1C01140138015001480104010C013C00B001140138015400B000C000B0014C015001040138011001040148011000B0011C011401380150014801040150016000B0009401CC00B000A0011C011401380134014C011C0080019C019401B8019001DC019C008000C800C400E000A4029084D00410054004500520049004
311
1004C004213401040150011401480124010401300137470045004E0054005200410043004F002C0045004E0055002C0030002C004D004100540045005200490041004C002C00470045004E00540052004100540058002C00250073002C002800470045004E004D00530047002000670065006E006400770067002000320032
311
0031002900A41138013C0150011401044E004F00540045004CD1C01140138015001480104010C013C00B001140138015400B000C000B00138013C0150011400B0011C011401380150014801040150016000B0009401CC00B000A0011C011401380134014C011C0080019C019401B8019001DC019C008000C800C800D400A40
311
2906560045004E0044004F00520041958011401380110013C01480135470045004E0054005200410043004F002C0045004E0055002C0030002C00560045004E0044004F0052002C00470045004E00540052004100540058002C00250073002C002800470045004E004D00530047002000670065006E0064007700670020003
311
200320034002900A419100114014C010C014800C8010D4400450053004300520049005000540049004F004E00200032004ED1C01140138015001480104010C013C00B001140138015400B000C000B001100114014C010C01480124014001500124013C0138008000C800B0011C011401380150014801040150016000B00094
311
01CC00B000A0011C011401380134014C011C0080019C019401B8019001DC019C008000CC00D800A4029095300540041004E00440041005200440032004294C0150010401380110010401480110008000C80139470045004E0054005200410043004F002C0045004E0055002C0030002C005300540041004E00440041005200
311
4400200032002C00470045004E00540052004100540058002C00250073002C002800470045004E004D00530047002000670065006E0064007700670020003200320030002900A42534010401500114014801240104013000C8010A4D004100540045005200490041004C00200032004E11C01140138015001480104010C013
311
C00B001140138015400B000C000B001340104015001140148012401040130008000C800B0011C011401380150014801040150016000B0009401CC00B000A0011C011401380134014C011C0080019C019401B8019001DC019C008000D000C000A4029044D00410053005300411340104014C014C0132470045004E005400520
311
0410043004F002C0045004E0055002C0030002C004D004100530053002C00470045004E00540052004100540058002C00250073002C002800470045004E004D00530047002000670065006E006400770067002000340032002900A4154001480124010C01140105500052004900430045004CD1C0114013801500148010401
311
0C013C00B001140138015400B000C000B0014001480124010C011400B0011C011401380150014801040150016000B0009401CC00B000A0011C011401380134014C011C0080019C019401B8019001DC019C008000D000CC00A402903440049004D0042D3401140104014C01540148011401340114013801500139470045004E
311
0054005200410043004F002C0045004E0055002C0030002C004D004500410053005500520045004D0045004E0054002C00470045004E00540052004100540058002C00250073002C002800470045004E004D00530047002000670065006E006400770067002000340034002900A42508013C0134017C015401380124015001
311
4C010555004E004900540053004D11C01140138015001480104010C013C00B001140138015400B000C000B00154013801240150014C00B0011C011401380150014801040150016000B0009401CC00B000A0011C011401380134014C011C0080019C019401B8019001DC019C008000C800D000CC00A4029073D003C00490054
311
0045004D003E0041CF400F0012401500114013400F801073D003C004900540045004D003E0041CF400F0012401500114013400F801073D003C004900540045004D003E00418F400F001440150016400F801073D003C004900540045004D003E0041CF400F0012401500114013400F802AAA404C40242D94018400240194018
311
4002401140184018C01A000280115730071006D000900730071006D00090053007100750061007200650020004D0065007400650072000A00471CC01C4018C01B4002401CC01C4018C01B40024014C01C401D4018401C801940080010C019401B801D001A401B4019401D0019401C800280116730071006600740009007300
311
7100660074000900530071007500610072006500200046006F006F0074000A00451CC01C401A401B8002401CC01C401A401B80024014C01C401D4018401C801940080012401B80028010F670061006C000900670061006C000900470061006C006C006F006E000A00431C401D0002401C401D00024014401D4018401C801D0
311
0028011B6C00710064005F006F007A0009006C00710064005F006F007A0009004C006900710075006900640020004F0075006E00630065000A00429B0002401B00024013001A401D0019401C8002801116D006C0009006D006C0009004D0069006C006C0069006C0069007400650072000A0042DE40190002401E401900024
311
0164018401C801900028010B66007400090066007400090046006F006F0074000A0042DA401B8002401A401B80024012401B8018C01A00028010A6D0009006D0009004D0065007400650072000A004458C01B40024018C01B40024010C019401B801D001A401B4019401D0019401C8002801116D006D0009006D006D000900
311
4D0069006C006C0069006D0065007400650072000A00431B00188002401B001880024014001BC01D401B801900028010C6F007A0009006F007A0009004F0075006E00630065000A004259C0024019C0024011C01C8018401B4002801106D00670009006D00670009004D0069006C006C0069006700720061006D000A004298
311
801E00024018801E00024010801BC01E0002801012D00C
161
              6487
310
734B81E85EB51B8BE3F2E07A17AD46E2F8FE23000030C02000000300012AFA1E80A0280A0280A0280D202269349E4B2196C9FA0320240501405014090140501405019011349A4F2590CB64FD0190120280A0280A3880C80C815174B85D2F97CA048080C80901405014051D40640640E883C16030180C064040440480A0280A
310
028EA0320320947077FBFDFEBF7F9FA02202405014050147501901905A0A0B6C1C7480BECFD0190120280A0280A3A80C80C835174B85D2F97CBE47E80C80901405014051D40640641E8BA5C2E97CBE5F23F40640480A0280A028EA03203211441E0B0180C060320202202405014050147501901909A383BFDFEFF5FBFCFD01
310
10120280A0280A3A80C80C8550505B60E3A405F67E80880901405014051D405024050242D03408BA5C2E97CBE5F23F40440480A0280A028EA028120281218812045D2E174BE5F2F91FA02202405014050147501409014090D40D022E970BA5F2F97C8FD0190120280A0280A3C80C80C875174B85D2F97CBE47E80C80901405
310
0F4A9022E07A17AD46E338FE07800030C0001018ACD56AB55AADF63F2B355AAD56AB7D8FD014062B355AAD56AB7D8FCACD56AB55AADF63F40501890C7E3F1783CEE3F2431F8FC5E0F3B8FD014062431F8FC5E0F3B8FC90C7E3F1783CEE3F405029012B355AAD56AB7D8FCACD56AB55AADF63F405014062B355AAD56AB7D8FC
310
ACD56AB55AADF63F4050184D2693C96432E93F1349A4F2590CBA4FD0140400ACD56AB55AADF63F2B355AAD56AB7D8FE90800000000000020810000001800169FFFE8220681A048120280A20852108820321480C8452028521485214814000000000000F0BF0000000000003C2FD0188C0000C3008070000C3003673BDD4F8E
310
96ACFCD9CEF753E3A5AB3F3673BDD4F8E96ACFCAAF1D24D6210A83F0EF7D3E365DBA48FCAAF1D24D6210A83F3673BDD4F8E96ACFCAAF1D24D6210A83F0EF7D3E365DBA48FCAAF1D24D6210A83F2E07A17AD46E2F8FE80A028120D2028120A83A0C80D2E07A17AD46E2F8FE23000030C0223000030C0200400030C00A45102F
310
E7FFF9FFFE7FFF901405014550140501405014050140501405014050140501405014050140501901A0C8120A8320E86A1C
340
15
340
0
340
11
340
11
340
16
340
16
340
16
 94
        0
  0
ACAD_PROXY_OBJECT
  5
388
330
381
100
AcDbProxyObject
 90
      499
 91
      565
 71
    31
 97
       83
 70
     0
162
                 0
161
               255
310
734B81E85EB51B8CE3F2E07A17AD46E338FE07800030C020000003000123CA3A
340
4AE
 94
        0
  0
ACAD_PROXY_OBJECT
  5
4AD
330
381
100
AcDbProxyObject
 90
      499
 91
      584
 71
    31
 97
       83
 70
     0
162
                 0
161
               247
310
734B81E85EB51B8CE3F2E07A17AD46E338FE00000030002000000300012A04
340
499
 94
        0
  0
ACAD_PROXY_OBJECT
  5
389
330
381
100
AcDbProxyObject
 90
      499
 91
      566
 71
    31
 97
       83
 70
     0
162
                 0
161
               279
310
734B81E85EB51B8CE3F2E07A17AD46E338FE07800030C0201C00030C012AE01E080000
340
4B4
 94
        0
  0
ACAD_PROXY_OBJECT
  5
4AC
330
381
100
AcDbProxyObject
 90
      499
 91
      583
 71
    31
 97
       83
 70
     0
162
                 0
161
               247
310
734B81E85EB51B8CE3F2E07A17AD46E338FE00000030002000000300012A04
340
497
 94
        0
  0
ACAD_PROXY_OBJECT
  5
38A
330
381
100
AcDbProxyObject
 90
      499
 91
      567
 71
    31
 97
       83
 70
     0
162
                 0
161
               516
310
734B81E85EB51B8BE3F2E07A17AD46E2F8FE23000030C02000000300012AF8570E2DB39DEF867E14AE47E17A945E1F852B91F85EA51787F4333333333333F33FBC
 94
        0
  0
ACAD_PROXY_OBJECT
  5
38B
330
381
100
AcDbProxyObject
 90
      499
 91
      568
 71
    31
 97
       83
 70
     0
162
                 0
161
               249
310
734B81E85EB51B8BE3F2E07A17AD46E2F8FE23000030C02000000300012AFCCC
340
0
 94
        0
  0
ACAD_PROXY_OBJECT
  5
38C
330
381
100
AcDbProxyObject
 90
      499
 91
      569
 71
    31
 97
       83
 70
     0
162
             13376
311
42950019401B401C001B0018401D00194008000C40005013D003C0069006600280065007100750061006C00280048006F006C0065003A007400610070007000650064002C0022003000220029002C00220025002500630022002C0048006F006C0065003A006E006F006D0069006E0061006C0020002200200022002000690
311
06600280065007100750061006C00280048006F006C0065003A0075006E006900740073002C0022003100220029002C002200780022002C0022002D0022002900200022002000220029003E003C0069006600280065007100750061006C00280048006F006C0065003A007400610070007000650064002C002200300022002
311
9002C0048006F006C0065003A006400690061002C0048006F006C0065003A0070006900740063006800640065007300630029003E0020007B005C00460041004D004700440054003B0078007D0020003C0069006600280065007100750061006C00280048006F006C0065003A007400650072006D0069006E0061007400690
311
06F006E002C0022003000220029002C0048006F006C0065003A00640065007000740068002C0022005400480052005500220029003E005C0050007B005C00460041004D004700440054003B0076007D002500250063003C0048006F006C0065003A00630074006400690061003E0020007B005C00460041004D00470044005
311
4003B0078007D0020003C0048006F006C0065003A0063007400640065007000740068003E0042950019401B401C001B0018401D00194008000C401FE3D003C0069006600280065007100750061006C00280048006F006C0065003A007400610070007000650064002C0022003000220029002C00220025002500630022002C
311
0048006F006C0065003A006E006F006D0069006E0061006C002000220020002200200069006600280065007100750061006C00280048006F006C0065003A0075006E006900740073002C0022003100220029002C002200780022002C0022002D0022002900200022002000220029003E003C00690066002800650071007500
311
61006C00280048006F006C0065003A007400610070007000650064002C0022003000220029002C0048006F006C0065003A006400690061002C0048006F006C0065003A0070006900740063006800640065007300630029003E0020007B005C00460041004D004700440054003B0078007D0020003C00690066002800650071
311
00750061006C00280048006F006C0065003A007400650072006D0069006E006100740069006F006E002C0022003000220029002C0048006F006C0065003A00640065007000740068002C0022005400480052005500220029003E005C0050007B005C00460041004D004700440054003B0077007D002500250063003C004800
311
6F006C0065003A00630074006400690061003E002000580020003C0048006F006C0065003A006300740061006E0067006C0065003E0025002500640042950019401B401C001B0018401D00194008000C401CF3D003C0069006600280065007100750061006C00280048006F006C0065003A007400610070007000650064002
311
C0022003000220029002C00220025002500630022002C0048006F006C0065003A006E006F006D0069006E0061006C002000220020002200200069006600280065007100750061006C00280048006F006C0065003A0075006E006900740073002C0022003100220029002C002200780022002C0022002D00220029002000220
311
02000220029003E003C0069006600280065007100750061006C00280048006F006C0065003A007400610070007000650064002C0022003000220029002C0048006F006C0065003A006400690061002C0048006F006C0065003A0070006900740063006800640065007300630029003E005C0050007B005C00460041004D004
311
700440054003B0078007D0020003C0069006600280065007100750061006C00280048006F006C0065003A007400650072006D0069006E006100740069006F006E002C0022003000220029002C0048006F006C0065003A00640065007000740068002C0022005400480052005500220029003E0042950019401B401C001B001
311
8401D00194008000C801173D003C0053005400440050003A0044004500530043003E0020003C0053005400440050003A005300540044003E0042950019401B401C001B0018401D00194008000C4010C3D003C0053005400440050003A0044004500530043003E0042950019401B401C001B0018401D00194008000CC010B3D
311
003C0053005400440050003A005300540044003E0000
161
               667
310
734B81E85EB51B8BE3F2E07A17AD46E2F8FE23000030C02000000300012AFA1080A17480A15480A0480A0280E9014050340501407480A0280A0280A03A405014790340501D20280A901405481A028AD556DEA06C
360
3B4
330
3B4
360
3B5
330
3B5
360
3B3
330
3B3
360
3B1
360
3B0
360
3B2
330
3B1
330
3B0
330
3B2
 94
        0
  0
ACAD_PROXY_OBJECT
  5
38D
330
381
100
AcDbProxyObject
 90
      499
 91
      570
 71
    31
 97
       83
 70
     0
162
                26
311
404E800C
161
               305
310
734B81E85EB51B8BE3F2E07A17AD46E2F8FE23000030C02000000300012AFA1680A0280D55554C
 94
        0
  0
ACAD_PROXY_OBJECT
  5
38E
330
381
100
AcDbProxyObject
 90
      499
 91
      571
 71
    31
 97
       83
 70
     0
162
              1098
311
510F400F0014C015001480154010C015000E8010C013C01340140017C013801040134011400F8008000F0014C015001480154010C015000E8015801240114015C017C013801040134011400F80080015801240114015C01700140014C010C010401300114008000F0014C015001480154010C015000E8014C0158017C014C0
311
10C01040130011400F800C
161
               332
310
734B81E85EB51B8CE3F2E07A17AD46E2F8FE07800030C02000000300012AFA02808000000000001D07FC
340
11
 94
        0
  0
ACAD_PROXY_OBJECT
  5
38F
330
381
100
AcDbProxyObject
 90
      499
 91
      572
 71
    31
 97
       83
 70
     0
162
                 0
161
               261
310
734B81E85EB51B8BE3F2E07A17AD46E2F8FE23000030C02000000300012AFA0754
340
394
 94
        0
  0
ACAD_PROXY_OBJECT
  5
390
330
381
100
AcDbProxyObject
 90
      499
 91
      573
 71
    31
 97
       83
 70
     0
162
               142
311
408F000F801023C003E0040DB0018C00CC00
161
               408
310
734B81E85EB51B8BE3F2E07A17AD46E2F8FE23000030C02000000300012AFA08000000000000701F8000000000001C07E7FFFC00
340
391
340
0
340
0
340
3A1
340
3A2
340
0
340
3A3
340
3A4
340
3A9
340
0
340
3A2
340
0
 94
        0
  0
ACAD_PROXY_OBJECT
  5
3AA
330
381
100
AcDbProxyObject
 90
      499
 91
      575
 71
    31
 97
       83
 70
     0
162
             20912
311
44D300124014C01500080013C01180080010C013C013C0148011001240138010401500114014C0142470045004E0054005200410043004F002C0045004E0055002C0030002C004C0049005300540020004F004600200043004F004F005200440049004E0041005400450053002C00470045004E00540052004100540058002
311
C00250073002C002800470045004E004D00530047002000670065006E00640069006D007A00200033003000290043CF400F0011001940198018401D401B001D0015001A401D001B0019400F8010A48004F004C00450020005400410042004C0045004E51C01140138015001480104010C013C00B001140138015400B000C00
311
0B00120013C0130011400800150010401080130011400B0011C011401380150014801040150016000B0009401CC00B000A0011C011401380134014C011C0080019C019401B8019001A401B401E8008000CC00C400A4010F3D003C00440065006600610075006C0074005400690074006C0065003E004193C01480124011C01
311
2401380134470045004E0054005200410043004F002C0045004E0055002C0030002C004F0052004900470049004E002C00470045004E00540052004100540058002C00250073002C002800470045004E004D00530047002000670065006E00640069006D007A002000310029004193C01480124011C0124013801344700450
311
04E0054005200410043004F002C0045004E0055002C0030002C004F0052004900470049004E002C00470045004E00540052004100540058002C00250073002C002800470045004E004D00530047002000670065006E00640069006D007A0020003100290041120013C013001140132470045004E0054005200410043004F00
311
2C0045004E0055002C0030002C0048004F004C0045002C00470045004E00540052004100540058002C00250073002C002800470045004E004D00530047002000670065006E00640069006D007A00200032002900538F400F00124011800A00124014C0108013001040138012C00A0012001BC01B00194012401D0019401B40
311
0A400B0013C01C801A4019C01A401B800B00080012001BC01B00194012401D0019401B400A400F800F00124011800A00124014C0108013001040138012C00A0012001BC01B00194012401D0019401B400A400B00088008800B00080012001BC01B00194012401B80190019401E000A400F8010158004BD1C01140138015001
311
480104010C013C00B001140138015400B000C000B0016000B0011C011401380150014801040150016000B0009401CC00B000A0011C011401380134014C011C0080019C019401B8019001A401B401E8008000CC00A4010159004BD1C01140138015001480104010C013C00B001140138015400B000C000B0016400B0011C011
311
401380150014801040150016000B0009401CC00B000A0011C011401380134014C011C0080019C019401B8019001A401B401E8008000D000A4010152004BD1C01140138015001480104010C013C00B001140138015400B000C000B0014800B0011C011401380150014801040150016000B0009401CC00B000A0011C01140138
311
0134014C011C0080019C019401B8019001A401B401E8008000D800A401187B005C004600530059004D0042004F004C007C00420030007C00490030007C00430032007C00500030003B004A007D005191C01140138015001480104010C013C00B001140138015400B000C000B001EC01700118014C016401340108013C01300
311
1F0010800C001F0012400C001F0010C00C801F0014000C000EC012801F400B0011C011401380150014801040150016000B0009401CC00B000A0011C011401380134014C011C0080019C019401B8019001A401B401E8008000DC00A401032500250043004C51C01140138015001480104010C013C00B001140138015400B000
311
C000B000940094010C00B0011C011401380150014801040150016000B0009401CC00B000A0011C011401380134014C011C0080019C019401B8019001A401B401E8008000E000A4010B4400450053004300520049005000540049004F004E004E91C01140138015001480104010C013C00B001140138015400B000C000B0011
311
00114014C010C01480124014001500124013C013800B0011C011401380150014801040150016000B0009401CC00B000A0011C011401380134014C011C0080019C019401B8019001A401B401E8008000C800C000A401044900540045004D004CD1C01140138015001480104010C013C00B001140138015400B000C000B00124
311
01500114013400B0011C011401380150014801040150016000B0009401CC00B000A0011C011401380134014C011C0080019C019401B8019001A401B401E8008000C400D000A4010549004E004400450058004D11C01140138015001480104010C013C00B001140138015400B000C000B00124013801100114016000B0011C0
311
11401380150014801040150016000B0009401CC00B000A0011C011401380134014C011C0080019C019401B8019001A401B401E8008000C400D400A4010448004F004C0045004CD1C01140138015001480104010C013C00B001140138015400B000C000B00120013C0130011400B0011C011401380150014801040150016000
311
B0009401CC00B000A0011C011401380134014C011C0080019C019401B8019001A401B401E8008000C400D800A4010A48004F004C004500200049004E004400450058004E51C01140138015001480104010C013C00B001140138015400B000C000B00120013C0130011400800124013801100114016000B0011C01140138015
311
0014801040150016000B0009401CC00B000A0011C011401380134014C011C0080019C019401B8019001A401B401E8008000C400DC00A40109550053004500520020004900540045004D004E11C01140138015001480104010C013C00B001140138015400B000C000B00154014C011401480080012401500114013400B0011C
311
011401380150014801040150016000B0009401CC00B000A0011C011401380134014C011C0080019C019401B8019001A401B401E8008000C800C800A401035100540059004C91C01140138015001480104010C013C00B001140138015400B000C000B001440150016400B0011C011401380150014801040150016000B000940
311
1CC00B000A0011C011401380134014C011C0080019C019401B8019001A401B401E8008000C400E400A401085300540041004E0044004100520044004DD1C01140138015001480104010C013C00B001140138015400B000C000B0014C015001040138011001040148011000B0011C011401380150014801040150016000B000
311
9401CC00B000A0011C011401380134014C011C0080019C019401B8019001A401B401E8008000C800C400A4014E3D003C004900460028004900530042004C0041004E004B00280048006F006C0065004900740065006D0029002C004F0072006900670069006E002C00200048006F006C0065004900740065006D0029003E00
311
3C004900460028004900530042004C0041004E004B00280048006F006C0065004900740065006D0029002C00220022002C00200048006F006C00650049006E0064006500780029003E00CC
161
              7105
310
734B81E85EB51B8BE3F2E07A17AD46E2F8FE23000030C02000000300012AFA46347FFFFFFFA020600005C0F42F5A8DC5F1FC46000061806808180001703D0BD6A3717C7F118000186018080F0201800000000000000000000000000000000F6295C8FC2F5487E5C0F42F5A8DC5F1FC46000061800F6295C8FC2F5487E5C0F4
310
2F5A8DC5F1FC4600006180403F8080F0201800000000000000000000000000000000F6295C8FC2F5487E5C0F42F5A8DC5F1FC46000061800F6295C8FC2F5487E5C0F42F5A8DC5F1FC4600006180403FA1C8821E88A0481A0882A0E862028722489A2A82A2483A288621A880000808000808200110A000101000101040021F4
310
0002020202020800446800040400040400008150000808000808000103A0001010001010000209400020200020206004168000404000404040083D000080800080020010CA0001010001010500A0340002020002020A0143A800040400040410008950000808000808280113A000101000101050022B40002020002020C004
310
528000404000400100086D22000CFFFFFFFF0026A6666666667A4FE7FFFFFFF819353333333333D27F3FFFFFFFC049A9999999999E93F9FFFFFFFE024D4CCCCCCCCCF49FCFFFFFFFF0226A6666666667A4FE7FFFFFFF811353333333333D27F3FFFFFFFC0D9FFFFFFFE0600000000000000204FFFFFFFF0026A66666666676
310
4FE7FFFFFFF801353333333333D27F3FFFFFFFC009A9999999999E93F9FFFFFFFE004D4CCCCCCCCCF49FCFFFFFFFF0026A6666666667A4FE7FFFFFFF819703D0BD6A371BC7F3FFFFFFFC0C67666666666606409FFFFFFFE880033FFFFFFFC009A9999999999E93F9FFFFFFFE064D4CCCCCCCCCF49FCFFFFFFFF0326A666666
310
6667A4FE7FFFFFFF819353333333333D27F3FFFFFFFC0C9A9999999999E93F9FFFFFFFE064D4CCCCCCCCCF49FCFFFFFFFF0367FFFFFFF81800000000000000813FFFFFFFC009A9999999999D93F9FFFFFFFE004D4CCCCCCCCCF49FCFFFFFFFF0326A6666666667A4FE7FFFFFFF801353333333333D27F3FFFFFFFC009A9999
310
999999E93F9FFFFFFFE065C0F42F5A8DC6F1FCFFFFFFFF0319D999999999819027FFFFFFFA088800000021E000000890000002260000008220E00020089000000206000200810000801FFFFFFFE812020002822200000008780000022400000089800000206000082220000000878000002240000008A8000001FFFFFFFF4C
340
0
340
0
340
0
340
0
340
11
340
11
 94
        0
  0
ACAD_PROXY_OBJECT
  5
3AB
330
381
100
AcDbProxyObject
 90
      499
 91
      576
 71
    31
 97
       83
 70
     0
162
             10568
311
411040138014C0124010641004E00530049005F004300429040138014C0124017C0150012401500154014C011541004E00530049005F00420052005F005200650076006900730069006F006E006C00690073007400610044104008000A000E000B800D401E000C400C400B800C001A401B8018C01A000A4010641004E00530
311
049005F00410044518008000A000C800E000B800C001E000D000C000B800C001A401B8018C01A000A4010641004E00530049005F00460044514008000A000CC00D000B800C001E000D000D000B800C001A401B8018C01A000A4010641004E00530049005F00450044510008000A000C800C800B800C001E000CC00D000B800
311
C001A401B8018C01A000A4010641004E00530049005F00440044508008000A000C400C400B800C001E000C400DC00B800C001A401B8018C01A000A4010641004E00530049005F0042004450C008000A000C400DC00B800C001E000C800C800B800C001A401B8018C01A000A4010641004E00530049005F00430044D0401B80
311
1CC01A40080015001A401D001B001940080010801B001BC018C01AC00800104010C010C41004E00530049005F005400490054004C0045004100430044D0401B801CC01A40080015001A401D001B001940080010801B001BC018C01AC00800110010C010C41004E00530049005F005400490054004C00450044004300439540
311
14C0080015001A401D001B001940080010801B001BC018C01AC010A41004E00530049005F00540049005400550053004490401B801CC01A40080015001A401D001B001940080010801B001BC018C01AC00800110010B41004E00530049005F005400490054004C00450044004490401B801CC01A40080015001A401D001B00
311
1940080010801B001BC018C01AC00800104010B41004E00530049005F005400490054004C004500410044948019401D801A401CC01A401BC01B801B001A401CC01D000800110017C01500148017C011541004E00530049005F00540052005F005200650076006900730069006F006E006C0069007300740064004494801940
311
1D801A401CC01A401BC01B801B001A401CC01D000800110017C01080148017C011541004E00530049005F00420052005F005200650076006900730069006F006E006C00690073007400640044948019401D801A401CC01A401BC01B801B001A401CC01D000800104017C01500148017C011541004E00530049005F00540052
311
005F005200650076006900730069006F006E006C00690073007400610044948019401D801A401CC01A401BC01B801B001A401CC01D000800104017C01080148017C011541004E00530049005F00420052005F005200650076006900730069006F006E006C00690073007400610044948019401D801A401CC01A401BC01B801
311
B001A401CC01D000800110017C01500130017C011541004E00530049005F0054004C005F005200650076006900730069006F006E006C00690073007400640044948019401D801A401CC01A401BC01B801B001A401CC01D000800110017C01080130017C011541004E00530049005F0042004C005F005200650076006900730
311
069006F006E006C00690073007400640044948019401D801A401CC01A401BC01B801B001A401CC01D000800104017C01500130017C011541004E00530049005F0054004C005F005200650076006900730069006F006E006C00690073007400610044948019401D801A401CC01A401BC01B801B001A401CC01D000800104017
311
C01080130017C011541004E00530049005F0042004C005F005200650076006900730069006F006E006C006900730074006100A4F
161
               498
310
734B81E85EB51B8BE3F2E07A17AD46E2F8FE23000030C02000000300012AFB2E8320A84205400000000002015900000000000000324000000000000008900C
 94
        0
  0
FIELD
  5
4B7
102
{ACAD_REACTORS
330
4B6
102
}
330
4B6
100
AcDbField
  1
_text
  2
%<\_FldIdx 0>% %<\_FldIdx 1>%-%<\_FldIdx 2>%
 90
        3
360
4B8
360
4BA
360
4BB
 97
        0
 91
       63
 92
        0
 94
        9
 95
        2
 96
        0
300

 93
        0
  7
ACFD_FIELD_VALUE
 93
        3
 90
        0
 94
        0
300

302

304
ACVALUE_END
301

 98
        0
  0
ACAD_PROXY_OBJECT
  5
3B4
330
0
100
AcDbProxyObject
 90
      499
 91
      577
 71
    31
 97
       83
 70
     0
162
              4364
311
42950019401B401C001B0018401D00194008000C40005013D003C0069006600280065007100750061006C00280048006F006C0065003A007400610070007000650064002C0022003000220029002C00220025002500630022002C0048006F006C0065003A006E006F006D0069006E0061006C0020002200200022002000690
311
06600280065007100750061006C00280048006F006C0065003A0075006E006900740073002C0022003100220029002C002200780022002C0022002D0022002900200022002000220029003E003C0069006600280065007100750061006C00280048006F006C0065003A007400610070007000650064002C002200300022002
311
9002C0048006F006C0065003A006400690061002C0048006F006C0065003A0070006900740063006800640065007300630029003E0020007B005C00460041004D004700440054003B0078007D0020003C0069006600280065007100750061006C00280048006F006C0065003A007400650072006D0069006E0061007400690
311
06F006E002C0022003000220029002C0048006F006C0065003A00640065007000740068002C0022005400480052005500220029003E005C0050007B005C00460041004D004700440054003B0076007D002500250063003C0048006F006C0065003A00630074006400690061003E0020007B005C00460041004D00470044005
311
4003B0078007D0020003C0048006F006C0065003A0063007400640065007000740068003E00C
161
                29
310
7360101C
 94
        0
  0
ACAD_PROXY_OBJECT
  5
3B5
330
0
100
AcDbProxyObject
 90
      499
 91
      577
 71
    31
 97
       83
 70
     0
162
              4244
311
42950019401B401C001B0018401D00194008000C401FE3D003C0069006600280065007100750061006C00280048006F006C0065003A007400610070007000650064002C0022003000220029002C00220025002500630022002C0048006F006C0065003A006E006F006D0069006E0061006C002000220020002200200069006
311
600280065007100750061006C00280048006F006C0065003A0075006E006900740073002C0022003100220029002C002200780022002C0022002D0022002900200022002000220029003E003C0069006600280065007100750061006C00280048006F006C0065003A007400610070007000650064002C00220030002200290
311
02C0048006F006C0065003A006400690061002C0048006F006C0065003A0070006900740063006800640065007300630029003E0020007B005C00460041004D004700440054003B0078007D0020003C0069006600280065007100750061006C00280048006F006C0065003A007400650072006D0069006E006100740069006
311
F006E002C0022003000220029002C0048006F006C0065003A00640065007000740068002C0022005400480052005500220029003E005C0050007B005C00460041004D004700440054003B0077007D002500250063003C0048006F006C0065003A00630074006400690061003E002000580020003C0048006F006C0065003A0
311
06300740061006E0067006C0065003E00250025006400C
161
                29
310
7360101C
 94
        0
  0
ACAD_PROXY_OBJECT
  5
3B3
330
0
100
AcDbProxyObject
 90
      499
 91
      577
 71
    31
 97
       83
 70
     0
162
              3492
311
42950019401B401C001B0018401D00194008000C401CF3D003C0069006600280065007100750061006C00280048006F006C0065003A007400610070007000650064002C0022003000220029002C00220025002500630022002C0048006F006C0065003A006E006F006D0069006E0061006C002000220020002200200069006
311
600280065007100750061006C00280048006F006C0065003A0075006E006900740073002C0022003100220029002C002200780022002C0022002D0022002900200022002000220029003E003C0069006600280065007100750061006C00280048006F006C0065003A007400610070007000650064002C00220030002200290
311
02C0048006F006C0065003A006400690061002C0048006F006C0065003A0070006900740063006800640065007300630029003E005C0050007B005C00460041004D004700440054003B0078007D0020003C0069006600280065007100750061006C00280048006F006C0065003A007400650072006D0069006E00610074006
311
9006F006E002C0022003000220029002C0048006F006C0065003A00640065007000740068002C0022005400480052005500220029003E00C
161
                29
310
7360101C
 94
        0
  0
ACAD_PROXY_OBJECT
  5
3B1
330
0
100
AcDbProxyObject
 90
      499
 91
      577
 71
    31
 97
       83
 70
     0
162
               548
311
42950019401B401C001B0018401D00194008000C801173D003C0053005400440050003A0044004500530043003E0020003C0053005400440050003A005300540044003E00C
161
                29
310
73601014
 94
        0
  0
ACAD_PROXY_OBJECT
  5
3B0
330
0
100
AcDbProxyObject
 90
      499
 91
      577
 71
    31
 97
       83
 70
     0
162
               372
311
42950019401B401C001B0018401D00194008000C4010C3D003C0053005400440050003A0044004500530043003E00C
161
                29
310
7360101C
 94
        0
  0
ACAD_PROXY_OBJECT
  5
3B2
330
0
100
AcDbProxyObject
 90
      499
 91
      577
 71
    31
 97
       83
 70
     0
162
               356
311
42950019401B401C001B0018401D00194008000CC010B3D003C0053005400440050003A005300540044003E00C
161
                29
310
73601014
 94
        0
  0
FIELD
  5
4B8
330
4B7
100
AcDbField
  1
AcVar
  2
\AcVar ViewType \f "%tc1"
 90
        0
 97
        0
 91
       63
 92
        0
 94
       43
 95
        2
 96
        0
300

 93
        1
  6
Variable
 93
        2
 90
        4
  1
ViewType
 94
        0
300

302

304
ACVALUE_END
  7
ACFD_FIELD_VALUE
 93
        1
 90
        0
 94
        0
300
%tc1
302

304
ACVALUE_END
301
----
 98
        4
  0
FIELD
  5
4BA
330
4B7
100
AcDbField
  1
AcVar
  2
\AcVar ViewSectionStartId
 90
        0
 97
        0
 91
       63
 92
        0
 94
       43
 95
        2
 96
        0
300

 93
        1
  6
Variable
 93
        2
 90
        4
  1
ViewSectionStartId
 94
        0
300

302

304
ACVALUE_END
  7
ACFD_FIELD_VALUE
 93
        1
 90
        0
 94
        0
300

302

304
ACVALUE_END
301
----
 98
        4
  0
FIELD
  5
4BB
330
4B7
100
AcDbField
  1
AcVar
  2
\AcVar ViewSectionEndId
 90
        0
 97
        0
 91
       63
 92
        0
 94
       43
 95
        2
 96
        0
300

 93
        1
  6
Variable
 93
        2
 90
        4
  1
ViewSectionEndId
 94
        0
300

302

304
ACVALUE_END
  7
ACFD_FIELD_VALUE
 93
        1
 90
        0
 94
        0
300

302

304
ACVALUE_END
301
----
 98
        4
  0
ENDSEC
  0
SECTION
  2
ACDSDATA
 70
     2
 71
     8
  0
ACDSSCHEMA
 90
        0
  1
AcDb_Thumbnail_Schema
  2
AcDbDs::ID
280
    10
 91
        8
  2
Thumbnail_Data
280
    15
 91
        0
101
ACDSRECORD
 95
        0
 90
        1
  2
AcDbDs::TreatedAsObjectData
280
     1
291
     1
101
ACDSRECORD
 95
        0
 90
        2
  2
AcDbDs::Legacy
280
     1
291
     1
101
ACDSRECORD
  1
AcDbDs::ID
 90
        3
  2
AcDs:Indexable
280
     1
291
     1
101
ACDSRECORD
  1
AcDbDs::ID
 90
        4
  2
AcDbDs::HandleAttribute
280
     7
282
     1
  0
ACDSSCHEMA
 90
        1
  1
AcDbDs::TreatedAsObjectDataSchema
  2
AcDbDs::TreatedAsObjectData
280
     1
 91
        0
  0
ACDSSCHEMA
 90
        2
  1
AcDbDs::LegacySchema
  2
AcDbDs::Legacy
280
     1
 91
        0
  0
ACDSSCHEMA
 90
        3
  1
AcDbDs::IndexedPropertySchema
  2
AcDs:Indexable
280
     1
 91
        0
  0
ACDSSCHEMA
 90
        4
  1
AcDbDs::HandleAttributeSchema
  2
AcDbDs::HandleAttribute
280
     7
 91
        1
284
     1
  0
ACDSRECORD
 90
        0
  2
AcDbDs::ID
280
    10
320
22
  2
Thumbnail_Data
280
    15
 94
     1042
310
89504E470D0A1A0A0000000D49484452000001000000006F08030000003479EE6F00000300504C5445212830FFFFFF2128300000000000000000000000000000000000000000000000000000330000660000990000CC0000FF0033000033330033660033990033CC0033FF0066000066330066660066990066CC0066FF0099
310
000099330099660099990099CC0099FF00CC0000CC3300CC6600CC9900CCCC00CCFF00FF0000FF3300FF6600FF9900FFCC00FFFF3300003300333300663300993300CC3300FF3333003333333333663333993333CC3333FF3366003366333366663366993366CC3366FF3399003399333399663399993399CC3399FF33CC00
310
33CC3333CC6633CC9933CCCC33CCFF33FF0033FF3333FF6633FF9933FFCC33FFFF6600006600336600666600996600CC6600FF6633006633336633666633996633CC6633FF6666006666336666666666996666CC6666FF6699006699336699666699996699CC6699FF66CC0066CC3366CC6666CC9966CCCC66CCFF66FF0066
310
FF3366FF6666FF9966FFCC66FFFF9900009900339900669900999900CC9900FF9933009933339933669933999933CC9933FF9966009966339966669966999966CC9966FF9999009999339999669999999999CC9999FF99CC0099CC3399CC6699CC9999CCCC99CCFF99FF0099FF3399FF6699FF9999FFCC99FFFFCC0000CC00
310
33CC0066CC0099CC00CCCC00FFCC3300CC3333CC3366CC3399CC33CCCC33FFCC6600CC6633CC6666CC6699CC66CCCC66FFCC9900CC9933CC9966CC9999CC99CCCC99FFCCCC00CCCC33CCCC66CCCC99CCCCCCCCCCFFCCFF00CCFF33CCFF66CCFF99CCFFCCCCFFFFFF0000FF0033FF0066FF0099FF00CCFF00FFFF3300FF3333
310
FF3366FF3399FF33CCFF33FFFF6600FF6633FF6666FF6699FF66CCFF66FFFF9900FF9933FF9966FF9999FF99CCFF99FFFFCC00FFCC33FFCC66FFCC99FFCCCCFFCCFFFFFF00FFFF33FFFF66FFFF99FFFFCCFFFFFF0000000D0D0D1A1A1A2828283535354343435050505D5D5D6B6B6B787878868686939393A1A1A1AEAEAEBB
310
BBBBC9C9C9D6D6D6E4E4E4F1F1F1FFFFFF0000000000000000000000000000000000000000000000000000000000002E4550F1000000C14944415478DAEDD7E10A82301406D0BDFFFBEE7F941841EEDE5A10D7790E119204DBA7FB74AD010000000000C0A1BE138000804B76800004005E855F09400002002EDC017FE50AC0
310
529BC4E47F0517FDA093EE4783C106E515165BD1EA0B4A7934CBE7D75701F4750298BB03CEF4F00BC7B9FD1A9ECBDAA1FED3FF31F9ED334C270AA06701548F609FE37100E91DD0DB2A01C46BF98700CA2F8196ADE59900CED4821F04104D327B45B2055A7A733D7F5A00000000000000000000000000F0E606F22DF4978C14
310
B0190000000049454E44AE4260820000000049454E44AE426082
  0
ENDSEC
  0
EOF
