  0
SECTION
  2
HEADER
  9
$ACADVER
  1
AC1032
  9
$ACADMAINTVER
 90
        4
  9
$DWGCODEPAGE
  3
ANSI_1252
  9
$LASTSAVEDBY
  1
jesse.cowley
  9
$REQUIREDVERSIONS
160
                 0
  9
$INSBASE
 10
0.0
 20
0.0
 30
0.0
  9
$EXTMIN
 10
-3088.146694478988
 20
-777.2611616852876
 30
0.0
  9
$EXTMAX
 10
6110.158614705556
 20
5455.18225507685
 30
0.0
  9
$LIMMIN
 10
0.0
 20
0.0
  9
$LIMMAX
 10
12.0
 20
9.0
  9
$ORTHOMODE
 70
     0
  9
$REGENMODE
 70
     1
  9
$FILLMODE
 70
     1
  9
$QTEXTMODE
 70
     0
  9
$MIRRTEXT
 70
     1
  9
$LTSCALE
 40
1.0
  9
$ATTMODE
 70
     1
  9
$TEXTSIZE
 40
0.2
  9
$TRACEWID
 40
0.05
  9
$TEXTSTYLE
  7
Standard
  9
$CLAYER
  8
0
  9
$CELTYPE
  6
ByLayer
  9
$CECOLOR
 62
   256
  9
$CELTSCALE
 40
1.0
  9
$DISPSILH
 70
     0
  9
$DIMSCALE
 40
1.0
  9
$DIMASZ
 40
0.18
  9
$DIMEXO
 40
0.0625
  9
$DIMDLI
 40
0.38
  9
$DIMRND
 40
0.0
  9
$DIMDLE
 40
0.0
  9
$DIMEXE
 40
0.18
  9
$DIMTP
 40
0.0
  9
$DIMTM
 40
0.0
  9
$DIMTXT
 40
0.18
  9
$DIMCEN
 40
0.09
  9
$DIMTSZ
 40
0.0
  9
$DIMTOL
 70
     0
  9
$DIMLIM
 70
     0
  9
$DIMTIH
 70
     1
  9
$DIMTOH
 70
     1
  9
$DIMSE1
 70
     0
  9
$DIMSE2
 70
     0
  9
$DIMTAD
 70
     0
  9
$DIMZIN
 70
     0
  9
$DIMBLK
  1

  9
$DIMASO
 70
     1
  9
$DIMSHO
 70
     1
  9
$DIMPOST
  1

  9
$DIMAPOST
  1

  9
$DIMALT
 70
     0
  9
$DIMALTD
 70
     2
  9
$DIMALTF
 40
25.4
  9
$DIMLFAC
 40
1.0
  9
$DIMTOFL
 70
     0
  9
$DIMTVP
 40
0.0
  9
$DIMTIX
 70
     0
  9
$DIMSOXD
 70
     0
  9
$DIMSAH
 70
     0
  9
$DIMBLK1
  1

  9
$DIMBLK2
  1

  9
$DIMSTYLE
  2
Standard
  9
$DIMCLRD
 70
     0
  9
$DIMCLRE
 70
     0
  9
$DIMCLRT
 70
     0
  9
$DIMTFAC
 40
1.0
  9
$DIMGAP
 40
0.09
  9
$DIMJUST
 70
     0
  9
$DIMSD1
 70
     0
  9
$DIMSD2
 70
     0
  9
$DIMTOLJ
 70
     1
  9
$DIMTZIN
 70
     0
  9
$DIMALTZ
 70
     0
  9
$DIMALTTZ
 70
     0
  9
$DIMUPT
 70
     0
  9
$DIMDEC
 70
     4
  9
$DIMTDEC
 70
     4
  9
$DIMALTU
 70
     2
  9
$DIMALTTD
 70
     2
  9
$DIMTXSTY
  7
Standard
  9
$DIMAUNIT
 70
     0
  9
$DIMADEC
 70
     0
  9
$DIMALTRND
 40
0.0
  9
$DIMAZIN
 70
     0
  9
$DIMDSEP
 70
    46
  9
$DIMATFIT
 70
     3
  9
$DIMFRAC
 70
     0
  9
$DIMLDRBLK
  1

  9
$DIMLUNIT
 70
     2
  9
$DIMLWD
 70
    -2
  9
$DIMLWE
 70
    -2
  9
$DIMTMOVE
 70
     0
  9
$DIMFXL
 40
1.0
  9
$DIMFXLON
 70
     0
  9
$DIMJOGANG
 40
0.7853981633974483
  9
$DIMTFILL
 70
     0
  9
$DIMTFILLCLR
 70
     0
  9
$DIMARCSYM
 70
     0
  9
$DIMLTYPE
  6

  9
$DIMLTEX1
  6

  9
$DIMLTEX2
  6

  9
$DIMTXTDIRECTION
 70
     0
  9
$LUNITS
 70
     2
  9
$LUPREC
 70
     4
  9
$SKETCHINC
 40
0.1
  9
$FILLETRAD
 40
0.5
  9
$AUNITS
 70
     0
  9
$AUPREC
 70
     0
  9
$MENU
  1
.
  9
$ELEVATION
 40
0.0
  9
$PELEVATION
 40
0.0
  9
$THICKNESS
 40
0.0
  9
$LIMCHECK
 70
     0
  9
$CHAMFERA
 40
0.5
  9
$CHAMFERB
 40
0.5
  9
$CHAMFERC
 40
1.0
  9
$CHAMFERD
 40
0.0
  9
$SKPOLY
 70
     0
  9
$TDCREATE
 40
2456463.540578704
  9
$TDUCREATE
 40
2456463.123919792
  9
$TDUPDATE
 40
2458442.436111111
  9
$TDUUPDATE
 40
2458441.977777778
  9
$TDINDWG
 40
0.0250021991
  9
$TDUSRTIMER
 40
0.0250021991
  9
$USRTIMER
 70
     1
  9
$ANGBASE
 50
0.0
  9
$ANGDIR
 70
     0
  9
$PDMODE
 70
     0
  9
$PDSIZE
 40
0.0
  9
$PLINEWID
 40
0.0
  9
$SPLFRAME
 70
     0
  9
$SPLINETYPE
 70
     6
  9
$SPLINESEGS
 70
     8
  9
$HANDSEED
  5
4F3
  9
$SURFTAB1
 70
     6
  9
$SURFTAB2
 70
     6
  9
$SURFTYPE
 70
     6
  9
$SURFU
 70
     6
  9
$SURFV
 70
     6
  9
$UCSBASE
  2

  9
$UCSNAME
  2

  9
$UCSORG
 10
0.0
 20
0.0
 30
0.0
  9
$UCSXDIR
 10
1.0
 20
0.0
 30
0.0
  9
$UCSYDIR
 10
0.0
 20
1.0
 30
0.0
  9
$UCSORTHOREF
  2

  9
$UCSORTHOVIEW
 70
     0
  9
$UCSORGTOP
 10
0.0
 20
0.0
 30
0.0
  9
$UCSORGBOTTOM
 10
0.0
 20
0.0
 30
0.0
  9
$UCSORGLEFT
 10
0.0
 20
0.0
 30
0.0
  9
$UCSORGRIGHT
 10
0.0
 20
0.0
 30
0.0
  9
$UCSORGFRONT
 10
0.0
 20
0.0
 30
0.0
  9
$UCSORGBACK
 10
0.0
 20
0.0
 30
0.0
  9
$PUCSBASE
  2

  9
$PUCSNAME
  2

  9
$PUCSORG
 10
0.0
 20
0.0
 30
0.0
  9
$PUCSXDIR
 10
1.0
 20
0.0
 30
0.0
  9
$PUCSYDIR
 10
0.0
 20
1.0
 30
0.0
  9
$PUCSORTHOREF
  2

  9
$PUCSORTHOVIEW
 70
     0
  9
$PUCSORGTOP
 10
0.0
 20
0.0
 30
0.0
  9
$PUCSORGBOTTOM
 10
0.0
 20
0.0
 30
0.0
  9
$PUCSORGLEFT
 10
0.0
 20
0.0
 30
0.0
  9
$PUCSORGRIGHT
 10
0.0
 20
0.0
 30
0.0
  9
$PUCSORGFRONT
 10
0.0
 20
0.0
 30
0.0
  9
$PUCSORGBACK
 10
0.0
 20
0.0
 30
0.0
  9
$USERI1
 70
     0
  9
$USERI2
 70
     0
  9
$USERI3
 70
     0
  9
$USERI4
 70
     0
  9
$USERI5
 70
     0
  9
$USERR1
 40
0.0
  9
$USERR2
 40
0.0
  9
$USERR3
 40
0.0
  9
$USERR4
 40
0.0
  9
$USERR5
 40
0.0
  9
$WORLDVIEW
 70
     1
  9
$SHADEDGE
 70
     3
  9
$SHADEDIF
 70
    70
  9
$TILEMODE
 70
     1
  9
$MAXACTVP
 70
    64
  9
$PINSBASE
 10
0.0
 20
0.0
 30
0.0
  9
$PLIMCHECK
 70
     0
  9
$PEXTMIN
 10
1.000000000000000E+20
 20
1.000000000000000E+20
 30
1.000000000000000E+20
  9
$PEXTMAX
 10
-1.000000000000000E+20
 20
-1.000000000000000E+20
 30
-1.000000000000000E+20
  9
$PLIMMIN
 10
0.0
 20
0.0
  9
$PLIMMAX
 10
12.0
 20
9.0
  9
$UNITMODE
 70
     0
  9
$VISRETAIN
 70
     1
  9
$PLINEGEN
 70
     0
  9
$PSLTSCALE
 70
     1
  9
$TREEDEPTH
 70
  3020
  9
$CMLSTYLE
  2
Standard
  9
$CMLJUST
 70
     0
  9
$CMLSCALE
 40
1.0
  9
$PROXYGRAPHICS
 70
     1
  9
$MEASUREMENT
 70
     0
  9
$CELWEIGHT
370
    -1
  9
$ENDCAPS
280
     0
  9
$JOINSTYLE
280
     0
  9
$LWDISPLAY
290
     1
  9
$INSUNITS
 70
     1
  9
$HYPERLINKBASE
  1

  9
$STYLESHEET
  1

  9
$XEDIT
290
     1
  9
$CEPSNTYPE
380
     0
  9
$PSTYLEMODE
290
     1
  9
$FINGERPRINTGUID
  2
{EF4C20B9-DB48-48FC-AE97-D3B66B875D40}
  9
$VERSIONGUID
  2
{24D34F2A-CC6C-6B44-A5E9-075860ADB05E}
  9
$EXTNAMES
290
     1
  9
$PSVPSCALE
 40
0.0
  9
$OLESTARTUP
290
     0
  9
$SORTENTS
280
   127
  9
$INDEXCTL
280
     0
  9
$HIDETEXT
280
     1
  9
$XCLIPFRAME
280
     0
  9
$HALOGAP
280
     0
  9
$OBSCOLOR
 70
   257
  9
$OBSLTYPE
280
     0
  9
$INTERSECTIONDISPLAY
280
     0
  9
$INTERSECTIONCOLOR
 70
   257
  9
$DIMASSOC
280
     2
  9
$PROJECTNAME
  1

  9
$CAMERADISPLAY
290
     0
  9
$LENSLENGTH
 40
50.0
  9
$CAMERAHEIGHT
 40
0.0
  9
$STEPSPERSEC
 40
2.0
  9
$STEPSIZE
 40
6.0
  9
$3DDWFPREC
 40
2.0
  9
$PSOLWIDTH
 40
0.25
  9
$PSOLHEIGHT
 40
4.0
  9
$LOFTANG1
 40
1.570796326794896
  9
$LOFTANG2
 40
1.570796326794896
  9
$LOFTMAG1
 40
0.0
  9
$LOFTMAG2
 40
0.0
  9
$LOFTPARAM
 70
     7
  9
$LOFTNORMALS
280
     1
  9
$LATITUDE
 40
37.795
  9
$LONGITUDE
 40
-122.394
  9
$NORTHDIRECTION
 40
0.0
  9
$TIMEZONE
 70
 -8000
  9
$LIGHTGLYPHDISPLAY
280
     1
  9
$TILEMODELIGHTSYNCH
280
     1
  9
$CMATERIAL
347
16F
  9
$SOLIDHIST
280
     1
  9
$SHOWHIST
280
     1
  9
$DWFFRAME
280
     2
  9
$DGNFRAME
280
     0
  9
$REALWORLDSCALE
290
     1
  9
$INTERFERECOLOR
 62
     1
  9
$INTERFEREOBJVS
345
33
  9
$INTERFEREVPVS
346
3BD
  9
$CSHADOW
280
     0
  9
$SHADOWPLANELOCATION
 40
0.0
  0
ENDSEC
  0
SECTION
  2
CLASSES
  0
CLASS
  1
ACDBDICTIONARYWDFLT
  2
AcDbDictionaryWithDefault
  3
ObjectDBX Classes
 90
        0
 91
        1
280
     0
281
     0
  0
CLASS
  1
VISUALSTYLE
  2
AcDbVisualStyle
  3
ObjectDBX Classes
 90
     4095
 91
       26
280
     0
281
     0
  0
CLASS
  1
MATERIAL
  2
AcDbMaterial
  3
ObjectDBX Classes
 90
     1153
 91
        3
280
     0
281
     0
  0
CLASS
  1
TABLESTYLE
  2
AcDbTableStyle
  3
ObjectDBX Classes
 90
     4095
 91
        1
280
     0
281
     0
  0
CLASS
  1
SCALE
  2
AcDbScale
  3
ObjectDBX Classes
 90
     1153
 91
       33
280
     0
281
     0
  0
CLASS
  1
MLEADERSTYLE
  2
AcDbMLeaderStyle
  3
ACDB_MLEADERSTYLE_CLASS
 90
     4095
 91
        1
280
     0
281
     0
  0
CLASS
  1
ACME_DOCUMENT
  2
AcMeDbDoc
  3
AcMeServices
 90
     1024
 91
        0
280
     0
281
     0
  0
CLASS
  1
AMGSETTINGSOBJ
  2
AmgSettingsObj
  3
"AcadM|Product Description: AutoCAD Mechanical|Company: Autodesk, Inc."
 90
     1024
 91
        2
280
     0
281
     0
  0
CLASS
  1
ACMESCOPE
  2
AcMeScope
  3
AcMeServices
 90
     1024
 91
        1
280
     0
281
     0
  0
CLASS
  1
ACMECOMMANDHISTORY
  2
AcMeCommandHistory
  3
AcMeServices
 90
     1024
 91
        1
280
     0
281
     0
  0
CLASS
  1
ACIMSYSVARMAN
  2
AcImSysVarManager
  3
AcMeServices
 90
     1024
 91
        5
280
     0
281
     0
  0
CLASS
  1
ACIMINTSYSVAR
  2
AcImIntSysVar
  3
AcMeServices
 90
     1024
 91
       27
280
     0
281
     0
  0
CLASS
  1
ACMEDRAWINGMAN
  2
AcMeDrawingMan
  3
AcMeServices
 90
     1024
 91
        1
280
     0
281
     0
  0
CLASS
  1
ACMEVIEW
  2
AcMeView
  3
AcMeServices
 90
     1024
 91
        1
280
     0
281
     0
  0
CLASS
  1
ACDBENTITYCACHE
  2
AcMeEntityCache
  3
AcMeServices
 90
     1024
 91
        0
280
     0
281
     0
  0
CLASS
  1
ACMESTATEMGR
  2
AcMeStateMgr
  3
AcMeServices
 90
     1024
 91
        1
280
     0
281
     0
  0
CLASS
  1
ACGREFMASTER
  2
AcGrefMaster
  3
AcAttribServices
 90
     1024
 91
        1
280
     0
281
     0
  0
CLASS
  1
AM_DRAWING_MGR
  2
AcDmDwgMgr
  3
AcMechDwgViewMgmt
 90
     1024
 91
        1
280
     0
281
     0
  0
CLASS
  1
AM_DWG_DOCUMENT
  2
AcDmDwgDocument
  3
AcMechDwgViewMgmt
 90
     1024
 91
        1
280
     0
281
     0
  0
CLASS
  1
AM_DWG_SHEET
  2
AcDmSheet
  3
AcMechDwgViewMgmt
 90
     1024
 91
        2
280
     0
281
     0
  0
CLASS
  1
AM_VIEWDIMPARMAP
  2
AcDmViewDimParMap
  3
AcMechDwgViewMgmt
 90
     1024
 91
        2
280
     0
281
     0
  0
CLASS
  1
AMDTINTERNALREACTOR
  2
AmdtInternalReactor
  3
AcMeServices
 90
     1024
 91
        0
280
     0
281
     0
  0
CLASS
  1
ACIMREALSYSVAR
  2
AcImRealSysVar
  3
AcMeServices
 90
     1024
 91
        1
280
     0
281
     0
  0
CLASS
  1
AM_DWGMGR_NAME
  2
AcDmDwgMgrName
  3
AcMechDwgViewMgmt
 90
     1024
 91
        1
280
     0
281
     0
  0
CLASS
  1
ACME_DATABASE
  2
AcMeDbDatabase
  3
AcMeServices
 90
     1024
 91
        0
280
     0
281
     0
  0
CLASS
  1
ACRFINSADJUSTERMGR
  2
AcRfInsAdjusterMgr
  3
AcMeServices
 90
     1024
 91
        0
280
     0
281
     0
  0
CLASS
  1
ACGREFACADMASTER
  2
AcGrefacadMaster
  3
AcGrefServices
 90
     1024
 91
        1
280
     0
281
     0
  0
CLASS
  1
AMDTMENUSTATEMGR
  2
AmdtMenuStateMgr
  3
McadcomServices
 90
     1024
 91
        0
280
     0
281
     0
  0
CLASS
  1
AMDTMCOMMENUSTATE
  2
AmdtMcomMenuState
  3
McadcomServices
 90
     1024
 91
        0
280
     0
281
     0
  0
CLASS
  1
AMIMASTER
  2
AmiMaster
  3
AmiServices
 90
     1024
 91
        1
280
     0
281
     0
  0
CLASS
  1
MAPIAMMOUDLE
  2
MApiAmModule
  3
MApiAmServices
 90
     1024
 91
        1
280
     0
281
     0
  0
CLASS
  1
ACIMSTRSYSVAR
  2
AcImStrSysVar
  3
AcMeServices
 90
     1024
 91
        5
280
     0
281
     0
  0
CLASS
  1
AMDTADMENUSTATE
  2
AmdtAdMenuState
  3
DesignerServices
 90
     1024
 91
        0
280
     0
281
     0
  0
CLASS
  1
ADAPPL
  2
AcAdAppl
  3
DesignerServices
 90
     1024
 91
        1
280
     0
281
     0
  0
CLASS
  1
DEPMGR
  2
AcAdDepMgr
  3
DesignerServices
 90
     1024
 91
        1
280
     0
281
     0
  0
CLASS
  1
PARAMMGR
  2
AcAdParamMgr
  3
DesignerServices
 90
     1024
 91
        1
280
     0
281
     0
  0
CLASS
  1
PARAMSCOPE
  2
AcAdParamScope
  3
DesignerServices
 90
     1024
 91
        1
280
     0
281
     0
  0
CLASS
  1
NAMEDAPPL
  2
AcAdNamedAppl
  3
DesignerServices
 90
     1024
 91
        1
280
     0
281
     0
  0
CLASS
  1
AMDTDMMENUSTATE
  2
AmdtDmMenuState
  3
AcMechDwgViewMgmt
 90
     1024
 91
        0
280
     0
281
     0
  0
CLASS
  1
AMDTAMMENUSTATE
  2
AmdtAmMenuState
  3
DesignerAssemblies
 90
     1024
 91
        0
280
     0
281
     0
  0
CLASS
  1
ACAMPROJECT
  2
AcAmProject
  3
DesignerAssemblies
 90
     1024
 91
        1
280
     0
281
     0
  0
CLASS
  1
ACAMGRCOMPDEF
  2
AcAmGrCompDef
  3
DesignerAssemblies
 90
     1024
 91
        1
280
     0
281
     0
  0
CLASS
  1
ACAMCOMPDEF
  2
AcAmCompDef
  3
DesignerAssemblies
 90
     1024
 91
        1
280
     0
281
     0
  0
CLASS
  1
ACAMCOMPDEFMGR
  2
AcAmCompDefMgr
  3
DesignerAssemblies
 90
     1024
 91
        1
280
     0
281
     0
  0
CLASS
  1
AMCONTEXTMGR
  2
AcAmContextMgr
  3
DesignerAssemblies
 90
     1024
 91
        1
280
     0
281
     0
  0
CLASS
  1
ACAMCONTEXTMODELER
  2
AcAmContextModeler
  3
DesignerAssemblies
 90
     1024
 91
        1
280
     0
281
     0
  0
CLASS
  1
ACMDATADICTIONARY
  2
AcmDataDictionary
  3
"AcmSymBB|Product Description: AutoCAD Mechanical|Company: Autodesk, Inc."
 90
     1024
 91
        1
280
     0
281
     0
  0
CLASS
  1
CATALOGSTATE
  2
AcAmCatalogState
  3
DesignerAssemblies
 90
     1024
 91
        1
280
     0
281
     0
  0
CLASS
  1
ACAMGRCOMPDEFSET
  2
AcAmGrCompDefSet
  3
DesignerAssemblies
 90
     1024
 91
        0
280
     0
281
     0
  0
CLASS
  1
AMDTBROWSERDBTAB
  2
AmdtBrowserDbTab
  3
McadcomServices
 90
     1024
 91
        0
280
     0
281
     0
  0
CLASS
  1
CBROWSERAPPOBJECT
  2
CBrowserAppObject
  3
McadcomServices
 90
     1024
 91
        0
280
     0
281
     0
  0
CLASS
  1
DM_PLACEHOLDER
  2
AcDmSelsetPlaceholder
  3
AcMechDwgViewMgmt
 90
     1024
 91
        0
280
     0
281
     0
  0
CLASS
  1
EXACXREFPANELOBJECT
  2
ExAcXREFPanelObject
  3
EXAC_ESW
 90
     1025
 91
        1
280
     0
281
     0
  0
CLASS
  1
NPOCOLLECTION
  2
AcDbImpNonPersistentObjectsCollection
  3
ObjectDBX Classes
 90
     1153
 91
        1
280
     0
281
     0
  0
CLASS
  1
ACMSTANDARDANSI
  2
AcmStandardANSI
  3
"Amdt_StdImp|Product Description: AutoCAD Mechanical|Company: Autodesk, Inc."
 90
     1024
 91
        1
280
     0
281
     0
  0
CLASS
  1
ACMSURFSTANDARDANSI
  2
AcmSurfTextStdANSI
  3
"Amdt_StdImp|Product Description: AutoCAD Mechanical|Company: Autodesk, Inc."
 90
     1024
 91
        1
280
     0
281
     0
  0
CLASS
  1
ACMFCFSTANDARDANSI
  2
AcmFCFStdANSI
  3
"Amdt_StdImp|Product Description: AutoCAD Mechanical|Company: Autodesk, Inc."
 90
     1024
 91
        1
280
     0
281
     0
  0
CLASS
  1
ACMWELDSTANDARDANSI
  2
AcmWeldingStdANSI
  3
"Amdt_StdImp|Product Description: AutoCAD Mechanical|Company: Autodesk, Inc."
 90
     1024
 91
        1
280
     0
281
     0
  0
CLASS
  1
ACMIDSTANDARDANSI
  2
AcmIdStdANSI
  3
"Amdt_StdImp|Product Description: AutoCAD Mechanical|Company: Autodesk, Inc."
 90
     1024
 91
        1
280
     0
281
     0
  0
CLASS
  1
ACMDATUMSTANDARDANSI
  2
AcmDatumStdANSI
  3
"Amdt_StdImp|Product Description: AutoCAD Mechanical|Company: Autodesk, Inc."
 90
     1024
 91
        1
280
     0
281
     0
  0
CLASS
  1
ACMBOMSTANDARDANSI
  2
AcmBOMStdANSI
  3
"Amdt_StdImp|Product Description: AutoCAD Mechanical|Company: Autodesk, Inc."
 90
     1024
 91
        1
280
     0
281
     0
  0
CLASS
  1
ACMDETAILSTANDARDANSI
  2
AmdtDetailSymStdANSI
  3
"Amdt_StdImp|Product Description: AutoCAD Mechanical|Company: Autodesk, Inc."
 90
     1024
 91
        1
280
     0
281
     0
  0
CLASS
  1
ACMSECTIONSTANDARDANSI
  2
AmdtSectionSymStdANSI
  3
"Amdt_StdImp|Product Description: AutoCAD Mechanical|Company: Autodesk, Inc."
 90
     1024
 91
        1
280
     0
281
     0
  0
CLASS
  1
ACMCENTERLINESTANDARDANSI
  2
AmdtCenterLineStdANSI
  3
"Amdt_StdImp|Product Description: AutoCAD Mechanical|Company: Autodesk, Inc."
 90
     1024
 91
        1
280
     0
281
     0
  0
CLASS
  1
ACMTHREADLINESTANDARDANSI
  2
AmdtThreadLineStdANSI
  3
"Amdt_StdImp|Product Description: AutoCAD Mechanical|Company: Autodesk, Inc."
 90
     1024
 91
        1
280
     0
281
     0
  0
CLASS
  1
ACMNOTESTANDARDANSI
  2
AmdtNoteStdANSI
  3
"Amdt_StdImp|Product Description: AutoCAD Mechanical|Company: Autodesk, Inc."
 90
     1024
 91
        1
280
     0
281
     0
  0
CLASS
  1
ACMTAPERSTANDARDANSI
  2
AcmTaperStdANSI
  3
"Amdt_StdImp|Product Description: AutoCAD Mechanical|Company: Autodesk, Inc."
 90
     1024
 91
        1
280
     0
281
     0
  0
CLASS
  1
ACMANOOTATIONVIEWSTANDARDANSI
  2
AmdtAnViewStdANSI
  3
"Amdt_StdImp|Product Description: AutoCAD Mechanical|Company: Autodesk, Inc."
 90
     1024
 91
        1
280
     0
281
     0
  0
CLASS
  1
ACAMGLAYSTD
  2
AcAmgLayStd
  3
"AmgLay|Product Description: AutoCAD Mechanical|Company: Autodesk, Inc."
 90
     1024
 91
        1
280
     0
281
     0
  0
CLASS
  1
ACAMGDIMSTD
  2
AcAmgDimStd
  3
"AmgDim|Product Description: AutoCAD Mechanical|Company: Autodesk, Inc."
 90
     1024
 91
        1
280
     0
281
     0
  0
CLASS
  1
AMGOBJPROPCFG
  2
AmgObjPropCfg
  3
"AmgLay|Product Description: AutoCAD Mechanical|Company: Autodesk, Inc."
 90
     1025
 91
        1
280
     0
281
     0
  0
CLASS
  1
ACAMGHOLECHARTSTDANSI
  2
AcAmgHoleChartStdANSI
  3
AmgDim|Product Description: AutoCAD Mechanical|Company: Autodesk, Inc.
 90
     1024
 91
        1
280
     0
281
     0
  0
CLASS
  1
ACAMGTITLESTD
  2
AcAmgTitleStd
  3
"AmgTitle|Product Description: AutoCAD Mechanical|Company: Autodesk, Inc."
 90
     4095
 91
        1
280
     0
281
     0
  0
CLASS
  1
AMDTNOTETEMPLATEDB
  2
AmdtNoteTemplateDB
  3
AcmSymBB|Product Description: AutoCAD Mechanical|Company: Autodesk, Inc.
 90
     1024
 91
        6
280
     0
281
     0
  0
CLASS
  1
ACAMGFILTERDAT
  2
AcAmgFilterDat
  3
"AcadM|Product Description: AutoCAD Mechanical|Company: Autodesk, Inc."
 90
     1024
 91
        6
280
     0
281
     0
  0
CLASS
  1
CAMSSTRUCTBTNSTATE
  2
StructBtnState
  3
DesignerAssemblies
 90
     1024
 91
        1
280
     0
281
     0
  0
CLASS
  1
DICTIONARYVAR
  2
AcDbDictionaryVar
  3
ObjectDBX Classes
 90
        0
 91
        9
280
     0
281
     0
  0
CLASS
  1
SORTENTSTABLE
  2
AcDbSortentsTable
  3
ObjectDBX Classes
 90
        0
 91
        1
280
     0
281
     0
  0
CLASS
  1
ACDBSECTIONVIEWSTYLE
  2
AcDbSectionViewStyle
  3
ObjectDBX Classes
 90
     1025
 91
        1
280
     0
281
     0
  0
CLASS
  1
ACDBDETAILVIEWSTYLE
  2
AcDbDetailViewStyle
  3
ObjectDBX Classes
 90
     1025
 91
        1
280
     0
281
     0
  0
CLASS
  1
CELLSTYLEMAP
  2
AcDbCellStyleMap
  3
ObjectDBX Classes
 90
     1152
 91
        1
280
     0
281
     0
  0
ENDSEC
  0
SECTION
  2
TABLES
  0
TABLE
  2
VPORT
  5
8
330
0
100
AcDbSymbolTable
 70
     1
  0
VPORT
  5
29
330
8
100
AcDbSymbolTableRecord
100
AcDbViewportTableRecord
  2
*Active
 70
     0
 10
0.0
 20
0.0
 11
1.0
 21
1.0
 12
1773.903986571604
 22
3108.839079246
 13
0.0
 23
0.0
 14
0.5
 24
0.5
 15
0.5
 25
0.5
 16
0.0
 26
0.0
 36
1.0
 17
148.4999796178229
 27
-105.0008259828643
 37
0.0
 40
12812.88945977277
 41
2.292712066905615
 42
50.0
 43
0.0
 44
0.0
 50
0.0
 51
0.0
 71
     0
 72
   100
 73
     1
 74
     3
 75
     0
 76
     0
 77
     0
 78
     0
281
     0
 65
     1
110
0.0
120
0.0
130
0.0
111
1.0
121
0.0
131
0.0
112
0.0
122
1.0
132
0.0
 79
     0
146
0.0
348
2F
 60
     3
 61
     5
292
     1
282
     1
141
0.0
142
0.0
 63
   250
421
  3355443
1001
ACAD_NAV_VCDISPLAY
1070
     3
  0
ENDTAB
  0
TABLE
  2
LTYPE
  5
5
330
0
100
AcDbSymbolTable
 70
    16
  0
LTYPE
  5
14
330
5
100
AcDbSymbolTableRecord
100
AcDbLinetypeTableRecord
  2
ByBlock
 70
     0
  3

 72
    65
 73
     0
 40
0.0
  0
LTYPE
  5
15
330
5
100
AcDbSymbolTableRecord
100
AcDbLinetypeTableRecord
  2
ByLayer
 70
     0
  3

 72
    65
 73
     0
 40
0.0
  0
LTYPE
  5
16
330
5
100
AcDbSymbolTableRecord
100
AcDbLinetypeTableRecord
  2
Continuous
 70
     0
  3
Solid line
 72
    65
 73
     0
 40
0.0
  0
LTYPE
  5
1E6
330
5
100
AcDbSymbolTableRecord
100
AcDbLinetypeTableRecord
  2
HIDDEN
 70
     0
  3
Hidden __ __ __ __ __ __ __ __ __ __ __ __ __ _
 72
    65
 73
     2
 40
0.375
 49
0.25
 74
     0
 49
-0.125
 74
     0
  0
LTYPE
  5
1E7
330
5
100
AcDbSymbolTableRecord
100
AcDbLinetypeTableRecord
  2
PHANTOM2
 70
     0
  3
Phantom (.5x) ___ _ _ ___ _ _ ___ _ _ ___ _ _
 72
    65
 73
     6
 40
1.25
 49
0.625
 74
     0
 49
-0.125
 74
     0
 49
0.125
 74
     0
 49
-0.125
 74
     0
 49
0.125
 74
     0
 49
-0.125
 74
     0
  0
LTYPE
  5
1E8
330
5
100
AcDbSymbolTableRecord
100
AcDbLinetypeTableRecord
  2
CENTER
 70
     0
  3
Center ____ _ ____ _ ____ _ ____ _ ____ _ ____
 72
    65
 73
     4
 40
2.0
 49
1.25
 74
     0
 49
-0.25
 74
     0
 49
0.25
 74
     0
 49
-0.25
 74
     0
  0
LTYPE
  5
22F
330
5
100
AcDbSymbolTableRecord
100
AcDbLinetypeTableRecord
  2
AM_ISO02W050
 70
     0
  3
__ __ __ __ __ __ __ __ __ __ __ __ __ __ __
 72
    65
 73
     2
 40
7.5
 49
6.0
 74
     0
 49
-1.5
 74
     0
  0
LTYPE
  5
230
330
5
100
AcDbSymbolTableRecord
100
AcDbLinetypeTableRecord
  2
AM_ISO08W050
 70
     0
  3
____ . ____ . ____ . ____ . ____ . ____ . ____
 72
    65
 73
     4
 40
18.0
 49
12.0
 74
     0
 49
-1.5
 74
     0
 49
3.0
 74
     0
 49
-1.5
 74
     0
  0
LTYPE
  5
231
330
5
100
AcDbSymbolTableRecord
100
AcDbLinetypeTableRecord
  2
AM_ISO09W050
 70
     0
  3
_____ . . _____ . . _____ . . ____ .. ____
 72
    65
 73
     6
 40
22.5
 49
12.0
 74
     0
 49
-1.5
 74
     0
 49
3.0
 74
     0
 49
-1.5
 74
     0
 49
3.0
 74
     0
 49
-1.5
 74
     0
  0
LTYPE
  5
232
330
5
100
AcDbSymbolTableRecord
100
AcDbLinetypeTableRecord
  2
Amconstr
 70
     0
  3
_______________________
 72
    65
 73
     2
 40
9999.0
 49
9999.0
 74
     0
 49
0.0
 74
     0
  0
LTYPE
  5
233
330
5
100
AcDbSymbolTableRecord
100
AcDbLinetypeTableRecord
  2
AM_ISO08W050x2
 70
     0
  3
__ . __ . __ . __ . __ . __
 72
    65
 73
     4
 40
9.0
 49
6.0
 74
     0
 49
-0.75
 74
     0
 49
1.5
 74
     0
 49
-0.75
 74
     0
  0
LTYPE
  5
234
330
5
100
AcDbSymbolTableRecord
100
AcDbLinetypeTableRecord
  2
AM_ISO02W050x2
 70
     0
  3
 _ _ _ _ _ _ _ _ _ _ _ _
 72
    65
 73
     2
 40
3.75
 49
3.0
 74
     0
 49
-0.75
 74
     0
  0
LTYPE
  5
237
330
5
100
AcDbSymbolTableRecord
100
AcDbLinetypeTableRecord
  2
Amzigzag
 70
     0
  3
/\/-/\/-/\/-/\/-/\/-/\/
 72
    65
 73
     2
 40
11.0001
 49
0.0001
 74
     4
 75
   136
340
236
 46
0.04
 50
0.0
 44
0.0
 45
0.0
 49
-11.0
 74
     0
  0
LTYPE
  5
238
330
5
100
AcDbSymbolTableRecord
100
AcDbLinetypeTableRecord
  2
CENTER2
 70
     0
  3
Center (.5x) ___ _ ___ _ ___ _ ___ _ ___ _ ___
 72
    65
 73
     4
 40
1.125
 49
0.75
 74
     0
 49
-0.125
 74
     0
 49
0.125
 74
     0
 49
-0.125
 74
     0
  0
LTYPE
  5
239
330
5
100
AcDbSymbolTableRecord
100
AcDbLinetypeTableRecord
  2
HIDDEN2
 70
     0
  3
Hidden (.5x) _ _ _ _ _ _ _ _ _ _ _ _ _ _ _ _ _
 72
    65
 73
     2
 40
0.1875
 49
0.125
 74
     0
 49
-0.0625
 74
     0
  0
LTYPE
  5
23A
330
5
100
AcDbSymbolTableRecord
100
AcDbLinetypeTableRecord
  2
Amzigzag2
 70
     0
  3
/\/-/\/-/\/-/\/-/\/-/\/
 72
    65
 73
     2
 40
0.4401
 49
0.0001
 74
     4
 75
   136
340
236
 46
0.0016
 50
0.0
 44
0.0
 45
0.0
 49
-0.4400000000000001
 74
     0
  0
LTYPE
  5
248
330
5
100
AcDbSymbolTableRecord
100
AcDbLinetypeTableRecord
  2
ACANSTGB
 70
     0
  3
__ . . __ . .
 72
    65
 73
     6
 40
0.35433070866
 49
0.15748031496
 74
     0
 49
-0.03937007874
 74
     0
 49
0.03937007874
 74
     0
 49
-0.03937007874
 74
     0
 49
0.03937007874
 74
     0
 49
-0.03937007874
 74
     0
  0
LTYPE
  5
249
330
5
100
AcDbSymbolTableRecord
100
AcDbLinetypeTableRecord
  2
ACANSTGL
 70
     0
  3
_ _ _ _ _
 72
    65
 73
     2
 40
0.11811023622
 49
0.07874015748
 74
     0
 49
-0.03937007874
 74
     0
  0
ENDTAB
  0
TABLE
  2
LAYER
  5
2
102
{ACAD_XDICTIONARY
360
268
102
}
330
0
100
AcDbSymbolTable
 70
     5
  0
LAYER
  5
10
102
{ACAD_XDICTIONARY
360
260
102
}
330
2
100
AcDbSymbolTableRecord
100
AcDbLayerTableRecord
  2
0
 70
     0
 62
     7
  6
Continuous
370
    -3
390
F
347
17F
348
0
  0
LAYER
  5
3B
102
{ACAD_XDICTIONARY
360
262
102
}
330
2
100
AcDbSymbolTableRecord
100
AcDbLayerTableRecord
  2
Layer 1
 70
     0
 62
     7
  6
Continuous
370
    -3
390
F
347
17F
348
0
  0
LAYER
  5
3D1
330
2
100
AcDbSymbolTableRecord
100
AcDbLayerTableRecord
  2
Dimensions
 70
     0
 62
     7
  6
Continuous
370
    -3
390
F
347
17F
348
0
1001
AcAecLayerStandard
1000

1000

1001
AcCmTransparency
1071
        0
  0
LAYER
  5
3D4
330
2
100
AcDbSymbolTableRecord
100
AcDbLayerTableRecord
  2
Text
 70
     0
 62
     7
  6
Continuous
370
    -3
390
F
347
17F
348
0
1001
AcAecLayerStandard
1000

1000

1001
AcCmTransparency
1071
        0
  0
LAYER
  5
3D5
330
2
100
AcDbSymbolTableRecord
100
AcDbLayerTableRecord
  2
Furniture
 70
     0
 62
     7
  6
Continuous
370
    -3
390
F
347
17F
348
0
1001
AcAecLayerStandard
1000

1000

1001
AcCmTransparency
1071
        0
  0
ENDTAB
  0
TABLE
  2
STYLE
  5
3
330
0
100
AcDbSymbolTable
 70
     4
  0
STYLE
  5
11
330
3
100
AcDbSymbolTableRecord
100
AcDbTextStyleTableRecord
  2
Standard
 70
     0
 40
0.0
 41
1.000099999999999
 50
0.0
 71
     0
 42
0.2
  3
apercu_regular-webfont.ttf
  4

1001
ACAD
1000
Apercu
1071
        2
  0
STYLE
  5
236
330
3
100
AcDbSymbolTableRecord
100
AcDbTextStyleTableRecord
  2

 70
     1
 40
0.0
 41
1.0
 50
0.0
 71
     0
 42
0.2
  3
genltshp.shx
  4

  0
STYLE
  5
246
330
3
100
AcDbSymbolTableRecord
100
AcDbTextStyleTableRecord
  2
ACANSTS
 70
     0
 40
1.0
 41
1.0
 50
0.0
 71
     0
 42
0.2
  3
romans.shx
  4

  0
STYLE
  5
247
330
3
100
AcDbSymbolTableRecord
100
AcDbTextStyleTableRecord
  2
ACANSGDT
 70
     0
 40
0.0
 41
1.0
 50
0.0
 71
     0
 42
0.2
  3
amgdt.shx
  4

  0
ENDTAB
  0
TABLE
  2
VIEW
  5
6
330
0
100
AcDbSymbolTable
 70
     1
  0
ENDTAB
  0
TABLE
  2
UCS
  5
7
330
0
100
AcDbSymbolTable
 70
     0
  0
ENDTAB
  0
TABLE
  2
APPID
  5
9
330
0
100
AcDbSymbolTable
 70
    15
  0
APPID
  5
12
330
9
100
AcDbSymbolTableRecord
100
AcDbRegAppTableRecord
  2
ACAD
 70
     0
  0
APPID
  5
1B9
330
9
100
AcDbSymbolTableRecord
100
AcDbRegAppTableRecord
  2
MCAD_NO_VIS
 70
     0
  0
APPID
  5
1BA
330
9
100
AcDbSymbolTableRecord
100
AcDbRegAppTableRecord
  2
ACAD_TEMP_GRAPHIC
 70
     0
  0
APPID
  5
1EA
330
9
100
AcDbSymbolTableRecord
100
AcDbRegAppTableRecord
  2
AD_DRAW
 70
     0
  0
APPID
  5
1ED
330
9
100
AcDbSymbolTableRecord
100
AcDbRegAppTableRecord
  2
ACATTRIBSERVICES
 70
     0
  0
APPID
  5
20D
330
9
100
AcDbSymbolTableRecord
100
AcDbRegAppTableRecord
  2
DESIGNERASSEMBLIES
 70
     0
  0
APPID
  5
213
330
9
100
AcDbSymbolTableRecord
100
AcDbRegAppTableRecord
  2
ACADM_DIM_EDIT
 70
     0
  0
APPID
  5
214
330
9
100
AcDbSymbolTableRecord
100
AcDbRegAppTableRecord
  2
AMDT_DM_ADJ
 70
     0
  0
APPID
  5
22C
330
9
100
AcDbSymbolTableRecord
100
AcDbRegAppTableRecord
  2
ACAD_DSTYLE_DIMJAG
 70
     0
  0
APPID
  5
22D
330
9
100
AcDbSymbolTableRecord
100
AcDbRegAppTableRecord
  2
ACAD_DSTYLE_DIMBREAK
 70
     0
  0
APPID
  5
259
330
9
100
AcDbSymbolTableRecord
100
AcDbRegAppTableRecord
  2
ACAD_EXEMPT_FROM_CAD_STANDARDS
 70
     0
  0
APPID
  5
3D2
330
9
100
AcDbSymbolTableRecord
100
AcDbRegAppTableRecord
  2
AcAecLayerStandard
 70
     0
  0
APPID
  5
3D3
330
9
100
AcDbSymbolTableRecord
100
AcDbRegAppTableRecord
  2
AcCmTransparency
 70
     0
  0
APPID
  5
3DD
330
9
100
AcDbSymbolTableRecord
100
AcDbRegAppTableRecord
  2
ACAD_NAV_VCDISPLAY
 70
     0
  0
APPID
  5
43F
330
9
100
AcDbSymbolTableRecord
100
AcDbRegAppTableRecord
  2
AcadAnnoPO
 70
     0
  0
ENDTAB
  0
TABLE
  2
DIMSTYLE
  5
A
330
0
100
AcDbSymbolTable
 70
     7
100
AcDbDimStyleTable
 71
     1
340
27
  0
DIMSTYLE
105
27
330
A
100
AcDbSymbolTableRecord
100
AcDbDimStyleTableRecord
  2
Standard
 70
     0
340
11
  0
DIMSTYLE
105
22B
102
{ACAD_REACTORS
330
21B
102
}
330
A
100
AcDbSymbolTableRecord
100
AcDbDimStyleTableRecord
  2
AM_ANSI
 70
     0
  4
mm
 41
0.12
 42
0.05
 43
0.5
 44
0.1
 47
0.1
 48
0.1
 78
     7
 79
     2
 90
     1
140
0.12
141
0.0
146
0.71
147
0.06
176
   256
177
   256
178
   140
274
     4
284
     7
340
11
345
14
346
14
347
14
371
    -1
372
    -1
1001
ACAD_DSTYLE_DIMJAG
1070
   388
1040
1.5
1001
ACAD_DSTYLE_DIMBREAK
1070
   391
1040
0.125
  0
DIMSTYLE
105
23B
330
A
100
AcDbSymbolTableRecord
100
AcDbDimStyleTableRecord
  2
AM_ANSI$3
 70
     0
  4
mm
 41
0.12
 42
0.05
 43
0.5
 44
0.1
 47
0.1
 48
0.1
 78
     7
 79
     2
 90
     1
140
0.12
141
0.0
146
0.71
147
0.06
176
   256
177
   256
178
   140
274
     4
284
     7
288
     1
289
     0
340
11
345
14
346
14
347
14
371
    -1
372
    -1
1001
ACAD_DSTYLE_DIMBREAK
1070
   391
1040
0.125
1001
ACAD_DSTYLE_DIMJAG
1070
   388
1040
1.5
  0
DIMSTYLE
105
23C
330
A
100
AcDbSymbolTableRecord
100
AcDbDimStyleTableRecord
  2
AM_ANSI$4
 70
     0
  4
mm
 41
0.12
 42
0.05
 43
0.5
 44
0.1
 47
0.1
 48
0.1
 78
     7
 79
     2
 90
     1
140
0.12
141
0.0
146
0.71
147
0.06
176
   256
177
   256
178
   140
274
     4
284
     7
288
     1
289
     0
340
11
345
14
346
14
347
14
371
    -1
372
    -1
1001
ACAD_DSTYLE_DIMBREAK
1070
   391
1040
0.125
1001
ACAD_DSTYLE_DIMJAG
1070
   388
1040
1.5
  0
DIMSTYLE
105
23D
330
A
100
AcDbSymbolTableRecord
100
AcDbDimStyleTableRecord
  2
AM_ANSI$7
 70
     0
  4
mm
 41
0.12
 42
0.05
 43
0.5
 44
0.1
 47
0.1
 48
0.1
 78
     7
 79
     2
 90
     1
140
0.12
141
0.0
146
0.71
147
0.06
176
   256
177
   256
178
   140
274
     4
284
     7
340
11
345
14
346
14
347
14
371
    -1
372
    -1
1001
ACAD_DSTYLE_DIMBREAK
1070
   391
1040
0.125
1001
ACAD_DSTYLE_DIMJAG
1070
   388
1040
1.5
  0
DIMSTYLE
105
23E
330
A
100
AcDbSymbolTableRecord
100
AcDbDimStyleTableRecord
  2
AM_ANSI$SF
 70
     0
  4
mm
 41
0.12
 42
0.05
 43
0.5
 44
0.1
 47
0.1
 48
0.1
 75
     1
 76
     1
 78
     7
 79
     2
 90
     1
140
0.12
141
0.0
146
0.71
147
0.06
176
   256
177
   256
178
   140
274
     4
284
     7
340
11
345
14
346
14
347
14
371
    -1
372
    -1
1001
ACAD_DSTYLE_DIMBREAK
1070
   391
1040
0.125
1001
ACAD_DSTYLE_DIMJAG
1070
   388
1040
1.5
  0
DIMSTYLE
105
243
330
A
100
AcDbSymbolTableRecord
100
AcDbDimStyleTableRecord
  2
AM_ANSI$SH
 70
     0
  4
mm
 41
0.12
 42
0.05
 43
0.5
 44
0.1
 47
0.1
 48
0.1
 75
     1
 76
     1
 78
     7
 79
     2
 90
     1
140
0.12
141
0.0
146
0.71
147
0.06
173
     1
176
   256
177
   256
178
   140
274
     4
284
     7
340
11
343
23F
345
14
346
14
347
14
371
    -1
372
    -1
1001
ACAD_DSTYLE_DIMBREAK
1070
   391
1040
0.125
1001
ACAD_DSTYLE_DIMJAG
1070
   388
1040
1.5
  0
ENDTAB
  0
TABLE
  2
BLOCK_RECORD
  5
1
330
0
100
AcDbSymbolTable
 70
    16
  0
BLOCK_RECORD
  5
1F
102
{ACAD_XDICTIONARY
360
2C7
102
}
330
1
100
AcDbSymbolTableRecord
100
AcDbBlockTableRecord
  2
*Model_Space
340
22
 70
     0
280
     1
281
     0
  0
BLOCK_RECORD
  5
1B
330
1
100
AcDbSymbolTableRecord
100
AcDbBlockTableRecord
  2
*Paper_Space
340
1E
 70
     0
280
     1
281
     0
  0
BLOCK_RECORD
  5
23
330
1
100
AcDbSymbolTableRecord
100
AcDbBlockTableRecord
  2
*Paper_Space0
340
26
 70
     0
280
     1
281
     0
  0
BLOCK_RECORD
  5
3C
330
1
100
AcDbSymbolTableRecord
100
AcDbBlockTableRecord
  2
block 2
340
0
102
{BLKREFS
331
3D
102
}
 70
     0
280
     1
281
     0
  0
BLOCK_RECORD
  5
40
330
1
100
AcDbSymbolTableRecord
100
AcDbBlockTableRecord
  2
block 3
340
0
102
{BLKREFS
331
41
102
}
 70
     0
280
     1
281
     0
  0
BLOCK_RECORD
  5
44
330
1
100
AcDbSymbolTableRecord
100
AcDbBlockTableRecord
  2
block 4
340
0
102
{BLKREFS
331
45
102
}
 70
     0
280
     1
281
     0
  0
BLOCK_RECORD
  5
48
330
1
100
AcDbSymbolTableRecord
100
AcDbBlockTableRecord
  2
block 5
340
0
102
{BLKREFS
331
49
102
}
 70
     0
280
     1
281
     0
  0
BLOCK_RECORD
  5
4C
330
1
100
AcDbSymbolTableRecord
100
AcDbBlockTableRecord
  2
block 6
340
0
102
{BLKREFS
331
4D
102
}
 70
     0
280
     1
281
     0
  0
BLOCK_RECORD
  5
53
330
1
100
AcDbSymbolTableRecord
100
AcDbBlockTableRecord
  2
block 7
340
0
 70
     0
280
     1
281
     0
  0
BLOCK_RECORD
  5
5D
330
1
100
AcDbSymbolTableRecord
100
AcDbBlockTableRecord
  2
block 8
340
0
102
{BLKREFS
331
5E
102
}
 70
     0
280
     1
281
     0
  0
BLOCK_RECORD
  5
71
330
1
100
AcDbSymbolTableRecord
100
AcDbBlockTableRecord
  2
block 9
340
0
 70
     0
280
     1
281
     0
  0
BLOCK_RECORD
  5
93
330
1
100
AcDbSymbolTableRecord
100
AcDbBlockTableRecord
  2
block 10
340
0
 70
     0
280
     1
281
     0
  0
BLOCK_RECORD
  5
E7
330
1
100
AcDbSymbolTableRecord
100
AcDbBlockTableRecord
  2
block 11
340
0
 70
     0
280
     1
281
     0
  0
BLOCK_RECORD
  5
EB
330
1
100
AcDbSymbolTableRecord
100
AcDbBlockTableRecord
  2
block 12
340
0
102
{BLKREFS
331
EC
102
}
 70
     0
280
     1
281
     0
  0
BLOCK_RECORD
  5
107
330
1
100
AcDbSymbolTableRecord
100
AcDbBlockTableRecord
  2
block 13
340
0
 70
     0
280
     1
281
     0
  0
BLOCK_RECORD
  5
10D
330
1
100
AcDbSymbolTableRecord
100
AcDbBlockTableRecord
  2
block 14
340
0
102
{BLKREFS
331
10E
102
}
 70
     0
280
     1
281
     0
  0
BLOCK_RECORD
  5
205
330
1
100
AcDbSymbolTableRecord
100
AcDbBlockTableRecord
  2
*U14
340
0
 70
     0
280
     1
281
     0
  0
BLOCK_RECORD
  5
23F
330
1
100
AcDbSymbolTableRecord
100
AcDbBlockTableRecord
  2
GENAXEH
340
0
 70
     0
280
     1
281
     0
  0
ENDTAB
  0
ENDSEC
  0
SECTION
  2
BLOCKS
  0
BLOCK
  5
20
330
1F
100
AcDbEntity
  8
0
100
AcDbBlockBegin
  2
*Model_Space
 70
     0
 10
0.0
 20
0.0
 30
0.0
  3
*Model_Space
  1

  0
ENDBLK
  5
21
330
1F
100
AcDbEntity
  8
0
100
AcDbBlockEnd
  0
BLOCK
  5
1C
330
1B
100
AcDbEntity
 67
     1
  8
0
100
AcDbBlockBegin
  2
*Paper_Space
 70
     0
 10
0.0
 20
0.0
 30
0.0
  3
*Paper_Space
  1

  0
ENDBLK
  5
1D
330
1B
100
AcDbEntity
 67
     1
  8
0
100
AcDbBlockEnd
  0
BLOCK
  5
24
330
23
100
AcDbEntity
 67
     1
  8
0
100
AcDbBlockBegin
  2
*Paper_Space0
 70
     0
 10
0.0
 20
0.0
 30
0.0
  3
*Paper_Space0
  1

  0
ENDBLK
  5
25
330
23
100
AcDbEntity
 67
     1
  8
0
100
AcDbBlockEnd
  0
BLOCK
  5
3E
330
3C
100
AcDbEntity
  8
0
100
AcDbBlockBegin
  2
block 2
 70
     0
 10
0.0
 20
0.0
 30
0.0
  3
block 2
  1

  0
ENDBLK
  5
3F
330
3C
100
AcDbEntity
  8
0
100
AcDbBlockEnd
  0
BLOCK
  5
42
330
40
100
AcDbEntity
  8
0
100
AcDbBlockBegin
  2
block 3
 70
     0
 10
0.0
 20
0.0
 30
0.0
  3
block 3
  1

  0
ENDBLK
  5
43
330
40
100
AcDbEntity
  8
0
100
AcDbBlockEnd
  0
BLOCK
  5
46
330
44
100
AcDbEntity
  8
0
100
AcDbBlockBegin
  2
block 4
 70
     0
 10
0.0
 20
0.0
 30
0.0
  3
block 4
  1

  0
INSERT
  5
49
330
44
100
AcDbEntity
  8
Layer 1
100
AcDbBlockReference
  2
block 5
 10
0.0
 20
0.0
 30
0.0
  0
INSERT
  5
4D
330
44
100
AcDbEntity
  8
Layer 1
100
AcDbBlockReference
  2
block 6
 10
0.0
 20
0.0
 30
0.0
  0
ENDBLK
  5
47
330
44
100
AcDbEntity
  8
0
100
AcDbBlockEnd
  0
BLOCK
  5
4A
330
48
100
AcDbEntity
  8
0
100
AcDbBlockBegin
  2
block 5
 70
     0
 10
0.0
 20
0.0
 30
0.0
  3
block 5
  1

  0
ENDBLK
  5
4B
330
48
100
AcDbEntity
  8
0
100
AcDbBlockEnd
  0
BLOCK
  5
4E
330
4C
100
AcDbEntity
  8
0
100
AcDbBlockBegin
  2
block 6
 70
     0
 10
0.0
 20
0.0
 30
0.0
  3
block 6
  1

  0
ENDBLK
  5
4F
330
4C
100
AcDbEntity
  8
0
100
AcDbBlockEnd
  0
BLOCK
  5
55
330
53
100
AcDbEntity
  8
0
100
AcDbBlockBegin
  2
block 7
 70
     0
 10
0.0
 20
0.0
 30
0.0
  3
block 7
  1

  0
POLYLINE
  5
57
330
53
100
AcDbEntity
  8
Layer 1
 62
    99
370
     9
100
AcDb2dPolyline
 66
     1
 10
0.0
 20
0.0
 30
0.0
  0
VERTEX
  5
58
330
57
100
AcDbEntity
  8
Layer 1
 62
    99
370
     9
100
AcDbVertex
100
AcDb2dVertex
 10
108.9747436251
 20
-56.74089489683908
 30
0.0
  0
VERTEX
  5
165
330
57
100
AcDbEntity
  8
0
100
AcDbVertex
100
AcDb2dVertex
 10
108.9747436251
 20
-56.74089489683908
 30
0.0
  0
SEQEND
  5
59
330
57
100
AcDbEntity
  8
Layer 1
370
     9
  0
POLYLINE
  5
5A
330
53
100
AcDbEntity
  8
Layer 1
 62
    99
370
     9
100
AcDb2dPolyline
 66
     1
 10
0.0
 20
0.0
 30
0.0
  0
VERTEX
  5
5B
330
5A
100
AcDbEntity
  8
Layer 1
 62
    99
370
     9
100
AcDbVertex
100
AcDb2dVertex
 10
108.9747436251
 20
-56.74089489683908
 30
0.0
  0
VERTEX
  5
166
330
5A
100
AcDbEntity
  8
0
100
AcDbVertex
100
AcDb2dVertex
 10
108.9747436251
 20
-56.74089489683908
 30
0.0
  0
SEQEND
  5
5C
330
5A
100
AcDbEntity
  8
Layer 1
370
     9
  0
INSERT
  5
5E
330
53
100
AcDbEntity
  8
Layer 1
100
AcDbBlockReference
  2
block 8
 10
0.0
 20
0.0
 30
0.0
  0
ENDBLK
  5
56
330
53
100
AcDbEntity
  8
0
100
AcDbBlockEnd
  0
BLOCK
  5
5F
330
5D
100
AcDbEntity
  8
0
100
AcDbBlockBegin
  2
block 8
 70
     0
 10
0.0
 20
0.0
 30
0.0
  3
block 8
  1

  0
POLYLINE
  5
61
330
5D
100
AcDbEntity
  8
Layer 1
 62
   250
370
     9
100
AcDb2dPolyline
 66
     1
 10
0.0
 20
0.0
 30
0.0
  0
VERTEX
  5
62
330
61
100
AcDbEntity
  8
Layer 1
 62
   250
370
     9
100
AcDbVertex
100
AcDb2dVertex
 10
108.6495266112925
 20
-61.52630478062537
 30
0.0
  0
VERTEX
  5
167
330
61
100
AcDbEntity
  8
0
100
AcDbVertex
100
AcDb2dVertex
 10
108.6495266112925
 20
-61.52630478062537
 30
0.0
  0
SEQEND
  5
63
330
61
100
AcDbEntity
  8
Layer 1
370
     9
  0
SPLINE
  5
64
330
5D
100
AcDbEntity
  8
Layer 1
 62
   250
370
     9
100
AcDbSpline
210
0.0
220
0.0
230
1.0
 70
     8
 71
     3
 72
    17
 73
    13
 74
     0
 42
0.000000001
 43
0.0000000001
 40
0.0
 40
0.0
 40
0.0
 40
0.0
 40
1.0
 40
1.0
 40
1.0
 40
2.0
 40
2.0
 40
2.0
 40
3.0
 40
3.0
 40
3.0
 40
4.0
 40
4.0
 40
4.0
 40
4.0
 10
108.5496188422202
 20
-68.77805852230202
 30
0.0
 10
108.5496188422202
 20
-68.77805852230202
 30
0.0
 10
106.5101223149523
 20
-68.73895668854443
 30
0.0
 10
104.5939602060564
 20
-68.52966713781551
 30
0.0
 10
104.5567531748156
 20
-68.51674802974581
 30
0.0
 10
104.5770792381786
 20
-68.26801213571077
 30
0.0
 10
104.6063625498033
 20
-68.26801213571077
 30
0.0
 10
104.6366793900734
 20
-68.26801213571077
 30
0.0
 10
105.1000447328396
 20
-68.21599119388351
 30
0.0
 10
105.2192450366292
 20
-64.20710583247253
 30
0.0
 10
105.2251016989541
 20
-63.78043075662434
 30
0.0
 10
105.2964151754988
 20
-63.44556747545805
 30
0.0
 10
105.4197495938707
 20
-63.18236218038497
 30
0.0
  0
SPLINE
  5
65
330
5D
100
AcDbEntity
  8
Layer 1
 62
   250
370
     9
100
AcDbSpline
210
0.0
220
0.0
230
1.0
 70
     8
 71
     3
 72
    17
 73
    13
 74
     0
 42
0.000000001
 43
0.0000000001
 40
0.0
 40
0.0
 40
0.0
 40
0.0
 40
1.0
 40
1.0
 40
1.0
 40
2.0
 40
2.0
 40
2.0
 40
3.0
 40
3.0
 40
3.0
 40
4.0
 40
4.0
 40
4.0
 40
4.0
 10
108.5861368543639
 20
-68.77805852230202
 30
0.0
 10
108.5861368543639
 20
-68.77805852230202
 30
0.0
 10
110.7427666281303
 20
-68.73895668854443
 30
0.0
 10
112.6585842274777
 20
-68.52966713781551
 30
0.0
 10
112.6957912587184
 20
-68.51674802974581
 30
0.0
 10
112.6758097049039
 20
-68.26801213571077
 30
0.0
 10
112.6461818837308
 20
-68.26801213571077
 30
0.0
 10
112.6162095530091
 20
-68.26801213571077
 30
0.0
 10
112.1524997006945
 20
-68.21599119388351
 30
0.0
 10
112.0332993969048
 20
-64.20710583247253
 30
0.0
 10
112.0274427345799
 20
-63.78043075662434
 30
0.0
 10
111.9561292580353
 20
-63.44556747545805
 30
0.0
 10
111.8327948396633
 20
-63.18236218038497
 30
0.0
  0
SPLINE
  5
66
330
5D
100
AcDbEntity
  8
Layer 1
 62
   250
370
     9
100
AcDbSpline
210
0.0
220
0.0
230
1.0
 70
     8
 71
     3
 72
    14
 73
    10
 74
     0
 42
0.000000001
 43
0.0000000001
 40
0.0
 40
0.0
 40
0.0
 40
0.0
 40
1.0
 40
1.0
 40
1.0
 40
2.0
 40
2.0
 40
2.0
 40
3.0
 40
3.0
 40
3.0
 40
3.0
 10
104.5629543466891
 20
-68.27903644126357
 30
0.0
 10
104.5629543466891
 20
-68.27903644126357
 30
0.0
 10
103.7106377236383
 20
-68.11057127203486
 30
0.0
 10
103.5514743122198
 20
-67.84805499605882
 30
0.0
 10
103.3919663912527
 20
-67.58588322963131
 30
0.0
 10
104.2418714474638
 20
-62.88470593045938
 30
0.0
 10
104.2938923892911
 20
-60.60887585290334
 30
0.0
 10
104.320764134076
 20
-59.43134221604495
 30
0.0
 10
105.2192450366292
 20
-57.01081812810841
 30
0.0
 10
108.6495266112925
 20
-56.94363876614604
 30
0.0
  0
SPLINE
  5
67
330
5D
100
AcDbEntity
  8
Layer 1
 62
   250
370
     9
100
AcDbSpline
210
0.0
220
0.0
230
1.0
 70
     8
 71
     3
 72
    14
 73
    10
 74
     0
 42
0.000000001
 43
0.0000000001
 40
0.0
 40
0.0
 40
0.0
 40
0.0
 40
1.0
 40
1.0
 40
1.0
 40
2.0
 40
2.0
 40
2.0
 40
3.0
 40
3.0
 40
3.0
 40
3.0
 10
112.6609957943174
 20
-68.27903644126357
 30
0.0
 10
112.6609957943174
 20
-68.27903644126357
 30
0.0
 10
113.5129679078197
 20
-68.11057127203486
 30
0.0
 10
113.6724758287867
 20
-67.84805499605882
 30
0.0
 10
113.8316392402053
 20
-67.58588322963131
 30
0.0
 10
112.9824232030912
 20
-62.88470593045938
 30
0.0
 10
112.9297132421669
 20
-60.60887585290334
 30
0.0
 10
112.9028414973819
 20
-59.43134221604495
 30
0.0
 10
112.0047051043773
 20
-57.01081812810841
 30
0.0
 10
108.574423529714
 20
-56.94363876614604
 30
0.0
  0
SPLINE
  5
68
330
5D
100
AcDbEntity
  8
Layer 1
 62
   250
370
     9
100
AcDbSpline
210
0.0
220
0.0
230
1.0
 70
     8
 71
     3
 72
    14
 73
    10
 74
     0
 42
0.000000001
 43
0.0000000001
 40
0.0
 40
0.0
 40
0.0
 40
0.0
 40
1.0
 40
1.0
 40
1.0
 40
2.0
 40
2.0
 40
2.0
 40
3.0
 40
3.0
 40
3.0
 40
3.0
 10
108.6684746364613
 20
-60.5470363889431
 30
0.0
 10
108.6684746364613
 20
-60.5470363889431
 30
0.0
 10
105.8173136128686
 20
-60.52602130648308
 30
0.0
 10
105.1486205791816
 20
-61.97261690073949
 30
0.0
 10
105.4173380270311
 20
-62.80546873429863
 30
0.0
 10
105.4469658482042
 20
-63.19717609097154
 30
0.0
 10
105.4469658482042
 20
-63.19717609097154
 30
0.0
 10
105.4469658482042
 20
-63.19717609097154
 30
0.0
 10
106.9979478356637
 20
-62.95222980197028
 30
0.0
 10
108.6684746364613
 20
-62.89211288575266
 30
0.0
  0
SPLINE
  5
69
330
5D
100
AcDbEntity
  8
Layer 1
 62
   250
370
     9
100
AcDbSpline
210
0.0
220
0.0
230
1.0
 70
     8
 71
     3
 72
    14
 73
    10
 74
     0
 42
0.000000001
 43
0.0000000001
 40
0.0
 40
0.0
 40
0.0
 40
0.0
 40
1.0
 40
1.0
 40
1.0
 40
2.0
 40
2.0
 40
2.0
 40
3.0
 40
3.0
 40
3.0
 40
3.0
 10
108.6395358343852
 20
-60.5470363889431
 30
0.0
 10
108.6395358343852
 20
-60.5470363889431
 30
0.0
 10
111.5654554300079
 20
-60.51275768886487
 30
0.0
 10
112.159389891665
 20
-61.97261690073949
 30
0.0
 10
111.890327934267
 20
-62.80546873429863
 30
0.0
 10
111.8610446226424
 20
-63.19717609097154
 30
0.0
 10
111.8610446226424
 20
-63.19717609097154
 30
0.0
 10
111.8610446226424
 20
-63.19717609097154
 30
0.0
 10
110.3100626351829
 20
-62.95222980197028
 30
0.0
 10
108.6395358343852
 20
-62.89211288575266
 30
0.0
  0
POLYLINE
  5
6A
330
5D
100
AcDbEntity
  8
Layer 1
 62
   250
370
     9
100
AcDb2dPolyline
 66
     1
 10
0.0
 20
0.0
 30
0.0
  0
VERTEX
  5
6B
330
6A
100
AcDbEntity
  8
Layer 1
 62
   250
370
     9
100
AcDbVertex
100
AcDb2dVertex
 10
104.4358303232834
 20
-61.49133706145008
 30
0.0
  0
VERTEX
  5
168
330
6A
100
AcDbEntity
  8
0
100
AcDbVertex
100
AcDb2dVertex
 10
104.4358303232834
 20
-61.49133706145008
 30
0.0
  0
SEQEND
  5
6C
330
6A
100
AcDbEntity
  8
Layer 1
370
     9
  0
POLYLINE
  5
6D
330
5D
100
AcDbEntity
  8
Layer 1
 62
   250
370
     9
100
AcDb2dPolyline
 66
     1
 10
0.0
 20
0.0
 30
0.0
  0
VERTEX
  5
6E
330
6D
100
AcDbEntity
  8
Layer 1
 62
   250
370
     9
100
AcDbVertex
100
AcDb2dVertex
 10
103.692034208018
 20
-67.78328720093613
 30
0.0
  0
VERTEX
  5
169
330
6D
100
AcDbEntity
  8
0
100
AcDbVertex
100
AcDb2dVertex
 10
103.692034208018
 20
-67.78328720093613
 30
0.0
  0
SEQEND
  5
6F
330
6D
100
AcDbEntity
  8
Layer 1
370
     9
  0
SPLINE
  5
70
330
5D
100
AcDbEntity
  8
Layer 1
 62
   250
370
     9
100
AcDbSpline
210
0.0
220
0.0
230
1.0
 70
     8
 71
     3
 72
     8
 73
     4
 74
     0
 42
0.000000001
 43
0.0000000001
 40
0.0
 40
0.0
 40
0.0
 40
0.0
 40
1.0
 40
1.0
 40
1.0
 40
1.0
 10
112.159389891665
 20
-61.97261690073949
 30
0.0
 10
112.159389891665
 20
-61.97261690073949
 30
0.0
 10
108.9582071667708
 20
-60.9103217078627
 30
0.0
 10
105.1486205791816
 20
-61.97261690073949
 30
0.0
  0
ENDBLK
  5
60
330
5D
100
AcDbEntity
  8
0
100
AcDbBlockEnd
  0
BLOCK
  5
73
330
71
100
AcDbEntity
  8
0
100
AcDbBlockBegin
  2
block 9
 70
     0
 10
0.0
 20
0.0
 30
0.0
  3
block 9
  1

  0
SPLINE
  5
75
330
71
100
AcDbEntity
  8
Layer 1
 62
   250
370
     9
100
AcDbSpline
210
0.0
220
0.0
230
1.0
 70
    11
 71
     3
 72
    53
 73
    49
 74
     0
 42
0.000000001
 43
0.0000000001
 40
0.0
 40
0.0
 40
0.0
 40
0.0
 40
1.0
 40
1.0
 40
1.0
 40
2.0
 40
2.0
 40
2.0
 40
3.0
 40
3.0
 40
3.0
 40
4.0
 40
4.0
 40
4.0
 40
5.0
 40
5.0
 40
5.0
 40
6.0
 40
6.0
 40
6.0
 40
7.0
 40
7.0
 40
7.0
 40
8.0
 40
8.0
 40
8.0
 40
9.0
 40
9.0
 40
9.0
 40
10.0
 40
10.0
 40
10.0
 40
11.0
 40
11.0
 40
11.0
 40
12.0
 40
12.0
 40
12.0
 40
13.0
 40
13.0
 40
13.0
 40
14.0
 40
14.0
 40
14.0
 40
15.0
 40
15.0
 40
15.0
 40
16.0
 40
16.0
 40
16.0
 40
16.0
 10
172.4290960940455
 20
-62.10628660556718
 30
0.0
 10
172.4290960940455
 20
-62.10628660556718
 30
0.0
 10
177.3025281674799
 20
-62.97048880804211
 30
0.0
 10
178.5207139310642
 20
-63.19166393819514
 30
0.0
 10
179.1442762138945
 20
-63.29329425501001
 30
0.0
 10
179.1263617173712
 20
-63.00321721515198
 30
0.0
 10
179.3385795992626
 20
-62.50936277734141
 30
0.0
 10
180.1330186181612
 20
-60.23318819023685
 30
0.0
 10
180.4003580278166
 20
-59.44650063618005
 30
0.0
 10
180.5622775156233
 20
-58.89804143492827
 30
0.0
 10
181.096267315837
 20
-57.07524141368258
 30
0.0
 10
182.1353081141884
 20
-57.19306367927813
 30
0.0
 10
182.4054036002319
 20
-57.20426023960519
 30
0.0
 10
182.6748100671785
 20
-57.21407876173815
 30
0.0
 10
183.0716850670793
 20
-57.26248235330591
 30
0.0
 10
183.1378309003961
 20
-57.34189180424092
 30
0.0
 10
183.2039767337129
 20
-57.42164576472445
 30
0.0
 10
183.0606607615265
 20
-57.73980033278728
 30
0.0
 10
182.8987412737197
 20
-58.53079425620063
 30
0.0
 10
182.736821785913
 20
-59.32144367006547
 30
0.0
 10
180.6835448767041
 20
-68.44164494816737
 30
0.0
 10
180.6835448767041
 20
-68.44164494816737
 30
0.0
 10
180.6835448767041
 20
-68.44164494816737
 30
0.0
 10
180.6608072465014
 20
-68.49883353322252
 30
0.0
 10
180.6036186614463
 20
-68.56739093337899
 30
0.0
 10
179.5749131495507
 20
-68.65903047328663
 30
0.0
 10
177.8909504763606
 20
-68.64645587476548
 30
0.0
 10
177.8909504763606
 20
-68.64645587476548
 30
0.0
 10
177.8909504763606
 20
-68.64645587476548
 30
0.0
 10
174.2928927515656
 20
-68.64766165818531
 30
0.0
 10
174.2928927515656
 20
-68.64766165818531
 30
0.0
 10
174.2928927515656
 20
-68.64766165818531
 30
0.0
 10
171.3804090283354
 20
-68.60907658875051
 30
0.0
 10
171.3804090283354
 20
-68.60907658875051
 30
0.0
 10
171.3804090283354
 20
-68.60907658875051
 30
0.0
 10
171.3080620231452
 20
-68.58254935351408
 30
0.0
 10
171.3211533859891
 20
-68.41029457925159
 30
0.0
 10
171.361116493618
 20
-67.89077418007592
 30
0.0
 10
171.9185329431315
 20
-64.12976343882867
 30
0.0
 10
171.9185329431315
 20
-64.12976343882867
 30
0.0
 10
171.9185329431315
 20
-64.12976343882867
 30
0.0
 10
171.9336913632665
 20
-64.03536782253283
 30
0.0
 10
171.9336913632665
 20
-64.03536782253283
 30
0.0
 10
171.9336913632665
 20
-64.03536782253283
 30
0.0
 10
171.9984591583893
 20
-63.56304523150507
 30
0.0
 10
172.1452202260609
 20
-62.76791719350941
 30
0.0
 10
172.3030055992853
 20
-61.99345972842525
 30
0.0
 10
172.4290960940455
 20
-62.10628660556718
 30
0.0
 10
172.4290960940455
 20
-62.10628660556718
 30
0.0
  0
SPLINE
  5
76
330
71
100
AcDbEntity
  8
Layer 1
 62
   250
370
     9
100
AcDbSpline
210
0.0
220
0.0
230
1.0
 70
     8
 71
     3
 72
    11
 73
     7
 74
     0
 42
0.000000001
 43
0.0000000001
 40
0.0
 40
0.0
 40
0.0
 40
0.0
 40
1.0
 40
1.0
 40
1.0
 40
2.0
 40
2.0
 40
2.0
 40
2.0
 10
178.4263183147684
 20
-63.14928926372657
 30
0.0
 10
179.1229166218859
 20
-63.23834498202028
 30
0.0
 10
180.4968207014035
 20
-58.55869952963116
 30
0.0
 10
180.5374728281295
 20
-58.46120332739859
 30
0.0
 10
180.5781249548554
 20
-58.36456839903733
 30
0.0
 10
180.7910318558439
 20
-57.92928058447602
 30
0.0
 10
181.1183159269426
 20
-57.75685355543926
 30
0.0
  0
SPLINE
  5
77
330
71
100
AcDbEntity
  8
Layer 1
 62
   250
370
     9
100
AcDbSpline
210
0.0
220
0.0
230
1.0
 70
     8
 71
     3
 72
    14
 73
    10
 74
     0
 42
0.000000001
 43
0.0000000001
 40
0.0
 40
0.0
 40
0.0
 40
0.0
 40
1.0
 40
1.0
 40
1.0
 40
2.0
 40
2.0
 40
2.0
 40
3.0
 40
3.0
 40
3.0
 40
3.0
 10
171.9336913632665
 20
-64.03536782253283
 30
0.0
 10
171.9336913632665
 20
-64.03536782253283
 30
0.0
 10
171.6401692279233
 20
-64.08067082816386
 30
0.0
 10
171.5774684900917
 20
-64.22295327170468
 30
0.0
 10
171.5133897140661
 20
-64.3652357152455
 30
0.0
 10
171.4121039067997
 20
-65.46180960820052
 30
0.0
 10
171.4086588113145
 20
-65.80890297833945
 30
0.0
 10
171.4534450526227
 20
-66.11982284588323
 30
0.0
 10
171.5898708338386
 20
-66.09605168703502
 30
0.0
 10
171.5898708338386
 20
-66.09605168703502
 30
0.0
  0
POLYLINE
  5
78
330
71
100
AcDbEntity
  8
Layer 1
 62
   250
370
     9
100
AcDb2dPolyline
 66
     1
 10
0.0
 20
0.0
 30
0.0
  0
VERTEX
  5
79
330
78
100
AcDbEntity
  8
Layer 1
 62
   250
370
     9
100
AcDbVertex
100
AcDb2dVertex
 10
171.5781575091888
 20
-64.24551864713307
 30
0.0
  0
VERTEX
  5
7A
330
78
100
AcDbEntity
  8
Layer 1
 62
   250
370
     9
100
AcDbVertex
100
AcDb2dVertex
 10
171.9019964848023
 20
-64.30339625128526
 30
0.0
  0
SEQEND
  5
7B
330
78
100
AcDbEntity
  8
Layer 1
370
     9
  0
POLYLINE
  5
7C
330
71
100
AcDbEntity
  8
Layer 1
 62
   250
370
     9
100
AcDb2dPolyline
 66
     1
 10
0.0
 20
0.0
 30
0.0
  0
VERTEX
  5
7D
330
7C
100
AcDbEntity
  8
Layer 1
 62
   250
370
     9
100
AcDbVertex
100
AcDb2dVertex
 10
172.726063324874
 20
-68.77805852230202
 30
0.0
  0
VERTEX
  5
7E
330
7C
100
AcDbEntity
  8
Layer 1
 62
   250
370
     9
100
AcDbVertex
100
AcDb2dVertex
 10
179.7602592866572
 20
-68.77805852230202
 30
0.0
  0
SEQEND
  5
7F
330
7C
100
AcDbEntity
  8
Layer 1
370
     9
  0
POLYLINE
  5
80
330
71
100
AcDbEntity
  8
Layer 1
 62
   250
370
     9
100
AcDb2dPolyline
 66
     1
 10
0.0
 20
0.0
 30
0.0
  0
VERTEX
  5
81
330
80
100
AcDbEntity
  8
Layer 1
 62
   250
370
     9
100
AcDbVertex
100
AcDb2dVertex
 10
179.7602592866572
 20
-68.77805852230202
 30
0.0
  0
VERTEX
  5
82
330
80
100
AcDbEntity
  8
Layer 1
 62
   250
370
     9
100
AcDbVertex
100
AcDb2dVertex
 10
179.7602592866572
 20
-68.65334606573597
 30
0.0
  0
SEQEND
  5
83
330
80
100
AcDbEntity
  8
Layer 1
370
     9
  0
POLYLINE
  5
84
330
71
100
AcDbEntity
  8
Layer 1
 62
   250
370
     9
100
AcDb2dPolyline
 66
     1
 10
0.0
 20
0.0
 30
0.0
  0
VERTEX
  5
85
330
84
100
AcDbEntity
  8
Layer 1
 62
   250
370
     9
100
AcDbVertex
100
AcDb2dVertex
 10
172.726063324874
 20
-68.65334606573597
 30
0.0
  0
VERTEX
  5
16A
330
84
100
AcDbEntity
  8
0
100
AcDbVertex
100
AcDb2dVertex
 10
172.726063324874
 20
-68.65334606573597
 30
0.0
  0
SEQEND
  5
86
330
84
100
AcDbEntity
  8
Layer 1
370
     9
  0
POLYLINE
  5
87
330
71
100
AcDbEntity
  8
Layer 1
 62
   250
370
     9
100
AcDb2dPolyline
 66
     1
 10
0.0
 20
0.0
 30
0.0
  0
VERTEX
  5
88
330
87
100
AcDbEntity
  8
Layer 1
 62
   250
370
     9
100
AcDbVertex
100
AcDb2dVertex
 10
179.7602592866572
 20
-68.65334606573597
 30
0.0
  0
VERTEX
  5
16B
330
87
100
AcDbEntity
  8
0
100
AcDbVertex
100
AcDb2dVertex
 10
179.7602592866572
 20
-68.65334606573597
 30
0.0
  0
SEQEND
  5
89
330
87
100
AcDbEntity
  8
Layer 1
370
     9
  0
POLYLINE
  5
8A
330
71
100
AcDbEntity
  8
Layer 1
 62
   250
370
     9
100
AcDb2dPolyline
 66
     1
 10
0.0
 20
0.0
 30
0.0
  0
VERTEX
  5
8B
330
8A
100
AcDbEntity
  8
Layer 1
 62
   250
370
     9
100
AcDbVertex
100
AcDb2dVertex
 10
172.726063324874
 20
-68.65334606573597
 30
0.0
  0
VERTEX
  5
8C
330
8A
100
AcDbEntity
  8
Layer 1
 62
   250
370
     9
100
AcDbVertex
100
AcDb2dVertex
 10
172.726063324874
 20
-68.77805852230202
 30
0.0
  0
SEQEND
  5
8D
330
8A
100
AcDbEntity
  8
Layer 1
370
     9
  0
ENDBLK
  5
74
330
71
100
AcDbEntity
  8
0
100
AcDbBlockEnd
  0
BLOCK
  5
95
330
93
100
AcDbEntity
  8
0
100
AcDbBlockBegin
  2
block 10
 70
     0
 10
0.0
 20
0.0
 30
0.0
  3
block 10
  1

  0
POLYLINE
  5
97
330
93
100
AcDbEntity
  8
Layer 1
 62
   250
370
     9
100
AcDb2dPolyline
 66
     1
 10
0.0
 20
0.0
 30
0.0
  0
VERTEX
  5
98
330
97
100
AcDbEntity
  8
Layer 1
 62
   250
370
     9
100
AcDbVertex
100
AcDb2dVertex
 10
146.0176160659261
 20
-88.77993840011404
 30
0.0
  0
VERTEX
  5
99
330
97
100
AcDbEntity
  8
Layer 1
 62
   250
370
     9
100
AcDbVertex
100
AcDb2dVertex
 10
146.0065917603733
 20
-88.71982148389644
 30
0.0
  0
VERTEX
  5
9A
330
97
100
AcDbEntity
  8
Layer 1
 62
   250
370
     9
100
AcDbVertex
100
AcDb2dVertex
 10
145.9872992256559
 20
-88.66228838929277
 30
0.0
  0
VERTEX
  5
9B
330
97
100
AcDbEntity
  8
Layer 1
 62
   250
370
     9
100
AcDbVertex
100
AcDb2dVertex
 10
145.960427480871
 20
-88.61061195701401
 30
0.0
  0
VERTEX
  5
9C
330
97
100
AcDbEntity
  8
Layer 1
 62
   250
370
     9
100
AcDbVertex
100
AcDb2dVertex
 10
145.9287326024067
 20
-88.56720375389988
 30
0.0
  0
VERTEX
  5
9D
330
97
100
AcDbEntity
  8
Layer 1
 62
   250
370
     9
100
AcDbVertex
100
AcDb2dVertex
 10
145.8918700807145
 20
-88.53034123220769
 30
0.0
  0
VERTEX
  5
9E
330
97
100
AcDbEntity
  8
Layer 1
 62
   250
370
     9
100
AcDbVertex
100
AcDb2dVertex
 10
145.8512179539886
 20
-88.503641742197
 30
0.0
  0
VERTEX
  5
9F
330
97
100
AcDbEntity
  8
Layer 1
 62
   250
370
     9
100
AcDbVertex
100
AcDb2dVertex
 10
145.8067762222289
 20
-88.48676077431928
 30
0.0
  0
VERTEX
  5
A0
330
97
100
AcDbEntity
  8
Layer 1
 62
   250
370
     9
100
AcDbVertex
100
AcDb2dVertex
 10
145.7619899809206
 20
-88.48090411199436
 30
0.0
  0
SEQEND
  5
A1
330
97
100
AcDbEntity
  8
Layer 1
370
     9
  0
POLYLINE
  5
A2
330
93
100
AcDbEntity
  8
Layer 1
 62
   250
370
     9
100
AcDb2dPolyline
 66
     1
 10
0.0
 20
0.0
 30
0.0
  0
VERTEX
  5
A3
330
A2
100
AcDbEntity
  8
Layer 1
 62
   250
370
     9
100
AcDbVertex
100
AcDb2dVertex
 10
145.7619899809206
 20
-88.48090411199436
 30
0.0
  0
VERTEX
  5
A4
330
A2
100
AcDbEntity
  8
Layer 1
 62
   250
370
     9
100
AcDbVertex
100
AcDb2dVertex
 10
139.0819498350212
 20
-88.48090411199436
 30
0.0
  0
SEQEND
  5
A5
330
A2
100
AcDbEntity
  8
Layer 1
370
     9
  0
POLYLINE
  5
A6
330
93
100
AcDbEntity
  8
Layer 1
 62
   250
370
     9
100
AcDb2dPolyline
 66
     1
 10
0.0
 20
0.0
 30
0.0
  0
VERTEX
  5
A7
330
A6
100
AcDbEntity
  8
Layer 1
 62
   250
370
     9
100
AcDbVertex
100
AcDb2dVertex
 10
138.8835123350708
 20
-88.77993840011404
 30
0.0
  0
VERTEX
  5
A8
330
A6
100
AcDbEntity
  8
Layer 1
 62
   250
370
     9
100
AcDbVertex
100
AcDb2dVertex
 10
138.8835123350708
 20
-91.55892467329083
 30
0.0
  0
SEQEND
  5
A9
330
A6
100
AcDbEntity
  8
Layer 1
370
     9
  0
POLYLINE
  5
AA
330
93
100
AcDbEntity
  8
Layer 1
 62
   250
370
     9
100
AcDb2dPolyline
 66
     1
 10
0.0
 20
0.0
 30
0.0
  0
VERTEX
  5
AB
330
AA
100
AcDbEntity
  8
Layer 1
 62
   250
370
     9
100
AcDbVertex
100
AcDb2dVertex
 10
146.0176160659261
 20
-88.77993840011404
 30
0.0
  0
VERTEX
  5
AC
330
AA
100
AcDbEntity
  8
Layer 1
 62
   250
370
     9
100
AcDbVertex
100
AcDb2dVertex
 10
146.0176160659261
 20
-91.55892467329083
 30
0.0
  0
SEQEND
  5
AD
330
AA
100
AcDbEntity
  8
Layer 1
370
     9
  0
POLYLINE
  5
AE
330
93
100
AcDbEntity
  8
Layer 1
 62
   250
370
     9
100
AcDb2dPolyline
 66
     1
 10
0.0
 20
0.0
 30
0.0
  0
VERTEX
  5
AF
330
AE
100
AcDbEntity
  8
Layer 1
 62
   250
370
     9
100
AcDbVertex
100
AcDb2dVertex
 10
138.8835123350708
 20
-91.55892467329083
 30
0.0
  0
VERTEX
  5
B0
330
AE
100
AcDbEntity
  8
Layer 1
 62
   250
370
     9
100
AcDbVertex
100
AcDb2dVertex
 10
138.8793782204885
 20
-91.60112709298514
 30
0.0
  0
VERTEX
  5
B1
330
AE
100
AcDbEntity
  8
Layer 1
 62
   250
370
     9
100
AcDbVertex
100
AcDb2dVertex
 10
138.8835123350708
 20
-91.64298500313092
 30
0.0
  0
VERTEX
  5
B2
330
AE
100
AcDbEntity
  8
Layer 1
 62
   250
370
     9
100
AcDbVertex
100
AcDb2dVertex
 10
138.8938476215265
 20
-91.68225909166277
 30
0.0
  0
VERTEX
  5
B3
330
AE
100
AcDbEntity
  8
Layer 1
 62
   250
370
     9
100
AcDbVertex
100
AcDb2dVertex
 10
138.9110730989528
 20
-91.72084416109758
 30
0.0
  0
VERTEX
  5
B4
330
AE
100
AcDbEntity
  8
Layer 1
 62
   250
370
     9
100
AcDbVertex
100
AcDb2dVertex
 10
138.9358777864466
 20
-91.75477835162729
 30
0.0
  0
VERTEX
  5
B5
330
AE
100
AcDbEntity
  8
Layer 1
 62
   250
370
     9
100
AcDbVertex
100
AcDb2dVertex
 10
138.9651610980712
 20
-91.78492293712322
 30
0.0
  0
VERTEX
  5
B6
330
AE
100
AcDbEntity
  8
Layer 1
 62
   250
370
     9
100
AcDbVertex
100
AcDb2dVertex
 10
138.9989230338266
 20
-91.80921086029423
 30
0.0
  0
VERTEX
  5
B7
330
AE
100
AcDbEntity
  8
Layer 1
 62
   250
370
     9
100
AcDbVertex
100
AcDb2dVertex
 10
139.0375081032614
 20
-91.82729761159178
 30
0.0
  0
VERTEX
  5
B8
330
AE
100
AcDbEntity
  8
Layer 1
 62
   250
370
     9
100
AcDbVertex
100
AcDb2dVertex
 10
139.0785047395359
 20
-91.83797740759606
 30
0.0
  0
VERTEX
  5
B9
330
AE
100
AcDbEntity
  8
Layer 1
 62
   250
370
     9
100
AcDbVertex
100
AcDb2dVertex
 10
139.1191568662619
 20
-91.84211152217837
 30
0.0
  0
SEQEND
  5
BA
330
AE
100
AcDbEntity
  8
Layer 1
370
     9
  0
POLYLINE
  5
BB
330
93
100
AcDbEntity
  8
Layer 1
 62
   250
370
     9
100
AcDb2dPolyline
 66
     1
 10
0.0
 20
0.0
 30
0.0
  0
VERTEX
  5
BC
330
BB
100
AcDbEntity
  8
Layer 1
 62
   250
370
     9
100
AcDbVertex
100
AcDb2dVertex
 10
139.1191568662619
 20
-91.84211152217837
 30
0.0
  0
VERTEX
  5
BD
330
BB
100
AcDbEntity
  8
Layer 1
 62
   250
370
     9
100
AcDbVertex
100
AcDb2dVertex
 10
145.6954996380553
 20
-91.84211152217837
 30
0.0
  0
VERTEX
  5
BE
330
BB
100
AcDbEntity
  8
Layer 1
 62
   250
370
     9
100
AcDbVertex
100
AcDb2dVertex
 10
145.7706027196337
 20
-91.84211152217837
 30
0.0
  0
VERTEX
  5
BF
330
BB
100
AcDbEntity
  8
Layer 1
 62
   250
370
     9
100
AcDbVertex
100
AcDb2dVertex
 10
145.8143554322964
 20
-91.83797740759606
 30
0.0
  0
VERTEX
  5
C0
330
BB
100
AcDbEntity
  8
Layer 1
 62
   250
370
     9
100
AcDbVertex
100
AcDb2dVertex
 10
145.8570746163135
 20
-91.82729761159178
 30
0.0
  0
VERTEX
  5
C1
330
BB
100
AcDbEntity
  8
Layer 1
 62
   250
370
     9
100
AcDbVertex
100
AcDb2dVertex
 10
145.8963487048453
 20
-91.80921086029423
 30
0.0
  0
VERTEX
  5
C2
330
BB
100
AcDbEntity
  8
Layer 1
 62
   250
370
     9
100
AcDbVertex
100
AcDb2dVertex
 10
145.9325222074405
 20
-91.78492293712322
 30
0.0
  0
VERTEX
  5
C3
330
BB
100
AcDbEntity
  8
Layer 1
 62
   250
370
     9
100
AcDbVertex
100
AcDb2dVertex
 10
145.9638725763563
 20
-91.75477835162729
 30
0.0
  0
VERTEX
  5
C4
330
BB
100
AcDbEntity
  8
Layer 1
 62
   250
370
     9
100
AcDbVertex
100
AcDb2dVertex
 10
145.98867726385
 20
-91.72084416109758
 30
0.0
  0
VERTEX
  5
C5
330
BB
100
AcDbEntity
  8
Layer 1
 62
   250
370
     9
100
AcDbVertex
100
AcDb2dVertex
 10
146.0059027412763
 20
-91.68225909166277
 30
0.0
  0
VERTEX
  5
C6
330
BB
100
AcDbEntity
  8
Layer 1
 62
   250
370
     9
100
AcDbVertex
100
AcDb2dVertex
 10
146.0189941041202
 20
-91.64264049358241
 30
0.0
  0
VERTEX
  5
C7
330
BB
100
AcDbEntity
  8
Layer 1
 62
   250
370
     9
100
AcDbVertex
100
AcDb2dVertex
 10
146.0217501805084
 20
-91.60078258343661
 30
0.0
  0
VERTEX
  5
C8
330
BB
100
AcDbEntity
  8
Layer 1
 62
   250
370
     9
100
AcDbVertex
100
AcDb2dVertex
 10
146.0172715563776
 20
-91.55892467329083
 30
0.0
  0
SEQEND
  5
C9
330
BB
100
AcDbEntity
  8
Layer 1
370
     9
  0
POLYLINE
  5
CA
330
93
100
AcDbEntity
  8
Layer 1
 62
   250
370
     9
100
AcDb2dPolyline
 66
     1
 10
0.0
 20
0.0
 30
0.0
  0
VERTEX
  5
CB
330
CA
100
AcDbEntity
  8
Layer 1
 62
   250
370
     9
100
AcDbVertex
100
AcDb2dVertex
 10
140.0317626603045
 20
-91.84211152217837
 30
0.0
  0
VERTEX
  5
CC
330
CA
100
AcDbEntity
  8
Layer 1
 62
   250
370
     9
100
AcDbVertex
100
AcDb2dVertex
 10
139.4323160458711
 20
-91.84211152217837
 30
0.0
  0
VERTEX
  5
CD
330
CA
100
AcDbEntity
  8
Layer 1
 62
   250
370
     9
100
AcDbVertex
100
AcDb2dVertex
 10
139.4323160458711
 20
-92.08154565840322
 30
0.0
  0
VERTEX
  5
CE
330
CA
100
AcDbEntity
  8
Layer 1
 62
   250
370
     9
100
AcDbVertex
100
AcDb2dVertex
 10
140.0317626603045
 20
-92.08154565840322
 30
0.0
  0
VERTEX
  5
CF
330
CA
100
AcDbEntity
  8
Layer 1
 62
   250
370
     9
100
AcDbVertex
100
AcDb2dVertex
 10
140.0317626603045
 20
-91.84211152217837
 30
0.0
  0
VERTEX
  5
D0
330
CA
100
AcDbEntity
  8
Layer 1
 62
   250
370
     9
100
AcDbVertex
100
AcDb2dVertex
 10
140.0317626603045
 20
-91.84211152217837
 30
0.0
  0
SEQEND
  5
D1
330
CA
100
AcDbEntity
  8
Layer 1
370
     9
  0
POLYLINE
  5
D2
330
93
100
AcDbEntity
  8
Layer 1
 62
   250
370
     9
100
AcDb2dPolyline
 66
     1
 10
0.0
 20
0.0
 30
0.0
  0
VERTEX
  5
D3
330
D2
100
AcDbEntity
  8
Layer 1
 62
   250
370
     9
100
AcDbVertex
100
AcDb2dVertex
 10
144.8380153717766
 20
-91.84211152217837
 30
0.0
  0
VERTEX
  5
D4
330
D2
100
AcDbEntity
  8
Layer 1
 62
   250
370
     9
100
AcDbVertex
100
AcDb2dVertex
 10
145.4371174766615
 20
-91.84211152217837
 30
0.0
  0
VERTEX
  5
D5
330
D2
100
AcDbEntity
  8
Layer 1
 62
   250
370
     9
100
AcDbVertex
100
AcDb2dVertex
 10
145.4371174766615
 20
-92.08154565840322
 30
0.0
  0
VERTEX
  5
D6
330
D2
100
AcDbEntity
  8
Layer 1
 62
   250
370
     9
100
AcDbVertex
100
AcDb2dVertex
 10
144.8380153717766
 20
-92.08154565840322
 30
0.0
  0
VERTEX
  5
D7
330
D2
100
AcDbEntity
  8
Layer 1
 62
   250
370
     9
100
AcDbVertex
100
AcDb2dVertex
 10
144.8380153717766
 20
-91.84211152217837
 30
0.0
  0
VERTEX
  5
D8
330
D2
100
AcDbEntity
  8
Layer 1
 62
   250
370
     9
100
AcDbVertex
100
AcDb2dVertex
 10
144.8380153717766
 20
-91.84211152217837
 30
0.0
  0
SEQEND
  5
D9
330
D2
100
AcDbEntity
  8
Layer 1
370
     9
  0
POLYLINE
  5
DA
330
93
100
AcDbEntity
  8
Layer 1
 62
   250
370
     9
100
AcDb2dPolyline
 66
     1
 10
0.0
 20
0.0
 30
0.0
  0
VERTEX
  5
DB
330
DA
100
AcDbEntity
  8
Layer 1
 62
   250
370
     9
100
AcDbVertex
100
AcDb2dVertex
 10
138.8966036979147
 20
-88.72860647738383
 30
0.0
  0
VERTEX
  5
DC
330
DA
100
AcDbEntity
  8
Layer 1
 62
   250
370
     9
100
AcDbVertex
100
AcDb2dVertex
 10
138.9045274175308
 20
-88.67899710239623
 30
0.0
  0
VERTEX
  5
DD
330
DA
100
AcDbEntity
  8
Layer 1
 62
   250
370
     9
100
AcDbVertex
100
AcDb2dVertex
 10
138.9189968185688
 20
-88.63145478469979
 30
0.0
  0
VERTEX
  5
DE
330
DA
100
AcDbEntity
  8
Layer 1
 62
   250
370
     9
100
AcDbVertex
100
AcDb2dVertex
 10
138.9379448437377
 20
-88.58821883635989
 30
0.0
  0
VERTEX
  5
DF
330
DA
100
AcDbEntity
  8
Layer 1
 62
   250
370
     9
100
AcDbVertex
100
AcDb2dVertex
 10
138.9606824739404
 20
-88.55187307899051
 30
0.0
  0
VERTEX
  5
E0
330
DA
100
AcDbEntity
  8
Layer 1
 62
   250
370
     9
100
AcDbVertex
100
AcDb2dVertex
 10
138.9875542187253
 20
-88.52172849349457
 30
0.0
  0
VERTEX
  5
E1
330
DA
100
AcDbEntity
  8
Layer 1
 62
   250
370
     9
100
AcDbVertex
100
AcDb2dVertex
 10
139.0178710589955
 20
-88.49933537284044
 30
0.0
  0
VERTEX
  5
E2
330
DA
100
AcDbEntity
  8
Layer 1
 62
   250
370
     9
100
AcDbVertex
100
AcDb2dVertex
 10
139.0499104470083
 20
-88.48572724567372
 30
0.0
  0
VERTEX
  5
E3
330
DA
100
AcDbEntity
  8
Layer 1
 62
   250
370
     9
100
AcDbVertex
100
AcDb2dVertex
 10
139.0819498350212
 20
-88.48090411199436
 30
0.0
  0
SEQEND
  5
E4
330
DA
100
AcDbEntity
  8
Layer 1
370
     9
  0
ENDBLK
  5
96
330
93
100
AcDbEntity
  8
0
100
AcDbBlockEnd
  0
BLOCK
  5
E9
330
E7
100
AcDbEntity
  8
0
100
AcDbBlockBegin
  2
block 11
 70
     0
 10
0.0
 20
0.0
 30
0.0
  3
block 11
  1

  0
INSERT
  5
EC
330
E7
100
AcDbEntity
  8
Layer 1
100
AcDbBlockReference
  2
block 12
 10
0.0
 20
0.0
 30
0.0
  0
POLYLINE
  5
100
330
E7
100
AcDbEntity
  8
Layer 1
 62
   250
370
     9
100
AcDb2dPolyline
 66
     1
 10
0.0
 20
0.0
 30
0.0
  0
VERTEX
  5
101
330
100
100
AcDbEntity
  8
Layer 1
 62
   250
370
     9
100
AcDbVertex
100
AcDb2dVertex
 10
146.3945095120125
 20
-68.77805852230202
 30
0.0
  0
VERTEX
  5
102
330
100
100
AcDbEntity
  8
Layer 1
 62
   250
370
     9
100
AcDbVertex
100
AcDb2dVertex
 10
138.5066188889844
 20
-68.77805852230202
 30
0.0
  0
VERTEX
  5
103
330
100
100
AcDbEntity
  8
Layer 1
 62
   250
370
     9
100
AcDbVertex
100
AcDb2dVertex
 10
138.5066188889844
 20
-68.64748940341105
 30
0.0
  0
VERTEX
  5
104
330
100
100
AcDbEntity
  8
Layer 1
 62
   250
370
     9
100
AcDbVertex
100
AcDb2dVertex
 10
146.3945095120125
 20
-68.64748940341105
 30
0.0
  0
VERTEX
  5
105
330
100
100
AcDbEntity
  8
Layer 1
 62
   250
370
     9
100
AcDbVertex
100
AcDb2dVertex
 10
146.3945095120125
 20
-68.77805852230202
 30
0.0
  0
SEQEND
  5
106
330
100
100
AcDbEntity
  8
Layer 1
370
     9
  0
ENDBLK
  5
EA
330
E7
100
AcDbEntity
  8
0
100
AcDbBlockEnd
  0
BLOCK
  5
ED
330
EB
100
AcDbEntity
  8
0
100
AcDbBlockBegin
  2
block 12
 70
     0
 10
0.0
 20
0.0
 30
0.0
  3
block 12
  1

  0
POLYLINE
  5
EF
330
EB
100
AcDbEntity
  8
Layer 1
 62
   250
370
     9
100
AcDb2dPolyline
 66
     1
 10
0.0
 20
0.0
 30
0.0
  0
VERTEX
  5
F0
330
EF
100
AcDbEntity
  8
Layer 1
 62
   250
370
     9
100
AcDbVertex
100
AcDb2dVertex
 10
142.4285155893928
 20
-66.17391084500166
 30
0.0
  0
VERTEX
  5
F1
330
EF
100
AcDbEntity
  8
Layer 1
 62
   250
370
     9
100
AcDbVertex
100
AcDb2dVertex
 10
138.7918727951631
 20
-66.17391084500166
 30
0.0
  0
SEQEND
  5
F2
330
EF
100
AcDbEntity
  8
Layer 1
370
     9
  0
SPLINE
  5
F3
330
EB
100
AcDbEntity
  8
Layer 1
 62
   250
370
     9
100
AcDbSpline
210
0.0
220
0.0
230
1.0
 70
     8
 71
     3
 72
    20
 73
    16
 74
     0
 42
0.000000001
 43
0.0000000001
 40
0.0
 40
0.0
 40
0.0
 40
0.0
 40
1.0
 40
1.0
 40
1.0
 40
2.0
 40
2.0
 40
2.0
 40
3.0
 40
3.0
 40
3.0
 40
4.0
 40
4.0
 40
4.0
 40
5.0
 40
5.0
 40
5.0
 40
5.0
 10
137.3876518753753
 20
-68.44732935571802
 30
0.0
 10
137.3876518753753
 20
-68.44732935571802
 30
0.0
 10
137.3876518753753
 20
-62.19809840024908
 30
0.0
 10
137.3876518753753
 20
-62.19809840024908
 30
0.0
 10
137.3876518753753
 20
-62.04031302702464
 30
0.0
 10
137.4634439760508
 20
-61.84101425320294
 30
0.0
 10
137.7328504429973
 20
-61.84101425320294
 30
0.0
 10
137.7328504429973
 20
-61.84101425320294
 30
0.0
 10
137.9381781339182
 20
-61.90629881264843
 30
0.0
 10
138.0690917623577
 20
-61.98691404700327
 30
0.0
 10
138.2000053907972
 20
-62.06735702658385
 30
0.0
 10
138.5066188889844
 20
-62.45699732596562
 30
0.0
 10
138.5066188889844
 20
-62.61478269919006
 30
0.0
 10
138.5066188889844
 20
-62.61478269919006
 30
0.0
 10
138.5066188889844
 20
-65.85713431513294
 30
0.0
 10
138.5066188889844
 20
-65.85713431513294
 30
0.0
  0
SPLINE
  5
F4
330
EB
100
AcDbEntity
  8
Layer 1
 62
   250
370
     9
100
AcDbSpline
210
0.0
220
0.0
230
1.0
 70
     8
 71
     3
 72
     8
 73
     4
 74
     0
 42
0.000000001
 43
0.0000000001
 40
0.0
 40
0.0
 40
0.0
 40
0.0
 40
1.0
 40
1.0
 40
1.0
 40
1.0
 10
137.3876518753753
 20
-68.44732935571802
 30
0.0
 10
137.3876518753753
 20
-68.52811684484715
 30
0.0
 10
137.8217339065168
 20
-68.64748940341105
 30
0.0
 10
138.0897623352692
 20
-68.64748940341105
 30
0.0
  0
POLYLINE
  5
F5
330
EB
100
AcDbEntity
  8
Layer 1
 62
   250
370
     9
100
AcDb2dPolyline
 66
     1
 10
0.0
 20
0.0
 30
0.0
  0
VERTEX
  5
F6
330
F5
100
AcDbEntity
  8
Layer 1
 62
   250
370
     9
100
AcDbVertex
100
AcDb2dVertex
 10
146.8110215561791
 20
-68.64748940341105
 30
0.0
  0
VERTEX
  5
F7
330
F5
100
AcDbEntity
  8
Layer 1
 62
   250
370
     9
100
AcDbVertex
100
AcDb2dVertex
 10
142.4726128116041
 20
-68.64748940341105
 30
0.0
  0
VERTEX
  5
F8
330
F5
100
AcDbEntity
  8
Layer 1
 62
   250
370
     9
100
AcDbVertex
100
AcDb2dVertex
 10
142.4285155893928
 20
-68.64748940341105
 30
0.0
  0
VERTEX
  5
F9
330
F5
100
AcDbEntity
  8
Layer 1
 62
   250
370
     9
100
AcDbVertex
100
AcDb2dVertex
 10
138.0897623352692
 20
-68.64748940341105
 30
0.0
  0
SEQEND
  5
FA
330
F5
100
AcDbEntity
  8
Layer 1
370
     9
  0
SPLINE
  5
FB
330
EB
100
AcDbEntity
  8
Layer 1
 62
   250
370
     9
100
AcDbSpline
210
0.0
220
0.0
230
1.0
 70
     8
 71
     3
 72
    44
 73
    40
 74
     0
 42
0.000000001
 43
0.0000000001
 40
0.0
 40
0.0
 40
0.0
 40
0.0
 40
1.0
 40
1.0
 40
1.0
 40
2.0
 40
2.0
 40
2.0
 40
3.0
 40
3.0
 40
3.0
 40
4.0
 40
4.0
 40
4.0
 40
5.0
 40
5.0
 40
5.0
 40
6.0
 40
6.0
 40
6.0
 40
7.0
 40
7.0
 40
7.0
 40
8.0
 40
8.0
 40
8.0
 40
9.0
 40
9.0
 40
9.0
 40
10.0
 40
10.0
 40
10.0
 40
11.0
 40
11.0
 40
11.0
 40
12.0
 40
12.0
 40
12.0
 40
13.0
 40
13.0
 40
13.0
 40
13.0
 10
142.4726128116041
 20
-66.17391084500166
 30
0.0
 10
142.4726128116041
 20
-66.17391084500166
 30
0.0
 10
146.1085665867367
 20
-66.17391084500166
 30
0.0
 10
146.1085665867367
 20
-66.17391084500166
 30
0.0
 10
146.2663519599612
 20
-66.17391084500166
 30
0.0
 10
146.3945095120125
 20
-66.03214516578363
 30
0.0
 10
146.3945095120125
 20
-65.85713431513294
 30
0.0
 10
146.3945095120125
 20
-65.85713431513294
 30
0.0
 10
146.3945095120125
 20
-64.35197209762728
 30
0.0
 10
146.3945095120125
 20
-64.35197209762728
 30
0.0
 10
146.3945095120125
 20
-64.17696124697659
 30
0.0
 10
146.2319010051087
 20
-64.08635523571452
 30
0.0
 10
146.1085665867367
 20
-64.0350233129843
 30
0.0
 10
145.9121961440775
 20
-63.95389131430667
 30
0.0
 10
142.4726128116041
 20
-63.91823457603433
 30
0.0
 10
142.4726128116041
 20
-63.91823457603433
 30
0.0
 10
142.4726128116041
 20
-63.91823457603433
 30
0.0
 10
142.4285155893928
 20
-63.91823457603433
 30
0.0
 10
142.4285155893928
 20
-63.91823457603433
 30
0.0
 10
142.4285155893928
 20
-63.91823457603433
 30
0.0
 10
138.9885877473709
 20
-63.95389131430667
 30
0.0
 10
138.7918727951631
 20
-64.0350233129843
 30
0.0
 10
138.6685383767912
 20
-64.08635523571452
 30
0.0
 10
138.5066188889844
 20
-64.17696124697659
 30
0.0
 10
138.5066188889844
 20
-64.35197209762728
 30
0.0
 10
138.5066188889844
 20
-64.35197209762728
 30
0.0
 10
138.5066188889844
 20
-65.85713431513294
 30
0.0
 10
138.5066188889844
 20
-65.85713431513294
 30
0.0
 10
138.5066188889844
 20
-66.03214516578363
 30
0.0
 10
138.6344319314872
 20
-66.17391084500166
 30
0.0
 10
138.7918727951631
 20
-66.17391084500166
 30
0.0
 10
138.7918727951631
 20
-66.17391084500166
 30
0.0
 10
142.4285155893928
 20
-66.17391084500166
 30
0.0
 10
142.4285155893928
 20
-66.17391084500166
 30
0.0
 10
142.4285155893928
 20
-66.17391084500166
 30
0.0
 10
142.4726128116041
 20
-66.17391084500166
 30
0.0
 10
142.4726128116041
 20
-66.17391084500166
 30
0.0
 10
142.4726128116041
 20
-66.17391084500166
 30
0.0
 10
146.1085665867367
 20
-66.17391084500166
 30
0.0
 10
146.1085665867367
 20
-66.17391084500166
 30
0.0
  0
SPLINE
  5
FC
330
EB
100
AcDbEntity
  8
Layer 1
 62
   250
370
     9
100
AcDbSpline
210
0.0
220
0.0
230
1.0
 70
     8
 71
     3
 72
    20
 73
    16
 74
     0
 42
0.000000001
 43
0.0000000001
 40
0.0
 40
0.0
 40
0.0
 40
0.0
 40
1.0
 40
1.0
 40
1.0
 40
2.0
 40
2.0
 40
2.0
 40
3.0
 40
3.0
 40
3.0
 40
4.0
 40
4.0
 40
4.0
 40
5.0
 40
5.0
 40
5.0
 40
5.0
 10
147.5134765256216
 20
-68.44732935571802
 30
0.0
 10
147.5134765256216
 20
-68.44732935571802
 30
0.0
 10
147.5134765256216
 20
-62.19809840024908
 30
0.0
 10
147.5134765256216
 20
-62.19809840024908
 30
0.0
 10
147.5134765256216
 20
-62.04031302702464
 30
0.0
 10
147.4376844249461
 20
-61.84101425320294
 30
0.0
 10
147.1682779579996
 20
-61.84101425320294
 30
0.0
 10
147.1682779579996
 20
-61.84101425320294
 30
0.0
 10
146.9626057575302
 20
-61.90629881264843
 30
0.0
 10
146.8320366386392
 20
-61.98691404700327
 30
0.0
 10
146.7011230101997
 20
-62.06735702658385
 30
0.0
 10
146.3945095120125
 20
-62.45699732596562
 30
0.0
 10
146.3945095120125
 20
-62.61478269919006
 30
0.0
 10
146.3945095120125
 20
-62.61478269919006
 30
0.0
 10
146.3945095120125
 20
-65.85713431513294
 30
0.0
 10
146.3945095120125
 20
-65.85713431513294
 30
0.0
  0
SPLINE
  5
FD
330
EB
100
AcDbEntity
  8
Layer 1
 62
   250
370
     9
100
AcDbSpline
210
0.0
220
0.0
230
1.0
 70
     8
 71
     3
 72
     8
 73
     4
 74
     0
 42
0.000000001
 43
0.0000000001
 40
0.0
 40
0.0
 40
0.0
 40
0.0
 40
1.0
 40
1.0
 40
1.0
 40
1.0
 10
147.5134765256216
 20
-68.44732935571802
 30
0.0
 10
147.5134765256216
 20
-68.52811684484715
 30
0.0
 10
147.0790499849316
 20
-68.64748940341105
 30
0.0
 10
146.8110215561791
 20
-68.64748940341105
 30
0.0
  0
SPLINE
  5
FE
330
EB
100
AcDbEntity
  8
Layer 1
 62
   250
370
     9
100
AcDbSpline
210
0.0
220
0.0
230
1.0
 70
    11
 71
     3
 72
    47
 73
    43
 74
     0
 42
0.000000001
 43
0.0000000001
 40
0.0
 40
0.0
 40
0.0
 40
0.0
 40
1.0
 40
1.0
 40
1.0
 40
2.0
 40
2.0
 40
2.0
 40
3.0
 40
3.0
 40
3.0
 40
4.0
 40
4.0
 40
4.0
 40
5.0
 40
5.0
 40
5.0
 40
6.0
 40
6.0
 40
6.0
 40
7.0
 40
7.0
 40
7.0
 40
8.0
 40
8.0
 40
8.0
 40
9.0
 40
9.0
 40
9.0
 40
10.0
 40
10.0
 40
10.0
 40
11.0
 40
11.0
 40
11.0
 40
12.0
 40
12.0
 40
12.0
 40
13.0
 40
13.0
 40
13.0
 40
14.0
 40
14.0
 40
14.0
 40
14.0
 10
142.4726128116041
 20
-63.9413167157855
 30
0.0
 10
142.4726128116041
 20
-63.9413167157855
 30
0.0
 10
145.2397135053567
 20
-63.9413167157855
 30
0.0
 10
145.2397135053567
 20
-63.9413167157855
 30
0.0
 10
145.3974988785812
 20
-63.9413167157855
 30
0.0
 10
145.4402180625983
 20
-63.73082138163674
 30
0.0
 10
145.3782063438637
 20
-63.45624727146233
 30
0.0
 10
145.3782063438637
 20
-63.45624727146233
 30
0.0
 10
145.4181694514927
 20
-61.70372719811574
 30
0.0
 10
145.4181694514927
 20
-61.70372719811574
 30
0.0
 10
145.4181694514927
 20
-61.54163545553473
 30
0.0
 10
145.5521836658689
 20
-61.04967582024105
 30
0.0
 10
145.394742802193
 20
-61.04967582024105
 30
0.0
 10
145.394742802193
 20
-61.04967582024105
 30
0.0
 10
145.1501410227402
 20
-60.99472654725132
 30
0.0
 10
144.9003716000596
 20
-61.12322860885115
 30
0.0
 10
144.6740288266787
 20
-61.23932832670406
 30
0.0
 10
142.4726128116041
 20
-61.25758733277589
 30
0.0
 10
142.4726128116041
 20
-61.25758733277589
 30
0.0
 10
142.4726128116041
 20
-61.25758733277589
 30
0.0
 10
142.4285155893928
 20
-61.25758733277589
 30
0.0
 10
142.4285155893928
 20
-61.25758733277589
 30
0.0
 10
142.4285155893928
 20
-61.25758733277589
 30
0.0
 10
140.2267550647697
 20
-61.23932832670406
 30
0.0
 10
140.0004122913887
 20
-61.12322860885115
 30
0.0
 10
139.7502983591596
 20
-60.99472654725132
 30
0.0
 10
139.5063855988039
 20
-61.04967582024105
 30
0.0
 10
139.5063855988039
 20
-61.04967582024105
 30
0.0
 10
139.3486002255795
 20
-61.04967582024105
 30
0.0
 10
139.4826144399557
 20
-61.54163545553473
 30
0.0
 10
139.4826144399557
 20
-61.70372719811574
 30
0.0
 10
139.4826144399557
 20
-61.70372719811574
 30
0.0
 10
139.5225775475846
 20
-63.45624727146233
 30
0.0
 10
139.5225775475846
 20
-63.45624727146233
 30
0.0
 10
139.4602213193016
 20
-63.73082138163674
 30
0.0
 10
139.5032850128672
 20
-63.9413167157855
 30
0.0
 10
139.6614148956402
 20
-63.9413167157855
 30
0.0
 10
139.6614148956402
 20
-63.9413167157855
 30
0.0
 10
142.4285155893928
 20
-63.9413167157855
 30
0.0
 10
142.4285155893928
 20
-63.9413167157855
 30
0.0
 10
142.4285155893928
 20
-63.9413167157855
 30
0.0
 10
142.4726128116041
 20
-63.9413167157855
 30
0.0
 10
142.4726128116041
 20
-63.9413167157855
 30
0.0
  0
SPLINE
  5
FF
330
EB
100
AcDbEntity
  8
Layer 1
 62
   250
370
     9
100
AcDbSpline
210
0.0
220
0.0
230
1.0
 70
     8
 71
     3
 72
    26
 73
    22
 74
     0
 42
0.000000001
 43
0.0000000001
 40
0.0
 40
0.0
 40
0.0
 40
0.0
 40
1.0
 40
1.0
 40
1.0
 40
2.0
 40
2.0
 40
2.0
 40
3.0
 40
3.0
 40
3.0
 40
4.0
 40
4.0
 40
4.0
 40
5.0
 40
5.0
 40
5.0
 40
6.0
 40
6.0
 40
6.0
 40
7.0
 40
7.0
 40
7.0
 40
7.0
 10
146.3945095120125
 20
-62.61478269919006
 30
0.0
 10
145.9776529582972
 20
-61.89269068548169
 30
0.0
 10
146.1085665867367
 20
-58.21057263084666
 30
0.0
 10
146.1085665867367
 20
-58.21057263084666
 30
0.0
 10
146.1085665867367
 20
-57.55979409368297
 30
0.0
 10
145.7475205798826
 20
-57.19857583205453
 30
0.0
 10
145.1763237484281
 20
-57.19857583205453
 30
0.0
 10
145.1763237484281
 20
-57.19857583205453
 30
0.0
 10
142.4726128116041
 20
-57.19857583205453
 30
0.0
 10
142.4726128116041
 20
-57.19857583205453
 30
0.0
 10
142.4726128116041
 20
-57.19857583205453
 30
0.0
 10
142.4285155893928
 20
-57.19857583205453
 30
0.0
 10
142.4285155893928
 20
-57.19857583205453
 30
0.0
 10
142.4285155893928
 20
-57.19857583205453
 30
0.0
 10
139.7248046525688
 20
-57.19857583205453
 30
0.0
 10
139.7248046525688
 20
-57.19857583205453
 30
0.0
 10
139.1532633115659
 20
-57.19857583205453
 30
0.0
 10
138.7918727951631
 20
-57.55979409368297
 30
0.0
 10
138.7918727951631
 20
-58.21057263084666
 30
0.0
 10
138.7918727951631
 20
-58.21057263084666
 30
0.0
 10
138.9231309331511
 20
-61.89269068548169
 30
0.0
 10
138.5066188889844
 20
-62.61478269919006
 30
0.0
  0
ENDBLK
  5
EE
330
EB
100
AcDbEntity
  8
0
100
AcDbBlockEnd
  0
BLOCK
  5
109
330
107
100
AcDbEntity
  8
0
100
AcDbBlockBegin
  2
block 13
 70
     0
 10
0.0
 20
0.0
 30
0.0
  3
block 13
  1

  0
MTEXT
  5
10B
330
107
100
AcDbEntity
  8
Layer 1
 62
   251
100
AcDbMText
 10
179.1387640611181
 20
-90.98600529409379
 30
0.0
 40
1.559277777387958
 41
0.0
 46
0.0
 71
     7
 72
     1
  1
\fApercu|b0|i0|c0|p34;\W1.0004;30
 73
     1
 44
1.0
  0
MTEXT
  5
10C
330
107
100
AcDbEntity
  8
Layer 1
 62
   251
100
AcDbMText
 10
171.319775347795
 20
-96.25321178149226
 30
0.0
 40
1.559277777387958
 41
0.0
 46
0.0
 71
     7
 72
     1
  1
\fApercu|b1|i0|c0|p34;\W1.0004;AR62P
 73
     1
 44
1.0
  0
INSERT
  5
10E
330
107
100
AcDbEntity
  8
Layer 1
100
AcDbBlockReference
  2
block 14
 10
0.0
 20
0.0
 30
0.0
  0
MTEXT
  5
15E
330
107
100
AcDbEntity
  8
Layer 1
 62
   251
100
AcDbMText
 10
173.4691704210424
 20
-86.96213376732197
 30
0.0
 40
1.559277777387958
 41
0.0
 46
0.0
 71
     7
 72
     1
  1
\fApercu|b0|i0|c0|p34;\W1.0004;53
 73
     1
 44
1.0
  0
ENDBLK
  5
10A
330
107
100
AcDbEntity
  8
0
100
AcDbBlockEnd
  0
BLOCK
  5
10F
330
10D
100
AcDbEntity
  8
0
100
AcDbBlockBegin
  2
block 14
 70
     0
 10
0.0
 20
0.0
 30
0.0
  3
block 14
  1

  0
POLYLINE
  5
111
330
10D
100
AcDbEntity
  8
Layer 1
 62
   250
370
     9
100
AcDb2dPolyline
 66
     1
 10
0.0
 20
0.0
 30
0.0
  0
VERTEX
  5
112
330
111
100
AcDbEntity
  8
Layer 1
 62
   250
370
     9
100
AcDbVertex
100
AcDb2dVertex
 10
177.6291232194816
 20
-88.77993840011404
 30
0.0
  0
VERTEX
  5
113
330
111
100
AcDbEntity
  8
Layer 1
 62
   250
370
     9
100
AcDbVertex
100
AcDb2dVertex
 10
177.6180989139288
 20
-88.71982148389644
 30
0.0
  0
VERTEX
  5
114
330
111
100
AcDbEntity
  8
Layer 1
 62
   250
370
     9
100
AcDbVertex
100
AcDb2dVertex
 10
177.5719346344264
 20
-88.61061195701401
 30
0.0
  0
VERTEX
  5
115
330
111
100
AcDbEntity
  8
Layer 1
 62
   250
370
     9
100
AcDbVertex
100
AcDb2dVertex
 10
177.5402397559622
 20
-88.56720375389988
 30
0.0
  0
VERTEX
  5
116
330
111
100
AcDbEntity
  8
Layer 1
 62
   250
370
     9
100
AcDbVertex
100
AcDb2dVertex
 10
177.5037217438185
 20
-88.53034123220769
 30
0.0
  0
VERTEX
  5
117
330
111
100
AcDbEntity
  8
Layer 1
 62
   250
370
     9
100
AcDbVertex
100
AcDb2dVertex
 10
177.4623805979955
 20
-88.503641742197
 30
0.0
  0
VERTEX
  5
118
330
111
100
AcDbEntity
  8
Layer 1
 62
   250
370
     9
100
AcDbVertex
100
AcDb2dVertex
 10
177.4182833757843
 20
-88.48676077431928
 30
0.0
  0
VERTEX
  5
119
330
111
100
AcDbEntity
  8
Layer 1
 62
   250
370
     9
100
AcDbVertex
100
AcDb2dVertex
 10
177.3734971344761
 20
-88.48090411199436
 30
0.0
  0
SEQEND
  5
11A
330
111
100
AcDbEntity
  8
Layer 1
370
     9
  0
POLYLINE
  5
11B
330
10D
100
AcDbEntity
  8
Layer 1
 62
   250
370
     9
100
AcDb2dPolyline
 66
     1
 10
0.0
 20
0.0
 30
0.0
  0
VERTEX
  5
11C
330
11B
100
AcDbEntity
  8
Layer 1
 62
   250
370
     9
100
AcDbVertex
100
AcDb2dVertex
 10
177.3734971344761
 20
-88.48090411199436
 30
0.0
  0
VERTEX
  5
11D
330
11B
100
AcDbEntity
  8
Layer 1
 62
   250
370
     9
100
AcDbVertex
100
AcDb2dVertex
 10
172.1617566843901
 20
-88.48073185722009
 30
0.0
  0
SEQEND
  5
11E
330
11B
100
AcDbEntity
  8
Layer 1
370
     9
  0
POLYLINE
  5
11F
330
10D
100
AcDbEntity
  8
Layer 1
 62
   250
370
     9
100
AcDb2dPolyline
 66
     1
 10
0.0
 20
0.0
 30
0.0
  0
VERTEX
  5
120
330
11F
100
AcDbEntity
  8
Layer 1
 62
   250
370
     9
100
AcDbVertex
100
AcDb2dVertex
 10
171.9626301653427
 20
-88.77976614533977
 30
0.0
  0
VERTEX
  5
121
330
11F
100
AcDbEntity
  8
Layer 1
 62
   250
370
     9
100
AcDbVertex
100
AcDb2dVertex
 10
171.9626301653427
 20
-91.55892467329083
 30
0.0
  0
SEQEND
  5
122
330
11F
100
AcDbEntity
  8
Layer 1
370
     9
  0
POLYLINE
  5
123
330
10D
100
AcDbEntity
  8
Layer 1
 62
   250
370
     9
100
AcDb2dPolyline
 66
     1
 10
0.0
 20
0.0
 30
0.0
  0
VERTEX
  5
124
330
123
100
AcDbEntity
  8
Layer 1
 62
   250
370
     9
100
AcDbVertex
100
AcDb2dVertex
 10
177.6291232194816
 20
-88.77993840011404
 30
0.0
  0
VERTEX
  5
125
330
123
100
AcDbEntity
  8
Layer 1
 62
   250
370
     9
100
AcDbVertex
100
AcDb2dVertex
 10
177.6291232194816
 20
-91.55892467329083
 30
0.0
  0
SEQEND
  5
126
330
123
100
AcDbEntity
  8
Layer 1
370
     9
  0
POLYLINE
  5
127
330
10D
100
AcDbEntity
  8
Layer 1
 62
   250
370
     9
100
AcDb2dPolyline
 66
     1
 10
0.0
 20
0.0
 30
0.0
  0
VERTEX
  5
128
330
127
100
AcDbEntity
  8
Layer 1
 62
   250
370
     9
100
AcDbVertex
100
AcDb2dVertex
 10
171.9626301653427
 20
-91.55892467329083
 30
0.0
  0
VERTEX
  5
129
330
127
100
AcDbEntity
  8
Layer 1
 62
   250
370
     9
100
AcDbVertex
100
AcDb2dVertex
 10
171.9584960507603
 20
-91.60112709298514
 30
0.0
  0
VERTEX
  5
12A
330
127
100
AcDbEntity
  8
Layer 1
 62
   250
370
     9
100
AcDbVertex
100
AcDb2dVertex
 10
171.9626301653427
 20
-91.64281274835666
 30
0.0
  0
VERTEX
  5
12B
330
127
100
AcDbEntity
  8
Layer 1
 62
   250
370
     9
100
AcDbVertex
100
AcDb2dVertex
 10
171.9736544708955
 20
-91.68191458211424
 30
0.0
  0
VERTEX
  5
12C
330
127
100
AcDbEntity
  8
Layer 1
 62
   250
370
     9
100
AcDbVertex
100
AcDb2dVertex
 10
171.9901909292247
 20
-91.72049965154904
 30
0.0
  0
VERTEX
  5
12D
330
127
100
AcDbEntity
  8
Layer 1
 62
   250
370
     9
100
AcDbVertex
100
AcDb2dVertex
 10
172.0149956167185
 20
-91.75477835162729
 30
0.0
  0
VERTEX
  5
12E
330
127
100
AcDbEntity
  8
Layer 1
 62
   250
370
     9
100
AcDbVertex
100
AcDb2dVertex
 10
172.0446234378916
 20
-91.78492293712322
 30
0.0
  0
VERTEX
  5
12F
330
127
100
AcDbEntity
  8
Layer 1
 62
   250
370
     9
100
AcDbVertex
100
AcDb2dVertex
 10
172.078385373647
 20
-91.80903860551998
 30
0.0
  0
VERTEX
  5
130
330
127
100
AcDbEntity
  8
Layer 1
 62
   250
370
     9
100
AcDbVertex
100
AcDb2dVertex
 10
172.1169704430819
 20
-91.82729761159178
 30
0.0
  0
VERTEX
  5
131
330
127
100
AcDbEntity
  8
Layer 1
 62
   250
370
     9
100
AcDbVertex
100
AcDb2dVertex
 10
172.1576225698078
 20
-91.83797740759606
 30
0.0
  0
VERTEX
  5
132
330
127
100
AcDbEntity
  8
Layer 1
 62
   250
370
     9
100
AcDbVertex
100
AcDb2dVertex
 10
172.1982746965338
 20
-91.84211152217837
 30
0.0
  0
SEQEND
  5
133
330
127
100
AcDbEntity
  8
Layer 1
370
     9
  0
POLYLINE
  5
134
330
10D
100
AcDbEntity
  8
Layer 1
 62
   250
370
     9
100
AcDb2dPolyline
 66
     1
 10
0.0
 20
0.0
 30
0.0
  0
VERTEX
  5
135
330
134
100
AcDbEntity
  8
Layer 1
 62
   250
370
     9
100
AcDbVertex
100
AcDb2dVertex
 10
172.1982746965338
 20
-91.84211152217837
 30
0.0
  0
VERTEX
  5
136
330
134
100
AcDbEntity
  8
Layer 1
 62
   250
370
     9
100
AcDbVertex
100
AcDb2dVertex
 10
177.3066622820622
 20
-91.84211152217837
 30
0.0
  0
VERTEX
  5
137
330
134
100
AcDbEntity
  8
Layer 1
 62
   250
370
     9
100
AcDbVertex
100
AcDb2dVertex
 10
177.3824543827377
 20
-91.84211152217837
 30
0.0
  0
VERTEX
  5
138
330
134
100
AcDbEntity
  8
Layer 1
 62
   250
370
     9
100
AcDbVertex
100
AcDb2dVertex
 10
177.4258625858519
 20
-91.83797740759606
 30
0.0
  0
VERTEX
  5
139
330
134
100
AcDbEntity
  8
Layer 1
 62
   250
370
     9
100
AcDbVertex
100
AcDb2dVertex
 10
177.4685817698689
 20
-91.82729761159178
 30
0.0
  0
VERTEX
  5
13A
330
134
100
AcDbEntity
  8
Layer 1
 62
   250
370
     9
100
AcDbVertex
100
AcDb2dVertex
 10
177.5078558584008
 20
-91.80921086029423
 30
0.0
  0
VERTEX
  5
13B
330
134
100
AcDbEntity
  8
Layer 1
 62
   250
370
     9
100
AcDbVertex
100
AcDb2dVertex
 10
177.5436848514474
 20
-91.78492293712322
 30
0.0
  0
VERTEX
  5
13C
330
134
100
AcDbEntity
  8
Layer 1
 62
   250
370
     9
100
AcDbVertex
100
AcDb2dVertex
 10
177.5753797299117
 20
-91.75477835162729
 30
0.0
  0
VERTEX
  5
13D
330
134
100
AcDbEntity
  8
Layer 1
 62
   250
370
     9
100
AcDbVertex
100
AcDb2dVertex
 10
177.6001844174055
 20
-91.72084416109758
 30
0.0
  0
VERTEX
  5
13E
330
134
100
AcDbEntity
  8
Layer 1
 62
   250
370
     9
100
AcDbVertex
100
AcDb2dVertex
 10
177.6174098948318
 20
-91.68225909166277
 30
0.0
  0
VERTEX
  5
13F
330
134
100
AcDbEntity
  8
Layer 1
 62
   250
370
     9
100
AcDbVertex
100
AcDb2dVertex
 10
177.6305012576757
 20
-91.64264049358241
 30
0.0
  0
VERTEX
  5
140
330
134
100
AcDbEntity
  8
Layer 1
 62
   250
370
     9
100
AcDbVertex
100
AcDb2dVertex
 10
177.6332573340639
 20
-91.60078258343661
 30
0.0
  0
VERTEX
  5
141
330
134
100
AcDbEntity
  8
Layer 1
 62
   250
370
     9
100
AcDbVertex
100
AcDb2dVertex
 10
177.6291232194816
 20
-91.55892467329083
 30
0.0
  0
SEQEND
  5
142
330
134
100
AcDbEntity
  8
Layer 1
370
     9
  0
POLYLINE
  5
143
330
10D
100
AcDbEntity
  8
Layer 1
 62
   250
370
     9
100
AcDb2dPolyline
 66
     1
 10
0.0
 20
0.0
 30
0.0
  0
VERTEX
  5
144
330
143
100
AcDbEntity
  8
Layer 1
 62
   250
370
     9
100
AcDbVertex
100
AcDb2dVertex
 10
173.111225000125
 20
-91.84211152217837
 30
0.0
  0
VERTEX
  5
145
330
143
100
AcDbEntity
  8
Layer 1
 62
   250
370
     9
100
AcDbVertex
100
AcDb2dVertex
 10
172.5117783856915
 20
-91.84211152217837
 30
0.0
  0
VERTEX
  5
146
330
143
100
AcDbEntity
  8
Layer 1
 62
   250
370
     9
100
AcDbVertex
100
AcDb2dVertex
 10
172.5117783856915
 20
-92.08154565840322
 30
0.0
  0
VERTEX
  5
147
330
143
100
AcDbEntity
  8
Layer 1
 62
   250
370
     9
100
AcDbVertex
100
AcDb2dVertex
 10
173.111225000125
 20
-92.08154565840322
 30
0.0
  0
VERTEX
  5
148
330
143
100
AcDbEntity
  8
Layer 1
 62
   250
370
     9
100
AcDbVertex
100
AcDb2dVertex
 10
173.111225000125
 20
-91.84211152217837
 30
0.0
  0
VERTEX
  5
149
330
143
100
AcDbEntity
  8
Layer 1
 62
   250
370
     9
100
AcDbVertex
100
AcDb2dVertex
 10
173.111225000125
 20
-91.84211152217837
 30
0.0
  0
SEQEND
  5
14A
330
143
100
AcDbEntity
  8
Layer 1
370
     9
  0
POLYLINE
  5
14B
330
10D
100
AcDbEntity
  8
Layer 1
 62
   250
370
     9
100
AcDb2dPolyline
 66
     1
 10
0.0
 20
0.0
 30
0.0
  0
VERTEX
  5
14C
330
14B
100
AcDbEntity
  8
Layer 1
 62
   250
370
     9
100
AcDbVertex
100
AcDb2dVertex
 10
176.4495225253321
 20
-91.84211152217837
 30
0.0
  0
VERTEX
  5
14D
330
14B
100
AcDbEntity
  8
Layer 1
 62
   250
370
     9
100
AcDbVertex
100
AcDb2dVertex
 10
177.0489691397655
 20
-91.84211152217837
 30
0.0
  0
VERTEX
  5
14E
330
14B
100
AcDbEntity
  8
Layer 1
 62
   250
370
     9
100
AcDbVertex
100
AcDb2dVertex
 10
177.0489691397655
 20
-92.08154565840322
 30
0.0
  0
VERTEX
  5
14F
330
14B
100
AcDbEntity
  8
Layer 1
 62
   250
370
     9
100
AcDbVertex
100
AcDb2dVertex
 10
176.4495225253321
 20
-92.08154565840322
 30
0.0
  0
VERTEX
  5
150
330
14B
100
AcDbEntity
  8
Layer 1
 62
   250
370
     9
100
AcDbVertex
100
AcDb2dVertex
 10
176.4495225253321
 20
-91.84211152217837
 30
0.0
  0
VERTEX
  5
151
330
14B
100
AcDbEntity
  8
Layer 1
 62
   250
370
     9
100
AcDbVertex
100
AcDb2dVertex
 10
176.4495225253321
 20
-91.84211152217837
 30
0.0
  0
SEQEND
  5
152
330
14B
100
AcDbEntity
  8
Layer 1
370
     9
  0
POLYLINE
  5
153
330
10D
100
AcDbEntity
  8
Layer 1
 62
   250
370
     9
100
AcDb2dPolyline
 66
     1
 10
0.0
 20
0.0
 30
0.0
  0
VERTEX
  5
154
330
153
100
AcDbEntity
  8
Layer 1
 62
   250
370
     9
100
AcDbVertex
100
AcDb2dVertex
 10
171.9757215281866
 20
-88.72843422260956
 30
0.0
  0
VERTEX
  5
155
330
153
100
AcDbEntity
  8
Layer 1
 62
   250
370
     9
100
AcDbVertex
100
AcDb2dVertex
 10
171.9839897573512
 20
-88.67882484762196
 30
0.0
  0
VERTEX
  5
156
330
153
100
AcDbEntity
  8
Layer 1
 62
   250
370
     9
100
AcDbVertex
100
AcDb2dVertex
 10
171.9984591583893
 20
-88.63128252992551
 30
0.0
  0
VERTEX
  5
157
330
153
100
AcDbEntity
  8
Layer 1
 62
   250
370
     9
100
AcDbVertex
100
AcDb2dVertex
 10
172.0170626740096
 20
-88.58787432681138
 30
0.0
  0
VERTEX
  5
158
330
153
100
AcDbEntity
  8
Layer 1
 62
   250
370
     9
100
AcDbVertex
100
AcDb2dVertex
 10
172.0398003042123
 20
-88.55170082421624
 30
0.0
  0
VERTEX
  5
159
330
153
100
AcDbEntity
  8
Layer 1
 62
   250
370
     9
100
AcDbVertex
100
AcDb2dVertex
 10
172.0673610680942
 20
-88.52172849349457
 30
0.0
  0
VERTEX
  5
15A
330
153
100
AcDbEntity
  8
Layer 1
 62
   250
370
     9
100
AcDbVertex
100
AcDb2dVertex
 10
172.0969888892674
 20
-88.49933537284044
 30
0.0
  0
VERTEX
  5
15B
330
153
100
AcDbEntity
  8
Layer 1
 62
   250
370
     9
100
AcDbVertex
100
AcDb2dVertex
 10
172.1293727868288
 20
-88.48555499089945
 30
0.0
  0
VERTEX
  5
15C
330
153
100
AcDbEntity
  8
Layer 1
 62
   250
370
     9
100
AcDbVertex
100
AcDb2dVertex
 10
172.1617566843901
 20
-88.48073185722009
 30
0.0
  0
SEQEND
  5
15D
330
153
100
AcDbEntity
  8
Layer 1
370
     9
  0
ENDBLK
  5
110
330
10D
100
AcDbEntity
  8
0
100
AcDbBlockEnd
  0
BLOCK
  5
206
330
205
100
AcDbEntity
  8
0
100
AcDbBlockBegin
  2
*U14
 70
     1
 10
0.0
 20
0.0
 30
0.0
  3
*U14
  1

  0
ENDBLK
  5
207
330
205
100
AcDbEntity
  8
0
100
AcDbBlockEnd
  0
BLOCK
  5
241
330
23F
100
AcDbEntity
  8
0
100
AcDbBlockBegin
  2
GENAXEH
 70
     0
 10
0.0
 20
0.0
 30
0.0
  3
GENAXEH
  1

  0
LINE
  5
240
330
23F
100
AcDbEntity
  8
0
100
AcDbLine
 10
-1.0
 20
0.0
 30
0.0
 11
1.0
 21
0.0
 31
0.0
  0
ENDBLK
  5
242
330
23F
100
AcDbEntity
  8
0
100
AcDbBlockEnd
  0
ENDSEC
  0
SECTION
  2
ENTITIES
  0
INSERT
  5
3D
330
1F
100
AcDbEntity
  8
Layer 1
100
AcDbBlockReference
  2
block 2
 10
0.0
 20
0.0
 30
0.0
  0
INSERT
  5
41
330
1F
100
AcDbEntity
  8
Layer 1
100
AcDbBlockReference
  2
block 3
 10
0.0
 20
0.0
 30
0.0
  0
INSERT
  5
45
330
1F
100
AcDbEntity
  8
Layer 1
100
AcDbBlockReference
  2
block 4
 10
0.0
 20
0.0
 30
0.0
  0
MTEXT
  5
52
330
1F
100
AcDbEntity
  8
Text
100
AcDbMText
 10
4999.800750149893
 20
1173.03345309474
 30
0.0
 40
129.3680589531723
 41
0.0
 46
0.0
 71
     7
 72
     1
  1
AR78
 73
     1
 44
1.0
  0
MTEXT
  5
8E
330
1F
100
AcDbEntity
  8
Dimensions
100
AcDbMText
 10
5144.181683751941
 20
2602.802490530129
 30
0.0
 40
129.3680589531723
 41
0.0
 46
0.0
 71
     7
 72
     1
  1
94
 73
     1
 44
1.0
  0
MTEXT
  5
8F
330
1F
100
AcDbEntity
  8
Dimensions
100
AcDbMText
 10
-126.2103305186772
 20
329.6570533578192
 30
0.0
 40
145.90689464105
 41
0.0
 46
149.2419093757026
 71
     7
 72
     1
  1
62
 73
     1
 44
1.0
  0
MTEXT
  5
90
330
1F
100
AcDbEntity
  8
Dimensions
100
AcDbMText
 10
5868.584276306475
 20
1934.865227899506
 30
0.0
 40
129.3680589531723
 41
0.0
 46
0.0
 71
     7
 72
     1
  1
96
 73
     1
 44
1.0
  0
MTEXT
  5
91
330
1F
100
AcDbEntity
  8
Dimensions
100
AcDbMText
 10
472.7839447317278
 20
-143.8066418471045
 30
0.0
 40
145.90689464105
 41
0.0
 46
0.0
 71
     7
 72
     1
  1
53
 73
     1
 44
1.0
  0
MTEXT
  5
92
330
1F
100
AcDbEntity
  8
Dimensions
100
AcDbMText
 10
513.5985281109354
 20
1973.201094611947
 30
0.0
 40
124.4242611730618
 41
0.0
 46
127.268244285589
 71
     7
 72
     1
  1
94
 73
     1
 44
1.0
  0
SPLINE
  5
E5
330
1F
100
AcDbEntity
  8
Furniture
370
     9
100
AcDbSpline
210
0.0
220
0.0
230
1.0
 70
     9
 71
     3
 72
    29
 73
    25
 74
     0
 42
0.000000001
 43
0.0000000001
 40
0.0
 40
0.0
 40
0.0
 40
0.0
 40
1.0
 40
1.0
 40
1.0
 40
2.0
 40
2.0
 40
2.0
 40
3.0
 40
3.0
 40
3.0
 40
4.0
 40
4.0
 40
4.0
 40
5.0
 40
5.0
 40
5.0
 40
6.0
 40
6.0
 40
6.0
 40
7.0
 40
7.0
 40
7.0
 40
8.0
 40
8.0
 40
8.0
 40
8.0
 10
330.8608890947932
 20
-177.0912653440124
 30
0.0
 10
329.9260183137645
 20
-335.7614027307274
 30
0.0
 10
323.6075813109622
 20
-343.3209612876492
 30
0.0
 10
227.5737862530556
 20
-343.2887243641652
 30
0.0
 10
131.5722281186351
 20
-343.240368978941
 30
0.0
 10
-121.3909104578654
 20
-343.0791843615225
 30
0.0
 10
-234.2201426507744
 20
-343.2887243641652
 30
0.0
 10
-326.5789284315384
 20
-343.4337905198416
 30
0.0
 10
-337.6361931864423
 20
-328.4275026381843
 30
0.0
 10
-337.4750085690239
 20
-177.0912653440124
 30
0.0
 10
-337.3460608750914
 20
-25.75502804984053
 30
0.0
 10
-336.9914547167704
 20
-119.4838830786605
 30
0.0
 10
-337.4750085690239
 20
21.40759100679334
 30
0.0
 10
-337.9907993447653
 20
162.282946630511
 30
0.0
 10
-332.1881531177006
 20
187.588931565204
 30
0.0
 10
-234.2201426507744
 20
187.588931565204
 30
0.0
 10
-136.2521321838462
 20
187.588931565204
 30
0.0
 10
111.6175724822297
 20
187.8145900295906
 30
0.0
 10
227.5737862530556
 20
187.588931565204
 30
0.0
 10
343.5622369473658
 20
187.3632731008193
 30
0.0
 10
330.8608890947932
 20
150.6454172528995
 30
0.0
 10
330.8608890947932
 20
21.40759100679334
 30
0.0
 10
330.8608890947932
 20
-107.8302352393109
 30
0.0
 10
331.8279967993019
 20
-18.4050094955574
 30
0.0
 10
330.8608890947932
 20
-177.0912653440124
 30
0.0
  0
MTEXT
  5
E6
330
1F
100
AcDbEntity
  8
Dimensions
100
AcDbMText
 10
-108.9103939879649
 20
2616.080486859241
 30
0.0
 40
124.4242611730618
 41
0.0
 46
0.0
 71
     7
 72
     1
  1
78
 73
     1
 44
1.0
  0
MTEXT
  5
15F
330
1F
100
AcDbEntity
  8
Dimensions
100
AcDbMText
 10
3141.348479539015
 20
1656.140011623644
 30
0.0
 40
129.3680589531723
 41
0.0
 46
0.0
 71
     7
 72
     1
  1
40
 73
     1
 44
1.0
  0
POLYLINE
  5
2BE
330
1F
100
AcDbEntity
  8
Furniture
370
     9
100
AcDb2dPolyline
 66
     1
 10
0.0
 20
0.0
 30
0.0
  0
VERTEX
  5
2BF
330
2BE
100
AcDbEntity
  8
Furniture
370
     9
100
AcDbVertex
100
AcDb2dVertex
 10
17.60094693363317
 20
2509.719691981869
 30
0.0
  0
VERTEX
  5
2C0
330
2BE
100
AcDbEntity
  8
Furniture
100
AcDbVertex
100
AcDb2dVertex
 10
17.60094693363317
 20
2509.719691981869
 30
0.0
  0
SEQEND
  5
2C1
330
2BE
100
AcDbEntity
  8
Furniture
370
     9
  0
POLYLINE
  5
2C2
330
1F
100
AcDbEntity
  8
Furniture
370
     9
100
AcDb2dPolyline
 66
     1
 10
0.0
 20
0.0
 30
0.0
  0
VERTEX
  5
2C3
330
2C2
100
AcDbEntity
  8
Furniture
370
     9
100
AcDbVertex
100
AcDb2dVertex
 10
17.60094693363317
 20
2509.719691981869
 30
0.0
  0
VERTEX
  5
2C4
330
2C2
100
AcDbEntity
  8
Furniture
100
AcDbVertex
100
AcDb2dVertex
 10
17.60094693363317
 20
2509.719691981869
 30
0.0
  0
SEQEND
  5
2C5
330
2C2
100
AcDbEntity
  8
Furniture
370
     9
  0
POLYLINE
  5
2CA
330
1F
100
AcDbEntity
  8
Furniture
370
     9
100
AcDb2dPolyline
 66
     1
 10
0.0
 20
0.0
 30
0.0
  0
VERTEX
  5
2CB
330
2CA
100
AcDbEntity
  8
Furniture
370
     9
100
AcDbVertex
100
AcDb2dVertex
 10
2925.319644527684
 20
1513.04020182155
 30
0.0
  0
VERTEX
  5
2CC
330
2CA
100
AcDbEntity
  8
Furniture
370
     9
100
AcDbVertex
100
AcDb2dVertex
 10
2270.887756935807
 20
1513.04020182155
 30
0.0
  0
VERTEX
  5
2CD
330
2CA
100
AcDbEntity
  8
Furniture
370
     9
100
AcDbVertex
100
AcDb2dVertex
 10
2270.887756935807
 20
1523.873084656863
 30
0.0
  0
VERTEX
  5
2CE
330
2CA
100
AcDbEntity
  8
Furniture
370
     9
100
AcDbVertex
100
AcDb2dVertex
 10
2925.319644527684
 20
1523.873084656863
 30
0.0
  0
VERTEX
  5
2CF
330
2CA
100
AcDbEntity
  8
Furniture
370
     9
100
AcDbVertex
100
AcDb2dVertex
 10
2925.319644527684
 20
1513.04020182155
 30
0.0
  0
SEQEND
  5
2D0
330
2CA
100
AcDbEntity
  8
Furniture
370
     9
  0
POLYLINE
  5
2D1
330
1F
100
AcDbEntity
  8
Furniture
370
     9
100
AcDb2dPolyline
 66
     1
 10
0.0
 20
0.0
 30
0.0
  0
VERTEX
  5
2D2
330
2D1
100
AcDbEntity
  8
Furniture
370
     9
100
AcDbVertex
100
AcDb2dVertex
 10
2760.039764759095
 20
-31.4257833844521
 30
0.0
  0
VERTEX
  5
2D3
330
2D1
100
AcDbEntity
  8
Furniture
370
     9
100
AcDbVertex
100
AcDb2dVertex
 10
2759.114687936148
 20
-26.38122383430792
 30
0.0
  0
VERTEX
  5
2D4
330
2D1
100
AcDbEntity
  8
Furniture
370
     9
100
AcDbVertex
100
AcDb2dVertex
 10
2757.495803495986
 20
-21.55347916454312
 30
0.0
  0
VERTEX
  5
2D5
330
2D1
100
AcDbEntity
  8
Furniture
370
     9
100
AcDbVertex
100
AcDb2dVertex
 10
2755.240928740048
 20
-17.21718155696899
 30
0.0
  0
VERTEX
  5
2D6
330
2D1
100
AcDbEntity
  8
Furniture
370
     9
100
AcDbVertex
100
AcDb2dVertex
 10
2752.58133287407
 20
-13.57469156660854
 30
0.0
  0
VERTEX
  5
2D7
330
2D1
100
AcDbEntity
  8
Furniture
370
     9
100
AcDbVertex
100
AcDb2dVertex
 10
2749.488107247334
 20
-10.48146593987158
 30
0.0
  0
VERTEX
  5
2D8
330
2D1
100
AcDbEntity
  8
Furniture
370
     9
100
AcDbVertex
100
AcDb2dVertex
 10
2746.07688646271
 20
-8.241045509292145
 30
0.0
  0
VERTEX
  5
2D9
330
2D1
100
AcDbEntity
  8
Furniture
370
     9
100
AcDbVertex
100
AcDb2dVertex
 10
2742.347670520198
 20
-6.824521624151114
 30
0.0
  0
VERTEX
  5
2DA
330
2D1
100
AcDbEntity
  8
Furniture
370
     9
100
AcDbVertex
100
AcDb2dVertex
 10
2738.589545926965
 20
-6.333074561960441
 30
0.0
  0
SEQEND
  5
2DB
330
2D1
100
AcDbEntity
  8
Furniture
370
     9
  0
POLYLINE
  5
2DC
330
1F
100
AcDbEntity
  8
Furniture
370
     9
100
AcDb2dPolyline
 66
     1
 10
0.0
 20
0.0
 30
0.0
  0
VERTEX
  5
2DD
330
2DC
100
AcDbEntity
  8
Furniture
370
     9
100
AcDbVertex
100
AcDb2dVertex
 10
2738.589545926965
 20
-6.333074561960441
 30
0.0
  0
VERTEX
  5
2DE
330
2DC
100
AcDbEntity
  8
Furniture
370
     9
100
AcDbVertex
100
AcDb2dVertex
 10
2178.050808521308
 20
-6.333074561960441
 30
0.0
  0
SEQEND
  5
2DF
330
2DC
100
AcDbEntity
  8
Furniture
370
     9
  0
POLYLINE
  5
2E0
330
1F
100
AcDbEntity
  8
Furniture
370
     9
100
AcDb2dPolyline
 66
     1
 10
0.0
 20
0.0
 30
0.0
  0
VERTEX
  5
2E1
330
2E0
100
AcDbEntity
  8
Furniture
370
     9
100
AcDbVertex
100
AcDb2dVertex
 10
2161.399425708227
 20
-31.4257833844521
 30
0.0
  0
VERTEX
  5
2E2
330
2E0
100
AcDbEntity
  8
Furniture
370
     9
100
AcDbVertex
100
AcDb2dVertex
 10
2161.399425708227
 20
-264.6174143943925
 30
0.0
  0
SEQEND
  5
2E3
330
2E0
100
AcDbEntity
  8
Furniture
370
     9
  0
POLYLINE
  5
2E4
330
1F
100
AcDbEntity
  8
Furniture
370
     9
100
AcDb2dPolyline
 66
     1
 10
0.0
 20
0.0
 30
0.0
  0
VERTEX
  5
2E5
330
2E4
100
AcDbEntity
  8
Furniture
370
     9
100
AcDbVertex
100
AcDb2dVertex
 10
2760.039764759095
 20
-31.4257833844521
 30
0.0
  0
VERTEX
  5
2E6
330
2E4
100
AcDbEntity
  8
Furniture
370
     9
100
AcDbVertex
100
AcDb2dVertex
 10
2760.039764759095
 20
-264.6174143943925
 30
0.0
  0
SEQEND
  5
2E7
330
2E4
100
AcDbEntity
  8
Furniture
370
     9
  0
POLYLINE
  5
2E8
330
1F
100
AcDbEntity
  8
Furniture
370
     9
100
AcDb2dPolyline
 66
     1
 10
0.0
 20
0.0
 30
0.0
  0
VERTEX
  5
2E9
330
2E8
100
AcDbEntity
  8
Furniture
370
     9
100
AcDbVertex
100
AcDb2dVertex
 10
2161.399425708227
 20
-264.6174143943925
 30
0.0
  0
VERTEX
  5
2EA
330
2E8
100
AcDbEntity
  8
Furniture
370
     9
100
AcDbVertex
100
AcDb2dVertex
 10
2161.052521899619
 20
-268.1587241072437
 30
0.0
  0
VERTEX
  5
2EB
330
2E8
100
AcDbEntity
  8
Furniture
370
     9
100
AcDbVertex
100
AcDb2dVertex
 10
2161.399425708227
 20
-271.6711251693786
 30
0.0
  0
VERTEX
  5
2EC
330
2E8
100
AcDbEntity
  8
Furniture
370
     9
100
AcDbVertex
100
AcDb2dVertex
 10
2162.266685229739
 20
-274.966711351134
 30
0.0
  0
VERTEX
  5
2ED
330
2E8
100
AcDbEntity
  8
Furniture
370
     9
100
AcDbVertex
100
AcDb2dVertex
 10
2163.712117765598
 20
-278.2044802314557
 30
0.0
  0
VERTEX
  5
2EE
330
2E8
100
AcDbEntity
  8
Furniture
370
     9
100
AcDbVertex
100
AcDb2dVertex
 10
2165.793540617233
 20
-281.0519823270951
 30
0.0
  0
VERTEX
  5
2EF
330
2E8
100
AcDbEntity
  8
Furniture
370
     9
100
AcDbVertex
100
AcDb2dVertex
 10
2168.250775928191
 20
-283.5814892648458
 30
0.0
  0
VERTEX
  5
2F0
330
2E8
100
AcDbEntity
  8
Furniture
370
     9
100
AcDbVertex
100
AcDb2dVertex
 10
2171.083823698473
 20
-285.6195491404059
 30
0.0
  0
VERTEX
  5
2F1
330
2E8
100
AcDbEntity
  8
Furniture
370
     9
100
AcDbVertex
100
AcDb2dVertex
 10
2174.321592578795
 20
-287.1372533030561
 30
0.0
  0
VERTEX
  5
2F2
330
2E8
100
AcDbEntity
  8
Furniture
370
     9
100
AcDbVertex
100
AcDb2dVertex
 10
2177.761722014137
 20
-288.0334214752892
 30
0.0
  0
VERTEX
  5
2F3
330
2E8
100
AcDbEntity
  8
Furniture
370
     9
100
AcDbVertex
100
AcDb2dVertex
 10
2181.17294279876
 20
-288.3803252838951
 30
0.0
  0
SEQEND
  5
2F4
330
2E8
100
AcDbEntity
  8
Furniture
370
     9
  0
POLYLINE
  5
2F5
330
1F
100
AcDbEntity
  8
Furniture
370
     9
100
AcDb2dPolyline
 66
     1
 10
0.0
 20
0.0
 30
0.0
  0
VERTEX
  5
2F6
330
2F5
100
AcDbEntity
  8
Furniture
370
     9
100
AcDbVertex
100
AcDb2dVertex
 10
2181.17294279876
 20
-288.3803252838951
 30
0.0
  0
VERTEX
  5
2F7
330
2F5
100
AcDbEntity
  8
Furniture
370
     9
100
AcDbVertex
100
AcDb2dVertex
 10
2733.010176338556
 20
-288.3803252838951
 30
0.0
  0
VERTEX
  5
2F8
330
2F5
100
AcDbEntity
  8
Furniture
370
     9
100
AcDbVertex
100
AcDb2dVertex
 10
2739.312262194897
 20
-288.3803252838951
 30
0.0
  0
VERTEX
  5
2F9
330
2F5
100
AcDbEntity
  8
Furniture
370
     9
100
AcDbVertex
100
AcDb2dVertex
 10
2742.983660835975
 20
-288.0334214752892
 30
0.0
  0
VERTEX
  5
2FA
330
2F5
100
AcDbEntity
  8
Furniture
370
     9
100
AcDbVertex
100
AcDb2dVertex
 10
2746.568333524902
 20
-287.1372533030561
 30
0.0
  0
VERTEX
  5
2FB
330
2F5
100
AcDbEntity
  8
Furniture
370
     9
100
AcDbVertex
100
AcDb2dVertex
 10
2749.863919706657
 20
-285.6195491404059
 30
0.0
  0
VERTEX
  5
2FC
330
2F5
100
AcDbEntity
  8
Furniture
370
     9
100
AcDbVertex
100
AcDb2dVertex
 10
2752.899328031958
 20
-283.5814892648458
 30
0.0
  0
VERTEX
  5
2FD
330
2F5
100
AcDbEntity
  8
Furniture
370
     9
100
AcDbVertex
100
AcDb2dVertex
 10
2755.530015247219
 20
-281.0519823270951
 30
0.0
  0
VERTEX
  5
2FE
330
2F5
100
AcDbEntity
  8
Furniture
370
     9
100
AcDbVertex
100
AcDb2dVertex
 10
2757.611438098855
 20
-278.2044802314557
 30
0.0
  0
VERTEX
  5
2FF
330
2F5
100
AcDbEntity
  8
Furniture
370
     9
100
AcDbVertex
100
AcDb2dVertex
 10
2759.056870634713
 20
-274.966711351134
 30
0.0
  0
VERTEX
  5
300
330
2F5
100
AcDbEntity
  8
Furniture
370
     9
100
AcDbVertex
100
AcDb2dVertex
 10
2760.155399361964
 20
-271.6422165186612
 30
0.0
  0
VERTEX
  5
301
330
2F5
100
AcDbEntity
  8
Furniture
370
     9
100
AcDbVertex
100
AcDb2dVertex
 10
2760.386668567702
 20
-268.1298154565264
 30
0.0
  0
VERTEX
  5
302
330
2F5
100
AcDbEntity
  8
Furniture
370
     9
100
AcDbVertex
100
AcDb2dVertex
 10
2760.01085610838
 20
-264.6174143943925
 30
0.0
  0
SEQEND
  5
303
330
2F5
100
AcDbEntity
  8
Furniture
370
     9
  0
POLYLINE
  5
304
330
1F
100
AcDbEntity
  8
Furniture
370
     9
100
AcDb2dPolyline
 66
     1
 10
0.0
 20
0.0
 30
0.0
  0
VERTEX
  5
305
330
304
100
AcDbEntity
  8
Furniture
370
     9
100
AcDbVertex
100
AcDb2dVertex
 10
2257.751958548508
 20
-288.3803252838951
 30
0.0
  0
VERTEX
  5
306
330
304
100
AcDbEntity
  8
Furniture
370
     9
100
AcDbVertex
100
AcDb2dVertex
 10
2207.450906300655
 20
-288.3803252838951
 30
0.0
  0
VERTEX
  5
307
330
304
100
AcDbEntity
  8
Furniture
370
     9
100
AcDbVertex
100
AcDb2dVertex
 10
2207.450906300655
 20
-308.4718375323181
 30
0.0
  0
VERTEX
  5
308
330
304
100
AcDbEntity
  8
Furniture
370
     9
100
AcDbVertex
100
AcDb2dVertex
 10
2257.751958548508
 20
-308.4718375323181
 30
0.0
  0
VERTEX
  5
309
330
304
100
AcDbEntity
  8
Furniture
370
     9
100
AcDbVertex
100
AcDb2dVertex
 10
2257.751958548508
 20
-288.3803252838951
 30
0.0
  0
VERTEX
  5
30A
330
304
100
AcDbEntity
  8
Furniture
370
     9
100
AcDbVertex
100
AcDb2dVertex
 10
2257.751958548508
 20
-288.3803252838951
 30
0.0
  0
SEQEND
  5
30B
330
304
100
AcDbEntity
  8
Furniture
370
     9
  0
POLYLINE
  5
30C
330
1F
100
AcDbEntity
  8
Furniture
370
     9
100
AcDb2dPolyline
 66
     1
 10
0.0
 20
0.0
 30
0.0
  0
VERTEX
  5
30D
330
30C
100
AcDbEntity
  8
Furniture
370
     9
100
AcDbVertex
100
AcDb2dVertex
 10
2661.056544703554
 20
-288.3803252838951
 30
0.0
  0
VERTEX
  5
30E
330
30C
100
AcDbEntity
  8
Furniture
370
     9
100
AcDbVertex
100
AcDb2dVertex
 10
2711.328688300688
 20
-288.3803252838951
 30
0.0
  0
VERTEX
  5
30F
330
30C
100
AcDbEntity
  8
Furniture
370
     9
100
AcDbVertex
100
AcDb2dVertex
 10
2711.328688300688
 20
-308.4718375323181
 30
0.0
  0
VERTEX
  5
310
330
30C
100
AcDbEntity
  8
Furniture
370
     9
100
AcDbVertex
100
AcDb2dVertex
 10
2661.056544703554
 20
-308.4718375323181
 30
0.0
  0
VERTEX
  5
311
330
30C
100
AcDbEntity
  8
Furniture
370
     9
100
AcDbVertex
100
AcDb2dVertex
 10
2661.056544703554
 20
-288.3803252838951
 30
0.0
  0
VERTEX
  5
312
330
30C
100
AcDbEntity
  8
Furniture
370
     9
100
AcDbVertex
100
AcDb2dVertex
 10
2661.056544703554
 20
-288.3803252838951
 30
0.0
  0
SEQEND
  5
313
330
30C
100
AcDbEntity
  8
Furniture
370
     9
  0
POLYLINE
  5
314
330
1F
100
AcDbEntity
  8
Furniture
370
     9
100
AcDb2dPolyline
 66
     1
 10
0.0
 20
0.0
 30
0.0
  0
VERTEX
  5
315
330
314
100
AcDbEntity
  8
Furniture
370
     9
100
AcDbVertex
100
AcDb2dVertex
 10
2162.497954435477
 20
-27.11839442759529
 30
0.0
  0
VERTEX
  5
316
330
314
100
AcDbEntity
  8
Furniture
370
     9
100
AcDbVertex
100
AcDb2dVertex
 10
2163.162853401973
 20
-22.95554872432504
 30
0.0
  0
VERTEX
  5
317
330
314
100
AcDbEntity
  8
Furniture
370
     9
100
AcDbVertex
100
AcDb2dVertex
 10
2164.377016732093
 20
-18.96615492535775
 30
0.0
  0
VERTEX
  5
318
330
314
100
AcDbEntity
  8
Furniture
370
     9
100
AcDbVertex
100
AcDb2dVertex
 10
2165.966992521537
 20
-15.3381192603546
 30
0.0
  0
VERTEX
  5
319
330
314
100
AcDbEntity
  8
Furniture
370
     9
100
AcDbVertex
100
AcDb2dVertex
 10
2167.874963468868
 20
-12.28825660969496
 30
0.0
  0
VERTEX
  5
31A
330
314
100
AcDbEntity
  8
Furniture
370
     9
100
AcDbVertex
100
AcDb2dVertex
 10
2170.129838224806
 20
-9.758749671943316
 30
0.0
  0
VERTEX
  5
31B
330
314
100
AcDbEntity
  8
Furniture
370
     9
100
AcDbVertex
100
AcDb2dVertex
 10
2172.673799487915
 20
-7.879687375328015
 30
0.0
  0
VERTEX
  5
31C
330
314
100
AcDbEntity
  8
Furniture
370
     9
100
AcDbVertex
100
AcDb2dVertex
 10
2175.362304004611
 20
-6.737795672000996
 30
0.0
  0
VERTEX
  5
31D
330
314
100
AcDbEntity
  8
Furniture
370
     9
100
AcDbVertex
100
AcDb2dVertex
 10
2178.050808521308
 20
-6.333074561960441
 30
0.0
  0
SEQEND
  5
31E
330
314
100
AcDbEntity
  8
Furniture
370
     9
  0
MTEXT
  5
31F
330
1F
100
AcDbEntity
  8
Dimensions
100
AcDbMText
 10
5447.605692793611
 20
-240.7753076860407
 30
0.0
 40
145.9068946410501
 41
0.0
 46
0.0
 71
     7
 72
     1
  1
\fApercu|b0|i0|c0|p34;\W1.0004;30
 73
     1
 44
1.0
  0
MTEXT
  5
320
330
1F
100
AcDbEntity
  8
Text
100
AcDbMText
 10
4770.056994561243
 20
-733.6456308281448
 30
0.0
 40
129.3681
 41
0.0
 46
0.0
 71
     7
 72
     1
  1
AR62P
 73
     1
 44
1.0
  0
MTEXT
  5
322
330
1F
100
AcDbEntity
  8
Dimensions
100
AcDbMText
 10
4917.08264302256
 20
135.7519586034342
 30
0.0
 40
145.9068946410501
 41
0.0
 46
0.0
 71
     7
 72
     1
  1
\fApercu|b0|i0|c0|p34;\W1.0004;53
 73
     1
 44
1.0
  0
SPLINE
  5
323
330
1F
100
AcDbEntity
  8
Furniture
370
     9
100
AcDbSpline
210
0.0
220
0.0
230
1.0
 70
    11
 71
     3
 72
    53
 73
    49
 74
     0
 42
0.000000001
 43
0.0000000001
 40
0.0
 40
0.0
 40
0.0
 40
0.0
 40
1.0
 40
1.0
 40
1.0
 40
2.0
 40
2.0
 40
2.0
 40
3.0
 40
3.0
 40
3.0
 40
4.0
 40
4.0
 40
4.0
 40
5.0
 40
5.0
 40
5.0
 40
6.0
 40
6.0
 40
6.0
 40
7.0
 40
7.0
 40
7.0
 40
8.0
 40
8.0
 40
8.0
 40
9.0
 40
9.0
 40
9.0
 40
10.0
 40
10.0
 40
10.0
 40
11.0
 40
11.0
 40
11.0
 40
12.0
 40
12.0
 40
12.0
 40
13.0
 40
13.0
 40
13.0
 40
14.0
 40
14.0
 40
14.0
 40
15.0
 40
15.0
 40
15.0
 40
16.0
 40
16.0
 40
16.0
 40
16.0
 10
4856.924500388108
 20
2066.574790182148
 30
0.0
 10
4856.924500388108
 20
2066.574790182148
 30
0.0
 10
5261.256850225399
 20
1994.874825558449
 30
0.0
 10
5362.325646282568
 20
1976.524665188341
 30
0.0
 10
5414.060522092372
 20
1968.092737915473
 30
0.0
 10
5412.574216268001
 20
1992.159459148542
 30
0.0
 10
5430.181223725923
 20
2033.132909133821
 30
0.0
 10
5496.093170475874
 20
2221.979497241767
 30
0.0
 10
5518.273426624166
 20
2287.248330894634
 30
0.0
 10
5531.707344652127
 20
2332.75215536381
 30
0.0
 10
5576.01069134008
 20
2483.983772993467
 30
0.0
 10
5662.216429153545
 20
2474.208453917802
 30
0.0
 10
5684.625347736356
 20
2473.27951277757
 30
0.0
 10
5706.977100710538
 20
2472.464902854599
 30
0.0
 10
5739.904491281198
 20
2468.449018848368
 30
0.0
 10
5745.39238970964
 20
2461.860682453804
 30
0.0
 10
5750.880288138084
 20
2455.243763254926
 30
0.0
 10
5738.989841543125
 20
2428.847543470199
 30
0.0
 10
5725.555923515164
 20
2363.221424763397
 30
0.0
 10
5712.122005487204
 20
2297.623888860909
 30
0.0
 10
5541.76849177094
 20
1540.951310234962
 30
0.0
 10
5541.76849177094
 20
1540.951310234962
 30
0.0
 10
5541.76849177094
 20
1540.951310234962
 30
0.0
 10
5539.882026686161
 20
1536.206564718703
 30
0.0
 10
5535.137281169903
 20
1530.518586660056
 30
0.0
 10
5449.789027485883
 20
1522.915560712317
 30
0.0
 10
5310.076279995096
 20
1523.958833069807
 30
0.0
 10
5310.076279995096
 20
1523.958833069807
 30
0.0
 10
5310.076279995096
 20
1523.958833069807
 30
0.0
 10
5011.557471731226
 20
1523.858793254706
 30
0.0
 10
5011.557471731226
 20
1523.858793254706
 30
0.0
 10
5011.557471731226
 20
1523.858793254706
 30
0.0
 10
4769.918444053828
 20
1527.060067337964
 30
0.0
 10
4769.918444053828
 20
1527.060067337964
 30
0.0
 10
4769.918444053828
 20
1527.060067337964
 30
0.0
 10
4763.916055147719
 20
1529.260943270205
 30
0.0
 10
4765.002201711681
 20
1543.552345427609
 30
0.0
 10
4768.317807012198
 20
1586.655214334342
 30
0.0
 10
4814.564784393559
 20
1898.693689039115
 30
0.0
 10
4814.564784393559
 20
1898.693689039115
 30
0.0
 10
4814.564784393559
 20
1898.693689039115
 30
0.0
 10
4815.822427783412
 20
1906.525377421373
 30
0.0
 10
4815.822427783412
 20
1906.525377421373
 30
0.0
 10
4815.822427783412
 20
1906.525377421373
 30
0.0
 10
4821.195994994597
 20
1945.712402136978
 30
0.0
 10
4833.372269632705
 20
2011.681514495557
 30
0.0
 10
4846.463194008888
 20
2075.935658595249
 30
0.0
 10
4856.924500388108
 20
2066.574790182148
 30
0.0
 10
4856.924500388108
 20
2066.574790182148
 30
0.0
  0
SPLINE
  5
324
330
1F
100
AcDbEntity
  8
Furniture
370
     9
100
AcDbSpline
210
0.0
220
0.0
230
1.0
 70
     8
 71
     3
 72
    11
 73
     7
 74
     0
 42
0.000000001
 43
0.0000000001
 40
0.0
 40
0.0
 40
0.0
 40
0.0
 40
1.0
 40
1.0
 40
1.0
 40
2.0
 40
2.0
 40
2.0
 40
2.0
 10
5354.493957900309
 20
1980.040350119062
 30
0.0
 10
5412.288388224852
 20
1972.651695203685
 30
0.0
 10
5526.276611832313
 20
2360.906217613897
 30
0.0
 10
5529.64938274146
 20
2368.995151234988
 30
0.0
 10
5533.022153650608
 20
2377.012627845293
 30
0.0
 10
5550.68632671716
 20
2413.127001097054
 30
0.0
 10
5577.839990816229
 20
2427.432694656616
 30
0.0
  0
SPLINE
  5
325
330
1F
100
AcDbEntity
  8
Furniture
370
     9
100
AcDbSpline
210
0.0
220
0.0
230
1.0
 70
     8
 71
     3
 72
    14
 73
    10
 74
     0
 42
0.000000001
 43
0.0000000001
 40
0.0
 40
0.0
 40
0.0
 40
0.0
 40
1.0
 40
1.0
 40
1.0
 40
2.0
 40
2.0
 40
2.0
 40
3.0
 40
3.0
 40
3.0
 40
3.0
 10
4815.822427783412
 20
1906.525377421373
 30
0.0
 10
4815.822427783412
 20
1906.525377421373
 30
0.0
 10
4791.469878507195
 20
1902.766738653976
 30
0.0
 10
4786.267808121899
 20
1890.962040471959
 30
0.0
 10
4780.951406519345
 20
1879.157342289943
 30
0.0
 10
4772.54806205079
 20
1788.178276155905
 30
0.0
 10
4772.262234007643
 20
1759.381100808734
 30
0.0
 10
4775.977998568568
 20
1733.58511991462
 30
0.0
 10
4787.296789077234
 20
1735.557333412342
 30
0.0
 10
4787.296789077234
 20
1735.557333412342
 30
0.0
  0
POLYLINE
  5
326
330
1F
100
AcDbEntity
  8
Furniture
370
     9
100
AcDb2dPolyline
 66
     1
 10
0.0
 20
0.0
 30
0.0
  0
VERTEX
  5
327
330
326
100
AcDbEntity
  8
Furniture
370
     9
100
AcDbVertex
100
AcDb2dVertex
 10
4786.324973730528
 20
1889.089866789339
 30
0.0
  0
VERTEX
  5
328
330
326
100
AcDbEntity
  8
Furniture
370
     9
100
AcDbVertex
100
AcDb2dVertex
 10
4813.192809786449
 20
1884.287955664451
 30
0.0
  0
SEQEND
  5
329
330
326
100
AcDbEntity
  8
Furniture
370
     9
  0
POLYLINE
  5
32A
330
1F
100
AcDbEntity
  8
Furniture
370
     9
100
AcDb2dPolyline
 66
     1
 10
0.0
 20
0.0
 30
0.0
  0
VERTEX
  5
32B
330
32A
100
AcDbEntity
  8
Furniture
370
     9
100
AcDbVertex
100
AcDb2dVertex
 10
4881.562877707473
 20
1513.04020182155
 30
0.0
  0
VERTEX
  5
32C
330
32A
100
AcDbEntity
  8
Furniture
370
     9
100
AcDbVertex
100
AcDb2dVertex
 10
5465.166576207251
 20
1513.04020182155
 30
0.0
  0
SEQEND
  5
32D
330
32A
100
AcDbEntity
  8
Furniture
370
     9
  0
POLYLINE
  5
32E
330
1F
100
AcDbEntity
  8
Furniture
370
     9
100
AcDb2dPolyline
 66
     1
 10
0.0
 20
0.0
 30
0.0
  0
VERTEX
  5
32F
330
32E
100
AcDbEntity
  8
Furniture
370
     9
100
AcDbVertex
100
AcDb2dVertex
 10
5465.166576207251
 20
1513.04020182155
 30
0.0
  0
VERTEX
  5
330
330
32E
100
AcDbEntity
  8
Furniture
370
     9
100
AcDbVertex
100
AcDb2dVertex
 10
5465.166576207251
 20
1523.387176983512
 30
0.0
  0
SEQEND
  5
331
330
32E
100
AcDbEntity
  8
Furniture
370
     9
  0
POLYLINE
  5
332
330
1F
100
AcDbEntity
  8
Furniture
370
     9
100
AcDb2dPolyline
 66
     1
 10
0.0
 20
0.0
 30
0.0
  0
VERTEX
  5
333
330
332
100
AcDbEntity
  8
Furniture
370
     9
100
AcDbVertex
100
AcDb2dVertex
 10
4881.562877707473
 20
1523.387176983512
 30
0.0
  0
VERTEX
  5
334
330
332
100
AcDbEntity
  8
Furniture
100
AcDbVertex
100
AcDb2dVertex
 10
4881.562877707473
 20
1523.387176983512
 30
0.0
  0
SEQEND
  5
335
330
332
100
AcDbEntity
  8
Furniture
370
     9
  0
POLYLINE
  5
336
330
1F
100
AcDbEntity
  8
Furniture
370
     9
100
AcDb2dPolyline
 66
     1
 10
0.0
 20
0.0
 30
0.0
  0
VERTEX
  5
337
330
336
100
AcDbEntity
  8
Furniture
370
     9
100
AcDbVertex
100
AcDb2dVertex
 10
5465.166576207251
 20
1523.387176983512
 30
0.0
  0
VERTEX
  5
338
330
336
100
AcDbEntity
  8
Furniture
100
AcDbVertex
100
AcDb2dVertex
 10
5465.166576207251
 20
1523.387176983512
 30
0.0
  0
SEQEND
  5
339
330
336
100
AcDbEntity
  8
Furniture
370
     9
  0
POLYLINE
  5
33A
330
1F
100
AcDbEntity
  8
Furniture
370
     9
100
AcDb2dPolyline
 66
     1
 10
0.0
 20
0.0
 30
0.0
  0
VERTEX
  5
33B
330
33A
100
AcDbEntity
  8
Furniture
370
     9
100
AcDbVertex
100
AcDb2dVertex
 10
4881.562877707473
 20
1523.387176983512
 30
0.0
  0
VERTEX
  5
33C
330
33A
100
AcDbEntity
  8
Furniture
370
     9
100
AcDbVertex
100
AcDb2dVertex
 10
4881.562877707473
 20
1513.04020182155
 30
0.0
  0
SEQEND
  5
33D
330
33A
100
AcDbEntity
  8
Furniture
370
     9
  0
POLYLINE
  5
33E
330
1F
100
AcDbEntity
  8
Furniture
370
     9
100
AcDb2dPolyline
 66
     1
 10
0.0
 20
0.0
 30
0.0
  0
VERTEX
  5
33F
330
33E
100
AcDbEntity
  8
Furniture
370
     9
100
AcDbVertex
100
AcDb2dVertex
 10
5306.343494088089
 20
-34.34616815824469
 30
0.0
  0
VERTEX
  5
340
330
33E
100
AcDbEntity
  8
Furniture
370
     9
100
AcDbVertex
100
AcDb2dVertex
 10
5305.311912536613
 20
-28.72082501034114
 30
0.0
  0
VERTEX
  5
341
330
33E
100
AcDbEntity
  8
Furniture
370
     9
100
AcDbVertex
100
AcDb2dVertex
 10
5300.9921647898
 20
-18.50172026601271
 30
0.0
  0
VERTEX
  5
342
330
33E
100
AcDbEntity
  8
Furniture
370
     9
100
AcDbVertex
100
AcDb2dVertex
 10
5298.026367829301
 20
-14.43986790706716
 30
0.0
  0
VERTEX
  5
343
330
33E
100
AcDbEntity
  8
Furniture
370
     9
100
AcDbVertex
100
AcDb2dVertex
 10
5294.60925394003
 20
-10.99051709431282
 30
0.0
  0
VERTEX
  5
344
330
33E
100
AcDbEntity
  8
Furniture
370
     9
100
AcDbVertex
100
AcDb2dVertex
 10
5290.740823121988
 20
-8.492155524327102
 30
0.0
  0
VERTEX
  5
345
330
33E
100
AcDbEntity
  8
Furniture
370
     9
100
AcDbVertex
100
AcDb2dVertex
 10
5286.614496916073
 20
-6.912546273626362
 30
0.0
  0
VERTEX
  5
346
330
33E
100
AcDbEntity
  8
Furniture
370
     9
100
AcDbVertex
100
AcDb2dVertex
 10
5282.423696863195
 20
-6.364518574404287
 30
0.0
  0
SEQEND
  5
347
330
33E
100
AcDbEntity
  8
Furniture
370
     9
  0
POLYLINE
  5
348
330
1F
100
AcDbEntity
  8
Furniture
370
     9
100
AcDb2dPolyline
 66
     1
 10
0.0
 20
0.0
 30
0.0
  0
VERTEX
  5
349
330
348
100
AcDbEntity
  8
Furniture
370
     9
100
AcDbVertex
100
AcDb2dVertex
 10
5282.423696863195
 20
-6.364518574404287
 30
0.0
  0
VERTEX
  5
34A
330
348
100
AcDbEntity
  8
Furniture
370
     9
100
AcDbVertex
100
AcDb2dVertex
 10
4794.743518401966
 20
-6.348400112661551
 30
0.0
  0
SEQEND
  5
34B
330
348
100
AcDbEntity
  8
Furniture
370
     9
  0
POLYLINE
  5
34C
330
1F
100
AcDbEntity
  8
Furniture
370
     9
100
AcDb2dPolyline
 66
     1
 10
0.0
 20
0.0
 30
0.0
  0
VERTEX
  5
34D
330
34C
100
AcDbEntity
  8
Furniture
370
     9
100
AcDbVertex
100
AcDb2dVertex
 10
4776.110576628393
 20
-34.33004969650196
 30
0.0
  0
VERTEX
  5
34E
330
34C
100
AcDbEntity
  8
Furniture
370
     9
100
AcDbVertex
100
AcDb2dVertex
 10
4776.110576628393
 20
-294.3853114394131
 30
0.0
  0
SEQEND
  5
34F
330
34C
100
AcDbEntity
  8
Furniture
370
     9
  0
POLYLINE
  5
350
330
1F
100
AcDbEntity
  8
Furniture
370
     9
100
AcDb2dPolyline
 66
     1
 10
0.0
 20
0.0
 30
0.0
  0
VERTEX
  5
351
330
350
100
AcDbEntity
  8
Furniture
370
     9
100
AcDbVertex
100
AcDb2dVertex
 10
5306.343494088089
 20
-34.34616815824469
 30
0.0
  0
VERTEX
  5
352
330
350
100
AcDbEntity
  8
Furniture
370
     9
100
AcDbVertex
100
AcDb2dVertex
 10
5306.343494088089
 20
-294.3853114394131
 30
0.0
  0
SEQEND
  5
353
330
350
100
AcDbEntity
  8
Furniture
370
     9
  0
POLYLINE
  5
354
330
1F
100
AcDbEntity
  8
Furniture
370
     9
100
AcDb2dPolyline
 66
     1
 10
0.0
 20
0.0
 30
0.0
  0
VERTEX
  5
355
330
354
100
AcDbEntity
  8
Furniture
370
     9
100
AcDbVertex
100
AcDb2dVertex
 10
4776.110576628393
 20
-294.3853114394131
 30
0.0
  0
VERTEX
  5
356
330
354
100
AcDbEntity
  8
Furniture
370
     9
100
AcDbVertex
100
AcDb2dVertex
 10
4775.723733546588
 20
-298.334334566165
 30
0.0
  0
VERTEX
  5
357
330
354
100
AcDbEntity
  8
Furniture
370
     9
100
AcDbVertex
100
AcDb2dVertex
 10
4776.110576628393
 20
-302.2350023076904
 30
0.0
  0
VERTEX
  5
358
330
354
100
AcDbEntity
  8
Furniture
370
     9
100
AcDbVertex
100
AcDb2dVertex
 10
4777.142158179873
 20
-305.8938931230894
 30
0.0
  0
VERTEX
  5
359
330
354
100
AcDbEntity
  8
Furniture
370
     9
100
AcDbVertex
100
AcDb2dVertex
 10
4778.689530507089
 20
-309.504428553262
 30
0.0
  0
VERTEX
  5
35A
330
354
100
AcDbEntity
  8
Furniture
370
     9
100
AcDbVertex
100
AcDb2dVertex
 10
4781.010588997916
 20
-312.7120024398899
 30
0.0
  0
VERTEX
  5
35B
330
354
100
AcDbEntity
  8
Furniture
370
     9
100
AcDbVertex
100
AcDb2dVertex
 10
4783.782964417511
 20
-315.5327332447121
 30
0.0
  0
VERTEX
  5
35C
330
354
100
AcDbEntity
  8
Furniture
370
     9
100
AcDbVertex
100
AcDb2dVertex
 10
4786.942182918913
 20
-317.7893178885714
 30
0.0
  0
VERTEX
  5
35D
330
354
100
AcDbEntity
  8
Furniture
370
     9
100
AcDbVertex
100
AcDb2dVertex
 10
4790.552718349084
 20
-319.4978748332049
 30
0.0
  0
VERTEX
  5
35E
330
354
100
AcDbEntity
  8
Furniture
370
     9
100
AcDbVertex
100
AcDb2dVertex
 10
4794.35667532016
 20
-320.4972194611999
 30
0.0
  0
VERTEX
  5
35F
330
354
100
AcDbEntity
  8
Furniture
370
     9
100
AcDbVertex
100
AcDb2dVertex
 10
4798.160632291237
 20
-320.8840625430056
 30
0.0
  0
SEQEND
  5
360
330
354
100
AcDbEntity
  8
Furniture
370
     9
  0
POLYLINE
  5
361
330
1F
100
AcDbEntity
  8
Furniture
370
     9
100
AcDb2dPolyline
 66
     1
 10
0.0
 20
0.0
 30
0.0
  0
VERTEX
  5
362
330
361
100
AcDbEntity
  8
Furniture
370
     9
100
AcDbVertex
100
AcDb2dVertex
 10
4798.160632291237
 20
-320.8840625430056
 30
0.0
  0
VERTEX
  5
363
330
361
100
AcDbEntity
  8
Furniture
370
     9
100
AcDbVertex
100
AcDb2dVertex
 10
5276.169733707359
 20
-320.8840625430056
 30
0.0
  0
VERTEX
  5
364
330
361
100
AcDbEntity
  8
Furniture
370
     9
100
AcDbVertex
100
AcDb2dVertex
 10
5283.261856873774
 20
-320.8840625430056
 30
0.0
  0
VERTEX
  5
365
330
361
100
AcDbEntity
  8
Furniture
370
     9
100
AcDbVertex
100
AcDb2dVertex
 10
5287.323709232717
 20
-320.4972194611999
 30
0.0
  0
VERTEX
  5
366
330
361
100
AcDbEntity
  8
Furniture
370
     9
100
AcDbVertex
100
AcDb2dVertex
 10
5291.321087744694
 20
-319.4978748332049
 30
0.0
  0
VERTEX
  5
367
330
361
100
AcDbEntity
  8
Furniture
370
     9
100
AcDbVertex
100
AcDb2dVertex
 10
5294.996097021833
 20
-317.8054363503123
 30
0.0
  0
VERTEX
  5
368
330
361
100
AcDbEntity
  8
Furniture
370
     9
100
AcDbVertex
100
AcDb2dVertex
 10
5298.348737064137
 20
-315.5327332447121
 30
0.0
  0
VERTEX
  5
369
330
361
100
AcDbEntity
  8
Furniture
370
     9
100
AcDbVertex
100
AcDb2dVertex
 10
5301.314534024637
 20
-312.7120024398899
 30
0.0
  0
VERTEX
  5
36A
330
361
100
AcDbEntity
  8
Furniture
370
     9
100
AcDbVertex
100
AcDb2dVertex
 10
5303.635592515463
 20
-309.5366654767475
 30
0.0
  0
VERTEX
  5
36B
330
361
100
AcDbEntity
  8
Furniture
370
     9
100
AcDbVertex
100
AcDb2dVertex
 10
5305.247438689649
 20
-305.9261300465731
 30
0.0
  0
VERTEX
  5
36C
330
361
100
AcDbEntity
  8
Furniture
370
     9
100
AcDbVertex
100
AcDb2dVertex
 10
5306.472441782028
 20
-302.2188838459495
 30
0.0
  0
VERTEX
  5
36D
330
361
100
AcDbEntity
  8
Furniture
370
     9
100
AcDbVertex
100
AcDb2dVertex
 10
5306.730337169898
 20
-298.3020976426813
 30
0.0
  0
VERTEX
  5
36E
330
361
100
AcDbEntity
  8
Furniture
370
     9
100
AcDbVertex
100
AcDb2dVertex
 10
5306.343494088089
 20
-294.3853114394131
 30
0.0
  0
SEQEND
  5
36F
330
361
100
AcDbEntity
  8
Furniture
370
     9
  0
POLYLINE
  5
370
330
1F
100
AcDbEntity
  8
Furniture
370
     9
100
AcDb2dPolyline
 66
     1
 10
0.0
 20
0.0
 30
0.0
  0
VERTEX
  5
371
330
370
100
AcDbEntity
  8
Furniture
370
     9
100
AcDbVertex
100
AcDb2dVertex
 10
4883.588479523009
 20
-320.8840625430056
 30
0.0
  0
VERTEX
  5
372
330
370
100
AcDbEntity
  8
Furniture
370
     9
100
AcDbVertex
100
AcDb2dVertex
 10
4827.496232661392
 20
-320.8840625430056
 30
0.0
  0
VERTEX
  5
373
330
370
100
AcDbEntity
  8
Furniture
370
     9
100
AcDbVertex
100
AcDb2dVertex
 10
4827.496232661392
 20
-343.2887243641669
 30
0.0
  0
VERTEX
  5
374
330
370
100
AcDbEntity
  8
Furniture
370
     9
100
AcDbVertex
100
AcDb2dVertex
 10
4883.588479523009
 20
-343.2887243641669
 30
0.0
  0
VERTEX
  5
375
330
370
100
AcDbEntity
  8
Furniture
370
     9
100
AcDbVertex
100
AcDb2dVertex
 10
4883.588479523009
 20
-320.8840625430056
 30
0.0
  0
VERTEX
  5
376
330
370
100
AcDbEntity
  8
Furniture
370
     9
100
AcDbVertex
100
AcDb2dVertex
 10
4883.588479523009
 20
-320.8840625430056
 30
0.0
  0
SEQEND
  5
377
330
370
100
AcDbEntity
  8
Furniture
370
     9
  0
POLYLINE
  5
378
330
1F
100
AcDbEntity
  8
Furniture
370
     9
100
AcDb2dPolyline
 66
     1
 10
0.0
 20
0.0
 30
0.0
  0
VERTEX
  5
379
330
378
100
AcDbEntity
  8
Furniture
370
     9
100
AcDbVertex
100
AcDb2dVertex
 10
5195.964268079944
 20
-320.8840625430056
 30
0.0
  0
VERTEX
  5
37A
330
378
100
AcDbEntity
  8
Furniture
370
     9
100
AcDbVertex
100
AcDb2dVertex
 10
5252.056514941562
 20
-320.8840625430056
 30
0.0
  0
VERTEX
  5
37B
330
378
100
AcDbEntity
  8
Furniture
370
     9
100
AcDbVertex
100
AcDb2dVertex
 10
5252.056514941562
 20
-343.2887243641669
 30
0.0
  0
VERTEX
  5
37C
330
378
100
AcDbEntity
  8
Furniture
370
     9
100
AcDbVertex
100
AcDb2dVertex
 10
5195.964268079944
 20
-343.2887243641669
 30
0.0
  0
VERTEX
  5
37D
330
378
100
AcDbEntity
  8
Furniture
370
     9
100
AcDbVertex
100
AcDb2dVertex
 10
5195.964268079944
 20
-320.8840625430056
 30
0.0
  0
VERTEX
  5
37E
330
378
100
AcDbEntity
  8
Furniture
370
     9
100
AcDbVertex
100
AcDb2dVertex
 10
5195.964268079944
 20
-320.8840625430056
 30
0.0
  0
SEQEND
  5
37F
330
378
100
AcDbEntity
  8
Furniture
370
     9
  0
POLYLINE
  5
380
330
1F
100
AcDbEntity
  8
Furniture
370
     9
100
AcDb2dPolyline
 66
     1
 10
0.0
 20
0.0
 30
0.0
  0
VERTEX
  5
381
330
380
100
AcDbEntity
  8
Furniture
370
     9
100
AcDbVertex
100
AcDb2dVertex
 10
4777.335579720772
 20
-29.52674809743425
 30
0.0
  0
VERTEX
  5
382
330
380
100
AcDbEntity
  8
Furniture
370
     9
100
AcDbVertex
100
AcDb2dVertex
 10
4778.109265884381
 20
-24.88463111578298
 30
0.0
  0
VERTEX
  5
383
330
380
100
AcDbEntity
  8
Furniture
370
     9
100
AcDbVertex
100
AcDb2dVertex
 10
4779.463216670698
 20
-20.43593567503362
 30
0.0
  0
VERTEX
  5
384
330
380
100
AcDbEntity
  8
Furniture
370
     9
100
AcDbVertex
100
AcDb2dVertex
 10
4781.204010538816
 20
-16.37408331608989
 30
0.0
  0
VERTEX
  5
385
330
380
100
AcDbEntity
  8
Furniture
370
     9
100
AcDbVertex
100
AcDb2dVertex
 10
4783.33164748874
 20
-12.98920635030103
 30
0.0
  0
VERTEX
  5
386
330
380
100
AcDbEntity
  8
Furniture
370
     9
100
AcDbVertex
100
AcDb2dVertex
 10
4785.910601367435
 20
-10.18459400722153
 30
0.0
  0
VERTEX
  5
387
330
380
100
AcDbEntity
  8
Furniture
370
     9
100
AcDbVertex
100
AcDb2dVertex
 10
4788.682976787032
 20
-8.089193980780549
 30
0.0
  0
VERTEX
  5
388
330
380
100
AcDbEntity
  8
Furniture
370
     9
100
AcDbVertex
100
AcDb2dVertex
 10
4791.713247594499
 20
-6.799717041432672
 30
0.0
  0
VERTEX
  5
389
330
380
100
AcDbEntity
  8
Furniture
370
     9
100
AcDbVertex
100
AcDb2dVertex
 10
4794.743518401966
 20
-6.348400112661551
 30
0.0
  0
SEQEND
  5
38A
330
380
100
AcDbEntity
  8
Furniture
370
     9
  0
POLYLINE
  5
38B
330
1F
100
AcDbEntity
  8
Furniture
370
     9
100
AcDb2dPolyline
 66
     1
 10
0.0
 20
0.0
 30
0.0
  0
VERTEX
  5
38C
330
38B
100
AcDbEntity
  8
Furniture
370
     9
100
AcDbVertex
100
AcDb2dVertex
 10
2596.274401255597
 20
1729.097619637195
 30
0.0
  0
VERTEX
  5
38D
330
38B
100
AcDbEntity
  8
Furniture
370
     9
100
AcDbVertex
100
AcDb2dVertex
 10
2294.554318908472
 20
1729.097619637195
 30
0.0
  0
SEQEND
  5
38E
330
38B
100
AcDbEntity
  8
Furniture
370
     9
  0
SPLINE
  5
38F
330
1F
100
AcDbEntity
  8
Furniture
370
     9
100
AcDbSpline
210
0.0
220
0.0
230
1.0
 70
     8
 71
     3
 72
    20
 73
    16
 74
     0
 42
0.000000001
 43
0.0000000001
 40
0.0
 40
0.0
 40
0.0
 40
0.0
 40
1.0
 40
1.0
 40
1.0
 40
2.0
 40
2.0
 40
2.0
 40
3.0
 40
3.0
 40
3.0
 40
4.0
 40
4.0
 40
4.0
 40
5.0
 40
5.0
 40
5.0
 40
5.0
 10
2178.050808521309
 20
1540.479693963767
 30
0.0
 10
2178.050808521309
 20
1540.479693963767
 30
0.0
 10
2178.050808521309
 20
2058.957472832252
 30
0.0
 10
2178.050808521309
 20
2058.957472832252
 30
0.0
 10
2178.050808521309
 20
2072.048397208435
 30
0.0
 10
2184.339025470567
 20
2088.583549504551
 30
0.0
 10
2206.690778444746
 20
2088.583549504551
 30
0.0
 10
2206.690778444746
 20
2088.583549504551
 30
0.0
 10
2223.726129816371
 20
2083.167108086895
 30
0.0
 10
2234.587595456001
 20
2076.47873187723
 30
0.0
 10
2245.449061095628
 20
2069.804647069722
 30
0.0
 10
2270.887756935807
 20
2037.477495389673
 30
0.0
 10
2270.887756935807
 20
2024.38657101349
 30
0.0
 10
2270.887756935807
 20
2024.38657101349
 30
0.0
 10
2270.887756935807
 20
1755.379508204662
 30
0.0
 10
2270.887756935807
 20
1755.379508204662
 30
0.0
  0
SPLINE
  5
390
330
1F
100
AcDbEntity
  8
Furniture
370
     9
100
AcDbSpline
210
0.0
220
0.0
230
1.0
 70
     8
 71
     3
 72
     8
 73
     4
 74
     0
 42
0.000000001
 43
0.0000000001
 40
0.0
 40
0.0
 40
0.0
 40
0.0
 40
1.0
 40
1.0
 40
1.0
 40
1.0
 10
2178.050808521309
 20
1540.479693963767
 30
0.0
 10
2178.050808521309
 20
1533.777026351944
 30
0.0
 10
2214.065141957967
 20
1523.873084656863
 30
0.0
 10
2236.302563714889
 20
1523.873084656863
 30
0.0
  0
POLYLINE
  5
391
330
1F
100
AcDbEntity
  8
Furniture
370
     9
100
AcDb2dPolyline
 66
     1
 10
0.0
 20
0.0
 30
0.0
  0
VERTEX
  5
392
330
391
100
AcDbEntity
  8
Furniture
370
     9
100
AcDbVertex
100
AcDb2dVertex
 10
2959.876254944287
 20
1523.873084656863
 30
0.0
  0
VERTEX
  5
393
330
391
100
AcDbEntity
  8
Furniture
370
     9
100
AcDbVertex
100
AcDb2dVertex
 10
2599.933000207894
 20
1523.873084656863
 30
0.0
  0
VERTEX
  5
394
330
391
100
AcDbEntity
  8
Furniture
370
     9
100
AcDbVertex
100
AcDb2dVertex
 10
2596.274401255597
 20
1523.873084656863
 30
0.0
  0
VERTEX
  5
395
330
391
100
AcDbEntity
  8
Furniture
370
     9
100
AcDbVertex
100
AcDb2dVertex
 10
2236.302563714889
 20
1523.873084656863
 30
0.0
  0
SEQEND
  5
396
330
391
100
AcDbEntity
  8
Furniture
370
     9
  0
SPLINE
  5
397
330
1F
100
AcDbEntity
  8
Furniture
370
     9
100
AcDbSpline
210
0.0
220
0.0
230
1.0
 70
     8
 71
     3
 72
    44
 73
    40
 74
     0
 42
0.000000001
 43
0.0000000001
 40
0.0
 40
0.0
 40
0.0
 40
0.0
 40
1.0
 40
1.0
 40
1.0
 40
2.0
 40
2.0
 40
2.0
 40
3.0
 40
3.0
 40
3.0
 40
4.0
 40
4.0
 40
4.0
 40
5.0
 40
5.0
 40
5.0
 40
6.0
 40
6.0
 40
6.0
 40
7.0
 40
7.0
 40
7.0
 40
8.0
 40
8.0
 40
8.0
 40
9.0
 40
9.0
 40
9.0
 40
10.0
 40
10.0
 40
10.0
 40
11.0
 40
11.0
 40
11.0
 40
12.0
 40
12.0
 40
12.0
 40
13.0
 40
13.0
 40
13.0
 40
13.0
 10
2599.933000207894
 20
1729.097619637195
 30
0.0
 10
2599.933000207894
 20
1729.097619637195
 30
0.0
 10
2901.595916946391
 20
1729.097619637195
 30
0.0
 10
2901.595916946391
 20
1729.097619637195
 30
0.0
 10
2914.686841322574
 20
1729.097619637195
 30
0.0
 10
2925.319644527684
 20
1740.859443612738
 30
0.0
 10
2925.319644527684
 20
1755.379508204662
 30
0.0
 10
2925.319644527684
 20
1755.379508204662
 30
0.0
 10
2925.319644527684
 20
1880.257780256064
 30
0.0
 10
2925.319644527684
 20
1880.257780256064
 30
0.0
 10
2925.319644527684
 20
1894.777844847987
 30
0.0
 10
2911.828560891095
 20
1902.295122382781
 30
0.0
 10
2901.595916946391
 20
1906.553960225688
 30
0.0
 10
2885.303718486949
 20
1913.285210641826
 30
0.0
 10
2599.933000207894
 20
1916.243530888408
 30
0.0
 10
2599.933000207894
 20
1916.243530888408
 30
0.0
 10
2599.933000207894
 20
1916.243530888408
 30
0.0
 10
2596.274401255597
 20
1916.243530888408
 30
0.0
 10
2596.274401255597
 20
1916.243530888408
 30
0.0
 10
2596.274401255597
 20
1916.243530888408
 30
0.0
 10
2310.875100172228
 20
1913.285210641826
 30
0.0
 10
2294.554318908472
 20
1906.553960225688
 30
0.0
 10
2284.32167496377
 20
1902.295122382781
 30
0.0
 10
2270.887756935807
 20
1894.777844847987
 30
0.0
 10
2270.887756935807
 20
1880.257780256064
 30
0.0
 10
2270.887756935807
 20
1880.257780256064
 30
0.0
 10
2270.887756935807
 20
1755.379508204662
 30
0.0
 10
2270.887756935807
 20
1755.379508204662
 30
0.0
 10
2270.887756935807
 20
1740.859443612738
 30
0.0
 10
2281.491977336603
 20
1729.097619637195
 30
0.0
 10
2294.554318908472
 20
1729.097619637195
 30
0.0
 10
2294.554318908472
 20
1729.097619637195
 30
0.0
 10
2596.274401255597
 20
1729.097619637195
 30
0.0
 10
2596.274401255597
 20
1729.097619637195
 30
0.0
 10
2596.274401255597
 20
1729.097619637195
 30
0.0
 10
2599.933000207894
 20
1729.097619637195
 30
0.0
 10
2599.933000207894
 20
1729.097619637195
 30
0.0
 10
2599.933000207894
 20
1729.097619637195
 30
0.0
 10
2901.595916946391
 20
1729.097619637195
 30
0.0
 10
2901.595916946391
 20
1729.097619637195
 30
0.0
  0
SPLINE
  5
398
330
1F
100
AcDbEntity
  8
Furniture
370
     9
100
AcDbSpline
210
0.0
220
0.0
230
1.0
 70
     8
 71
     3
 72
    20
 73
    16
 74
     0
 42
0.000000001
 43
0.0000000001
 40
0.0
 40
0.0
 40
0.0
 40
0.0
 40
1.0
 40
1.0
 40
1.0
 40
2.0
 40
2.0
 40
2.0
 40
3.0
 40
3.0
 40
3.0
 40
4.0
 40
4.0
 40
4.0
 40
5.0
 40
5.0
 40
5.0
 40
5.0
 10
3018.156592942182
 20
1540.479693963767
 30
0.0
 10
3018.156592942182
 20
1540.479693963767
 30
0.0
 10
3018.156592942182
 20
2058.957472832252
 30
0.0
 10
3018.156592942182
 20
2058.957472832252
 30
0.0
 10
3018.156592942182
 20
2072.048397208435
 30
0.0
 10
3011.868375992925
 20
2088.583549504551
 30
0.0
 10
2989.516623018745
 20
2088.583549504551
 30
0.0
 10
2989.516623018745
 20
2088.583549504551
 30
0.0
 10
2972.452688842804
 20
2083.167108086895
 30
0.0
 10
2961.619806007491
 20
2076.47873187723
 30
0.0
 10
2950.758340367863
 20
2069.804647069722
 30
0.0
 10
2925.319644527684
 20
2037.477495389673
 30
0.0
 10
2925.319644527684
 20
2024.38657101349
 30
0.0
 10
2925.319644527684
 20
2024.38657101349
 30
0.0
 10
2925.319644527684
 20
1755.379508204662
 30
0.0
 10
2925.319644527684
 20
1755.379508204662
 30
0.0
  0
SPLINE
  5
399
330
1F
100
AcDbEntity
  8
Furniture
370
     9
100
AcDbSpline
210
0.0
220
0.0
230
1.0
 70
     8
 71
     3
 72
     8
 73
     4
 74
     0
 42
0.000000001
 43
0.0000000001
 40
0.0
 40
0.0
 40
0.0
 40
0.0
 40
1.0
 40
1.0
 40
1.0
 40
1.0
 10
3018.156592942182
 20
1540.479693963767
 30
0.0
 10
3018.156592942182
 20
1533.777026351944
 30
0.0
 10
2982.11367670121
 20
1523.873084656863
 30
0.0
 10
2959.876254944287
 20
1523.873084656863
 30
0.0
  0
SPLINE
  5
39A
330
1F
100
AcDbEntity
  8
Furniture
370
     9
100
AcDbSpline
210
0.0
220
0.0
230
1.0
 70
    11
 71
     3
 72
    47
 73
    43
 74
     0
 42
0.000000001
 43
0.0000000001
 40
0.0
 40
0.0
 40
0.0
 40
0.0
 40
1.0
 40
1.0
 40
1.0
 40
2.0
 40
2.0
 40
2.0
 40
3.0
 40
3.0
 40
3.0
 40
4.0
 40
4.0
 40
4.0
 40
5.0
 40
5.0
 40
5.0
 40
6.0
 40
6.0
 40
6.0
 40
7.0
 40
7.0
 40
7.0
 40
8.0
 40
8.0
 40
8.0
 40
9.0
 40
9.0
 40
9.0
 40
10.0
 40
10.0
 40
10.0
 40
11.0
 40
11.0
 40
11.0
 40
12.0
 40
12.0
 40
12.0
 40
13.0
 40
13.0
 40
13.0
 40
14.0
 40
14.0
 40
14.0
 40
14.0
 10
2599.933000207894
 20
1914.328482999317
 30
0.0
 10
2599.933000207894
 20
1914.328482999317
 30
0.0
 10
2829.510084464443
 20
1914.328482999317
 30
0.0
 10
2829.510084464443
 20
1914.328482999317
 30
0.0
 10
2842.601008840625
 20
1914.328482999317
 30
0.0
 10
2846.145276575661
 20
1931.792576435665
 30
0.0
 10
2841.000371798994
 20
1954.573071474568
 30
0.0
 10
2841.000371798994
 20
1954.573071474568
 30
0.0
 10
2844.315977099513
 20
2099.973797024003
 30
0.0
 10
2844.315977099513
 20
2099.973797024003
 30
0.0
 10
2844.315977099513
 20
2113.422006454121
 30
0.0
 10
2855.434687977974
 20
2154.238251015669
 30
0.0
 10
2842.372346406105
 20
2154.238251015669
 30
0.0
 10
2842.372346406105
 20
2154.238251015669
 30
0.0
 10
2822.078555342593
 20
2158.797208303881
 30
0.0
 10
2801.356022214354
 20
2148.135822294457
 30
0.0
 10
2782.577119779525
 20
2138.503417240366
 30
0.0
 10
2599.933000207894
 20
2136.988528611681
 30
0.0
 10
2599.933000207894
 20
2136.988528611681
 30
0.0
 10
2599.933000207894
 20
2136.988528611681
 30
0.0
 10
2596.274401255597
 20
2136.988528611681
 30
0.0
 10
2596.274401255597
 20
2136.988528611681
 30
0.0
 10
2596.274401255597
 20
2136.988528611681
 30
0.0
 10
2413.601698879652
 20
2138.503417240366
 30
0.0
 10
2394.822796444821
 20
2148.135822294457
 30
0.0
 10
2374.071680512269
 20
2158.797208303881
 30
0.0
 10
2353.835055057386
 20
2154.238251015669
 30
0.0
 10
2353.835055057386
 20
2154.238251015669
 30
0.0
 10
2340.744130681203
 20
2154.238251015669
 30
0.0
 10
2351.862841559662
 20
2113.422006454121
 30
0.0
 10
2351.862841559662
 20
2099.973797024003
 30
0.0
 10
2351.862841559662
 20
2099.973797024003
 30
0.0
 10
2355.178446860181
 20
1954.573071474568
 30
0.0
 10
2355.178446860181
 20
1954.573071474568
 30
0.0
 10
2350.004959279199
 20
1931.792576435665
 30
0.0
 10
2353.577809818552
 20
1914.328482999317
 30
0.0
 10
2366.69731699905
 20
1914.328482999317
 30
0.0
 10
2366.69731699905
 20
1914.328482999317
 30
0.0
 10
2596.274401255597
 20
1914.328482999317
 30
0.0
 10
2596.274401255597
 20
1914.328482999317
 30
0.0
 10
2596.274401255597
 20
1914.328482999317
 30
0.0
 10
2599.933000207894
 20
1914.328482999317
 30
0.0
 10
2599.933000207894
 20
1914.328482999317
 30
0.0
  0
SPLINE
  5
39B
330
1F
100
AcDbEntity
  8
Furniture
370
     9
100
AcDbSpline
210
0.0
220
0.0
230
1.0
 70
     8
 71
     3
 72
    26
 73
    22
 74
     0
 42
0.000000001
 43
0.0000000001
 40
0.0
 40
0.0
 40
0.0
 40
0.0
 40
1.0
 40
1.0
 40
1.0
 40
2.0
 40
2.0
 40
2.0
 40
3.0
 40
3.0
 40
3.0
 40
4.0
 40
4.0
 40
4.0
 40
5.0
 40
5.0
 40
5.0
 40
6.0
 40
6.0
 40
6.0
 40
7.0
 40
7.0
 40
7.0
 40
7.0
 10
2925.319644527684
 20
2024.38657101349
 30
0.0
 10
2890.734451306763
 20
2084.29612885733
 30
0.0
 10
2901.595916946391
 20
2389.789141374012
 30
0.0
 10
2901.595916946391
 20
2389.789141374012
 30
0.0
 10
2901.595916946391
 20
2443.782058724688
 30
0.0
 10
2871.641138024471
 20
2473.751129048765
 30
0.0
 10
2824.250848470519
 20
2473.751129048765
 30
0.0
 10
2824.250848470519
 20
2473.751129048765
 30
0.0
 10
2599.933000207894
 20
2473.751129048765
 30
0.0
 10
2599.933000207894
 20
2473.751129048765
 30
0.0
 10
2599.933000207894
 20
2473.751129048765
 30
0.0
 10
2596.274401255597
 20
2473.751129048765
 30
0.0
 10
2596.274401255597
 20
2473.751129048765
 30
0.0
 10
2596.274401255597
 20
2473.751129048765
 30
0.0
 10
2371.956552992973
 20
2473.751129048765
 30
0.0
 10
2371.956552992973
 20
2473.751129048765
 30
0.0
 10
2324.537680634706
 20
2473.751129048765
 30
0.0
 10
2294.554318908472
 20
2443.782058724688
 30
0.0
 10
2294.554318908472
 20
2389.789141374012
 30
0.0
 10
2294.554318908472
 20
2389.789141374012
 30
0.0
 10
2305.444367352412
 20
2084.29612885733
 30
0.0
 10
2270.887756935807
 20
2024.38657101349
 30
0.0
  0
POLYLINE
  5
39C
330
1F
100
AcDbEntity
  8
Furniture
370
     9
100
AcDb2dPolyline
 66
     1
 10
0.0
 20
0.0
 30
0.0
  0
VERTEX
  5
39D
330
39C
100
AcDbEntity
  8
Furniture
370
     9
100
AcDbVertex
100
AcDb2dVertex
 10
-8.350097357977574
 20
2127.862720866816
 30
0.0
  0
VERTEX
  5
39E
330
39C
100
AcDbEntity
  8
Furniture
100
AcDbVertex
100
AcDb2dVertex
 10
-8.350097357977574
 20
2127.862720866816
 30
0.0
  0
SEQEND
  5
39F
330
39C
100
AcDbEntity
  8
Furniture
370
     9
  0
SPLINE
  5
3A0
330
1F
100
AcDbEntity
  8
Furniture
370
     9
100
AcDbSpline
210
0.0
220
0.0
230
1.0
 70
     8
 71
     3
 72
    17
 73
    13
 74
     0
 42
0.000000001
 43
0.0000000001
 40
0.0
 40
0.0
 40
0.0
 40
0.0
 40
1.0
 40
1.0
 40
1.0
 40
2.0
 40
2.0
 40
2.0
 40
3.0
 40
3.0
 40
3.0
 40
4.0
 40
4.0
 40
4.0
 40
4.0
 10
-16.32234613400214
 20
1549.201167036048
 30
0.0
 10
-16.32234613400214
 20
1549.201167036048
 30
0.0
 10
-179.0661832169808
 20
1552.321340263905
 30
0.0
 10
-331.9684166385214
 20
1569.021826924025
 30
0.0
 10
-334.9373920447651
 20
1570.052721162305
 30
0.0
 10
-333.3154517765397
 20
1589.900871563303
 30
0.0
 10
-330.9787581697729
 20
1589.900871563303
 30
0.0
 10
-328.559593023947
 20
1589.900871563303
 30
0.0
 10
-291.5848530110052
 20
1594.05193902944
 30
0.0
 10
-282.0731355058178
 20
1913.945293795669
 30
0.0
 10
-281.6057967844645
 20
1947.992294171896
 30
0.0
 10
-275.915260589165
 20
1974.713072828089
 30
0.0
 10
-266.0736569277287
 20
1995.715824775959
 30
0.0
  0
SPLINE
  5
3A1
330
1F
100
AcDbEntity
  8
Furniture
370
     9
100
AcDbSpline
210
0.0
220
0.0
230
1.0
 70
     8
 71
     3
 72
    17
 73
    13
 74
     0
 42
0.000000001
 43
0.0000000001
 40
0.0
 40
0.0
 40
0.0
 40
0.0
 40
1.0
 40
1.0
 40
1.0
 40
2.0
 40
2.0
 40
2.0
 40
3.0
 40
3.0
 40
3.0
 40
4.0
 40
4.0
 40
4.0
 40
4.0
 10
-13.40835175380016
 20
1549.201167036048
 30
0.0
 10
-13.40835175380016
 20
1549.201167036048
 30
0.0
 10
158.6822597562404
 20
1552.321340263905
 30
0.0
 10
311.5570026647601
 20
1569.021826924025
 30
0.0
 10
314.5259780710039
 20
1570.052721162305
 30
0.0
 10
312.9315283157994
 20
1589.900871563303
 30
0.0
 10
310.5673441960135
 20
1589.900871563303
 30
0.0
 10
308.1756695632066
 20
1589.900871563303
 30
0.0
 10
271.1734390372458
 20
1594.05193902944
 30
0.0
 10
261.6617215320584
 20
1913.945293795669
 30
0.0
 10
261.1943828107051
 20
1947.992294171896
 30
0.0
 10
255.5038466154037
 20
1974.713072828089
 30
0.0
 10
245.6622429539675
 20
1995.715824775959
 30
0.0
  0
SPLINE
  5
3A2
330
1F
100
AcDbEntity
  8
Furniture
370
     9
100
AcDbSpline
210
0.0
220
0.0
230
1.0
 70
     8
 71
     3
 72
    14
 73
    10
 74
     0
 42
0.000000001
 43
0.0000000001
 40
0.0
 40
0.0
 40
0.0
 40
0.0
 40
1.0
 40
1.0
 40
1.0
 40
2.0
 40
2.0
 40
2.0
 40
3.0
 40
3.0
 40
3.0
 40
3.0
 10
-334.4425628103909
 20
1589.021175146639
 30
0.0
 10
-334.4425628103909
 20
1589.021175146639
 30
0.0
 10
-402.454092023785
 20
1602.464036013797
 30
0.0
 10
-415.1547090393814
 20
1623.411806935626
 30
0.0
 10
-427.8828165680006
 20
1644.332087344435
 30
0.0
 10
-360.0637209457527
 20
2019.467628025908
 30
0.0
 10
-355.912653479616
 20
2201.069957041136
 30
0.0
 10
-353.7683934639954
 20
2295.032530546139
 30
0.0
 10
-282.0731355058178
 20
2488.180875030093
 30
0.0
 10
-8.350097357977574
 20
2493.541525069144
 30
0.0
  0
SPLINE
  5
3A3
330
1F
100
AcDbEntity
  8
Furniture
370
     9
100
AcDbSpline
210
0.0
220
0.0
230
1.0
 70
     8
 71
     3
 72
    14
 73
    10
 74
     0
 42
0.000000001
 43
0.0000000001
 40
0.0
 40
0.0
 40
0.0
 40
0.0
 40
1.0
 40
1.0
 40
1.0
 40
2.0
 40
2.0
 40
2.0
 40
3.0
 40
3.0
 40
3.0
 40
3.0
 10
311.7494362559064
 20
1589.021175146639
 30
0.0
 10
311.7494362559064
 20
1589.021175146639
 30
0.0
 10
379.7334749562797
 20
1602.464036013797
 30
0.0
 10
392.461582484897
 20
1623.411806935626
 30
0.0
 10
405.1621995004953
 20
1644.332087344435
 30
0.0
 10
337.3980849042873
 20
2019.467628025908
 30
0.0
 10
333.1920364121106
 20
2201.069957041136
 30
0.0
 10
331.0477763964882
 20
2295.032530546139
 30
0.0
 10
259.3800089513333
 20
2488.180875030093
 30
0.0
 10
-14.3430291965069
 20
2493.541525069144
 30
0.0
  0
SPLINE
  5
3A4
330
1F
100
AcDbEntity
  8
Furniture
370
     9
100
AcDbSpline
210
0.0
220
0.0
230
1.0
 70
     8
 71
     3
 72
    14
 73
    10
 74
     0
 42
0.000000001
 43
0.0000000001
 40
0.0
 40
0.0
 40
0.0
 40
0.0
 40
1.0
 40
1.0
 40
1.0
 40
2.0
 40
2.0
 40
2.0
 40
3.0
 40
3.0
 40
3.0
 40
3.0
 10
-6.838119141835704
 20
2206.004504128365
 30
0.0
 10
-6.838119141835704
 20
2206.004504128365
 30
0.0
 10
-234.3496049017558
 20
2207.681425422633
 30
0.0
 10
-287.7086906750774
 20
2092.248761248405
 30
0.0
 10
-266.2660905188732
 20
2025.790446020685
 30
0.0
 10
-263.9019063990872
 20
1994.533732716065
 30
0.0
 10
-263.9019063990872
 20
1994.533732716065
 30
0.0
 10
-263.9019063990872
 20
1994.533732716065
 30
0.0
 10
-140.1396167795665
 20
2014.079487473836
 30
0.0
 10
-6.838119141835704
 20
2018.876581995961
 30
0.0
  0
SPLINE
  5
3A5
330
1F
100
AcDbEntity
  8
Furniture
370
     9
100
AcDbSpline
210
0.0
220
0.0
230
1.0
 70
     8
 71
     3
 72
    14
 73
    10
 74
     0
 42
0.000000001
 43
0.0000000001
 40
0.0
 40
0.0
 40
0.0
 40
0.0
 40
1.0
 40
1.0
 40
1.0
 40
2.0
 40
2.0
 40
2.0
 40
3.0
 40
3.0
 40
3.0
 40
3.0
 10
-9.147322235581668
 20
2206.004504128365
 30
0.0
 10
-9.147322235581668
 20
2206.004504128365
 30
0.0
 10
224.3296048498469
 20
2208.739810173932
 30
0.0
 10
271.72324929766
 20
2092.248761248405
 30
0.0
 10
250.2531586284367
 20
2025.790446020685
 30
0.0
 10
247.9164650216717
 20
1994.533732716065
 30
0.0
 10
247.9164650216717
 20
1994.533732716065
 30
0.0
 10
247.9164650216717
 20
1994.533732716065
 30
0.0
 10
124.1541754021491
 20
2014.079487473836
 30
0.0
 10
-9.147322235581668
 20
2018.876581995961
 30
0.0
  0
POLYLINE
  5
3A6
330
1F
100
AcDbEntity
  8
Furniture
370
     9
100
AcDb2dPolyline
 66
     1
 10
0.0
 20
0.0
 30
0.0
  0
VERTEX
  5
3A7
330
3A6
100
AcDbEntity
  8
Furniture
370
     9
100
AcDbVertex
100
AcDb2dVertex
 10
-344.586562115057
 20
2130.653007938425
 30
0.0
  0
VERTEX
  5
3A8
330
3A6
100
AcDbEntity
  8
Furniture
100
AcDbVertex
100
AcDb2dVertex
 10
-344.586562115057
 20
2130.653007938425
 30
0.0
  0
SEQEND
  5
3A9
330
3A6
100
AcDbEntity
  8
Furniture
370
     9
  0
POLYLINE
  5
3AA
330
1F
100
AcDbEntity
  8
Furniture
370
     9
100
AcDb2dPolyline
 66
     1
 10
0.0
 20
0.0
 30
0.0
  0
VERTEX
  5
3AB
330
3AA
100
AcDbEntity
  8
Furniture
370
     9
100
AcDbVertex
100
AcDb2dVertex
 10
-403.938579726906
 20
1628.580023383531
 30
0.0
  0
VERTEX
  5
3AC
330
3AA
100
AcDbEntity
  8
Furniture
100
AcDbVertex
100
AcDb2dVertex
 10
-403.938579726906
 20
1628.580023383531
 30
0.0
  0
SEQEND
  5
3AD
330
3AA
100
AcDbEntity
  8
Furniture
370
     9
  0
SPLINE
  5
3AE
330
1F
100
AcDbEntity
  8
Furniture
370
     9
100
AcDbSpline
210
0.0
220
0.0
230
1.0
 70
     8
 71
     3
 72
     8
 73
     4
 74
     0
 42
0.000000001
 43
0.0000000001
 40
0.0
 40
0.0
 40
0.0
 40
0.0
 40
1.0
 40
1.0
 40
1.0
 40
1.0
 10
271.72324929766
 20
2092.248761248405
 30
0.0
 10
271.72324929766
 20
2092.248761248405
 30
0.0
 10
16.28140230863573
 20
2177.015758147959
 30
0.0
 10
-287.7086906750774
 20
2092.248761248405
 30
0.0
  0
TEXT
  5
44B
330
1F
100
AcDbEntity
  8
Text
100
AcDbText
 10
-3043.796424845592
 20
2710.011246769001
 30
0.0
 40
233.9816249415046
  1
Armchair
 41
1.000399999999999
100
AcDbText
  0
LINE
  5
44C
330
1F
100
AcDbEntity
  8
Text
370
     9
100
AcDbLine
 10
-3043.796424845592
 20
3450.458112550687
 30
0.0
 11
6110.158614705556
 21
3450.458112550688
 31
0.0
  0
TEXT
  5
44D
330
1F
100
AcDbEntity
  8
Text
100
AcDbText
 10
-3043.796424845592
 20
5193.948652642159
 30
0.0
 40
192.6907499518273
  1
ARANA
 41
1.000399999999999
100
AcDbText
  0
TEXT
  5
44E
330
1F
100
AcDbEntity
  8
Text
100
AcDbText
 10
-3043.796424845592
 20
4591.325684286956
 30
0.0
 40
192.6907499518273
  1
—
 41
1.000399999999999
100
AcDbText
  0
TEXT
  5
44F
330
1F
100
AcDbEntity
  8
Text
100
AcDbText
 10
-3043.796424845592
 20
3916.355168408492
 30
0.0
 40
233.9816249415046
  1
DIMENSIONS
 41
1.000399999999999
100
AcDbText
  0
TEXT
  5
457
330
1F
100
AcDbEntity
  8
Text
100
AcDbText
 10
-3088.146694478988
 20
138.0557314862189
 30
0.0
 40
233.9816249415046
  1
Ottoman
 41
1.000399999999999
100
AcDbText
  0
LINE
  5
460
330
1F
100
AcDbEntity
  8
Text
370
     9
100
AcDbLine
 10
-3043.796399777787
 20
780.7562814220839
 30
0.0
 11
6110.158614705554
 21
780.7562814220838
 31
0.0
  0
ENDSEC
  0
SECTION
  2
OBJECTS
  0
DICTIONARY
  5
C
330
0
100
AcDbDictionary
281
     1
  3
ACAD_CIP_PREVIOUS_PRODUCT_INFO
350
3CE
  3
ACAD_COLOR
350
18A
  3
ACAD_DETAILVIEWSTYLE
350
3C6
  3
ACAD_GROUP
350
D
  3
ACAD_LAYOUT
350
1A
  3
ACAD_MATERIAL
350
16E
  3
ACAD_MLEADERSTYLE
350
1AE
  3
ACAD_MLINESTYLE
350
17
  3
ACAD_PLOTSETTINGS
350
19
  3
ACAD_PLOTSTYLENAME
350
E
  3
ACAD_SCALELIST
350
18C
  3
ACAD_SECTIONVIEWSTYLE
350
3C4
  3
ACAD_TABLESTYLE
350
16C
  3
ACAD_VISUALSTYLE
350
2A
  3
AcAmCatalogState
350
210
  3
ACDB_RECOMPOSE_DATA
350
4F2
  3
AcDbVariableDictionary
350
270
  3
ACDMSYSVARMGR
350
1CB
  3
ACGREF_MASTER
350
1C3
  3
ACGREFACAD_MASTER
350
1EE
  3
AcmDictionary
350
20E
  3
ACME_BOM_MANAGER_NAME
350
1BF
  3
ACME_COMMAND_HISTORY
350
1BC
  3
ACME_SCOPE_NAME
350
1BB
  3
ACMESTATEMGR
350
1C2
  3
AcmeSysVarManager
350
1BD
  3
AcmSystemVariableManager
350
1F3
  3
AD_APPL
350
1FB
  3
ADSYSVARMGR
350
1FA
  3
AmdtNamedDwgMgr
350
1E9
  3
AMG
350
1B4
  3
AMGSNAPSETTINGS
350
252
  3
AMI_MASTER
350
1F1
  3
AUTOCAD_ASSEMBLIES_PROJECT
350
204
  3
Designer_Assemblies_SysVars
350
1FE
  3
GREFAM_MODULE
350
1F2
  3
StructToggleButtonState
350
264
  0
DICTIONARY
  5
268
330
2
100
AcDbDictionary
280
     1
281
     1
  3
ACAD_LAYERSTATES
360
269
  0
DICTIONARY
  5
260
330
10
100
AcDbDictionary
280
     1
281
     1
  3
ADSK_XREC_LAYER_RECONCILED
360
261
  0
DICTIONARY
  5
262
330
3B
100
AcDbDictionary
280
     1
281
     1
  3
ADSK_XREC_LAYER_RECONCILED
360
263
  0
DICTIONARY
  5
2C7
330
1F
100
AcDbDictionary
280
     1
281
     1
  3
ACAD_SORTENTS
360
2C8
  0
XRECORD
  5
3CE
102
{ACAD_REACTORS
330
C
102
}
330
C
100
AcDbXrecord
280
     1
300
AMECH_PP
300
2018
300
PDSP_F_S
  0
DICTIONARY
  5
18A
102
{ACAD_REACTORS
330
C
102
}
330
C
100
AcDbDictionary
281
     1
  0
DICTIONARY
  5
3C6
102
{ACAD_REACTORS
330
C
102
}
330
C
100
AcDbDictionary
281
     1
  3
Imperial24
350
3C7
  0
DICTIONARY
  5
D
102
{ACAD_REACTORS
330
C
102
}
330
C
100
AcDbDictionary
281
     1
  0
DICTIONARY
  5
1A
102
{ACAD_REACTORS
330
C
102
}
330
C
100
AcDbDictionary
281
     1
  3
Layout1
350
1E
  3
Layout2
350
26
  3
Model
350
22
  0
DICTIONARY
  5
16E
102
{ACAD_REACTORS
330
C
102
}
330
C
100
AcDbDictionary
281
     1
  3
ByBlock
350
177
  3
ByLayer
350
16F
  3
Global
350
17F
  0
DICTIONARY
  5
1AE
102
{ACAD_REACTORS
330
C
102
}
330
C
100
AcDbDictionary
281
     1
  3
Standard
350
1AF
  0
DICTIONARY
  5
17
102
{ACAD_REACTORS
330
C
102
}
330
C
100
AcDbDictionary
281
     1
  3
Standard
350
18
  0
DICTIONARY
  5
19
102
{ACAD_REACTORS
330
C
102
}
330
C
100
AcDbDictionary
281
     1
  0
ACDBDICTIONARYWDFLT
  5
E
102
{ACAD_REACTORS
330
C
102
}
330
C
100
AcDbDictionary
281
     1
  3
Normal
350
F
100
AcDbDictionaryWithDefault
340
F
  0
DICTIONARY
  5
18C
102
{ACAD_REACTORS
330
C
102
}
330
C
100
AcDbDictionary
281
     1
  3
A0
350
18D
  3
A1
350
18E
  3
A2
350
18F
  3
A3
350
190
  3
A4
350
191
  3
A5
350
192
  3
A6
350
193
  3
A7
350
194
  3
A8
350
195
  3
A9
350
196
  3
B0
350
197
  3
B1
350
198
  3
B2
350
199
  3
B3
350
19A
  3
B4
350
19B
  3
B5
350
19C
  3
B6
350
19D
  3
B7
350
19E
  3
B8
350
19F
  3
B9
350
1A0
  3
C0
350
1A1
  3
C1
350
1A2
  3
C2
350
1A3
  3
C3
350
1A4
  3
C4
350
1A5
  3
C5
350
1A6
  3
C6
350
1A7
  3
C7
350
1A8
  3
C8
350
1A9
  3
C9
350
1AA
  3
D0
350
1AB
  3
D1
350
1AC
  3
D2
350
1AD
  0
DICTIONARY
  5
3C4
102
{ACAD_REACTORS
330
C
102
}
330
C
100
AcDbDictionary
281
     1
  3
Imperial24
350
3C5
  0
DICTIONARY
  5
16C
102
{ACAD_REACTORS
330
C
102
}
330
C
100
AcDbDictionary
281
     1
  3
Standard
350
18B
  0
DICTIONARY
  5
2A
102
{ACAD_REACTORS
330
C
102
}
330
C
100
AcDbDictionary
281
     1
  3
2dWireframe
350
2F
  3
3D Hidden
350
31
  3
3dWireframe
350
30
  3
Basic
350
32
  3
Brighten
350
36
  3
ColorChange
350
3A
  3
Conceptual
350
34
  3
Dim
350
35
  3
EdgeColorOff
350
189
  3
Facepattern
350
39
  3
Flat
350
2B
  3
FlatWithEdges
350
2C
  3
Gouraud
350
2D
  3
GouraudWithEdges
350
2E
  3
Hidden
350
3BE
  3
JitterOff
350
187
  3
Linepattern
350
38
  3
OverhangOff
350
188
  3
Realistic
350
33
  3
Shaded
350
3C3
  3
Shaded with edges
350
3C2
  3
Shades of Gray
350
3BF
  3
Sketchy
350
3C0
  3
Thicken
350
37
  3
Wireframe
350
3BD
  3
X-Ray
350
3C1
  0
ACAD_PROXY_OBJECT
  5
210
102
{ACAD_REACTORS
330
C
102
}
330
C
100
AcDbProxyObject
 90
      499
 91
      547
 71
    29
 97
      226
 70
     0
162
              1242
311
5352800E801700110019401CC01A4019C01B80080018401B8019000800110019401D8019401B001BC01C001B4019401B801D00170010C018401900080011001C8018401DC01A401B8019C01CC01700128018401C80190018401B80080010C010401100080011001C8018401DC01A401B8019C01CC0170014C01B4018401B00
311
1B00080018C01A0018401A401C801CC0170010401C8018401B8018400C
161
                94
310
3FFFFFFFE00A0284403002A8
 94
        0
  0
XRECORD
  5
4F2
102
{ACAD_REACTORS
330
C
102
}
330
C
100
AcDbXrecord
280
     1
 90
        1
330
18B
  0
DICTIONARY
  5
270
102
{ACAD_REACTORS
330
C
102
}
330
C
100
AcDbDictionary
281
     1
  3
CANNOSCALE
350
274
  3
CMLEADERSTYLE
350
272
  3
CTABLESTYLE
350
271
  3
CVIEWDETAILSTYLE
350
41E
  3
CVIEWSECTIONSTYLE
350
41F
  3
LAYEREVAL
350
276
  3
LAYERNOTIFY
350
277
  3
LIGHTINGUNITS
350
275
  3
MSLTSCALE
350
273
  0
ACAD_PROXY_OBJECT
  5
1CB
102
{ACAD_REACTORS
330
C
102
}
330
C
100
AcDbProxyObject
 90
      499
 91
      510
 71
    29
 97
      226
 70
     0
162
                 0
161
               240
310
4C51A482000000000000000000000000000000000000000000000000000033
330
1CC
330
1CD
330
1CE
330
1CF
330
1D0
330
1D1
330
1D2
330
1D3
330
1D4
330
1D5
330
1D6
330
1D7
330
1D8
330
1D9
330
1DA
330
1DB
330
1DC
330
1DD
330
1DE
330
1DF
330
1E0
330
1E1
330
1E2
330
1E3
330
1E4
330
1E5
 94
        0
  0
ACAD_PROXY_OBJECT
  5
1C3
102
{ACAD_REACTORS
330
C
102
}
330
C
100
AcDbProxyObject
 90
      499
 91
      516
 71
    29
 97
      226
 70
     0
162
                 0
161
                34
310
0C000042CC
 94
        0
  0
ACAD_PROXY_OBJECT
  5
1EE
102
{ACAD_REACTORS
330
C
102
}
330
C
100
AcDbProxyObject
 90
      499
 91
      526
 71
    29
 97
      226
 70
     0
162
                 0
161
               114
310
04000041C00000000000000000000C
 94
        0
  0
DICTIONARY
  5
20E
102
{ACAD_REACTORS
330
C
102
}
330
C
100
AcDbDictionary
281
     1
  3
AcmBOMDATA
350
20F
  3
AcmStdDictionary
350
21A
  0
ACAD_PROXY_OBJECT
  5
1BF
102
{ACAD_REACTORS
330
C
102
}
330
C
100
AcDbProxyObject
 90
      499
 91
      512
 71
    29
 97
      226
 70
     0
162
                 0
161
                50
310
0000004040000C
330
0
330
0
330
1C0
 94
        0
  0
ACAD_PROXY_OBJECT
  5
1BC
102
{ACAD_REACTORS
330
C
102
}
330
C
100
AcDbProxyObject
 90
      499
 91
      509
 71
    29
 97
      226
 70
     0
162
              2654
311
4390401340110015001480114014C01140150011001080134013C011001084E0020002D00200055004E0044004F0042138008000B40080015401380110013C010455004E0044004F004115401380110013C010B4D00450041005300550052004500470045004F004D0046134014C011C008000B40080010C01BC01B401B401
311
8401B801900080010C01040138010C0114013001300114011000B8010B4D00450041005300550052004500470045004F004D0046134014C011C008000B40080010C01BC01B401B4018401B801900080010C01040138010C0114013001300114011000B8010543004C004F00530045004B934014C011C008000B40080014001
311
40010400E80080008000800190019401CC01AC01D001BC01C000B8018401C801E00080011801A401B001940158019401C801CC01A401BC01B800E8008000C400D000B800C800B800C000B800D000
161
               142
310
418050201010180601404040501010140404
 94
        0
  0
ACAD_PROXY_OBJECT
  5
1BB
102
{ACAD_REACTORS
330
C
102
}
330
C
100
AcDbProxyObject
 90
      499
 91
      508
 71
    29
 97
      226
 70
     0
162
                 0
161
               554
310
0E00004C8000000000000000000013150200000000000000000000000000000000000000000000000000000000000000000000000000000000000000000000000000AAAAAA8C
360
1BE
360
1C0
360
1C4
360
1C5
360
1C6
360
1C7
360
1C8
360
1C9
360
1CC
360
1CD
360
1CE
360
1CF
360
1D0
360
1D1
360
1D2
360
1D3
360
1D4
360
1D5
360
1D6
360
1D7
360
1D8
360
1D9
360
1DA
360
1DB
360
1DC
360
1DD
360
1DE
360
1DF
360
1E0
360
1E1
360
1E2
360
1E3
360
1E4
360
1E5
360
1F4
360
1F6
360
1F7
360
1F8
360
1F9
360
1FF
360
200
360
201
360
202
360
203
360
208
360
209
360
20A
360
20B
360
20C
 94
        0
  0
ACAD_PROXY_OBJECT
  5
1C2
102
{ACAD_REACTORS
330
C
102
}
330
C
100
AcDbProxyObject
 90
      499
 91
      515
 71
    29
 97
      226
 70
     0
162
                 0
161
                50
310
0E000043A4128C
 94
        0
  0
ACAD_PROXY_OBJECT
  5
1BD
102
{ACAD_REACTORS
330
C
102
}
330
C
100
AcDbProxyObject
 90
      499
 91
      510
 71
    29
 97
      226
 70
     0
162
                 0
161
                32
310
9014220000
330
1BE
 94
        0
  0
ACAD_PROXY_OBJECT
  5
1F3
102
{ACAD_REACTORS
330
C
102
}
330
C
100
AcDbProxyObject
 90
      499
 91
      510
 71
    29
 97
      226
 70
     0
162
                 0
161
                32
310
9014220066
330
1F4
 94
        0
  0
ACAD_PROXY_OBJECT
  5
1FB
102
{ACAD_REACTORS
330
C
102
}
330
C
100
AcDbProxyObject
 90
      499
 91
      537
 71
    29
 97
      226
 70
     0
162
                 0
161
                34
310
000B00008C
330
1F6
 94
        0
  0
ACAD_PROXY_OBJECT
  5
1FA
102
{ACAD_REACTORS
330
C
102
}
330
C
100
AcDbProxyObject
 90
      499
 91
      510
 71
    29
 97
      226
 70
     0
162
                 0
161
                 8
310
AA70
 94
        0
  0
ACAD_PROXY_OBJECT
  5
1E9
102
{ACAD_REACTORS
330
C
102
}
330
C
100
AcDbProxyObject
 90
      499
 91
      523
 71
    29
 97
      226
 70
     0
162
                 0
161
                42
310
000100005E8C
330
1C4
 94
        0
  0
DICTIONARY
  5
1B4
102
{ACAD_REACTORS
330
C
102
}
330
C
100
AcDbDictionary
281
     1
  3
AcMgSettings
350
1B5
  3
AMGLAYCFG
350
22E
  0
DICTIONARY
  5
252
102
{ACAD_REACTORS
330
C
102
}
330
C
100
AcDbDictionary
281
     1
  3
DIMENSION
350
257
  3
FEA
350
256
  3
HATCH (1)
350
253
  3
HATCH (2)
350
254
  3
SIMPLE WELD
350
258
  3
SYMBOLS
350
255
  0
ACAD_PROXY_OBJECT
  5
1F1
102
{ACAD_REACTORS
330
C
102
}
330
C
100
AcDbProxyObject
 90
      499
 91
      529
 71
    29
 97
      226
 70
     0
162
                 0
161
                34
310
050000428C
 94
        0
  0
ACAD_PROXY_OBJECT
  5
204
102
{ACAD_REACTORS
330
C
102
}
330
C
100
AcDbProxyObject
 90
      499
 91
      540
 71
    29
 97
      226
 70
     0
162
                 0
161
                98
310
0E000053C0000000000000000C
330
20A
330
0
330
20B
330
0
330
0
330
0
330
0
330
0
 94
        0
  0
ACAD_PROXY_OBJECT
  5
1FE
102
{ACAD_REACTORS
330
C
102
}
330
C
100
AcDbProxyObject
 90
      499
 91
      510
 71
    29
 97
      226
 70
     0
162
                 0
161
                64
310
9054220000000000D7
330
1FF
330
200
330
201
330
202
330
203
 94
        0
  0
ACAD_PROXY_OBJECT
  5
1F2
102
{ACAD_REACTORS
330
C
102
}
330
C
100
AcDbProxyObject
 90
      499
 91
      530
 71
    29
 97
      226
 70
     0
162
                 0
161
                 8
310
0532
 94
        0
  0
ACAD_PROXY_OBJECT
  5
264
102
{ACAD_REACTORS
330
C
102
}
330
C
100
AcDbProxyObject
 90
      499
 91
      575
 71
    29
 97
      226
 70
     0
162
                 0
161
                 1
310
4C
 94
        0
  0
DICTIONARY
  5
269
102
{ACAD_REACTORS
330
268
102
}
330
268
100
AcDbDictionary
281
     1
  0
XRECORD
  5
261
102
{ACAD_REACTORS
330
260
102
}
330
260
100
AcDbXrecord
280
     1
290
     1
  0
XRECORD
  5
263
102
{ACAD_REACTORS
330
262
102
}
330
262
100
AcDbXrecord
280
     1
290
     1
  0
SORTENTSTABLE
  5
2C8
102
{ACAD_REACTORS
330
2C7
102
}
330
2C7
100
AcDbSortentsTable
330
1F
331
350
  5
39C
331
320
  5
398
331
370
  5
3A2
331
398
  5
380
331
361
  5
3A1
331
322
  5
3A5
331
399
  5
38B
331
332
  5
2E4
331
52
  5
52
331
41
  5
41
331
2E8
  5
32E
331
3AA
  5
2BE
331
2CA
  5
391
331
38B
  5
350
331
314
  5
33E
331
354
  5
3A0
331
39C
  5
91
331
30C
  5
33A
331
325
  5
2CA
331
2DC
  5
324
331
324
  5
2C9
331
39B
  5
390
331
326
  5
2D1
331
336
  5
2E8
331
3AE
  5
2C2
331
8E
  5
30C
331
348
  5
39A
331
8F
  5
314
331
38F
  5
354
331
2BE
  5
72
331
45
  5
45
331
323
  5
2C6
331
390
  5
361
331
378
  5
3A3
331
39A
  5
38F
331
380
  5
3A4
331
3A0
  5
92
331
2E0
  5
325
331
2D1
  5
322
331
3A1
  5
94
331
32A
  5
2DC
331
33A
  5
304
331
92
  5
321
331
91
  5
320
331
2C2
  5
8E
331
34C
  5
39B
331
3A4
  5
108
331
304
  5
336
331
3A5
  5
15F
331
3D
  5
3D
331
2E4
  5
326
331
3A3
  5
E6
331
3A2
  5
E5
331
391
  5
370
331
90
  5
31F
331
32E
  5
2E0
331
33E
  5
399
331
2F5
  5
332
331
E6
  5
34C
331
15F
  5
3A6
331
397
  5
378
331
31F
  5
397
331
3A6
  5
164
331
E5
  5
348
  0
ACDBDETAILVIEWSTYLE
  5
3C7
102
{ACAD_REACTORS
330
3C6
102
}
330
3C6
100
AcDbModelDocViewStyle
 70
     0
  3
Imperial24
290
     0
300
Imperial24
 90
        0
100
AcDbDetailViewStyle
 70
     0
 71
     0
 90
        3
 71
     1
340
11
 62
   256
 40
0.24
340
0
 62
   256
 40
0.24
300

 40
0.36
280
     3
 71
     2
340
16
 90
       25
 62
   256
 71
     3
340
11
 62
   256
 40
0.24
 90
        1
 40
0.75
 90
        1
300
%<\AcVar ViewType \f "%tc1">% %<\AcVar ViewDetailId>%\PSCALE %<\AcVar ViewScale \f "%sn">%
 71
     4
340
16
 90
       25
 62
   256
340
16
 90
       25
 62
   256
280
     0
  0
LAYOUT
  5
1E
102
{ACAD_REACTORS
330
1A
102
}
330
1A
100
AcDbPlotSettings
  1

  2
none_device
  4

  6

 40
0.0
 41
0.0
 42
0.0
 43
0.0
 44
0.0
 45
0.0
 46
0.0
 47
0.0
 48
0.0
 49
0.0
140
0.0
141
0.0
142
1.0
143
1.0
 70
   688
 72
     0
 73
     0
 74
     5
  7

 75
    16
147
1.0
 76
     0
 77
     2
 78
   300
148
0.0
149
0.0
100
AcDbLayout
  1
Layout1
 70
     1
 71
     1
 10
0.0
 20
0.0
 11
12.0
 21
9.0
 12
0.0
 22
0.0
 32
0.0
 14
1.000000000000000E+20
 24
1.000000000000000E+20
 34
1.000000000000000E+20
 15
-1.000000000000000E+20
 25
-1.000000000000000E+20
 35
-1.000000000000000E+20
146
0.0
 13
0.0
 23
0.0
 33
0.0
 16
1.0
 26
0.0
 36
0.0
 17
0.0
 27
1.0
 37
0.0
 76
     0
330
1B
  0
LAYOUT
  5
26
102
{ACAD_REACTORS
330
1A
102
}
330
1A
100
AcDbPlotSettings
  1

  2
none_device
  4

  6

 40
0.0
 41
0.0
 42
0.0
 43
0.0
 44
0.0
 45
0.0
 46
0.0
 47
0.0
 48
0.0
 49
0.0
140
0.0
141
0.0
142
1.0
143
1.0
 70
   688
 72
     0
 73
     0
 74
     5
  7

 75
    16
147
1.0
 76
     0
 77
     2
 78
   300
148
0.0
149
0.0
100
AcDbLayout
  1
Layout2
 70
     1
 71
     2
 10
0.0
 20
0.0
 11
0.0
 21
0.0
 12
0.0
 22
0.0
 32
0.0
 14
0.0
 24
0.0
 34
0.0
 15
0.0
 25
0.0
 35
0.0
146
0.0
 13
0.0
 23
0.0
 33
0.0
 16
1.0
 26
0.0
 36
0.0
 17
0.0
 27
1.0
 37
0.0
 76
     0
330
23
  0
LAYOUT
  5
22
102
{ACAD_XDICTIONARY
360
26E
102
}
102
{ACAD_REACTORS
330
1A
102
}
330
1A
100
AcDbPlotSettings
  1

  2
none_device
  4

  6

 40
0.0
 41
0.0
 42
0.0
 43
0.0
 44
0.0
 45
0.0
 46
0.0
 47
0.0
 48
0.0
 49
0.0
140
0.0
141
0.0
142
1.0
143
1.0
 70
  1712
 72
     0
 73
     0
 74
     0
  7

 75
     0
147
1.0
 76
     0
 77
     2
 78
   300
148
0.0
149
0.0
100
AcDbLayout
  1
Model
 70
     1
 71
     0
 10
0.0
 20
0.0
 11
12.0
 21
9.0
 12
0.0
 22
0.0
 32
0.0
 14
1.000000000000000E+20
 24
1.000000000000000E+20
 34
1.000000000000000E+20
 15
-1.000000000000000E+20
 25
-1.000000000000000E+20
 35
-1.000000000000000E+20
146
0.0
 13
0.0
 23
0.0
 33
0.0
 16
1.0
 26
0.0
 36
0.0
 17
0.0
 27
1.0
 37
0.0
 76
     0
330
1F
331
29
  0
MATERIAL
  5
177
102
{ACAD_XDICTIONARY
360
178
102
}
102
{ACAD_REACTORS
330
16E
102
}
330
16E
100
AcDbMaterial
  1
ByBlock
 72
     0
 43
0.0208333333333333
 43
0.0
 43
0.0
 43
0.0
 43
0.0
 43
0.0208333333333333
 43
0.0
 43
0.0
 43
0.0
 43
0.0
 43
1.0
 43
0.0
 43
0.0
 43
0.0
 43
0.0
 43
1.0
 77
     0
 47
0.0208333333333333
 47
0.0
 47
0.0
 47
0.0
 47
0.0
 47
0.0208333333333333
 47
0.0
 47
0.0
 47
0.0
 47
0.0
 47
1.0
 47
0.0
 47
0.0
 47
0.0
 47
0.0
 47
1.0
171
     0
 49
0.0208333333333333
 49
0.0
 49
0.0
 49
0.0
 49
0.0
 49
0.0208333333333333
 49
0.0
 49
0.0
 49
0.0
 49
0.0
 49
1.0
 49
0.0
 49
0.0
 49
0.0
 49
0.0
 49
1.0
175
     0
142
0.0208333333333333
142
0.0
142
0.0
142
0.0
142
0.0
142
0.0208333333333333
142
0.0
142
0.0
142
0.0
142
0.0
142
1.0
142
0.0
142
0.0
142
0.0
142
0.0
142
1.0
179
     0
144
0.0208333333333333
144
0.0
144
0.0
144
0.0
144
0.0
144
0.0208333333333333
144
0.0
144
0.0
144
0.0
144
0.0
144
1.0
144
0.0
144
0.0
144
0.0
144
0.0
144
1.0
147
0.0208333333333333
147
0.0
147
0.0
147
0.0
147
0.0
147
0.0208333333333333
147
0.0
147
0.0
147
0.0
147
0.0
147
1.0
147
0.0
147
0.0
147
0.0
147
0.0
147
1.0
  0
MATERIAL
  5
16F
102
{ACAD_XDICTIONARY
360
170
102
}
102
{ACAD_REACTORS
330
16E
102
}
330
16E
100
AcDbMaterial
  1
ByLayer
 72
     0
 43
0.0208333333333333
 43
0.0
 43
0.0
 43
0.0
 43
0.0
 43
0.0208333333333333
 43
0.0
 43
0.0
 43
0.0
 43
0.0
 43
1.0
 43
0.0
 43
0.0
 43
0.0
 43
0.0
 43
1.0
 77
     0
 47
0.0208333333333333
 47
0.0
 47
0.0
 47
0.0
 47
0.0
 47
0.0208333333333333
 47
0.0
 47
0.0
 47
0.0
 47
0.0
 47
1.0
 47
0.0
 47
0.0
 47
0.0
 47
0.0
 47
1.0
171
     0
 49
0.0208333333333333
 49
0.0
 49
0.0
 49
0.0
 49
0.0
 49
0.0208333333333333
 49
0.0
 49
0.0
 49
0.0
 49
0.0
 49
1.0
 49
0.0
 49
0.0
 49
0.0
 49
0.0
 49
1.0
175
     0
142
0.0208333333333333
142
0.0
142
0.0
142
0.0
142
0.0
142
0.0208333333333333
142
0.0
142
0.0
142
0.0
142
0.0
142
1.0
142
0.0
142
0.0
142
0.0
142
0.0
142
1.0
179
     0
144
0.0208333333333333
144
0.0
144
0.0
144
0.0
144
0.0
144
0.0208333333333333
144
0.0
144
0.0
144
0.0
144
0.0
144
1.0
144
0.0
144
0.0
144
0.0
144
0.0
144
1.0
147
0.0208333333333333
147
0.0
147
0.0
147
0.0
147
0.0
147
0.0208333333333333
147
0.0
147
0.0
147
0.0
147
0.0
147
1.0
147
0.0
147
0.0
147
0.0
147
0.0
147
1.0
  0
MATERIAL
  5
17F
102
{ACAD_XDICTIONARY
360
180
102
}
102
{ACAD_REACTORS
330
16E
102
}
330
16E
100
AcDbMaterial
  1
Global
 72
     0
 43
0.0208333333333333
 43
0.0
 43
0.0
 43
0.0
 43
0.0
 43
0.0208333333333333
 43
0.0
 43
0.0
 43
0.0
 43
0.0
 43
1.0
 43
0.0
 43
0.0
 43
0.0
 43
0.0
 43
1.0
 77
     0
 47
0.0208333333333333
 47
0.0
 47
0.0
 47
0.0
 47
0.0
 47
0.0208333333333333
 47
0.0
 47
0.0
 47
0.0
 47
0.0
 47
1.0
 47
0.0
 47
0.0
 47
0.0
 47
0.0
 47
1.0
171
     0
 49
0.0208333333333333
 49
0.0
 49
0.0
 49
0.0
 49
0.0
 49
0.0208333333333333
 49
0.0
 49
0.0
 49
0.0
 49
0.0
 49
1.0
 49
0.0
 49
0.0
 49
0.0
 49
0.0
 49
1.0
175
     0
142
0.0208333333333333
142
0.0
142
0.0
142
0.0
142
0.0
142
0.0208333333333333
142
0.0
142
0.0
142
0.0
142
0.0
142
1.0
142
0.0
142
0.0
142
0.0
142
0.0
142
1.0
179
     0
144
0.0208333333333333
144
0.0
144
0.0
144
0.0
144
0.0
144
0.0208333333333333
144
0.0
144
0.0
144
0.0
144
0.0
144
1.0
144
0.0
144
0.0
144
0.0
144
0.0
144
1.0
147
0.0208333333333333
147
0.0
147
0.0
147
0.0
147
0.0
147
0.0208333333333333
147
0.0
147
0.0
147
0.0
147
0.0
147
1.0
147
0.0
147
0.0
147
0.0
147
0.0
147
1.0
  0
MLEADERSTYLE
  5
1AF
102
{ACAD_REACTORS
330
1AE
102
}
330
1AE
100
AcDbMLeaderStyle
179
     2
170
     2
171
     1
172
     0
 90
        2
 40
0.0
 41
0.0
173
     1
 91
-1056964608
340
14
 92
       -2
290
     1
 42
0.09
291
     1
 43
0.36
  3
Standard
 44
0.18
300

342
11
174
     1
178
     6
175
     1
176
     0
 93
-1056964608
 45
0.18
292
     0
297
     0
 46
0.18
 94
-1056964608
 47
1.0
 49
1.0
140
1.0
293
     1
141
0.0
294
     1
177
     0
142
1.0
295
     0
296
     0
143
0.125
271
     0
272
     9
273
     9
298
     0
  0
MLINESTYLE
  5
18
102
{ACAD_REACTORS
330
17
102
}
330
17
100
AcDbMlineStyle
  2
STANDARD
 70
     0
  3

 62
   256
 51
90.0
 52
90.0
 71
     2
 49
0.5
 62
   256
  6
BYLAYER
 49
-0.5
 62
   256
  6
BYLAYER
  0
ACDBPLACEHOLDER
  5
F
102
{ACAD_REACTORS
330
E
102
}
330
E
  0
SCALE
  5
18D
102
{ACAD_REACTORS
330
18C
102
}
330
18C
100
AcDbScale
 70
     0
300
1:1
140
1.0
141
1.0
290
     1
  0
SCALE
  5
18E
102
{ACAD_REACTORS
330
18C
102
}
330
18C
100
AcDbScale
 70
     0
300
1:2
140
1.0
141
2.0
290
     0
  0
SCALE
  5
18F
102
{ACAD_REACTORS
330
18C
102
}
330
18C
100
AcDbScale
 70
     0
300
1:4
140
1.0
141
4.0
290
     0
  0
SCALE
  5
190
102
{ACAD_REACTORS
330
18C
102
}
330
18C
100
AcDbScale
 70
     0
300
1:5
140
1.0
141
5.0
290
     0
  0
SCALE
  5
191
102
{ACAD_REACTORS
330
18C
102
}
330
18C
100
AcDbScale
 70
     0
300
1:8
140
1.0
141
8.0
290
     0
  0
SCALE
  5
192
102
{ACAD_REACTORS
330
18C
102
}
330
18C
100
AcDbScale
 70
     0
300
1:10
140
1.0
141
10.0
290
     0
  0
SCALE
  5
193
102
{ACAD_REACTORS
330
18C
102
}
330
18C
100
AcDbScale
 70
     0
300
1:16
140
1.0
141
16.0
290
     0
  0
SCALE
  5
194
102
{ACAD_REACTORS
330
18C
102
}
330
18C
100
AcDbScale
 70
     0
300
1:20
140
1.0
141
20.0
290
     0
  0
SCALE
  5
195
102
{ACAD_REACTORS
330
18C
102
}
330
18C
100
AcDbScale
 70
     0
300
1:30
140
1.0
141
30.0
290
     0
  0
SCALE
  5
196
102
{ACAD_REACTORS
330
18C
102
}
330
18C
100
AcDbScale
 70
     0
300
1:40
140
1.0
141
40.0
290
     0
  0
SCALE
  5
197
102
{ACAD_REACTORS
330
18C
102
}
330
18C
100
AcDbScale
 70
     0
300
1:50
140
1.0
141
50.0
290
     0
  0
SCALE
  5
198
102
{ACAD_REACTORS
330
18C
102
}
330
18C
100
AcDbScale
 70
     0
300
1:100
140
1.0
141
100.0
290
     0
  0
SCALE
  5
199
102
{ACAD_REACTORS
330
18C
102
}
330
18C
100
AcDbScale
 70
     0
300
2:1
140
2.0
141
1.0
290
     0
  0
SCALE
  5
19A
102
{ACAD_REACTORS
330
18C
102
}
330
18C
100
AcDbScale
 70
     0
300
4:1
140
4.0
141
1.0
290
     0
  0
SCALE
  5
19B
102
{ACAD_REACTORS
330
18C
102
}
330
18C
100
AcDbScale
 70
     0
300
8:1
140
8.0
141
1.0
290
     0
  0
SCALE
  5
19C
102
{ACAD_REACTORS
330
18C
102
}
330
18C
100
AcDbScale
 70
     0
300
10:1
140
10.0
141
1.0
290
     0
  0
SCALE
  5
19D
102
{ACAD_REACTORS
330
18C
102
}
330
18C
100
AcDbScale
 70
     0
300
100:1
140
100.0
141
1.0
290
     0
  0
SCALE
  5
19E
102
{ACAD_REACTORS
330
18C
102
}
330
18C
100
AcDbScale
 70
     0
300
1/128" = 1'-0"
140
0.0078125
141
12.0
290
     0
  0
SCALE
  5
19F
102
{ACAD_REACTORS
330
18C
102
}
330
18C
100
AcDbScale
 70
     0
300
1/64" = 1'-0"
140
0.015625
141
12.0
290
     0
  0
SCALE
  5
1A0
102
{ACAD_REACTORS
330
18C
102
}
330
18C
100
AcDbScale
 70
     0
300
1/32" = 1'-0"
140
0.03125
141
12.0
290
     0
  0
SCALE
  5
1A1
102
{ACAD_REACTORS
330
18C
102
}
330
18C
100
AcDbScale
 70
     0
300
1/16" = 1'-0"
140
0.0625
141
12.0
290
     0
  0
SCALE
  5
1A2
102
{ACAD_REACTORS
330
18C
102
}
330
18C
100
AcDbScale
 70
     0
300
3/32" = 1'-0"
140
0.09375
141
12.0
290
     0
  0
SCALE
  5
1A3
102
{ACAD_REACTORS
330
18C
102
}
330
18C
100
AcDbScale
 70
     0
300
1/8" = 1'-0"
140
0.125
141
12.0
290
     0
  0
SCALE
  5
1A4
102
{ACAD_REACTORS
330
18C
102
}
330
18C
100
AcDbScale
 70
     0
300
3/16" = 1'-0"
140
0.1875
141
12.0
290
     0
  0
SCALE
  5
1A5
102
{ACAD_REACTORS
330
18C
102
}
330
18C
100
AcDbScale
 70
     0
300
1/4" = 1'-0"
140
0.25
141
12.0
290
     0
  0
SCALE
  5
1A6
102
{ACAD_REACTORS
330
18C
102
}
330
18C
100
AcDbScale
 70
     0
300
3/8" = 1'-0"
140
0.375
141
12.0
290
     0
  0
SCALE
  5
1A7
102
{ACAD_REACTORS
330
18C
102
}
330
18C
100
AcDbScale
 70
     0
300
1/2" = 1'-0"
140
0.5
141
12.0
290
     0
  0
SCALE
  5
1A8
102
{ACAD_REACTORS
330
18C
102
}
330
18C
100
AcDbScale
 70
     0
300
3/4" = 1'-0"
140
0.75
141
12.0
290
     0
  0
SCALE
  5
1A9
102
{ACAD_REACTORS
330
18C
102
}
330
18C
100
AcDbScale
 70
     0
300
1" = 1'-0"
140
1.0
141
12.0
290
     0
  0
SCALE
  5
1AA
102
{ACAD_REACTORS
330
18C
102
}
330
18C
100
AcDbScale
 70
     0
300
1-1/2" = 1'-0"
140
1.5
141
12.0
290
     0
  0
SCALE
  5
1AB
102
{ACAD_REACTORS
330
18C
102
}
330
18C
100
AcDbScale
 70
     0
300
3" = 1'-0"
140
3.0
141
12.0
290
     0
  0
SCALE
  5
1AC
102
{ACAD_REACTORS
330
18C
102
}
330
18C
100
AcDbScale
 70
     0
300
6" = 1'-0"
140
6.0
141
12.0
290
     0
  0
SCALE
  5
1AD
102
{ACAD_REACTORS
330
18C
102
}
330
18C
100
AcDbScale
 70
     0
300
1'-0" = 1'-0"
140
12.0
141
12.0
290
     0
  0
ACDBSECTIONVIEWSTYLE
  5
3C5
102
{ACAD_REACTORS
330
3C4
102
}
330
3C4
100
AcDbModelDocViewStyle
 70
     0
  3
Imperial24
290
     0
300
Imperial24
 90
        0
100
AcDbSectionViewStyle
 70
     0
 71
     0
 90
       78
 71
     1
340
11
 62
   256
 40
0.24
340
0
340
0
 62
   256
 40
0.24
300
I, O, Q, S, X, Z
 40
0.48
 90
        3
 40
0.18
 90
        1
 71
     2
340
16
 90
       25
 62
   256
340
16
 90
       50
 62
   256
 40
0.24
 40
0.0
 40
0.24
 71
     3
340
11
 62
   256
 40
0.24
 90
        1
 40
0.75
 90
        1
300
%<\AcVar ViewType \f "%tc1">% %<\AcVar ViewSectionStartId>%-%<\AcVar ViewSectionEndId>%\PSCALE %<\AcVar ViewScale \f "%sn">%
 71
     4
 62
   256
 62
   257
300
ANSI31
 40
1.0
 90
        0
290
     0
290
     0
 90
        6
 40
0.0
 40
1.570796326794896
 40
0.2617993877991494
 40
1.308996938995747
 40
-0.2617993877991494
 40
1.832595714594046
  0
TABLESTYLE
  5
18B
102
{ACAD_XDICTIONARY
360
4F0
102
}
102
{ACAD_REACTORS
330
16C
102
}
330
16C
100
AcDbTableStyle
280
     0
  3
Standard
 70
     0
 71
     0
 40
0.06
 41
0.06
280
     0
281
     0
  7
Standard
140
0.18
170
     2
 62
     0
 63
     7
283
     0
 90
      512
 91
        0
  1

274
    -2
284
     1
 64
     0
275
    -2
285
     1
 65
     0
276
    -2
286
     1
 66
     0
277
    -2
287
     1
 67
     0
278
    -2
288
     1
 68
     0
279
    -2
289
     1
 69
     0
  7
Standard
140
0.25
170
     5
 62
     0
 63
     7
283
     0
 90
      512
 91
        0
  1

274
    -2
284
     1
 64
     0
275
    -2
285
     1
 65
     0
276
    -2
286
     1
 66
     0
277
    -2
287
     1
 67
     0
278
    -2
288
     1
 68
     0
279
    -2
289
     1
 69
     0
  7
Standard
140
0.18
170
     5
 62
     0
 63
     7
283
     0
 90
      512
 91
        0
  1

274
    -2
284
     1
 64
     0
275
    -2
285
     1
 65
     0
276
    -2
286
     1
 66
     0
277
    -2
287
     1
 67
     0
278
    -2
288
     1
 68
     0
279
    -2
289
     1
 69
     0
  0
VISUALSTYLE
  5
2F
102
{ACAD_REACTORS
330
2A
102
}
330
2A
100
AcDbVisualStyle
  2
2dWireframe
 70
     4
177
     3
291
     0
 70
    58
 90
        0
176
     1
 90
        2
176
     1
 90
        0
176
     1
 90
        0
176
     1
 40
0.6
176
     1
 40
30.0
176
     1
 62
     7
420
 16777215
176
     1
 90
        1
176
     1
 90
        4
176
     1
 62
     7
176
     1
 62
   257
176
     1
 90
        1
176
     1
 90
        1
176
     1
 40
1.0
176
     1
 90
        0
176
     1
 62
   257
176
     1
 40
1.0
176
     1
 90
        1
176
     1
 90
        6
176
     1
 90
        2
176
     1
 62
     7
176
     1
 90
        5
176
     1
 90
        0
176
     1
 90
        0
176
     1
290
     0
176
     1
 90
        1
176
     1
 40
0.0
176
     1
 90
        0
176
     1
290
     1
176
     1
290
     1
176
     1
290
     0
176
     1
290
     0
176
     1
290
     0
176
     1
290
     0
176
     1
290
     0
176
     1
290
     0
176
     1
290
     0
176
     1
 90
       50
176
     1
 40
0.0
176
     1
 40
1.0
176
     1
 90
        0
176
     1
 62
    18
420
        0
176
     1
 90
       50
176
     1
 90
        3
176
     1
 62
     5
420
      255
176
     1
290
     0
176
     1
 90
       50
176
     1
 90
       50
176
     1
 90
       50
176
     1
290
     0
176
     1
 90
       50
176
     1
 62
   256
176
     0
 40
1.0
176
     0
 90
        2
176
     1
  1
strokes_ogs.tif
176
     1
290
     0
176
     1
 40
1.0
176
     1
 40
1.0
176
     1
  0
VISUALSTYLE
  5
31
102
{ACAD_REACTORS
330
2A
102
}
330
2A
100
AcDbVisualStyle
  2
3D Hidden
 70
     6
177
     3
291
     0
 70
    58
 90
        1
176
     1
 90
        2
176
     1
 90
        2
176
     1
 90
        0
176
     1
 40
0.6
176
     1
 40
30.0
176
     1
 62
     7
420
 16777215
176
     1
 90
        2
176
     1
 90
        2
176
     1
 62
     7
176
     1
 62
   257
176
     1
 90
        2
176
     1
 90
        1
176
     1
 40
40.0
176
     1
 90
        0
176
     1
 62
   257
176
     1
 40
1.0
176
     1
 90
        1
176
     1
 90
        6
176
     1
 90
        2
176
     1
 62
     7
176
     1
 90
        3
176
     1
 90
        0
176
     1
 90
        0
176
     1
290
     0
176
     1
 90
        1
176
     1
 40
0.0
176
     1
 90
        0
176
     1
290
     0
176
     1
290
     1
176
     1
290
     1
176
     1
290
     0
176
     1
290
     0
176
     1
290
     0
176
     1
290
     0
176
     1
290
     0
176
     1
290
     0
176
     1
 90
       50
176
     1
 40
0.0
176
     1
 40
1.0
176
     1
 90
        0
176
     1
 62
    18
420
        0
176
     1
 90
       50
176
     1
 90
        3
176
     1
 62
     5
420
      255
176
     1
290
     0
176
     1
 90
       50
176
     1
 90
       50
176
     1
 90
       50
176
     1
290
     0
176
     1
 90
       50
176
     1
 62
   256
176
     0
 40
1.0
176
     0
 90
        2
176
     1
  1
strokes_ogs.tif
176
     1
290
     0
176
     1
 40
1.0
176
     1
 40
1.0
176
     1
  0
VISUALSTYLE
  5
30
102
{ACAD_REACTORS
330
2A
102
}
330
2A
100
AcDbVisualStyle
  2
3dWireframe
 70
     5
177
     3
291
     0
 70
    58
 90
        0
176
     1
 90
        2
176
     1
 90
        0
176
     1
 90
        0
176
     1
 40
0.6
176
     1
 40
30.0
176
     1
 62
     7
420
 16777215
176
     1
 90
        1
176
     1
 90
        4
176
     1
 62
     7
176
     1
 62
   257
176
     1
 90
        1
176
     1
 90
        1
176
     1
 40
1.0
176
     1
 90
        0
176
     1
 62
   257
176
     1
 40
1.0
176
     1
 90
        1
176
     1
 90
        6
176
     1
 90
        2
176
     1
 62
     7
176
     1
 90
        5
176
     1
 90
        0
176
     1
 90
        0
176
     1
290
     0
176
     1
 90
        1
176
     1
 40
0.0
176
     1
 90
        0
176
     1
290
     0
176
     1
290
     1
176
     1
290
     1
176
     1
290
     0
176
     1
290
     0
176
     1
290
     0
176
     1
290
     0
176
     1
290
     0
176
     1
290
     0
176
     1
 90
       50
176
     1
 40
0.0
176
     1
 40
1.0
176
     1
 90
        0
176
     1
 62
    18
420
        0
176
     1
 90
       50
176
     1
 90
        3
176
     1
 62
     5
420
      255
176
     1
290
     0
176
     1
 90
       50
176
     1
 90
       50
176
     1
 90
       50
176
     1
290
     0
176
     1
 90
       50
176
     1
 62
   256
176
     0
 40
1.0
176
     0
 90
        2
176
     1
  1
strokes_ogs.tif
176
     1
290
     0
176
     1
 40
1.0
176
     1
 40
1.0
176
     1
  0
VISUALSTYLE
  5
32
102
{ACAD_REACTORS
330
2A
102
}
330
2A
100
AcDbVisualStyle
  2
Basic
 70
     7
177
     3
291
     1
 70
    58
 90
        1
176
     1
 90
        0
176
     1
 90
        1
176
     1
 90
        0
176
     1
 40
0.6
176
     1
 40
30.0
176
     1
 62
     7
420
 16777215
176
     1
 90
        0
176
     1
 90
        4
176
     1
 62
     7
176
     1
 62
   257
176
     1
 90
        1
176
     1
 90
        1
176
     1
 40
1.0
176
     1
 90
        8
176
     1
 62
     7
176
     1
 40
1.0
176
     1
 90
        1
176
     1
 90
        6
176
     1
 90
        2
176
     1
 62
     7
176
     1
 90
        5
176
     1
 90
        0
176
     1
 90
        0
176
     1
290
     0
176
     1
 90
        1
176
     1
 40
0.0
176
     1
 90
        0
176
     1
290
     0
176
     1
290
     1
176
     1
290
     1
176
     1
290
     0
176
     1
290
     0
176
     1
290
     0
176
     1
290
     0
176
     1
290
     0
176
     1
290
     0
176
     1
 90
       50
176
     1
 40
0.0
176
     1
 40
1.0
176
     1
 90
        0
176
     1
 62
    18
420
        0
176
     1
 90
       50
176
     1
 90
        3
176
     1
 62
     5
420
      255
176
     1
290
     0
176
     1
 90
       50
176
     1
 90
       50
176
     1
 90
       50
176
     1
290
     0
176
     1
 90
       50
176
     1
 62
   256
176
     0
 40
1.0
176
     0
 90
        2
176
     1
  1
strokes_ogs.tif
176
     1
290
     0
176
     1
 40
1.0
176
     1
 40
1.0
176
     1
  0
VISUALSTYLE
  5
36
102
{ACAD_REACTORS
330
2A
102
}
330
2A
100
AcDbVisualStyle
  2
Brighten
 70
    12
177
     3
291
     1
 70
    58
 90
        2
176
     1
 90
        2
176
     1
 90
        0
176
     1
 90
        0
176
     1
 40
0.6
176
     1
 40
30.0
176
     1
 62
     7
420
 16777215
176
     1
 90
        1
176
     1
 90
        4
176
     1
 62
     7
176
     1
 62
   257
176
     1
 90
        1
176
     1
 90
        1
176
     1
 40
1.0
176
     1
 90
        8
176
     1
 62
     7
176
     1
 40
1.0
176
     1
 90
        1
176
     1
 90
        6
176
     1
 90
        2
176
     1
 62
     7
176
     1
 90
        5
176
     1
 90
        0
176
     1
 90
        0
176
     1
290
     0
176
     1
 90
        1
176
     1
 40
50.0
176
     1
 90
        0
176
     1
290
     0
176
     1
290
     1
176
     1
290
     1
176
     1
290
     0
176
     1
290
     0
176
     1
290
     0
176
     1
290
     0
176
     1
290
     0
176
     1
290
     0
176
     1
 90
       50
176
     1
 40
0.0
176
     1
 40
1.0
176
     1
 90
        0
176
     1
 62
    18
420
        0
176
     1
 90
       50
176
     1
 90
        3
176
     1
 62
     5
420
      255
176
     1
290
     0
176
     1
 90
       50
176
     1
 90
       50
176
     1
 90
       50
176
     1
290
     0
176
     1
 90
       50
176
     1
 62
   256
176
     0
 40
1.0
176
     0
 90
        2
176
     1
  1
strokes_ogs.tif
176
     1
290
     0
176
     1
 40
1.0
176
     1
 40
1.0
176
     1
  0
VISUALSTYLE
  5
3A
102
{ACAD_REACTORS
330
2A
102
}
330
2A
100
AcDbVisualStyle
  2
ColorChange
 70
    16
177
     3
291
     1
 70
    58
 90
        2
176
     1
 90
        2
176
     1
 90
        3
176
     1
 90
        0
176
     1
 40
0.6
176
     1
 40
30.0
176
     1
 62
     8
420
  8421504
176
     1
 90
        1
176
     1
 90
        4
176
     1
 62
     7
176
     1
 62
   257
176
     1
 90
        1
176
     1
 90
        1
176
     1
 40
1.0
176
     1
 90
        8
176
     1
 62
     8
420
  8421504
176
     1
 40
1.0
176
     1
 90
        1
176
     1
 90
        6
176
     1
 90
        2
176
     1
 62
     7
176
     1
 90
        5
176
     1
 90
        0
176
     1
 90
        0
176
     1
290
     0
176
     1
 90
        1
176
     1
 40
0.0
176
     1
 90
        0
176
     1
290
     0
176
     1
290
     1
176
     1
290
     1
176
     1
290
     0
176
     1
290
     0
176
     1
290
     0
176
     1
290
     0
176
     1
290
     0
176
     1
290
     0
176
     1
 90
       50
176
     1
 40
0.0
176
     1
 40
1.0
176
     1
 90
        0
176
     1
 62
    18
420
        0
176
     1
 90
       50
176
     1
 90
        3
176
     1
 62
     5
420
      255
176
     1
290
     0
176
     1
 90
       50
176
     1
 90
       50
176
     1
 90
       50
176
     1
290
     0
176
     1
 90
       50
176
     1
 62
   256
176
     0
 40
1.0
176
     0
 90
        2
176
     1
  1
strokes_ogs.tif
176
     1
290
     0
176
     1
 40
1.0
176
     1
 40
1.0
176
     1
  0
VISUALSTYLE
  5
34
102
{ACAD_REACTORS
330
2A
102
}
330
2A
100
AcDbVisualStyle
  2
Conceptual
 70
     9
177
     3
291
     0
 70
    58
 90
        3
176
     1
 90
        2
176
     1
 90
        0
176
     1
 90
        0
176
     1
 40
0.6
176
     1
 40
30.0
176
     1
 62
     7
420
 16777215
176
     1
 90
        2
176
     1
 90
        2
176
     1
 62
     7
176
     1
 62
   257
176
     1
 90
        1
176
     1
 90
        1
176
     1
 40
40.0
176
     1
 90
        8
176
     1
 62
     7
176
     1
 40
1.0
176
     1
 90
        1
176
     1
 90
        6
176
     1
 90
        2
176
     1
 62
     7
176
     1
 90
        3
176
     1
 90
        0
176
     1
 90
        0
176
     1
290
     0
176
     1
 90
        1
176
     1
 40
0.0
176
     1
 90
        0
176
     1
290
     0
176
     1
290
     1
176
     1
290
     1
176
     1
290
     0
176
     1
290
     0
176
     1
290
     0
176
     1
290
     0
176
     1
290
     0
176
     1
290
     0
176
     1
 90
       50
176
     1
 40
0.0
176
     1
 40
1.0
176
     1
 90
        0
176
     1
 62
    18
420
        0
176
     1
 90
       50
176
     1
 90
        3
176
     1
 62
     5
420
      255
176
     1
290
     0
176
     1
 90
       50
176
     1
 90
       50
176
     1
 90
       50
176
     1
290
     0
176
     1
 90
       50
176
     1
 62
   256
176
     0
 40
1.0
176
     0
 90
        2
176
     1
  1
strokes_ogs.tif
176
     1
290
     0
176
     1
 40
1.0
176
     1
 40
1.0
176
     1
  0
VISUALSTYLE
  5
35
102
{ACAD_REACTORS
330
2A
102
}
330
2A
100
AcDbVisualStyle
  2
Dim
 70
    11
177
     3
291
     1
 70
    58
 90
        2
176
     1
 90
        2
176
     1
 90
        0
176
     1
 90
        0
176
     1
 40
0.6
176
     1
 40
30.0
176
     1
 62
     7
420
 16777215
176
     1
 90
        1
176
     1
 90
        4
176
     1
 62
     7
176
     1
 62
   257
176
     1
 90
        1
176
     1
 90
        1
176
     1
 40
1.0
176
     1
 90
        8
176
     1
 62
     7
176
     1
 40
1.0
176
     1
 90
        1
176
     1
 90
        6
176
     1
 90
        2
176
     1
 62
     7
176
     1
 90
        5
176
     1
 90
        0
176
     1
 90
        0
176
     1
290
     0
176
     1
 90
        1
176
     1
 40
-50.0
176
     1
 90
        0
176
     1
290
     0
176
     1
290
     1
176
     1
290
     1
176
     1
290
     0
176
     1
290
     0
176
     1
290
     0
176
     1
290
     0
176
     1
290
     0
176
     1
290
     0
176
     1
 90
       50
176
     1
 40
0.0
176
     1
 40
1.0
176
     1
 90
        0
176
     1
 62
    18
420
        0
176
     1
 90
       50
176
     1
 90
        3
176
     1
 62
     5
420
      255
176
     1
290
     0
176
     1
 90
       50
176
     1
 90
       50
176
     1
 90
       50
176
     1
290
     0
176
     1
 90
       50
176
     1
 62
   256
176
     0
 40
1.0
176
     0
 90
        2
176
     1
  1
strokes_ogs.tif
176
     1
290
     0
176
     1
 40
1.0
176
     1
 40
1.0
176
     1
  0
VISUALSTYLE
  5
189
102
{ACAD_REACTORS
330
2A
102
}
330
2A
100
AcDbVisualStyle
  2
EdgeColorOff
 70
    22
177
     3
291
     1
 70
    58
 90
        2
176
     0
 90
        2
176
     0
 90
        0
176
     0
 90
        0
176
     0
 40
0.6
176
     0
 40
30.0
176
     0
 62
     7
420
 16777215
176
     0
 90
        1
176
     0
 90
        4
176
     0
 62
     7
176
     0
 62
   257
176
     0
 90
        1
176
     0
 90
        1
176
     0
 40
1.0
176
     0
 90
        8
176
     2
 62
     7
176
     0
 40
1.0
176
     0
 90
        1
176
     0
 90
        6
176
     0
 90
        2
176
     0
 62
     7
176
     0
 90
        5
176
     0
 90
        0
176
     0
 90
        0
176
     0
290
     0
176
     0
 90
        1
176
     0
 40
0.0
176
     0
 90
        0
176
     0
290
     0
176
     1
290
     1
176
     1
290
     1
176
     1
290
     0
176
     1
290
     0
176
     1
290
     0
176
     1
290
     0
176
     1
290
     0
176
     1
290
     0
176
     1
 90
       50
176
     1
 40
0.0
176
     1
 40
1.0
176
     1
 90
        0
176
     1
 62
    18
420
        0
176
     1
 90
       50
176
     1
 90
        3
176
     1
 62
     5
420
      255
176
     1
290
     0
176
     1
 90
       50
176
     1
 90
       50
176
     1
 90
       50
176
     1
290
     0
176
     1
 90
       50
176
     1
 62
   256
176
     0
 40
1.0
176
     0
 90
        2
176
     1
  1
strokes_ogs.tif
176
     1
290
     0
176
     1
 40
1.0
176
     1
 40
1.0
176
     1
  0
VISUALSTYLE
  5
39
102
{ACAD_REACTORS
330
2A
102
}
330
2A
100
AcDbVisualStyle
  2
Facepattern
 70
    15
177
     3
291
     1
 70
    58
 90
        2
176
     1
 90
        2
176
     1
 90
        0
176
     1
 90
        0
176
     1
 40
0.6
176
     1
 40
30.0
176
     1
 62
     7
420
 16777215
176
     1
 90
        1
176
     1
 90
        4
176
     1
 62
     7
176
     1
 62
   257
176
     1
 90
        1
176
     1
 90
        1
176
     1
 40
1.0
176
     1
 90
        8
176
     1
 62
     7
176
     1
 40
1.0
176
     1
 90
        1
176
     1
 90
        6
176
     1
 90
        2
176
     1
 62
     7
176
     1
 90
        5
176
     1
 90
        0
176
     1
 90
        0
176
     1
290
     0
176
     1
 90
        1
176
     1
 40
0.0
176
     1
 90
        0
176
     1
290
     0
176
     1
290
     1
176
     1
290
     1
176
     1
290
     0
176
     1
290
     0
176
     1
290
     0
176
     1
290
     0
176
     1
290
     0
176
     1
290
     0
176
     1
 90
       50
176
     1
 40
0.0
176
     1
 40
1.0
176
     1
 90
        0
176
     1
 62
    18
420
        0
176
     1
 90
       50
176
     1
 90
        3
176
     1
 62
     5
420
      255
176
     1
290
     0
176
     1
 90
       50
176
     1
 90
       50
176
     1
 90
       50
176
     1
290
     0
176
     1
 90
       50
176
     1
 62
   256
176
     0
 40
1.0
176
     0
 90
        2
176
     1
  1
strokes_ogs.tif
176
     1
290
     0
176
     1
 40
1.0
176
     1
 40
1.0
176
     1
  0
VISUALSTYLE
  5
2B
102
{ACAD_REACTORS
330
2A
102
}
330
2A
100
AcDbVisualStyle
  2
Flat
 70
     0
177
     3
291
     1
 70
    58
 90
        2
176
     1
 90
        1
176
     1
 90
        1
176
     1
 90
        2
176
     1
 40
0.6
176
     1
 40
30.0
176
     1
 62
     7
420
 16777215
176
     1
 90
        0
176
     1
 90
        4
176
     1
 62
     7
176
     1
 62
   257
176
     1
 90
        1
176
     1
 90
        1
176
     1
 40
1.0
176
     1
 90
        8
176
     1
 62
     7
176
     1
 40
1.0
176
     1
 90
        1
176
     1
 90
        6
176
     1
 90
        2
176
     1
 62
     7
176
     1
 90
        5
176
     1
 90
        0
176
     1
 90
        0
176
     1
290
     0
176
     1
 90
       13
176
     1
 40
0.0
176
     1
 90
        0
176
     1
290
     0
176
     1
290
     1
176
     1
290
     1
176
     1
290
     0
176
     1
290
     0
176
     1
290
     0
176
     1
290
     0
176
     1
290
     0
176
     1
290
     0
176
     1
 90
       50
176
     1
 40
0.0
176
     1
 40
1.0
176
     1
 90
        0
176
     1
 62
    18
420
        0
176
     1
 90
       50
176
     1
 90
        3
176
     1
 62
     5
420
      255
176
     1
290
     0
176
     1
 90
       50
176
     1
 90
       50
176
     1
 90
       50
176
     1
290
     0
176
     1
 90
       50
176
     1
 62
   256
176
     0
 40
1.0
176
     0
 90
        2
176
     1
  1
strokes_ogs.tif
176
     1
290
     0
176
     1
 40
1.0
176
     1
 40
1.0
176
     1
  0
VISUALSTYLE
  5
2C
102
{ACAD_REACTORS
330
2A
102
}
330
2A
100
AcDbVisualStyle
  2
FlatWithEdges
 70
     1
177
     3
291
     1
 70
    58
 90
        2
176
     1
 90
        1
176
     1
 90
        1
176
     1
 90
        2
176
     1
 40
0.6
176
     1
 40
30.0
176
     1
 62
     7
420
 16777215
176
     1
 90
        1
176
     1
 90
        4
176
     1
 62
     7
176
     1
 62
   257
176
     1
 90
        1
176
     1
 90
        1
176
     1
 40
1.0
176
     1
 90
        0
176
     1
 62
   257
176
     1
 40
1.0
176
     1
 90
        1
176
     1
 90
        6
176
     1
 90
        2
176
     1
 62
     7
176
     1
 90
        5
176
     1
 90
        0
176
     1
 90
        0
176
     1
290
     0
176
     1
 90
       13
176
     1
 40
0.0
176
     1
 90
        0
176
     1
290
     0
176
     1
290
     1
176
     1
290
     1
176
     1
290
     0
176
     1
290
     0
176
     1
290
     0
176
     1
290
     0
176
     1
290
     0
176
     1
290
     0
176
     1
 90
       50
176
     1
 40
0.0
176
     1
 40
1.0
176
     1
 90
        0
176
     1
 62
    18
420
        0
176
     1
 90
       50
176
     1
 90
        3
176
     1
 62
     5
420
      255
176
     1
290
     0
176
     1
 90
       50
176
     1
 90
       50
176
     1
 90
       50
176
     1
290
     0
176
     1
 90
       50
176
     1
 62
   256
176
     0
 40
1.0
176
     0
 90
        2
176
     1
  1
strokes_ogs.tif
176
     1
290
     0
176
     1
 40
1.0
176
     1
 40
1.0
176
     1
  0
VISUALSTYLE
  5
2D
102
{ACAD_REACTORS
330
2A
102
}
330
2A
100
AcDbVisualStyle
  2
Gouraud
 70
     2
177
     3
291
     1
 70
    58
 90
        2
176
     1
 90
        2
176
     1
 90
        1
176
     1
 90
        2
176
     1
 40
0.6
176
     1
 40
30.0
176
     1
 62
     7
420
 16777215
176
     1
 90
        0
176
     1
 90
        4
176
     1
 62
     7
176
     1
 62
   257
176
     1
 90
        1
176
     1
 90
        1
176
     1
 40
1.0
176
     1
 90
        0
176
     1
 62
     7
176
     1
 40
1.0
176
     1
 90
        1
176
     1
 90
        6
176
     1
 90
        2
176
     1
 62
     7
176
     1
 90
        5
176
     1
 90
        0
176
     1
 90
        0
176
     1
290
     0
176
     1
 90
       13
176
     1
 40
0.0
176
     1
 90
        0
176
     1
290
     0
176
     1
290
     1
176
     1
290
     1
176
     1
290
     0
176
     1
290
     0
176
     1
290
     0
176
     1
290
     0
176
     1
290
     0
176
     1
290
     0
176
     1
 90
       50
176
     1
 40
0.0
176
     1
 40
1.0
176
     1
 90
        0
176
     1
 62
    18
420
        0
176
     1
 90
       50
176
     1
 90
        3
176
     1
 62
     5
420
      255
176
     1
290
     0
176
     1
 90
       50
176
     1
 90
       50
176
     1
 90
       50
176
     1
290
     0
176
     1
 90
       50
176
     1
 62
   256
176
     0
 40
1.0
176
     0
 90
        2
176
     1
  1
strokes_ogs.tif
176
     1
290
     0
176
     1
 40
1.0
176
     1
 40
1.0
176
     1
  0
VISUALSTYLE
  5
2E
102
{ACAD_REACTORS
330
2A
102
}
330
2A
100
AcDbVisualStyle
  2
GouraudWithEdges
 70
     3
177
     3
291
     1
 70
    58
 90
        2
176
     1
 90
        2
176
     1
 90
        1
176
     1
 90
        2
176
     1
 40
0.6
176
     1
 40
30.0
176
     1
 62
     7
420
 16777215
176
     1
 90
        1
176
     1
 90
        4
176
     1
 62
     7
176
     1
 62
   257
176
     1
 90
        1
176
     1
 90
        1
176
     1
 40
1.0
176
     1
 90
        0
176
     1
 62
   257
176
     1
 40
1.0
176
     1
 90
        1
176
     1
 90
        6
176
     1
 90
        2
176
     1
 62
     7
176
     1
 90
        5
176
     1
 90
        0
176
     1
 90
        0
176
     1
290
     0
176
     1
 90
       13
176
     1
 40
0.0
176
     1
 90
        0
176
     1
290
     0
176
     1
290
     1
176
     1
290
     1
176
     1
290
     0
176
     1
290
     0
176
     1
290
     0
176
     1
290
     0
176
     1
290
     0
176
     1
290
     0
176
     1
 90
       50
176
     1
 40
0.0
176
     1
 40
1.0
176
     1
 90
        0
176
     1
 62
    18
420
        0
176
     1
 90
       50
176
     1
 90
        3
176
     1
 62
     5
420
      255
176
     1
290
     0
176
     1
 90
       50
176
     1
 90
       50
176
     1
 90
       50
176
     1
290
     0
176
     1
 90
       50
176
     1
 62
   256
176
     0
 40
1.0
176
     0
 90
        2
176
     1
  1
strokes_ogs.tif
176
     1
290
     0
176
     1
 40
1.0
176
     1
 40
1.0
176
     1
  0
VISUALSTYLE
  5
3BE
102
{ACAD_REACTORS
330
2A
102
}
330
2A
100
AcDbVisualStyle
  2
Hidden
 70
     6
177
     3
291
     0
 70
    58
 90
        1
176
     1
 90
        2
176
     1
 90
        2
176
     1
 90
        0
176
     1
 40
0.6
176
     1
 40
30.0
176
     1
 62
     7
420
 16777215
176
     1
 90
        2
176
     1
 90
        2
176
     1
 62
     7
176
     1
 62
   257
176
     1
 90
        2
176
     1
 90
        1
176
     1
 40
40.0
176
     1
 90
        0
176
     1
 62
   257
176
     1
 40
1.0
176
     1
 90
        1
176
     1
 90
        6
176
     1
 90
        2
176
     1
 62
     7
176
     1
 90
        3
176
     1
 90
        0
176
     1
 90
        0
176
     1
290
     0
176
     1
 90
        1
176
     1
 40
0.0
176
     1
 90
        0
176
     1
290
     0
176
     1
290
     1
176
     1
290
     1
176
     1
290
     0
176
     1
290
     0
176
     1
290
     0
176
     1
290
     0
176
     1
290
     0
176
     1
290
     0
176
     1
 90
       50
176
     1
 40
0.0
176
     1
 40
1.0
176
     1
 90
        0
176
     1
 62
    18
420
        0
176
     1
 90
       50
176
     1
 90
        3
176
     1
 62
     5
420
      255
176
     1
290
     0
176
     1
 90
       50
176
     1
 90
       50
176
     1
 90
       50
176
     1
290
     0
176
     1
 90
       50
176
     1
 62
   256
176
     0
 40
1.0
176
     0
 90
        2
176
     1
  1
strokes_ogs.tif
176
     1
290
     0
176
     1
 40
1.0
176
     1
 40
1.0
176
     1
  0
VISUALSTYLE
  5
187
102
{ACAD_REACTORS
330
2A
102
}
330
2A
100
AcDbVisualStyle
  2
JitterOff
 70
    20
177
     3
291
     1
 70
    58
 90
        2
176
     0
 90
        2
176
     0
 90
        0
176
     0
 90
        0
176
     0
 40
0.6
176
     0
 40
30.0
176
     0
 62
     7
420
 16777215
176
     0
 90
        1
176
     0
 90
        4
176
     0
 62
     7
176
     0
 62
   257
176
     0
 90
        1
176
     0
 90
        1
176
     0
 40
1.0
176
     0
 90
       10
176
     2
 62
     7
176
     0
 40
1.0
176
     0
 90
        1
176
     0
 90
        6
176
     0
 90
        2
176
     0
 62
     7
176
     0
 90
        5
176
     0
 90
        0
176
     0
 90
        0
176
     0
290
     0
176
     0
 90
        1
176
     0
 40
0.0
176
     0
 90
        0
176
     0
290
     0
176
     1
290
     1
176
     1
290
     1
176
     1
290
     0
176
     1
290
     0
176
     1
290
     0
176
     1
290
     0
176
     1
290
     0
176
     1
290
     0
176
     1
 90
       50
176
     1
 40
0.0
176
     1
 40
1.0
176
     1
 90
        0
176
     1
 62
    18
420
        0
176
     1
 90
       50
176
     1
 90
        3
176
     1
 62
     5
420
      255
176
     1
290
     0
176
     1
 90
       50
176
     1
 90
       50
176
     1
 90
       50
176
     1
290
     0
176
     1
 90
       50
176
     1
 62
   256
176
     0
 40
1.0
176
     0
 90
        2
176
     1
  1
strokes_ogs.tif
176
     1
290
     0
176
     1
 40
1.0
176
     1
 40
1.0
176
     1
  0
VISUALSTYLE
  5
38
102
{ACAD_REACTORS
330
2A
102
}
330
2A
100
AcDbVisualStyle
  2
Linepattern
 70
    14
177
     3
291
     1
 70
    58
 90
        2
176
     1
 90
        2
176
     1
 90
        0
176
     1
 90
        0
176
     1
 40
0.6
176
     1
 40
30.0
176
     1
 62
     7
420
 16777215
176
     1
 90
        1
176
     1
 90
        4
176
     1
 62
     7
176
     1
 62
   257
176
     1
 90
        7
176
     1
 90
        7
176
     1
 40
1.0
176
     1
 90
        8
176
     1
 62
     7
176
     1
 40
1.0
176
     1
 90
        1
176
     1
 90
        6
176
     1
 90
        2
176
     1
 62
     7
176
     1
 90
        5
176
     1
 90
        0
176
     1
 90
        0
176
     1
290
     0
176
     1
 90
        1
176
     1
 40
0.0
176
     1
 90
        0
176
     1
290
     0
176
     1
290
     1
176
     1
290
     1
176
     1
290
     0
176
     1
290
     0
176
     1
290
     0
176
     1
290
     0
176
     1
290
     0
176
     1
290
     0
176
     1
 90
       50
176
     1
 40
0.0
176
     1
 40
1.0
176
     1
 90
        0
176
     1
 62
    18
420
        0
176
     1
 90
       50
176
     1
 90
        3
176
     1
 62
     5
420
      255
176
     1
290
     0
176
     1
 90
       50
176
     1
 90
       50
176
     1
 90
       50
176
     1
290
     0
176
     1
 90
       50
176
     1
 62
   256
176
     0
 40
1.0
176
     0
 90
        2
176
     1
  1
strokes_ogs.tif
176
     1
290
     0
176
     1
 40
1.0
176
     1
 40
1.0
176
     1
  0
VISUALSTYLE
  5
188
102
{ACAD_REACTORS
330
2A
102
}
330
2A
100
AcDbVisualStyle
  2
OverhangOff
 70
    21
177
     3
291
     1
 70
    58
 90
        2
176
     0
 90
        2
176
     0
 90
        0
176
     0
 90
        0
176
     0
 40
0.6
176
     0
 40
30.0
176
     0
 62
     7
420
 16777215
176
     0
 90
        1
176
     0
 90
        4
176
     0
 62
     7
176
     0
 62
   257
176
     0
 90
        1
176
     0
 90
        1
176
     0
 40
1.0
176
     0
 90
        9
176
     2
 62
     7
176
     0
 40
1.0
176
     0
 90
        1
176
     0
 90
        6
176
     0
 90
        2
176
     0
 62
     7
176
     0
 90
        5
176
     0
 90
        0
176
     0
 90
        0
176
     0
290
     0
176
     0
 90
        1
176
     0
 40
0.0
176
     0
 90
        0
176
     0
290
     0
176
     1
290
     1
176
     1
290
     1
176
     1
290
     0
176
     1
290
     0
176
     1
290
     0
176
     1
290
     0
176
     1
290
     0
176
     1
290
     0
176
     1
 90
       50
176
     1
 40
0.0
176
     1
 40
1.0
176
     1
 90
        0
176
     1
 62
    18
420
        0
176
     1
 90
       50
176
     1
 90
        3
176
     1
 62
     5
420
      255
176
     1
290
     0
176
     1
 90
       50
176
     1
 90
       50
176
     1
 90
       50
176
     1
290
     0
176
     1
 90
       50
176
     1
 62
   256
176
     0
 40
1.0
176
     0
 90
        2
176
     1
  1
strokes_ogs.tif
176
     1
290
     0
176
     1
 40
1.0
176
     1
 40
1.0
176
     1
  0
VISUALSTYLE
  5
33
102
{ACAD_REACTORS
330
2A
102
}
330
2A
100
AcDbVisualStyle
  2
Realistic
 70
     8
177
     3
291
     0
 70
    58
 90
        2
176
     1
 90
        2
176
     1
 90
        0
176
     1
 90
        0
176
     1
 40
0.6
176
     1
 40
30.0
176
     1
 62
     7
420
 16777215
176
     1
 90
        1
176
     1
 90
        0
176
     1
 62
     7
176
     1
 62
   257
176
     1
 90
        1
176
     1
 90
        1
176
     1
 40
1.0
176
     1
 90
        8
176
     1
 62
     8
420
  7895160
176
     1
 40
1.0
176
     1
 90
        1
176
     1
 90
        6
176
     1
 90
        2
176
     1
 62
     7
176
     1
 90
        5
176
     1
 90
        0
176
     1
 90
        0
176
     1
290
     0
176
     1
 90
       13
176
     1
 40
0.0
176
     1
 90
        0
176
     1
290
     0
176
     1
290
     1
176
     1
290
     1
176
     1
290
     0
176
     1
290
     0
176
     1
290
     0
176
     1
290
     0
176
     1
290
     0
176
     1
290
     0
176
     1
 90
       50
176
     1
 40
0.0
176
     1
 40
1.0
176
     1
 90
        0
176
     1
 62
    18
420
        0
176
     1
 90
       50
176
     1
 90
        3
176
     1
 62
     5
420
      255
176
     1
290
     0
176
     1
 90
       50
176
     1
 90
       50
176
     1
 90
       50
176
     1
290
     0
176
     1
 90
       50
176
     1
 62
   256
176
     0
 40
1.0
176
     0
 90
        2
176
     1
  1
strokes_ogs.tif
176
     1
290
     0
176
     1
 40
1.0
176
     1
 40
1.0
176
     1
  0
VISUALSTYLE
  5
3C3
102
{ACAD_REACTORS
330
2A
102
}
330
2A
100
AcDbVisualStyle
  2
Shaded
 70
    27
177
     3
291
     0
 70
    58
 90
        2
176
     1
 90
        2
176
     1
 90
        1
176
     1
 90
        2
176
     1
 40
0.6
176
     1
 40
30.0
176
     1
 62
     7
420
 16777215
176
     1
 90
        0
176
     1
 90
        4
176
     1
 62
     7
176
     1
 62
   257
176
     1
 90
        1
176
     1
 90
        1
176
     1
 40
1.0
176
     1
 90
        8
176
     1
 62
   257
176
     1
 40
1.0
176
     1
 90
        1
176
     1
 90
        6
176
     1
 90
        2
176
     1
 62
     8
420
  7895160
176
     1
 90
        3
176
     1
 90
        0
176
     1
 90
        0
176
     1
290
     0
176
     1
 90
        5
176
     1
 40
0.0
176
     1
 90
        0
176
     1
290
     0
176
     1
290
     1
176
     1
290
     1
176
     1
290
     0
176
     1
290
     0
176
     1
290
     0
176
     1
290
     0
176
     1
290
     0
176
     1
290
     0
176
     1
 90
       50
176
     1
 40
0.0
176
     1
 40
1.0
176
     1
 90
        0
176
     1
 62
    18
420
        0
176
     1
 90
       50
176
     1
 90
        3
176
     1
 62
     5
420
      255
176
     1
290
     0
176
     1
 90
       50
176
     1
 90
       50
176
     1
 90
       50
176
     1
290
     0
176
     1
 90
       50
176
     1
 62
   256
176
     0
 40
1.0
176
     0
 90
        2
176
     1
  1
strokes_ogs.tif
176
     1
290
     0
176
     1
 40
1.0
176
     1
 40
1.0
176
     1
  0
VISUALSTYLE
  5
3C2
102
{ACAD_REACTORS
330
2A
102
}
330
2A
100
AcDbVisualStyle
  2
Shaded with edges
 70
    26
177
     3
291
     0
 70
    58
 90
        2
176
     1
 90
        2
176
     1
 90
        1
176
     1
 90
        2
176
     1
 40
0.6
176
     1
 40
30.0
176
     1
 62
     7
420
 16777215
176
     1
 90
        1
176
     1
 90
        2
176
     1
 62
     7
176
     1
 62
   257
176
     1
 90
        2
176
     1
 90
        1
176
     1
 40
1.0
176
     1
 90
        8
176
     1
 62
   257
176
     1
 40
1.0
176
     1
 90
        1
176
     1
 90
        6
176
     1
 90
        2
176
     1
 62
     7
176
     1
 90
        3
176
     1
 90
        0
176
     1
 90
        0
176
     1
290
     0
176
     1
 90
        5
176
     1
 40
0.0
176
     1
 90
        0
176
     1
290
     0
176
     1
290
     1
176
     1
290
     1
176
     1
290
     0
176
     1
290
     0
176
     1
290
     0
176
     1
290
     0
176
     1
290
     0
176
     1
290
     0
176
     1
 90
       50
176
     1
 40
0.0
176
     1
 40
1.0
176
     1
 90
        0
176
     1
 62
    18
420
        0
176
     1
 90
       50
176
     1
 90
        3
176
     1
 62
     5
420
      255
176
     1
290
     0
176
     1
 90
       50
176
     1
 90
       50
176
     1
 90
       50
176
     1
290
     0
176
     1
 90
       50
176
     1
 62
   256
176
     0
 40
1.0
176
     0
 90
        2
176
     1
  1
strokes_ogs.tif
176
     1
290
     0
176
     1
 40
1.0
176
     1
 40
1.0
176
     1
  0
VISUALSTYLE
  5
3BF
102
{ACAD_REACTORS
330
2A
102
}
330
2A
100
AcDbVisualStyle
  2
Shades of Gray
 70
    23
177
     3
291
     0
 70
    58
 90
        2
176
     1
 90
        2
176
     1
 90
        3
176
     1
 90
        0
176
     1
 40
0.6
176
     1
 40
30.0
176
     1
 62
     7
420
 16777215
176
     1
 90
        2
176
     1
 90
        2
176
     1
 62
     7
176
     1
 62
     7
176
     1
 90
        1
176
     1
 90
        1
176
     1
 40
40.0
176
     1
 90
        8
176
     1
 62
     7
176
     1
 40
1.0
176
     1
 90
        1
176
     1
 90
        6
176
     1
 90
        2
176
     1
 62
     7
176
     1
 90
        3
176
     1
 90
        0
176
     1
 90
        0
176
     1
290
     0
176
     1
 90
        1
176
     1
 40
0.0
176
     1
 90
        0
176
     1
290
     0
176
     1
290
     1
176
     1
290
     1
176
     1
290
     0
176
     1
290
     0
176
     1
290
     0
176
     1
290
     0
176
     1
290
     0
176
     1
290
     0
176
     1
 90
       50
176
     1
 40
0.0
176
     1
 40
1.0
176
     1
 90
        0
176
     1
 62
    18
420
        0
176
     1
 90
       50
176
     1
 90
        3
176
     1
 62
     5
420
      255
176
     1
290
     0
176
     1
 90
       50
176
     1
 90
       50
176
     1
 90
       50
176
     1
290
     0
176
     1
 90
       50
176
     1
 62
   256
176
     0
 40
1.0
176
     0
 90
        2
176
     1
  1
strokes_ogs.tif
176
     1
290
     0
176
     1
 40
1.0
176
     1
 40
1.0
176
     1
  0
VISUALSTYLE
  5
3C0
102
{ACAD_REACTORS
330
2A
102
}
330
2A
100
AcDbVisualStyle
  2
Sketchy
 70
    24
177
     3
291
     0
 70
    58
 90
        1
176
     1
 90
        2
176
     1
 90
        2
176
     1
 90
        0
176
     1
 40
0.6
176
     1
 40
30.0
176
     1
 62
     7
420
 16777215
176
     1
 90
        2
176
     1
 90
        2
176
     1
 62
     7
176
     1
 62
     7
176
     1
 90
        1
176
     1
 90
        1
176
     1
 40
40.0
176
     1
 90
       11
176
     1
 62
     7
176
     1
 40
1.0
176
     1
 90
        1
176
     1
 90
        6
176
     1
 90
        2
176
     1
 62
     7
176
     1
 90
        6
176
     1
 90
        0
176
     1
 90
        0
176
     1
290
     0
176
     1
 90
        1
176
     1
 40
0.0
176
     1
 90
        0
176
     1
290
     0
176
     1
290
     1
176
     1
290
     1
176
     1
290
     0
176
     1
290
     0
176
     1
290
     0
176
     1
290
     0
176
     1
290
     0
176
     1
290
     0
176
     1
 90
       50
176
     1
 40
0.0
176
     1
 40
1.0
176
     1
 90
        0
176
     1
 62
    18
420
        0
176
     1
 90
       50
176
     1
 90
        3
176
     1
 62
     5
420
      255
176
     1
290
     0
176
     1
 90
       50
176
     1
 90
       50
176
     1
 90
       50
176
     1
290
     0
176
     1
 90
       50
176
     1
 62
   256
176
     0
 40
1.0
176
     0
 90
        2
176
     1
  1
strokes_ogs.tif
176
     1
290
     0
176
     1
 40
1.0
176
     1
 40
1.0
176
     1
  0
VISUALSTYLE
  5
37
102
{ACAD_REACTORS
330
2A
102
}
330
2A
100
AcDbVisualStyle
  2
Thicken
 70
    13
177
     3
291
     1
 70
    58
 90
        2
176
     1
 90
        2
176
     1
 90
        0
176
     1
 90
        0
176
     1
 40
0.6
176
     1
 40
30.0
176
     1
 62
     7
420
 16777215
176
     1
 90
        1
176
     1
 90
        4
176
     1
 62
     7
176
     1
 62
   257
176
     1
 90
        1
176
     1
 90
        1
176
     1
 40
1.0
176
     1
 90
       12
176
     1
 62
     7
176
     1
 40
1.0
176
     1
 90
        1
176
     1
 90
        6
176
     1
 90
        2
176
     1
 62
     7
176
     1
 90
        5
176
     1
 90
        0
176
     1
 90
        0
176
     1
290
     0
176
     1
 90
        1
176
     1
 40
0.0
176
     1
 90
        0
176
     1
290
     0
176
     1
290
     1
176
     1
290
     1
176
     1
290
     0
176
     1
290
     0
176
     1
290
     0
176
     1
290
     0
176
     1
290
     0
176
     1
290
     0
176
     1
 90
       50
176
     1
 40
0.0
176
     1
 40
1.0
176
     1
 90
        0
176
     1
 62
    18
420
        0
176
     1
 90
       50
176
     1
 90
        3
176
     1
 62
     5
420
      255
176
     1
290
     0
176
     1
 90
       50
176
     1
 90
       50
176
     1
 90
       50
176
     1
290
     0
176
     1
 90
       50
176
     1
 62
   256
176
     0
 40
1.0
176
     0
 90
        2
176
     1
  1
strokes_ogs.tif
176
     1
290
     0
176
     1
 40
1.0
176
     1
 40
1.0
176
     1
  0
VISUALSTYLE
  5
3BD
102
{ACAD_REACTORS
330
2A
102
}
330
2A
100
AcDbVisualStyle
  2
Wireframe
 70
     5
177
     3
291
     0
 70
    58
 90
        0
176
     1
 90
        2
176
     1
 90
        0
176
     1
 90
        0
176
     1
 40
0.6
176
     1
 40
30.0
176
     1
 62
     7
420
 16777215
176
     1
 90
        1
176
     1
 90
        4
176
     1
 62
     7
176
     1
 62
   257
176
     1
 90
        1
176
     1
 90
        1
176
     1
 40
1.0
176
     1
 90
        0
176
     1
 62
   257
176
     1
 40
1.0
176
     1
 90
        1
176
     1
 90
        6
176
     1
 90
        2
176
     1
 62
     7
176
     1
 90
        3
176
     1
 90
        0
176
     1
 90
        0
176
     1
290
     0
176
     1
 90
        1
176
     1
 40
0.0
176
     1
 90
        0
176
     1
290
     0
176
     1
290
     1
176
     1
290
     1
176
     1
290
     0
176
     1
290
     0
176
     1
290
     0
176
     1
290
     0
176
     1
290
     0
176
     1
290
     0
176
     1
 90
       50
176
     1
 40
0.0
176
     1
 40
1.0
176
     1
 90
        0
176
     1
 62
    18
420
        0
176
     1
 90
       50
176
     1
 90
        3
176
     1
 62
     5
420
      255
176
     1
290
     0
176
     1
 90
       50
176
     1
 90
       50
176
     1
 90
       50
176
     1
290
     0
176
     1
 90
       50
176
     1
 62
   256
176
     0
 40
1.0
176
     0
 90
        2
176
     1
  1
strokes_ogs.tif
176
     1
290
     0
176
     1
 40
1.0
176
     1
 40
1.0
176
     1
  0
VISUALSTYLE
  5
3C1
102
{ACAD_REACTORS
330
2A
102
}
330
2A
100
AcDbVisualStyle
  2
X-Ray
 70
    25
177
     3
291
     0
 70
    58
 90
        2
176
     1
 90
        2
176
     1
 90
        1
176
     1
 90
        1
176
     1
 40
0.5
176
     1
 40
30.0
176
     1
 62
     7
420
 16777215
176
     1
 90
        1
176
     1
 90
        0
176
     1
 62
     7
176
     1
 62
   257
176
     1
 90
        1
176
     1
 90
        1
176
     1
 40
1.0
176
     1
 90
        8
176
     1
 62
     7
176
     1
 40
1.0
176
     1
 90
        1
176
     1
 90
        6
176
     1
 90
        2
176
     1
 62
     7
176
     1
 90
        3
176
     1
 90
        0
176
     1
 90
        0
176
     1
290
     0
176
     1
 90
       13
176
     1
 40
0.0
176
     1
 90
        0
176
     1
290
     0
176
     1
290
     1
176
     1
290
     1
176
     1
290
     0
176
     1
290
     0
176
     1
290
     0
176
     1
290
     0
176
     1
290
     0
176
     1
290
     0
176
     1
 90
       50
176
     1
 40
0.0
176
     1
 40
1.0
176
     1
 90
        0
176
     1
 62
    18
420
        0
176
     1
 90
       50
176
     1
 90
        3
176
     1
 62
     5
420
      255
176
     1
290
     0
176
     1
 90
       50
176
     1
 90
       50
176
     1
 90
       50
176
     1
290
     0
176
     1
 90
       50
176
     1
 62
   256
176
     0
 40
1.0
176
     0
 90
        2
176
     1
  1
strokes_ogs.tif
176
     1
290
     0
176
     1
 40
1.0
176
     1
 40
1.0
176
     1
  0
DICTIONARYVAR
  5
274
102
{ACAD_REACTORS
330
270
102
}
330
270
100
DictionaryVariables
280
     0
  1
1:1
  0
DICTIONARYVAR
  5
272
102
{ACAD_REACTORS
330
270
102
}
330
270
100
DictionaryVariables
280
     0
  1
STANDARD
  0
DICTIONARYVAR
  5
271
102
{ACAD_REACTORS
330
270
102
}
330
270
100
DictionaryVariables
280
     0
  1
STANDARD
  0
DICTIONARYVAR
  5
41E
102
{ACAD_REACTORS
330
270
102
}
330
270
100
DictionaryVariables
280
     0
  1
Imperial24
  0
DICTIONARYVAR
  5
41F
102
{ACAD_REACTORS
330
270
102
}
330
270
100
DictionaryVariables
280
     0
  1
Imperial24
  0
DICTIONARYVAR
  5
276
102
{ACAD_REACTORS
330
270
102
}
330
270
100
DictionaryVariables
280
     0
  1
1
  0
DICTIONARYVAR
  5
277
102
{ACAD_REACTORS
330
270
102
}
330
270
100
DictionaryVariables
280
     0
  1
15
  0
DICTIONARYVAR
  5
275
102
{ACAD_REACTORS
330
270
102
}
330
270
100
DictionaryVariables
280
     0
  1
0
  0
DICTIONARYVAR
  5
273
102
{ACAD_REACTORS
330
270
102
}
330
270
100
DictionaryVariables
280
     0
  1
0
  0
ACAD_PROXY_OBJECT
  5
20F
102
{ACAD_REACTORS
330
20E
102
}
330
20E
100
AcDbProxyObject
 90
      499
 91
      546
 71
    29
 97
      226
 70
     0
162
                 0
161
                84
310
90100057356C1DB7406AAC
 94
        0
  0
DICTIONARY
  5
21A
102
{ACAD_REACTORS
330
20E
102
}
330
20E
100
AcDbDictionary
281
     1
  3
ANSI
350
21B
  0
ACAD_PROXY_OBJECT
  5
1BE
330
0
100
AcDbProxyObject
 90
      499
 91
      511
 71
    29
 97
      226
 70
     0
162
               234
311
43904010C01340114014C016401340108013C0130014C01240168011400C
161
                34
310
000101420C
330
1BB
 94
        0
  0
ACAD_PROXY_OBJECT
  5
1C0
330
0
100
AcDbProxyObject
 90
      499
 91
      513
 71
    29
 97
      226
 70
     0
162
                74
311
41108013C013400C400C
161
                46
310
00010100AC00
330
1BB
330
0
330
0
 94
        0
  0
ACAD_PROXY_OBJECT
  5
1C4
330
0
100
AcDbProxyObject
 90
      499
 91
      517
 71
    29
 97
      226
 70
     0
162
               562
311
41190018401D001940109310034002E0030002E00340038002E00300041190018401D001940109310034002E0030002E00340038002E003000419040138014C012400CC00C400C
161
                92
310
00010101010140501000096C
330
1BB
330
1C5
330
1CB
 94
        0
  0
ACAD_PROXY_OBJECT
  5
1C5
330
0
100
AcDbProxyObject
 90
      499
 91
      518
 71
    29
 97
      226
 70
     0
162
                 0
161
                56
310
0001902422000056
330
1BB
330
1C6
330
1C8
 94
        0
  0
ACAD_PROXY_OBJECT
  5
1C6
330
0
100
AcDbProxyObject
 90
      499
 91
      519
 71
    29
 97
      226
 70
     0
162
                 0
161
                48
310
0001AA0000008D
330
1BB
330
1E
330
1C7
330
0
 94
        0
  0
ACAD_PROXY_OBJECT
  5
1C7
330
0
100
AcDbProxyObject
 90
      499
 91
      520
 71
    29
 97
      226
 70
     0
162
                 0
161
                28
310
0001AAAC
330
1BB
 94
        0
  0
ACAD_PROXY_OBJECT
  5
1C8
330
0
100
AcDbProxyObject
 90
      499
 91
      519
 71
    29
 97
      226
 70
     0
162
                 0
161
                48
310
0001AA000000D9
330
1BB
330
26
330
1C9
330
0
 94
        0
  0
ACAD_PROXY_OBJECT
  5
1C9
330
0
100
AcDbProxyObject
 90
      499
 91
      520
 71
    29
 97
      226
 70
     0
162
                 0
161
                28
310
0001AAAC
330
1BB
 94
        0
  0
ACAD_PROXY_OBJECT
  5
1CC
330
0
100
AcDbProxyObject
 90
      499
 91
      511
 71
    29
 97
      226
 70
     0
162
               138
311
42104013401200130010C01040130010C00C
161
                34
310
000101404C
330
1BB
 94
        0
  0
ACAD_PROXY_OBJECT
  5
1CD
330
0
100
AcDbProxyObject
 90
      499
 91
      511
 71
    29
 97
      226
 70
     0
162
               170
311
429040134014801140154014C011401100124013400C
161
                34
310
000101404C
330
1BB
 94
        0
  0
ACAD_PROXY_OBJECT
  5
1CE
330
0
100
AcDbProxyObject
 90
      499
 91
      511
 71
    29
 97
      226
 70
     0
162
               202
311
431040134014C0114010C01500124013C013801100124013400C
161
                26
310
0001018C
330
1BB
 94
        0
  0
ACAD_PROXY_OBJECT
  5
1CF
330
0
100
AcDbProxyObject
 90
      499
 91
      511
 71
    29
 97
      226
 70
     0
162
               170
311
429040134015801400108013C014801100114014800C
161
                34
310
000101404C
330
1BB
 94
        0
  0
ACAD_PROXY_OBJECT
  5
1D0
330
0
100
AcDbProxyObject
 90
      499
 91
      511
 71
    29
 97
      226
 70
     0
162
               170
311
4290401340110015C011C010C013C0130013C014800C
161
                26
310
0001018C
330
1BB
 94
        0
  0
ACAD_PROXY_OBJECT
  5
1D1
330
0
100
AcDbProxyObject
 90
      499
 91
      511
 71
    29
 97
      226
 70
     0
162
               218
311
435040134015801240114015C01480114011801480114014C012000C
161
                34
310
000101404C
330
1BB
 94
        0
  0
ACAD_PROXY_OBJECT
  5
1D2
330
0
100
AcDbProxyObject
 90
      499
 91
      511
 71
    29
 97
      226
 70
     0
162
               266
311
441040134010401380138013C01500114014001480114014C011401480158011400C
161
                34
310
000101404C
330
1BB
 94
        0
  0
ACAD_PROXY_OBJECT
  5
1D3
330
0
100
AcDbProxyObject
 90
      499
 91
      511
 71
    29
 97
      226
 70
     0
162
               266
311
441040134010401540150013C01100124013401040148014801040138011C011400C
161
                34
310
000101404C
330
1BB
 94
        0
  0
ACAD_PROXY_OBJECT
  5
1D4
330
0
100
AcDbProxyObject
 90
      499
 91
      511
 71
    29
 97
      226
 70
     0
162
               186
311
42D04013401140160015001480114011801100124013400C
161
                26
310
0001018C
330
1BB
 94
        0
  0
ACAD_PROXY_OBJECT
  5
1D5
330
0
100
AcDbProxyObject
 90
      499
 91
      511
 71
    29
 97
      226
 70
     0
162
               186
311
42D040134015001040140010401380138013C0150011400C
161
                34
310
000101404C
330
1BB
 94
        0
  0
ACAD_PROXY_OBJECT
  5
1D6
330
0
100
AcDbProxyObject
 90
      499
 91
      511
 71
    29
 97
      226
 70
     0
162
               138
311
421040134010401540150013C010C013000C
161
                34
310
000101404C
330
1BB
 94
        0
  0
ACAD_PROXY_OBJECT
  5
1D7
330
0
100
AcDbProxyObject
 90
      499
 91
      511
 71
    29
 97
      226
 70
     0
162
               138
311
421040134010C0130011801140104015000C
161
                34
310
000101414C
330
1BB
 94
        0
  0
ACAD_PROXY_OBJECT
  5
1D8
330
0
100
AcDbProxyObject
 90
      499
 91
      511
 71
    29
 97
      226
 70
     0
162
               138
311
421040134010C0130015801240114015C00C
161
                34
310
0001014FCC
330
1BB
 94
        0
  0
ACAD_PROXY_OBJECT
  5
1D9
330
0
100
AcDbProxyObject
 90
      499
 91
      511
 71
    29
 97
      226
 70
     0
162
               218
311
4350401340120012401100114016801140148013C01100124013400C
161
                34
310
000101404C
330
1BB
 94
        0
  0
ACAD_PROXY_OBJECT
  5
1DA
330
0
100
AcDbProxyObject
 90
      499
 91
      511
 71
    29
 97
      226
 70
     0
162
               170
311
429040134012001040150010C01200124014C013C00C
161
                34
310
000101404C
330
1BB
 94
        0
  0
ACAD_PROXY_OBJECT
  5
1DB
330
0
100
AcDbProxyObject
 90
      499
 91
      511
 71
    29
 97
      226
 70
     0
162
               234
311
439040134014C01240138011C0130011401200104015001300104016400C
161
                26
310
0001018C
330
1BB
 94
        0
  0
ACAD_PROXY_OBJECT
  5
1DC
330
0
100
AcDbProxyObject
 90
      499
 91
      511
 71
    29
 97
      226
 70
     0
162
               186
311
42D0401340110015C011C0118013001100124014C014000C
161
                26
310
0001018C
330
1BB
 94
        0
  0
ACAD_PROXY_OBJECT
  5
1DD
330
0
100
AcDbProxyObject
 90
      499
 91
      511
 71
    29
 97
      226
 70
     0
162
               138
311
421040134010401540150013C0120013800C
161
                26
310
0001018C
330
1BB
 94
        0
  0
ACAD_PROXY_OBJECT
  5
1DE
330
0
100
AcDbProxyObject
 90
      499
 91
      511
 71
    29
 97
      226
 70
     0
162
               154
311
42504013401200138010C013C01540138015000C
161
                34
310
000101404C
330
1BB
 94
        0
  0
ACAD_PROXY_OBJECT
  5
1DF
330
0
100
AcDbProxyObject
 90
      499
 91
      511
 71
    29
 97
      226
 70
     0
162
               138
311
4210401340120013801400148013C012800C
161
                34
310
000101404C
330
1BB
 94
        0
  0
ACAD_PROXY_OBJECT
  5
1E0
330
0
100
AcDbProxyObject
 90
      499
 91
      511
 71
    29
 97
      226
 70
     0
162
               138
311
42104013401200138015001640140011400C
161
                34
310
00010141CC
330
1BB
 94
        0
  0
ACAD_PROXY_OBJECT
  5
1E1
330
0
100
AcDbProxyObject
 90
      499
 91
      511
 71
    29
 97
      226
 70
     0
162
               138
311
42104013401200138015801240114015C00C
161
                34
310
00010143CC
330
1BB
 94
        0
  0
ACAD_PROXY_OBJECT
  5
1E2
330
0
100
AcDbProxyObject
 90
      499
 91
      511
 71
    29
 97
      226
 70
     0
162
               218
311
435040134014C0114010C01500124013C0138010C013C0140016400C
161
                26
310
0001018C
330
1BB
 94
        0
  0
ACAD_PROXY_OBJECT
  5
1E3
330
0
100
AcDbProxyObject
 90
      499
 91
      511
 71
    29
 97
      226
 70
     0
162
               138
311
421040134010C013001400148013C012800C
161
                34
310
00010140CC
330
1BB
 94
        0
  0
ACAD_PROXY_OBJECT
  5
1E4
330
0
100
AcDbProxyObject
 90
      499
 91
      522
 71
    29
 97
      226
 70
     0
162
               234
311
439040134010401540150013C012001040150010C01200148013C015000C
161
                90
310
0001010000000000000B900C
330
1BB
 94
        0
  0
ACAD_PROXY_OBJECT
  5
1E5
330
0
100
AcDbProxyObject
 90
      499
 91
      511
 71
    29
 97
      226
 70
     0
162
               234
311
439040134010401540150013C012001040150010C012001100114015000C
161
                34
310
000101404C
330
1BB
 94
        0
  0
ACAD_PROXY_OBJECT
  5
1F4
330
0
100
AcDbProxyObject
 90
      499
 91
      531
 71
    29
 97
      226
 70
     0
162
               212
311
421040134010C01540148014C01500110010441004E0053004900C
161
                32
310
000101016F
330
1BB
 94
        0
  0
ACAD_PROXY_OBJECT
  5
1F6
330
0
100
AcDbProxyObject
 90
      499
 91
      533
 71
    29
 97
      226
 70
     0
162
              1192
311
4795C019401900080012801D401B8008000C400E4008000C000C800E800D400E000E800D000C0008000C800C000C400CC008000A001540150010C00A40109310034002E0030002E00340038002E0030004615C019401900080012801D401B8008000C400E4008000C400C800E800D400E400E800C000DC008000C800C000C4
311
00CC0109310034002E0030002E00340038002E00300000
161
               114
310
0001000000009AA6A9AA404040404C
330
1BB
330
1F7
330
1F8
330
1FA
330
0
 94
        0
  0
ACAD_PROXY_OBJECT
  5
1F7
330
0
100
AcDbProxyObject
 90
      499
 91
      534
 71
    29
 97
      226
 70
     0
162
                 0
161
                70
310
0001AAA80820000000
330
1BB
330
1F7
330
1F7
 94
        0
  0
ACAD_PROXY_OBJECT
  5
1F8
330
0
100
AcDbProxyObject
 90
      499
 91
      535
 71
    29
 97
      226
 70
     0
162
                 0
161
                48
310
0001000000002E
330
1BB
330
0
330
1F9
330
0
330
0
 94
        0
  0
ACAD_PROXY_OBJECT
  5
1F9
330
0
100
AcDbProxyObject
 90
      499
 91
      536
 71
    29
 97
      226
 70
     0
162
                 0
161
                40
310
000100AAAA54
330
1BB
330
0
 94
        0
  0
ACAD_PROXY_OBJECT
  5
1FF
330
0
100
AcDbProxyObject
 90
      499
 91
      531
 71
    29
 97
      226
 70
     0
162
               276
311
431040104010C013C01340140011001180138010401340114010443004F004D005000C
161
                32
310
0001010131
330
1BB
 94
        0
  0
ACAD_PROXY_OBJECT
  5
200
330
0
100
AcDbProxyObject
 90
      499
 91
      531
 71
    29
 97
      226
 70
     0
162
               340
311
4390401040118013C0130011001140148011001180138010401340114010646006F006C00640065007200C
161
                32
310
0001010153
330
1BB
 94
        0
  0
ACAD_PROXY_OBJECT
  5
201
330
0
100
AcDbProxyObject
 90
      499
 91
      531
 71
    29
 97
      226
 70
     0
162
               260
311
431040104010401380138013C01100118013801040134011401035F0041005600C
161
                32
310
0001010130
330
1BB
 94
        0
  0
ACAD_PROXY_OBJECT
  5
202
330
0
100
AcDbProxyObject
 90
      499
 91
      531
 71
    29
 97
      226
 70
     0
162
               756
311
439040104010C013C01340140015801240114015C01300124014C0150012054006F0070000A00460072006F006E0074000A00520069006700680074000A004C006500660074000A0042006F00740074006F006D000A004100750078003100C
161
                32
310
0001010100
330
1BB
 94
        0
  0
ACAD_PROXY_OBJECT
  5
203
330
0
100
AcDbProxyObject
 90
      499
 91
      511
 71
    29
 97
      226
 70
     0
162
               234
311
439040134014C014C0150014801040130015C01040164014C013C013800C
161
                26
310
0001018C
330
1BB
 94
        0
  0
ACAD_PROXY_OBJECT
  5
208
330
0
100
AcDbProxyObject
 90
      499
 91
      541
 71
    29
 97
      226
 70
     0
162
                 0
161
                32
310
0001000000
330
1BB
340
205
330
209
330
205
 94
        0
  0
ACAD_PROXY_OBJECT
  5
209
330
0
100
AcDbProxyObject
 90
      499
 91
      542
 71
    29
 97
      226
 70
     0
162
               266
311
4410401480104013801040080014801040138011C0114008000C800C000C400CC00C
161
                80
310
00010141401550055400F2
330
1BB
330
208
330
0
 94
        0
  0
ACAD_PROXY_OBJECT
  5
20A
330
0
100
AcDbProxyObject
 90
      499
 91
      543
 71
    29
 97
      226
 70
     0
162
                 0
161
               178
310
000100AAAAAA8EF1D23F62DE9C11A13B5D9AC116B6060C
330
1BB
330
209
 94
        0
  0
ACAD_PROXY_OBJECT
  5
20B
330
0
100
AcDbProxyObject
 90
      499
 91
      544
 71
    29
 97
      226
 70
     0
162
                 0
161
               108
310
0001901422000000000000AAAAAC
330
1BB
330
20C
330
20C
330
20C
330
20C
330
20C
330
0
 94
        0
  0
ACAD_PROXY_OBJECT
  5
20C
330
0
100
AcDbProxyObject
 90
      499
 91
      545
 71
    29
 97
      226
 70
     0
162
                 0
161
                51
310
00010000AAAA8C
330
1BB
330
20B
330
209
 94
        0
  0
DICTIONARY
  5
1B5
102
{ACAD_REACTORS
330
1B4
102
}
330
1B4
100
AcDbDictionary
281
     1
  3
DWGSETTINGS
350
1B6
  3
TRANSSETTINGS
350
1B7
  0
ACAD_PROXY_OBJECT
  5
22E
102
{ACAD_REACTORS
330
1B4
102
}
330
1B4
100
AcDbProxyObject
 90
      499
 91
      570
 71
    29
 97
      226
 70
     0
162
             15824
311
404C0010441004D005F0030009013100411040134017C00C402404C8010441004D005F0032009013300411040134017C00CC02404D0010441004D005F0034009013500411040134017C00D402404D8010441004D005F0036009013700411040134017C00DC02404E0010441004D005F0038009013900411040134017C00E40
311
2408C80104010541004D005F003100300090234004100415040134017C00C400C402409240140010541004D005F003100320090230004E00415040134017C00C0013802408C40138010541004D005F0031004E0090232004E00415040134017C00C8013802408CC0138010541004D005F0033004E0090234004E0041504013
311
4017C00D0013802408D40138010541004D005F0035004E0090236004E00415040134017C00D8013802408DC0138010541004D005F0037004E0090238004E00415040134017C00E0013802408E40138010541004D005F0039004E00903320041004E00419040134017C00C400C001380240CD001040138010641004D005F003
311
10031004E00903490050004E00419040134017C00C400C80138024112C013001240138010541004D005F0043004C0090449004E0046004F00421040134017C01400104014801140118024154801040120013400D4010641004D005F0042004F0052009045600490045005700421040134017C015801240114015C014C02419
311
0801140120012401380110010641004D005F0049004E00560090554005200410049004C00415040134017C015001480240D2001240110010641004D005F00480049004400903560049005300419040134017C01580124014C024194001040148011001240134010941004D005F00500041005200440049004D009065200450
311
04600440049004D00425040134017C01480114011801100124013402411080120013801580101390041508012001380158014C010642004500480049004E00440041108013C014800C801055200410048004D00350041108013C014800CC01055200410048004D00350041108013C014800D401055200410048004D0035004
311
110C0104013000C8010134004110C0104013000CC010134004110C0104013000D4010134004110C0104013000DC010134004110C011401380138010137004110C01140138015C010137004110C01300124013801044B004C0049004E004110C013C013800C4010130004110C013C013800C8010131004110C013C013800CC0
311
10132004110C013C013800D00101320041110011401500104010134004111001240104011C010135004111001240130012401013500411100124013401400106500041005200440049004D00411100124013401480106520045004600440049004D00411180114013401380101380041518011401340140013801013800415
311
1801140134014C01400102340041004151801140134014C015001023400410041518011401340158013801013200415180114013401580150010132004112001040150010C0101380041120012401100138010133004112001240110015C01013300411200130012401380101340041120013C010C01380101370041120013
311
C010C015C010137004112401380118013C010449004E0046004F00411300114010401100101350041938017C0108012001380158010239004E0041938017C010C013C013800C4010230004E0041938017C010C013C013800C8010231004E0041938017C010C013C013800CC010232004E0041938017C010C013C013800D001
311
0232004E0041938017C010C011401380138010237004E0041938017C010C01140138015C010237004E0041938017C0110012401300124010235004E0041938017C012001040150010C010238004E0041938017C0120012401100138010233004E0041938017C012001240110015C010233004E0041938017C0130011401040
311
110010235004E0041938017C0138011C012401400103490050004E0041938017C01400120010401380103340041004E0041938017C0150010C013C0138010230004E0041938017C0150012001300124010234004E0041938017C0150013001140138010230004E0041938017C01580140013001240103320041004E0041138
311
011C01240140010249005000411400104013000C801055200410048004D003500411400104013000CC01055200410048004D003500411400104013000D401055200410048004D0035004114001200104013801023400410041140013C014C01380101350041148010C011C01380101370041148010C011C015C01013700411
311
4C01080148012C010134004114C0114010C0150010134004114C0164010800CC0101350041134014C016401340101350041150010C013C0138010130004115001200130012401013400411500124015000C801055200410048004D003500411500124015000CC01055200410048004D003500411500124015000D401055200
311
410048004D0035004115001300114013801013000415500148010401240130010554005200410049004C004115001480130012401013400411500160015000C401013600411500160015000C801013600411500160015000CC01013600411500160015000D401013600411500160015000DC010136004115801240114015C0
311
1045600490045005700411580114011001200103480049004400411580114011001580103560049005300411580140013001240102320041004116801240168010401013400404FC0215
161
              8940
310
4210349201C00030C011E44203800030C011E44201400030C011E44201800030C010FA17000030C010FA17000030C010FA23000030C011EA23800030C010FA00400030C010FA3F400030C0241201C00030C011EA17000030C010FA01C00030C011E40A01C00030C011EA03800030C011EA01400030C011EA01800030C010FA
310
17000030C010FA17000030C010FA23000030C011EA23800030C010FA00400030C010FA3F400030C0241201C00030C011EA17000030C010FA01C00030C011E40A00400030C010F42623800030C010F42E01C00030C011E42600400030C010F42E3F400030C0243617000030C010F42601C00030C010F42601C00030C011E426
310
17000030C010F42623800030C010F425538000000C0003FFFFFFFE8000000C0003FFFFFFFE8010000C30043E88C0000C30047A8000000C0003FFFFFFFE8000000C0003FFFFFFFE88C0000C30047A8070000C30047A81E0000C3004F28000000C0003FFFFFFFE8000000C0003FFFFFFFE8000000C0003FFFFFFFE8000000C00
310
03FFFFFFFD038000000C0003FFFFFFFD038000000C0003FFFFFFFD038000000C0003FFFFFFFD038000000C0003FFFFFFFE8000000C0003FFFFFFFE8000000C0003FFFFFFFE8000000C0003FFFFFFFE8000000C0003FFFFFFFE8000000C0003FFFFFFFE85C0000C3003FFFFFFFE8000000C0003FFFFFFFE85C0000C30043E80
310
00000C0003FFFFFFFE85C0000C30043E8000000C0003FFFFFFFD018000000C0003FFFFFFFD038000000C0003FFFFFFFD038000000C0003FFFFFFFD018000000C0003FFFFFFFE8000000C0003FFFFFFFE8000000C0003FFFFFFFE8000000C0003FFFFFFFE8000000C0003FFFFFFFE8000000C0003FFFFFFFD038000000C0003
310
FFFFFFFD038000000C0003FFFFFFFD038000000C0003FFFFFFFD038000000C0003FFFFFFFE8000000C0003FFFFFFFE8000000C0003FFFFFFFE8000000C0003FFFFFFFD018000000C0003FFFFFFFD038000000C0003FFFFFFFD038000000C0003FFFFFFFE8000000C0003FFFFFFFE8000000C0003FFFFFFFE8000000C0003FF
310
FFFFFD038000000C0003FFFFFFFD018000000C0003FFFFFFFD038000000C0003FFFFFFFE8000000C0003FFFFFFFE8010000C3003FFFFFFFE88C0000C3003FFFFFFFE8070000C3003FFFFFFFE8000000C0003FFFFFFFE8000000C0003FFFFFFFE8000000C0003FFFFFFFE8000000C0003FFFFFFFE8070000C30047901800000
310
0C0003FFFFFFFD0188C0000C30047A88C0000C3003FFFFFFFE8000000C0003FFFFFFFD038000000C0003FFFFFFFD018010000C30043E88C0000C30047A8000000C0003FFFFFFFE8000000C0003FFFFFFFD038000000C0003FFFFFFFE8000000C0003FFFFFFFD0185C0000C30043E85C0000C30043E8000000C0003FFFFFFFE
310
8070000C30047A81E0000C3004F28000000C0003FFFFFFFE8000000C0003FFFFFFFD028000000C0003FFFFFFFD028000000C0003FFFFFFFE8000000C0003FFFFFFFD01AAA3F400030C010A4391E41D1E4190F4151E4110F40D0F4091E4050F4793C7F680200C
340
16
340
16
340
16
340
1E6
340
16
340
16
340
16
340
1E8
340
16
340
16
340
1E7
340
1E7
340
16
340
16
340
16
340
16
340
1E6
340
16
340
16
340
16
340
1E8
340
16
340
16
340
1E7
340
1E7
340
16
340
232
340
16
340
16
340
16
340
16
340
16
340
1E6
340
16
340
16
340
16
340
15
340
15
340
15
340
15
340
15
340
15
340
15
340
15
340
15
340
238
340
15
340
15
340
15
340
15
340
15
340
15
340
16
340
15
340
15
340
15
340
15
340
15
340
15
340
16
340
15
340
15
340
15
340
15
340
239
340
15
340
15
340
238
340
15
340
15
340
15
340
15
340
15
340
15
340
15
340
15
340
238
340
15
340
15
340
15
340
239
340
15
340
15
340
15
340
15
340
15
340
239
340
15
340
15
340
15
340
16
340
16
340
16
340
15
340
15
340
238
340
15
340
15
340
15
340
15
340
15
340
15
340
239
340
15
340
15
340
15
340
15
340
15
340
15
340
15
340
15
340
15
340
15
340
15
340
15
340
15
340
15
340
15
340
23A
 94
        0
  0
ACAD_PROXY_OBJECT
  5
257
102
{ACAD_REACTORS
330
252
102
}
330
252
100
AcDbProxyObject
 90
      499
 91
      574
 71
    29
 97
      226
 70
     0
162
               434
311
451100124013401140138014C0124013C013800B00104013401100150017C00A8017C01100124013401012A00404A801012A00404A800C
161
                11
310
43EC
 94
        0
  0
ACAD_PROXY_OBJECT
  5
256
102
{ACAD_REACTORS
330
252
102
}
330
252
100
AcDbProxyObject
 90
      499
 91
      574
 71
    29
 97
      226
 70
     0
162
               290
311
404A8010B41004D005F004600450041002D0041004D005F002A00404A801012A00404A800C
161
                11
310
43EC
 94
        0
  0
ACAD_PROXY_OBJECT
  5
253
102
{ACAD_REACTORS
330
252
102
}
330
252
100
AcDbProxyObject
 90
      499
 91
      574
 71
    29
 97
      226
 70
     0
162
               194
311
4152001040150010C012001012A00404A801012A00404A800C
161
                11
310
43EC
 94
        0
  0
ACAD_PROXY_OBJECT
  5
254
102
{ACAD_REACTORS
330
252
102
}
330
252
100
AcDbProxyObject
 90
      499
 91
      574
 71
    29
 97
      226
 70
     0
162
              1026
311
41130012401380114012738002C0038004E002C002A002D0038002C002A002D0038004E002C0041004D005F0038002C0041004D005F0038004E002C002A002D0041004D005F0038002C002A002D0041004D005F0038004E00404A801012A00441240138014C01140148015000B0014C01500110014001040148015000C8011
311
000C
161
                11
310
43EC
 94
        0
  0
ACAD_PROXY_OBJECT
  5
258
102
{ACAD_REACTORS
330
252
102
}
330
252
100
AcDbProxyObject
 90
      499
 91
      574
 71
    29
 97
      226
 70
     0
162
               290
311
40D040148010C010441004D005F003500404A801013200419240138014C01140148015000C
161
                11
310
43CC
 94
        0
  0
ACAD_PROXY_OBJECT
  5
255
102
{ACAD_REACTORS
330
252
102
}
330
252
100
AcDbProxyObject
 90
      499
 91
      574
 71
    29
 97
      226
 70
     0
162
              2242
311
61504010C01340118010C0118014801040134011400B00104010C013401100104015001540134015001040148011C0114015000B00104010C0134011001040150015401340124011000B00104010C0134015C011401300110014C0164013400B00104010C0134014C015401480118014C0164013400B00104010C013401180
311
114010401500124011000B00104010C0134014001040148015001480114011800B00104010C01340108010401300130013C013C013800B0010401340110015001140110011C0114014C0164013400B001040134011C014C010C01480114015C010C01040130010C0150010401080130011400B00104010C013401340104014
311
8012C014C015001040134014001012A00404A801012A00404A800C
161
                11
310
43EC
 94
        0
  0
DICTIONARY
  5
26E
330
22
100
AcDbDictionary
280
     1
281
     1
  0
DICTIONARY
  5
178
330
177
100
AcDbDictionary
280
     1
281
     1
  3
BUMPTILE
360
17A
  3
DIFFUSETILE
360
179
  3
OPACITYTILE
360
17D
  3
REFLECTIONTILE
360
17C
  3
REFRACTIONTILE
360
17E
  3
SPECULARTILE
360
17B
  0
DICTIONARY
  5
170
330
16F
100
AcDbDictionary
280
     1
281
     1
  3
BUMPTILE
360
172
  3
DIFFUSETILE
360
171
  3
OPACITYTILE
360
175
  3
REFLECTIONTILE
360
174
  3
REFRACTIONTILE
360
176
  3
SPECULARTILE
360
173
  0
DICTIONARY
  5
180
330
17F
100
AcDbDictionary
280
     1
281
     1
  3
BUMPTILE
360
182
  3
DIFFUSETILE
360
181
  3
OPACITYTILE
360
185
  3
REFLECTIONTILE
360
184
  3
REFRACTIONTILE
360
186
  3
SPECULARTILE
360
183
  0
DICTIONARY
  5
4F0
330
18B
100
AcDbDictionary
280
     1
281
     1
  3
ACAD_ROUNDTRIP_2008_TABLESTYLE_CELLSTYLEMAP
360
4F1
  0
ACAD_PROXY_OBJECT
  5
21B
102
{ACAD_REACTORS
330
21A
102
}
330
21A
100
AcDbProxyObject
 90
      499
 91
      554
 71
    29
 97
      226
 70
     0
162
              3734
311
411040138014C01240243904018C01B4014C01D401C801980150019401E001D0014C01D001900109410063006D0046004300460053007400640043504018C01B4015C019401B0019001A401B8019C014C01D001900108410063006D004900640053007400640042D04018C01B40110018401D001D401B4014C01D001900109
311
410063006D0042004F004D005300740064004410401B4019001D00110019401D0018401A401B0014C01E401B4014C01D00190011141006D0064007400530065006300740069006F006E00530079006D005300740064004450401B4019001D0010C019401B801D0019401C8013001A401B80194014C01D00190011141006D00
311
640074005400680072006500610064004C0069006E00650053007400640042D0401B4019001D0013801BC01D00194014C01D00190010B410063006D00540061007000650072005300740064004350401B4019001D0010401B8015801A4019401DC014C01D00190010B4100630041006D0067004C0061007900530074006400
311
42D04018C010401B4019C011001A401B4014C01D0019001114100630041006D00670048006F006C0065004300680061007200740053007400640043504018C010401B4019C015001A401D001B00194014C01D0019000
161
               725
310
6DCB81E85EB51B8BE3F8000000C00040540623000030C0200000030000B81E85EB51B8BE3F495222812028120281202812028120281202812028120281202812028120281202812028120281202812028120280A04809FFFE7FFFC
340
11
360
21C
360
21D
360
21E
360
21F
360
220
360
221
360
222
360
223
360
224
360
225
360
226
360
227
360
228
360
229
360
22A
360
244
360
245
340
22B
340
0
340
15
340
15
 94
        0
  0
ACAD_PROXY_OBJECT
  5
1B6
102
{ACAD_REACTORS
330
1B5
102
}
330
1B5
100
AcDbProxyObject
 90
      499
 91
      507
 71
    29
 97
      226
 70
     0
162
              4140
311
42D10015C011C014C01140150015001240138011C014C0109430041004E00470041005200520041005900420CC00C001F000D000D401F000D800C00106430045004E0041004E004700424D000D401F000E400C001F000C400CC00D40106430045004E0044004900410041D0C01140138011001240104014C010B30002E0035
311
007C0031002E0030007C0031002E00350041D0C0114013801100124014C01500106430045004E004C0045004E004190C01140138013C01180118010E4300480041004D00460045005200440049004D004D004F00440045004550C0120010401340118011401480110012401340134013C01100114011001140118010401540
311
1300150010943004C0049004E0041005200520041005900438C000B800C400C800D401F000C000B800C800D401F000C000B800D4010843004C0049004E004500540059005000415600130012401380114010944005700470055005300430041004C00450041D300104014C0150013C0108012801013000421340104012C011
311
4015801240114015C010650005300430041004C00450041948011401580124014C0124010130004154C010C010401300114010331003A00310042550012401340114014C01500104013401400107560045005200530049004F004E00414C400D400B800C000C001107B00440057004700530045005400540049004E0047005
311
30045004E0044007D00C
161
               572
310
40682A0A940000000000001C07E82A50000000000000601FA50000000000000701FA50000000000000701FA7F27F20A82A50A0A9FA040C0080001054152825DC40ECACCC9CD0505C
 94
        0
  0
ACAD_PROXY_OBJECT
  5
1B7
102
{ACAD_REACTORS
330
1B5
102
}
330
1B5
100
AcDbProxyObject
 90
      499
 91
      507
 71
    29
 97
      226
 70
     0
162
              1382
311
43550014801040138014C014C01140150015001240138011C014C0112440052004100570049004E0047005400520041004E0053004C004100540049004F004E004353C01480124011C012401380104013001300164017C013C0138010A53004F0055005200430045004C0041004E00470040D1401380154010955005000520
311
0450053004500520056004500441EC0110015C011C014C01140150015001240138011C014C01140138011001F400
161
               126
310
4060C00800041801000020A0C0080000
 94
        0
  0
XRECORD
  5
17A
102
{ACAD_REACTORS
330
178
102
}
330
178
100
AcDbXrecord
280
     1
270
     1
271
     1
  0
XRECORD
  5
179
102
{ACAD_REACTORS
330
178
102
}
330
178
100
AcDbXrecord
280
     1
270
     1
271
     1
  0
XRECORD
  5
17D
102
{ACAD_REACTORS
330
178
102
}
330
178
100
AcDbXrecord
280
     1
270
     1
271
     1
  0
XRECORD
  5
17C
102
{ACAD_REACTORS
330
178
102
}
330
178
100
AcDbXrecord
280
     1
270
     1
271
     1
  0
XRECORD
  5
17E
102
{ACAD_REACTORS
330
178
102
}
330
178
100
AcDbXrecord
280
     1
270
     1
271
     1
  0
XRECORD
  5
17B
102
{ACAD_REACTORS
330
178
102
}
330
178
100
AcDbXrecord
280
     1
270
     1
271
     1
  0
XRECORD
  5
172
102
{ACAD_REACTORS
330
170
102
}
330
170
100
AcDbXrecord
280
     1
270
     1
271
     1
  0
XRECORD
  5
171
102
{ACAD_REACTORS
330
170
102
}
330
170
100
AcDbXrecord
280
     1
270
     1
271
     1
  0
XRECORD
  5
175
102
{ACAD_REACTORS
330
170
102
}
330
170
100
AcDbXrecord
280
     1
270
     1
271
     1
  0
XRECORD
  5
174
102
{ACAD_REACTORS
330
170
102
}
330
170
100
AcDbXrecord
280
     1
270
     1
271
     1
  0
XRECORD
  5
176
102
{ACAD_REACTORS
330
170
102
}
330
170
100
AcDbXrecord
280
     1
270
     1
271
     1
  0
XRECORD
  5
173
102
{ACAD_REACTORS
330
170
102
}
330
170
100
AcDbXrecord
280
     1
270
     1
271
     1
  0
XRECORD
  5
182
102
{ACAD_REACTORS
330
180
102
}
330
180
100
AcDbXrecord
280
     1
270
     1
271
     1
  0
XRECORD
  5
181
102
{ACAD_REACTORS
330
180
102
}
330
180
100
AcDbXrecord
280
     1
270
     1
271
     1
  0
XRECORD
  5
185
102
{ACAD_REACTORS
330
180
102
}
330
180
100
AcDbXrecord
280
     1
270
     1
271
     1
  0
XRECORD
  5
184
102
{ACAD_REACTORS
330
180
102
}
330
180
100
AcDbXrecord
280
     1
270
     1
271
     1
  0
XRECORD
  5
186
102
{ACAD_REACTORS
330
180
102
}
330
180
100
AcDbXrecord
280
     1
270
     1
271
     1
  0
XRECORD
  5
183
102
{ACAD_REACTORS
330
180
102
}
330
180
100
AcDbXrecord
280
     1
270
     1
271
     1
  0
CELLSTYLEMAP
  5
4F1
102
{ACAD_REACTORS
330
4F0
102
}
330
4F0
100
AcDbCellStyleMap
 90
        3
300
CELLSTYLE
  1
TABLEFORMAT_BEGIN
 90
        5
170
     1
 91
        0
 92
    32768
 62
   257
 93
        1
300
CONTENTFORMAT
  1
CONTENTFORMAT_BEGIN
 90
        0
 91
        0
 92
      512
 93
        0
300

 40
0.0
140
1.0
 94
        5
 62
     0
340
11
144
0.25
309
CONTENTFORMAT_END
171
     0
 94
        0
309
TABLEFORMAT_END
  1
CELLSTYLE_BEGIN
 90
        1
 91
        1
300
_TITLE
309
CELLSTYLE_END
300
CELLSTYLE
  1
TABLEFORMAT_BEGIN
 90
        5
170
     1
 91
        0
 92
        0
 62
   257
 93
        1
300
CONTENTFORMAT
  1
CONTENTFORMAT_BEGIN
 90
        0
 91
        0
 92
      512
 93
        0
300

 40
0.0
140
1.0
 94
        5
 62
     0
340
11
144
0.18
309
CONTENTFORMAT_END
171
     0
 94
        0
309
TABLEFORMAT_END
  1
CELLSTYLE_BEGIN
 90
        2
 91
        1
300
_HEADER
309
CELLSTYLE_END
300
CELLSTYLE
  1
TABLEFORMAT_BEGIN
 90
        5
170
     1
 91
        0
 92
        0
 62
   257
 93
        1
300
CONTENTFORMAT
  1
CONTENTFORMAT_BEGIN
 90
        0
 91
        0
 92
      512
 93
        0
300

 40
0.0
140
1.0
 94
        2
 62
     0
340
11
144
0.18
309
CONTENTFORMAT_END
171
     0
 94
        0
309
TABLEFORMAT_END
  1
CELLSTYLE_BEGIN
 90
        3
 91
        2
300
_DATA
309
CELLSTYLE_END
  0
ACAD_PROXY_OBJECT
  5
21C
330
21B
100
AcDbProxyObject
 90
      499
 91
      555
 71
    29
 97
      226
 70
     0
162
                 0
161
               423
310
6DCB81E85EB51B8BE3F2E07A17AD46E2F8FE23000030C02000000300012AF841D01405014050140501083C80A0481A0882A0D55554
 94
        0
  0
ACAD_PROXY_OBJECT
  5
21D
330
21B
100
AcDbProxyObject
 90
      499
 91
      556
 71
    29
 97
      226
 70
     0
162
                 0
161
               567
310
6DCB81E85EB51B8BE3F2E07A17AD46E2F8FE23000030C02000000300012AFA1C80A0280A0280A0280A0280A0280A0280A0284A0280A0280A0280A0280A02400000000000000080
340
247
 94
        0
  0
ACAD_PROXY_OBJECT
  5
21E
330
21B
100
AcDbProxyObject
 90
      499
 91
      557
 71
    29
 97
      226
 70
     0
162
                 0
161
               648
310
6DCB81E85EB51B8BE3F2E07A17AD46E2F8FE23000030C02000000300012AF98333333333333D33F24080A0280A0280A0280A0280A0280A0280A0280A0280A0280A0280A0280A0280A0280A0280A0280A0200
340
0
 94
        0
  0
ACAD_PROXY_OBJECT
  5
21F
330
21B
100
AcDbProxyObject
 90
      499
 91
      558
 71
    29
 97
      226
 70
     0
162
                 0
161
               245
310
6DCB81E85EB51B8BE3F2E07A17AD46E2F8FE23000030C02000000300012AFC
 94
        0
  0
ACAD_PROXY_OBJECT
  5
220
330
21B
100
AcDbProxyObject
 90
      499
 91
      559
 71
    29
 97
      226
 70
     0
162
                 0
161
               492
310
6DCB81E85EB51B8BE3F2E07A17AD46E2F8FE23000030C02000000300012AFC521D4454FB21E93F26A6666666666E4FE89A9999999999B93F88C0000C300C
340
248
340
249
 94
        0
  0
ACAD_PROXY_OBJECT
  5
221
330
21B
100
AcDbProxyObject
 90
      499
 91
      560
 71
    29
 97
      226
 70
     0
162
             23548
311
4112401500114013401044900540045004D004CD1C01140138015001480104010C013C00B001140138015400B000C000B0012401500114013400B0011C011401380150014801040150016000B0009401CC00B000A0011C011401380134014C011C0080019C019401B8019001DC019C008000C800C800C800A4029035100540
311
0590040D44015001640132470045004E0054005200410043004F002C0045004E0055002C0030002C005100540059002C00470045004E00540052004100540058002C00250073002C002800470045004E004D00530047002000670065006E0064007700670020003200320033002900A4113801040134011401044E0041004D
311
0045004CD1C01140138015001480104010C013C00B001140138015400B000C000B0013801040134011400B0011C011401380150014801040150016000B0009401CC00B000A0011C011401380134014C011C0080019C019401B8019001DC019C008000C800C800D800A4012C3D004900460028004900530042004C0041004E0
311
04B00280050004100520054003A004E0041004D00450029002C0042004C004F0043004B003A004E0041004D0045002C0050004100520054003A004E0041004D00450029009054400450053004300520042D100114014C010C01480124014001500124013C0138013A470045004E0054005200410043004F002C0045004E005
311
5002C0030002C004400450053004300520049005000540049004F004E002C00470045004E00540052004100540058002C00250073002C002800470045004E004D00530047002000670065006E0064007700670020003200310037002900A4214C015001040138011001040148011001085300540041004E004400410052004
311
4004DD1C01140138015001480104010C013C00B001140138015400B000C000B0014C015001040138011001040148011000B0011C011401380150014801040150016000B0009401CC00B000A0011C011401380134014C011C0080019C019401B8019001DC019C008000C800C400E000A4029084D00410054004500520049004
311
1004C004213401040150011401480124010401300137470045004E0054005200410043004F002C0045004E0055002C0030002C004D004100540045005200490041004C002C00470045004E00540052004100540058002C00250073002C002800470045004E004D00530047002000670065006E006400770067002000320032
311
0031002900A41138013C0150011401044E004F00540045004CD1C01140138015001480104010C013C00B001140138015400B000C000B00138013C0150011400B0011C011401380150014801040150016000B0009401CC00B000A0011C011401380134014C011C0080019C019401B8019001DC019C008000C800C800D400A40
311
2906560045004E0044004F00520041958011401380110013C01480135470045004E0054005200410043004F002C0045004E0055002C0030002C00560045004E0044004F0052002C00470045004E00540052004100540058002C00250073002C002800470045004E004D00530047002000670065006E0064007700670020003
311
200320034002900A419100114014C010C014800C8010D4400450053004300520049005000540049004F004E00200032004ED1C01140138015001480104010C013C00B001140138015400B000C000B001100114014C010C01480124014001500124013C0138008000C800B0011C011401380150014801040150016000B00094
311
01CC00B000A0011C011401380134014C011C0080019C019401B8019001DC019C008000CC00D800A4029095300540041004E00440041005200440032004294C0150010401380110010401480110008000C80139470045004E0054005200410043004F002C0045004E0055002C0030002C005300540041004E00440041005200
311
4400200032002C00470045004E00540052004100540058002C00250073002C002800470045004E004D00530047002000670065006E0064007700670020003200320030002900A42534010401500114014801240104013000C8010A4D004100540045005200490041004C00200032004E11C01140138015001480104010C013
311
C00B001140138015400B000C000B001340104015001140148012401040130008000C800B0011C011401380150014801040150016000B0009401CC00B000A0011C011401380134014C011C0080019C019401B8019001DC019C008000D000C000A4029044D00410053005300411340104014C014C0132470045004E005400520
311
0410043004F002C0045004E0055002C0030002C004D004100530053002C00470045004E00540052004100540058002C00250073002C002800470045004E004D00530047002000670065006E006400770067002000340032002900A4154001480124010C01140105500052004900430045004CD1C0114013801500148010401
311
0C013C00B001140138015400B000C000B0014001480124010C011400B0011C011401380150014801040150016000B0009401CC00B000A0011C011401380134014C011C0080019C019401B8019001DC019C008000D000CC00A402903440049004D0042D3401140104014C01540148011401340114013801500139470045004E
311
0054005200410043004F002C0045004E0055002C0030002C004D004500410053005500520045004D0045004E0054002C00470045004E00540052004100540058002C00250073002C002800470045004E004D00530047002000670065006E006400770067002000340034002900A42508013C0134017C015401380124015001
311
4C010555004E004900540053004D11C01140138015001480104010C013C00B001140138015400B000C000B00154013801240150014C00B0011C011401380150014801040150016000B0009401CC00B000A0011C011401380134014C011C0080019C019401B8019001DC019C008000C800D000CC00A4029073D003C00490054
311
0045004D003E0041CF400F0012401500114013400F801073D003C004900540045004D003E0041CF400F0012401500114013400F801073D003C004900540045004D003E00418F400F001440150016400F801073D003C004900540045004D003E0041CF400F0012401500114013400F802AAA404C40242D94018400240194018
311
4002401140184018C01A000280115730071006D000900730071006D00090053007100750061007200650020004D0065007400650072000A00471CC01C4018C01B4002401CC01C4018C01B40024014C01C401D4018401C801940080010C019401B801D001A401B4019401D0019401C800280116730071006600740009007300
311
7100660074000900530071007500610072006500200046006F006F0074000A00451CC01C401A401B8002401CC01C401A401B80024014C01C401D4018401C801940080012401B80028010F670061006C000900670061006C000900470061006C006C006F006E000A00431C401D0002401C401D00024014401D4018401C801D0
311
0028011B6C00710064005F006F007A0009006C00710064005F006F007A0009004C006900710075006900640020004F0075006E00630065000A00429B0002401B00024013001A401D0019401C8002801116D006C0009006D006C0009004D0069006C006C0069006C0069007400650072000A0042DE40190002401E401900024
311
0164018401C801900028010B66007400090066007400090046006F006F0074000A0042DA401B8002401A401B80024012401B8018C01A00028010A6D0009006D0009004D0065007400650072000A004458C01B40024018C01B40024010C019401B801D001A401B4019401D0019401C8002801116D006D0009006D006D000900
311
4D0069006C006C0069006D0065007400650072000A00431B00188002401B001880024014001BC01D401B801900028010C6F007A0009006F007A0009004F0075006E00630065000A004259C0024019C0024011C01C8018401B4002801106D00670009006D00670009004D0069006C006C0069006700720061006D000A004298
311
801E00024018801E00024010801BC01E0002801012D00C
161
              6487
310
6DCB81E85EB51B8BE3F2E07A17AD46E2F8FE23000030C02000000300012AFA1E80A0280A0280A0280D202269349E4B2196C9FA0320240501405014090140501405019011349A4F2590CB64FD0190120280A0280A3880C80C815174B85D2F97CA048080C80901405014051D40640640E883C16030180C064040440480A0280A
310
028EA0320320947077FBFDFEBF7F9FA02202405014050147501901905A0A0B6C1C7480BECFD0190120280A0280A3A80C80C835174B85D2F97CBE47E80C80901405014051D40640641E8BA5C2E97CBE5F23F40640480A0280A028EA03203211441E0B0180C060320202202405014050147501901909A383BFDFEFF5FBFCFD01
310
10120280A0280A3A80C80C8550505B60E3A405F67E80880901405014051D405024050242D03408BA5C2E97CBE5F23F40440480A0280A028EA028120281218812045D2E174BE5F2F91FA02202405014050147501409014090D40D022E970BA5F2F97C8FD0190120280A0280A3C80C80C875174B85D2F97CBE47E80C80901405
310
0F4A9022E07A17AD46E338FE07800030C0001018ACD56AB55AADF63F2B355AAD56AB7D8FD014062B355AAD56AB7D8FCACD56AB55AADF63F40501890C7E3F1783CEE3F2431F8FC5E0F3B8FD014062431F8FC5E0F3B8FC90C7E3F1783CEE3F405029012B355AAD56AB7D8FCACD56AB55AADF63F405014062B355AAD56AB7D8FC
310
ACD56AB55AADF63F4050184D2693C96432E93F1349A4F2590CBA4FD0140400ACD56AB55AADF63F2B355AAD56AB7D8FE90800000000000020810000001800169FFFE8220681A048120280A20852108820321480C8452028521485214814000000000000F0BF0000000000003C2FD0188C0000C3008070000C3003673BDD4F8E
310
96ACFCD9CEF753E3A5AB3F3673BDD4F8E96ACFCAAF1D24D6210A83F0EF7D3E365DBA48FCAAF1D24D6210A83F3673BDD4F8E96ACFCAAF1D24D6210A83F0EF7D3E365DBA48FCAAF1D24D6210A83F2E07A17AD46E2F8FE80A028120D2028120A83A0C80D2E07A17AD46E2F8FE23000030C0223000030C0200400030C00A45102F
310
E7FFF9FFFE7FFF901405014550140501405014050140501405014050140501405014050140501901A0C8120A8320E86A1C
340
15
340
0
340
11
340
11
340
16
340
16
340
16
 94
        0
  0
ACAD_PROXY_OBJECT
  5
222
330
21B
100
AcDbProxyObject
 90
      499
 91
      561
 71
    29
 97
      226
 70
     0
162
               762
311
4BCF4011001140150010401240130008000F0011001140150010401240130017C0130010401080114013000F801700140014C010C010401300114008000F0011001140150010401240130017C01040108014C014C010C01040130011400F800C
161
               658
310
6DCB81E85EB51B8CE3F2E07A17AD46E338FE07800030C020000003000123C820E4D4CCCCCCCCCDC9F9353333333333927E000000000000701FA00000000000000200000000000000288000000000000012204C
340
16
340
11
 94
        0
  0
ACAD_PROXY_OBJECT
  5
223
330
21B
100
AcDbProxyObject
 90
      499
 91
      562
 71
    29
 97
      226
 70
     0
162
               826
311
4CCF4014C0114010C01500124013C0138008000F0014C0114010C01500124013C0138017C01300104010801140130017C011801240148014C015000F800B400F0014C0114010C01500124013C0138017C01300104010801140130017C01300104014C015000F800C
161
               473
310
6DCB81E85EB51B8CE3F2E07A17AD46E338FE07800030C02000000300012AE00726A666666666764FC7FFFC000000600009A9999999999D93FA7FFFCC
340
15
340
11
 94
        0
  0
ACAD_PROXY_OBJECT
  5
224
330
21B
100
AcDbProxyObject
 90
      499
 91
      563
 71
    29
 97
      226
 70
     0
162
                 0
161
               507
310
6DC000000000000F0BF0000000000003C2FE000000320020000003200200570E2DB39DEF867E14AE47E17A945E1F852B91F85EA51787F4333333333333F33FAC
 94
        0
  0
ACAD_PROXY_OBJECT
  5
225
330
21B
100
AcDbProxyObject
 90
      499
 91
      564
 71
    29
 97
      226
 70
     0
162
                 0
161
               241
310
6DC000000000000F0BF0000000000003C2FE000000320020000003200204CC
340
0
 94
        0
  0
ACAD_PROXY_OBJECT
  5
226
330
21B
100
AcDbProxyObject
 90
      499
 91
      565
 71
    29
 97
      226
 70
     0
162
             13376
311
42950019401B401C001B0018401D00194008000C40005013D003C0069006600280065007100750061006C00280048006F006C0065003A007400610070007000650064002C0022003000220029002C00220025002500630022002C0048006F006C0065003A006E006F006D0069006E0061006C0020002200200022002000690
311
06600280065007100750061006C00280048006F006C0065003A0075006E006900740073002C0022003100220029002C002200780022002C0022002D0022002900200022002000220029003E003C0069006600280065007100750061006C00280048006F006C0065003A007400610070007000650064002C002200300022002
311
9002C0048006F006C0065003A006400690061002C0048006F006C0065003A0070006900740063006800640065007300630029003E0020007B005C00460041004D004700440054003B0078007D0020003C0069006600280065007100750061006C00280048006F006C0065003A007400650072006D0069006E0061007400690
311
06F006E002C0022003000220029002C0048006F006C0065003A00640065007000740068002C0022005400480052005500220029003E005C0050007B005C00460041004D004700440054003B0076007D002500250063003C0048006F006C0065003A00630074006400690061003E0020007B005C00460041004D00470044005
311
4003B0078007D0020003C0048006F006C0065003A0063007400640065007000740068003E0042950019401B401C001B0018401D00194008000C401FE3D003C0069006600280065007100750061006C00280048006F006C0065003A007400610070007000650064002C0022003000220029002C00220025002500630022002C
311
0048006F006C0065003A006E006F006D0069006E0061006C002000220020002200200069006600280065007100750061006C00280048006F006C0065003A0075006E006900740073002C0022003100220029002C002200780022002C0022002D0022002900200022002000220029003E003C00690066002800650071007500
311
61006C00280048006F006C0065003A007400610070007000650064002C0022003000220029002C0048006F006C0065003A006400690061002C0048006F006C0065003A0070006900740063006800640065007300630029003E0020007B005C00460041004D004700440054003B0078007D0020003C00690066002800650071
311
00750061006C00280048006F006C0065003A007400650072006D0069006E006100740069006F006E002C0022003000220029002C0048006F006C0065003A00640065007000740068002C0022005400480052005500220029003E005C0050007B005C00460041004D004700440054003B0077007D002500250063003C004800
311
6F006C0065003A00630074006400690061003E002000580020003C0048006F006C0065003A006300740061006E0067006C0065003E0025002500640042950019401B401C001B0018401D00194008000C401CF3D003C0069006600280065007100750061006C00280048006F006C0065003A007400610070007000650064002
311
C0022003000220029002C00220025002500630022002C0048006F006C0065003A006E006F006D0069006E0061006C002000220020002200200069006600280065007100750061006C00280048006F006C0065003A0075006E006900740073002C0022003100220029002C002200780022002C0022002D00220029002000220
311
02000220029003E003C0069006600280065007100750061006C00280048006F006C0065003A007400610070007000650064002C0022003000220029002C0048006F006C0065003A006400690061002C0048006F006C0065003A0070006900740063006800640065007300630029003E005C0050007B005C00460041004D004
311
700440054003B0078007D0020003C0069006600280065007100750061006C00280048006F006C0065003A007400650072006D0069006E006100740069006F006E002C0022003000220029002C0048006F006C0065003A00640065007000740068002C0022005400480052005500220029003E0042950019401B401C001B001
311
8401D00194008000C801173D003C0053005400440050003A0044004500530043003E0020003C0053005400440050003A005300540044003E0042950019401B401C001B0018401D00194008000C4010C3D003C0053005400440050003A0044004500530043003E0042950019401B401C001B0018401D00194008000CC010B3D
311
003C0053005400440050003A005300540044003E0000
161
               667
310
6DCB81E85EB51B8BE3F2E07A17AD46E2F8FE23000030C02000000300012AFA1080A17480A15480A0480A0280E9014050340501407480A0280A0280A03A405014790340501D20280A901405481A028AD556DEA06C
360
24E
330
24E
360
24F
330
24F
360
24D
330
24D
360
24B
360
24A
360
24C
330
24B
330
24A
330
24C
 94
        0
  0
ACAD_PROXY_OBJECT
  5
227
330
21B
100
AcDbProxyObject
 90
      499
 91
      566
 71
    29
 97
      226
 70
     0
162
                26
311
404E800C
161
               305
310
6DCB81E85EB51B8BE3F2E07A17AD46E2F8FE23000030C02000000300012AFA1680A0280D55554C
 94
        0
  0
ACAD_PROXY_OBJECT
  5
228
330
21B
100
AcDbProxyObject
 90
      499
 91
      567
 71
    29
 97
      226
 70
     0
162
              1098
311
510F400F0014C015001480154010C015000E8010C013C01340140017C013801040134011400F8008000F0014C015001480154010C015000E8015801240114015C017C013801040134011400F80080015801240114015C01700140014C010C010401300114008000F0014C015001480154010C015000E8014C0158017C014C0
311
10C01040130011400F800C
161
               332
310
6DCB81E85EB51B8CE3F2E07A17AD46E2F8FE07800030C02000000300012AFA02808000000000001D07FC
340
11
 94
        0
  0
ACAD_PROXY_OBJECT
  5
229
330
21B
100
AcDbProxyObject
 90
      499
 91
      568
 71
    29
 97
      226
 70
     0
162
                 0
161
               253
310
6DC000000000000F0BF0000000000003C2FE0000003200200000032002020754
340
22E
 94
        0
  0
ACAD_PROXY_OBJECT
  5
22A
330
21B
100
AcDbProxyObject
 90
      499
 91
      569
 71
    29
 97
      226
 70
     0
162
               142
311
408F000F801023C003E0040DB0018C00CC00
161
               400
310
6DC000000000000F0BF0000000000003C2FE00000032002000000320020208000000000000701F8000000000001C07E7FFFC00
340
22B
340
0
340
0
340
23B
340
23C
340
0
340
23D
340
23E
340
243
340
0
340
23C
340
0
 94
        0
  0
ACAD_PROXY_OBJECT
  5
244
330
21B
100
AcDbProxyObject
 90
      499
 91
      571
 71
    29
 97
      226
 70
     0
162
             20912
311
44D300124014C01500080013C01180080010C013C013C0148011001240138010401500114014C0142470045004E0054005200410043004F002C0045004E0055002C0030002C004C0049005300540020004F004600200043004F004F005200440049004E0041005400450053002C00470045004E00540052004100540058002
311
C00250073002C002800470045004E004D00530047002000670065006E00640069006D007A00200033003000290043CF400F0011001940198018401D401B001D0015001A401D001B0019400F8010A48004F004C00450020005400410042004C0045004E51C01140138015001480104010C013C00B001140138015400B000C00
311
0B00120013C0130011400800150010401080130011400B0011C011401380150014801040150016000B0009401CC00B000A0011C011401380134014C011C0080019C019401B8019001A401B401E8008000CC00C400A4010F3D003C00440065006600610075006C0074005400690074006C0065003E004193C01480124011C01
311
2401380134470045004E0054005200410043004F002C0045004E0055002C0030002C004F0052004900470049004E002C00470045004E00540052004100540058002C00250073002C002800470045004E004D00530047002000670065006E00640069006D007A002000310029004193C01480124011C0124013801344700450
311
04E0054005200410043004F002C0045004E0055002C0030002C004F0052004900470049004E002C00470045004E00540052004100540058002C00250073002C002800470045004E004D00530047002000670065006E00640069006D007A0020003100290041120013C013001140132470045004E0054005200410043004F00
311
2C0045004E0055002C0030002C0048004F004C0045002C00470045004E00540052004100540058002C00250073002C002800470045004E004D00530047002000670065006E00640069006D007A00200032002900538F400F00124011800A00124014C0108013001040138012C00A0012001BC01B00194012401D0019401B40
311
0A400B0013C01C801A4019C01A401B800B00080012001BC01B00194012401D0019401B400A400F800F00124011800A00124014C0108013001040138012C00A0012001BC01B00194012401D0019401B400A400B00088008800B00080012001BC01B00194012401B80190019401E000A400F8010158004BD1C01140138015001
311
480104010C013C00B001140138015400B000C000B0016000B0011C011401380150014801040150016000B0009401CC00B000A0011C011401380134014C011C0080019C019401B8019001A401B401E8008000CC00A4010159004BD1C01140138015001480104010C013C00B001140138015400B000C000B0016400B0011C011
311
401380150014801040150016000B0009401CC00B000A0011C011401380134014C011C0080019C019401B8019001A401B401E8008000D000A4010152004BD1C01140138015001480104010C013C00B001140138015400B000C000B0014800B0011C011401380150014801040150016000B0009401CC00B000A0011C01140138
311
0134014C011C0080019C019401B8019001A401B401E8008000D800A401187B005C004600530059004D0042004F004C007C00420030007C00490030007C00430032007C00500030003B004A007D005191C01140138015001480104010C013C00B001140138015400B000C000B001EC01700118014C016401340108013C01300
311
1F0010800C001F0012400C001F0010C00C801F0014000C000EC012801F400B0011C011401380150014801040150016000B0009401CC00B000A0011C011401380134014C011C0080019C019401B8019001A401B401E8008000DC00A401032500250043004C51C01140138015001480104010C013C00B001140138015400B000
311
C000B000940094010C00B0011C011401380150014801040150016000B0009401CC00B000A0011C011401380134014C011C0080019C019401B8019001A401B401E8008000E000A4010B4400450053004300520049005000540049004F004E004E91C01140138015001480104010C013C00B001140138015400B000C000B0011
311
00114014C010C01480124014001500124013C013800B0011C011401380150014801040150016000B0009401CC00B000A0011C011401380134014C011C0080019C019401B8019001A401B401E8008000C800C000A401044900540045004D004CD1C01140138015001480104010C013C00B001140138015400B000C000B00124
311
01500114013400B0011C011401380150014801040150016000B0009401CC00B000A0011C011401380134014C011C0080019C019401B8019001A401B401E8008000C400D000A4010549004E004400450058004D11C01140138015001480104010C013C00B001140138015400B000C000B00124013801100114016000B0011C0
311
11401380150014801040150016000B0009401CC00B000A0011C011401380134014C011C0080019C019401B8019001A401B401E8008000C400D400A4010448004F004C0045004CD1C01140138015001480104010C013C00B001140138015400B000C000B00120013C0130011400B0011C011401380150014801040150016000
311
B0009401CC00B000A0011C011401380134014C011C0080019C019401B8019001A401B401E8008000C400D800A4010A48004F004C004500200049004E004400450058004E51C01140138015001480104010C013C00B001140138015400B000C000B00120013C0130011400800124013801100114016000B0011C01140138015
311
0014801040150016000B0009401CC00B000A0011C011401380134014C011C0080019C019401B8019001A401B401E8008000C400DC00A40109550053004500520020004900540045004D004E11C01140138015001480104010C013C00B001140138015400B000C000B00154014C011401480080012401500114013400B0011C
311
011401380150014801040150016000B0009401CC00B000A0011C011401380134014C011C0080019C019401B8019001A401B401E8008000C800C800A401035100540059004C91C01140138015001480104010C013C00B001140138015400B000C000B001440150016400B0011C011401380150014801040150016000B000940
311
1CC00B000A0011C011401380134014C011C0080019C019401B8019001A401B401E8008000C400E400A401085300540041004E0044004100520044004DD1C01140138015001480104010C013C00B001140138015400B000C000B0014C015001040138011001040148011000B0011C011401380150014801040150016000B000
311
9401CC00B000A0011C011401380134014C011C0080019C019401B8019001A401B401E8008000C800C400A4014E3D003C004900460028004900530042004C0041004E004B00280048006F006C0065004900740065006D0029002C004F0072006900670069006E002C00200048006F006C0065004900740065006D0029003E00
311
3C004900460028004900530042004C0041004E004B00280048006F006C0065004900740065006D0029002C00220022002C00200048006F006C00650049006E0064006500780029003E00CC
161
              7065
310
6DC000000000000F0BF0000000000003C2FE00000032002000000320020246352020600005C0F42F5A8DC5F1FC46000061806808180001703D0BD6A3717C7F118000186018080F0201800000000000000000000000000000000F6295C8FC2F5487E5C0F42F5A8DC5F1FC46000061800F6295C8FC2F5487E5C0F42F5A8DC5F1
310
FC4600006180403F8080F0201800000000000000000000000000000000F6295C8FC2F5487E5C0F42F5A8DC5F1FC46000061800F6295C8FC2F5487E5C0F42F5A8DC5F1FC4600006180403FA1C8821E88A0481A0882A0E862028722489A2A82A2483A288621A880000808000808200110A000101000101040021F40002020202
310
020800446800040400040400008150000808000808000103A0001010001010000209400020200020206004168000404000404040083D000080800080020010CA0001010001010500A0340002020002020A0143A800040400040410008950000808000808280113A000101000101050022B40002020002020C0045280004040
310
00400100086D22000CFFFFFFFF0026A6666666667A4FE7FFFFFFF819353333333333D27F3FFFFFFFC049A9999999999E93F9FFFFFFFE024D4CCCCCCCCCF49FCFFFFFFFF0226A6666666667A4FE7FFFFFFF811353333333333D27F3FFFFFFFC0D9FFFFFFFE0600000000000000204FFFFFFFF0026A666666666764FE7FFFFFF
310
F801353333333333D27F3FFFFFFFC009A9999999999E93F9FFFFFFFE004D4CCCCCCCCCF49FCFFFFFFFF0026A6666666667A4FE7FFFFFFF819703D0BD6A371BC7F3FFFFFFFC0C67666666666606409FFFFFFFE880033FFFFFFFC009A9999999999E93F9FFFFFFFE064D4CCCCCCCCCF49FCFFFFFFFF0326A6666666667A4FE7F
310
FFFFFF819353333333333D27F3FFFFFFFC0C9A9999999999E93F9FFFFFFFE064D4CCCCCCCCCF49FCFFFFFFFF0367FFFFFFF81800000000000000813FFFFFFFC009A9999999999D93F9FFFFFFFE004D4CCCCCCCCCF49FCFFFFFFFF0326A6666666667A4FE7FFFFFFF801353333333333D27F3FFFFFFFC009A9999999999E93F
310
9FFFFFFFE065C0F42F5A8DC6F1FCFFFFFFFF0319D999999999819027FFFFFFFA088800000021E000000890000002260000008220E00020089000000206000200810000801FFFFFFFE812020002822200000008780000022400000089800000206000082220000000878000002240000008A8000001FFFFFFFF4C
340
0
340
0
340
0
340
0
340
11
340
11
 94
        0
  0
ACAD_PROXY_OBJECT
  5
245
330
21B
100
AcDbProxyObject
 90
      499
 91
      572
 71
    29
 97
      226
 70
     0
162
             10568
311
411040138014C0124010641004E00530049005F004300429040138014C0124017C0150012401500154014C011541004E00530049005F00420052005F005200650076006900730069006F006E006C0069007300740061004450C008000A000C400DC00B800C001E000C800C800B800C001A401B8018C01A000A4010641004E0
311
0530049005F00430044518008000A000C800E000B800C001E000D000C000B800C001A401B8018C01A000A4010641004E00530049005F00460044508008000A000C400C400B800C001E000C400DC00B800C001A401B8018C01A000A4010641004E00530049005F00420044510008000A000C800C800B800C001E000CC00D000
311
B800C001A401B8018C01A000A4010641004E00530049005F00440044514008000A000CC00D000B800C001E000D000D000B800C001A401B8018C01A000A4010641004E00530049005F00450044104008000A000E000B800D401E000C400C400B800C001A401B8018C01A000A4010641004E00530049005F00410043954014C0
311
080015001A401D001B001940080010801B001BC018C01AC010A41004E00530049005F005400490054005500530044D0401B801CC01A40080015001A401D001B001940080010801B001BC018C01AC00800110010C010C41004E00530049005F005400490054004C0045004400430044D0401B801CC01A40080015001A401D00
311
1B001940080010801B001BC018C01AC00800104010C010C41004E00530049005F005400490054004C004500410043004490401B801CC01A40080015001A401D001B001940080010801B001BC018C01AC00800104010B41004E00530049005F005400490054004C00450041004490401B801CC01A40080015001A401D001B00
311
1940080010801B001BC018C01AC00800110010B41004E00530049005F005400490054004C004500440044948019401D801A401CC01A401BC01B801B001A401CC01D000800104017C01080148017C011541004E00530049005F00420052005F005200650076006900730069006F006E006C0069007300740061004494801940
311
1D801A401CC01A401BC01B801B001A401CC01D000800104017C01500148017C011541004E00530049005F00540052005F005200650076006900730069006F006E006C00690073007400610044948019401D801A401CC01A401BC01B801B001A401CC01D000800110017C01080148017C011541004E00530049005F00420052
311
005F005200650076006900730069006F006E006C00690073007400640044948019401D801A401CC01A401BC01B801B001A401CC01D000800110017C01500148017C011541004E00530049005F00540052005F005200650076006900730069006F006E006C00690073007400640044948019401D801A401CC01A401BC01B801
311
B001A401CC01D000800104017C01080130017C011541004E00530049005F0042004C005F005200650076006900730069006F006E006C00690073007400610044948019401D801A401CC01A401BC01B801B001A401CC01D000800104017C01500130017C011541004E00530049005F0054004C005F005200650076006900730
311
069006F006E006C00690073007400610044948019401D801A401CC01A401BC01B801B001A401CC01D000800110017C01080130017C011541004E00530049005F0042004C005F005200650076006900730069006F006E006C00690073007400640044948019401D801A401CC01A401BC01B801B001A401CC01D000800110017
311
C01500130017C011541004E00530049005F0054004C005F005200650076006900730069006F006E006C006900730074006400A4F
161
               291
310
6DC000000000000F0BF0000000000003C2FE0000003200200000032002032E8320A842054C
 94
        0
  0
ACAD_PROXY_OBJECT
  5
24E
330
0
100
AcDbProxyObject
 90
      499
 91
      573
 71
    29
 97
      226
 70
     0
162
              4364
311
42950019401B401C001B0018401D00194008000C40005013D003C0069006600280065007100750061006C00280048006F006C0065003A007400610070007000650064002C0022003000220029002C00220025002500630022002C0048006F006C0065003A006E006F006D0069006E0061006C0020002200200022002000690
311
06600280065007100750061006C00280048006F006C0065003A0075006E006900740073002C0022003100220029002C002200780022002C0022002D0022002900200022002000220029003E003C0069006600280065007100750061006C00280048006F006C0065003A007400610070007000650064002C002200300022002
311
9002C0048006F006C0065003A006400690061002C0048006F006C0065003A0070006900740063006800640065007300630029003E0020007B005C00460041004D004700440054003B0078007D0020003C0069006600280065007100750061006C00280048006F006C0065003A007400650072006D0069006E0061007400690
311
06F006E002C0022003000220029002C0048006F006C0065003A00640065007000740068002C0022005400480052005500220029003E005C0050007B005C00460041004D004700440054003B0076007D002500250063003C0048006F006C0065003A00630074006400690061003E0020007B005C00460041004D00470044005
311
4003B0078007D0020003C0048006F006C0065003A0063007400640065007000740068003E00C
161
                29
310
6DE0101C
 94
        0
  0
ACAD_PROXY_OBJECT
  5
24F
330
0
100
AcDbProxyObject
 90
      499
 91
      573
 71
    29
 97
      226
 70
     0
162
              4244
311
42950019401B401C001B0018401D00194008000C401FE3D003C0069006600280065007100750061006C00280048006F006C0065003A007400610070007000650064002C0022003000220029002C00220025002500630022002C0048006F006C0065003A006E006F006D0069006E0061006C002000220020002200200069006
311
600280065007100750061006C00280048006F006C0065003A0075006E006900740073002C0022003100220029002C002200780022002C0022002D0022002900200022002000220029003E003C0069006600280065007100750061006C00280048006F006C0065003A007400610070007000650064002C00220030002200290
311
02C0048006F006C0065003A006400690061002C0048006F006C0065003A0070006900740063006800640065007300630029003E0020007B005C00460041004D004700440054003B0078007D0020003C0069006600280065007100750061006C00280048006F006C0065003A007400650072006D0069006E006100740069006
311
F006E002C0022003000220029002C0048006F006C0065003A00640065007000740068002C0022005400480052005500220029003E005C0050007B005C00460041004D004700440054003B0077007D002500250063003C0048006F006C0065003A00630074006400690061003E002000580020003C0048006F006C0065003A0
311
06300740061006E0067006C0065003E00250025006400C
161
                29
310
6DE0101C
 94
        0
  0
ACAD_PROXY_OBJECT
  5
24D
330
0
100
AcDbProxyObject
 90
      499
 91
      573
 71
    29
 97
      226
 70
     0
162
              3492
311
42950019401B401C001B0018401D00194008000C401CF3D003C0069006600280065007100750061006C00280048006F006C0065003A007400610070007000650064002C0022003000220029002C00220025002500630022002C0048006F006C0065003A006E006F006D0069006E0061006C002000220020002200200069006
311
600280065007100750061006C00280048006F006C0065003A0075006E006900740073002C0022003100220029002C002200780022002C0022002D0022002900200022002000220029003E003C0069006600280065007100750061006C00280048006F006C0065003A007400610070007000650064002C00220030002200290
311
02C0048006F006C0065003A006400690061002C0048006F006C0065003A0070006900740063006800640065007300630029003E005C0050007B005C00460041004D004700440054003B0078007D0020003C0069006600280065007100750061006C00280048006F006C0065003A007400650072006D0069006E00610074006
311
9006F006E002C0022003000220029002C0048006F006C0065003A00640065007000740068002C0022005400480052005500220029003E00C
161
                29
310
6DE0101C
 94
        0
  0
ACAD_PROXY_OBJECT
  5
24B
330
0
100
AcDbProxyObject
 90
      499
 91
      573
 71
    29
 97
      226
 70
     0
162
               548
311
42950019401B401C001B0018401D00194008000C801173D003C0053005400440050003A0044004500530043003E0020003C0053005400440050003A005300540044003E00C
161
                29
310
6DE01014
 94
        0
  0
ACAD_PROXY_OBJECT
  5
24A
330
0
100
AcDbProxyObject
 90
      499
 91
      573
 71
    29
 97
      226
 70
     0
162
               372
311
42950019401B401C001B0018401D00194008000C4010C3D003C0053005400440050003A0044004500530043003E00C
161
                29
310
6DE0101C
 94
        0
  0
ACAD_PROXY_OBJECT
  5
24C
330
0
100
AcDbProxyObject
 90
      499
 91
      573
 71
    29
 97
      226
 70
     0
162
               356
311
42950019401B401C001B0018401D00194008000CC010B3D003C0053005400440050003A005300540044003E00C
161
                29
310
6DE01014
 94
        0
  0
ENDSEC
  0
SECTION
  2
ACDSDATA
 70
     2
 71
     8
  0
ACDSSCHEMA
 90
        0
  1
AcDb_Thumbnail_Schema
  2
AcDbDs::ID
280
    10
 91
        8
  2
Thumbnail_Data
280
    15
 91
        0
101
ACDSRECORD
 95
        0
 90
        1
  2
AcDbDs::TreatedAsObjectData
280
     1
291
     1
101
ACDSRECORD
 95
        0
 90
        2
  2
AcDbDs::Legacy
280
     1
291
     1
101
ACDSRECORD
  1
AcDbDs::ID
 90
        3
  2
AcDs:Indexable
280
     1
291
     1
101
ACDSRECORD
  1
AcDbDs::ID
 90
        4
  2
AcDbDs::HandleAttribute
280
     7
282
     1
  0
ACDSSCHEMA
 90
        1
  1
AcDbDs::TreatedAsObjectDataSchema
  2
AcDbDs::TreatedAsObjectData
280
     1
 91
        0
  0
ACDSSCHEMA
 90
        2
  1
AcDbDs::LegacySchema
  2
AcDbDs::Legacy
280
     1
 91
        0
  0
ACDSSCHEMA
 90
        3
  1
AcDbDs::IndexedPropertySchema
  2
AcDs:Indexable
280
     1
 91
        0
  0
ACDSSCHEMA
 90
        4
  1
AcDbDs::HandleAttributeSchema
  2
AcDbDs::HandleAttribute
280
     7
 91
        1
284
     1
  0
ACDSRECORD
 90
        0
  2
AcDbDs::ID
280
    10
320
22
  2
Thumbnail_Data
280
    15
 94
     1073
310
89504E470D0A1A0A0000000D49484452000001000000006F08030000003479EE6F00000300504C5445212830FFFFFF2128300000000000000000000000000000000000000000000000000000330000660000990000CC0000FF0033000033330033660033990033CC0033FF0066000066330066660066990066CC0066FF0099
310
000099330099660099990099CC0099FF00CC0000CC3300CC6600CC9900CCCC00CCFF00FF0000FF3300FF6600FF9900FFCC00FFFF3300003300333300663300993300CC3300FF3333003333333333663333993333CC3333FF3366003366333366663366993366CC3366FF3399003399333399663399993399CC3399FF33CC00
310
33CC3333CC6633CC9933CCCC33CCFF33FF0033FF3333FF6633FF9933FFCC33FFFF6600006600336600666600996600CC6600FF6633006633336633666633996633CC6633FF6666006666336666666666996666CC6666FF6699006699336699666699996699CC6699FF66CC0066CC3366CC6666CC9966CCCC66CCFF66FF0066
310
FF3366FF6666FF9966FFCC66FFFF9900009900339900669900999900CC9900FF9933009933339933669933999933CC9933FF9966009966339966669966999966CC9966FF9999009999339999669999999999CC9999FF99CC0099CC3399CC6699CC9999CCCC99CCFF99FF0099FF3399FF6699FF9999FFCC99FFFFCC0000CC00
310
33CC0066CC0099CC00CCCC00FFCC3300CC3333CC3366CC3399CC33CCCC33FFCC6600CC6633CC6666CC6699CC66CCCC66FFCC9900CC9933CC9966CC9999CC99CCCC99FFCCCC00CCCC33CCCC66CCCC99CCCCCCCCCCFFCCFF00CCFF33CCFF66CCFF99CCFFCCCCFFFFFF0000FF0033FF0066FF0099FF00CCFF00FFFF3300FF3333
310
FF3366FF3399FF33CCFF33FFFF6600FF6633FF6666FF6699FF66CCFF66FFFF9900FF9933FF9966FF9999FF99CCFF99FFFFCC00FFCC33FFCC66FFCC99FFCCCCFFCCFFFFFF00FFFF33FFFF66FFFF99FFFFCCFFFFFF0000000D0D0D1A1A1A2828283535354343435050505D5D5D6B6B6B787878868686939393A1A1A1AEAEAEBB
310
BBBBC9C9C9D6D6D6E4E4E4F1F1F1FFFFFF0000000000000000000000000000000000000000000000000000000000002E4550F1000000EC4944415478DAEDD8C10E82300C06E0BEFFFBF6AE215CD482CE70A1FDBE1B484CF6B38EAD110000000000000000C0AADC09400030B504042000016027985337040210C0F000F015B8
310
984881BB2E820210C0CB2F6B7FD3319AD9013C87548CEAAC567A1551D6EF354F8AA3D72C3858174F6640B60CE06D50DBE5E748B73B19DD02882A80F27B91FBF38D22C87A0DA86FEFD7191302A8E640FEB171B8CB1210E5E66840004BB9E88530FEFD2B005AF403B4C5A1EDF1FEA7354000DF1B22FD26CB61002BE79B963DE1
310
EAD817CB7DB2760194D322AB479B04F0D3BBEE19C0C2BCB605C4814A050000000000C0B51E293C19F96ED07A240000000049454E44AE426082
  0
ENDSEC
  0
EOF
