  0
SECTION
  2
HEADER
  9
$ACADVER
  1
AC1032
  9
$ACADMAINTVER
 90
        4
  9
$DWGCODEPAGE
  3
ANSI_1252
  9
$LASTSAVEDBY
  1
jesse.cowley
  9
$REQUIREDVERSIONS
160
                 0
  9
$INSBASE
 10
0.0
 20
0.0
 30
0.0
  9
$EXTMIN
 10
-13.84973569355852
 20
-4018.203329020886
 30
0.0
  9
$EXTMAX
 10
9560.993789489591
 20
1897.523027662209
 30
0.0
  9
$LIMMIN
 10
0.0
 20
0.0
  9
$LIMMAX
 10
12.0
 20
9.0
  9
$ORTHOMODE
 70
     0
  9
$REGENMODE
 70
     1
  9
$FILLMODE
 70
     1
  9
$QTEXTMODE
 70
     0
  9
$MIRRTEXT
 70
     1
  9
$LTSCALE
 40
1.0
  9
$ATTMODE
 70
     1
  9
$TEXTSIZE
 40
0.2
  9
$TRACEWID
 40
0.05
  9
$TEXTSTYLE
  7
Standard
  9
$CLAYER
  8
0
  9
$CELTYPE
  6
ByLayer
  9
$CECOLOR
 62
   256
  9
$CELTSCALE
 40
1.0
  9
$DISPSILH
 70
     0
  9
$DIMSCALE
 40
1.0
  9
$DIMASZ
 40
0.18
  9
$DIMEXO
 40
0.0625
  9
$DIMDLI
 40
0.38
  9
$DIMRND
 40
0.0
  9
$DIMDLE
 40
0.0
  9
$DIMEXE
 40
0.18
  9
$DIMTP
 40
0.0
  9
$DIMTM
 40
0.0
  9
$DIMTXT
 40
0.18
  9
$DIMCEN
 40
0.09
  9
$DIMTSZ
 40
0.0
  9
$DIMTOL
 70
     0
  9
$DIMLIM
 70
     0
  9
$DIMTIH
 70
     1
  9
$DIMTOH
 70
     1
  9
$DIMSE1
 70
     0
  9
$DIMSE2
 70
     0
  9
$DIMTAD
 70
     0
  9
$DIMZIN
 70
     0
  9
$DIMBLK
  1

  9
$DIMASO
 70
     1
  9
$DIMSHO
 70
     1
  9
$DIMPOST
  1

  9
$DIMAPOST
  1

  9
$DIMALT
 70
     0
  9
$DIMALTD
 70
     2
  9
$DIMALTF
 40
25.4
  9
$DIMLFAC
 40
1.0
  9
$DIMTOFL
 70
     0
  9
$DIMTVP
 40
0.0
  9
$DIMTIX
 70
     0
  9
$DIMSOXD
 70
     0
  9
$DIMSAH
 70
     0
  9
$DIMBLK1
  1

  9
$DIMBLK2
  1

  9
$DIMSTYLE
  2
Standard
  9
$DIMCLRD
 70
     0
  9
$DIMCLRE
 70
     0
  9
$DIMCLRT
 70
     0
  9
$DIMTFAC
 40
1.0
  9
$DIMGAP
 40
0.09
  9
$DIMJUST
 70
     0
  9
$DIMSD1
 70
     0
  9
$DIMSD2
 70
     0
  9
$DIMTOLJ
 70
     1
  9
$DIMTZIN
 70
     0
  9
$DIMALTZ
 70
     0
  9
$DIMALTTZ
 70
     0
  9
$DIMUPT
 70
     0
  9
$DIMDEC
 70
     4
  9
$DIMTDEC
 70
     4
  9
$DIMALTU
 70
     2
  9
$DIMALTTD
 70
     2
  9
$DIMTXSTY
  7
Standard
  9
$DIMAUNIT
 70
     0
  9
$DIMADEC
 70
     0
  9
$DIMALTRND
 40
0.0
  9
$DIMAZIN
 70
     0
  9
$DIMDSEP
 70
    46
  9
$DIMATFIT
 70
     3
  9
$DIMFRAC
 70
     0
  9
$DIMLDRBLK
  1

  9
$DIMLUNIT
 70
     2
  9
$DIMLWD
 70
    -2
  9
$DIMLWE
 70
    -2
  9
$DIMTMOVE
 70
     0
  9
$DIMFXL
 40
1.0
  9
$DIMFXLON
 70
     0
  9
$DIMJOGANG
 40
0.7853981633974483
  9
$DIMTFILL
 70
     0
  9
$DIMTFILLCLR
 70
     0
  9
$DIMARCSYM
 70
     0
  9
$DIMLTYPE
  6

  9
$DIMLTEX1
  6

  9
$DIMLTEX2
  6

  9
$DIMTXTDIRECTION
 70
     0
  9
$LUNITS
 70
     2
  9
$LUPREC
 70
     4
  9
$SKETCHINC
 40
0.1
  9
$FILLETRAD
 40
0.5
  9
$AUNITS
 70
     0
  9
$AUPREC
 70
     0
  9
$MENU
  1
.
  9
$ELEVATION
 40
0.0
  9
$PELEVATION
 40
0.0
  9
$THICKNESS
 40
0.0
  9
$LIMCHECK
 70
     0
  9
$CHAMFERA
 40
0.5
  9
$CHAMFERB
 40
0.5
  9
$CHAMFERC
 40
1.0
  9
$CHAMFERD
 40
0.0
  9
$SKPOLY
 70
     0
  9
$TDCREATE
 40
2456463.592500000
  9
$TDUCREATE
 40
2456463.175844375
  9
$TDUPDATE
 40
2458442.435879630
  9
$TDUUPDATE
 40
2458441.977546296
  9
$TDINDWG
 40
0.0189821991
  9
$TDUSRTIMER
 40
0.0189821991
  9
$USRTIMER
 70
     1
  9
$ANGBASE
 50
0.0
  9
$ANGDIR
 70
     0
  9
$PDMODE
 70
     0
  9
$PDSIZE
 40
0.0
  9
$PLINEWID
 40
0.0
  9
$SPLFRAME
 70
     0
  9
$SPLINETYPE
 70
     6
  9
$SPLINESEGS
 70
     8
  9
$HANDSEED
  5
33A
  9
$SURFTAB1
 70
     6
  9
$SURFTAB2
 70
     6
  9
$SURFTYPE
 70
     6
  9
$SURFU
 70
     6
  9
$SURFV
 70
     6
  9
$UCSBASE
  2

  9
$UCSNAME
  2

  9
$UCSORG
 10
0.0
 20
0.0
 30
0.0
  9
$UCSXDIR
 10
1.0
 20
0.0
 30
0.0
  9
$UCSYDIR
 10
0.0
 20
1.0
 30
0.0
  9
$UCSORTHOREF
  2

  9
$UCSORTHOVIEW
 70
     0
  9
$UCSORGTOP
 10
0.0
 20
0.0
 30
0.0
  9
$UCSORGBOTTOM
 10
0.0
 20
0.0
 30
0.0
  9
$UCSORGLEFT
 10
0.0
 20
0.0
 30
0.0
  9
$UCSORGRIGHT
 10
0.0
 20
0.0
 30
0.0
  9
$UCSORGFRONT
 10
0.0
 20
0.0
 30
0.0
  9
$UCSORGBACK
 10
0.0
 20
0.0
 30
0.0
  9
$PUCSBASE
  2

  9
$PUCSNAME
  2

  9
$PUCSORG
 10
0.0
 20
0.0
 30
0.0
  9
$PUCSXDIR
 10
1.0
 20
0.0
 30
0.0
  9
$PUCSYDIR
 10
0.0
 20
1.0
 30
0.0
  9
$PUCSORTHOREF
  2

  9
$PUCSORTHOVIEW
 70
     0
  9
$PUCSORGTOP
 10
0.0
 20
0.0
 30
0.0
  9
$PUCSORGBOTTOM
 10
0.0
 20
0.0
 30
0.0
  9
$PUCSORGLEFT
 10
0.0
 20
0.0
 30
0.0
  9
$PUCSORGRIGHT
 10
0.0
 20
0.0
 30
0.0
  9
$PUCSORGFRONT
 10
0.0
 20
0.0
 30
0.0
  9
$PUCSORGBACK
 10
0.0
 20
0.0
 30
0.0
  9
$USERI1
 70
     0
  9
$USERI2
 70
     0
  9
$USERI3
 70
     0
  9
$USERI4
 70
     0
  9
$USERI5
 70
     0
  9
$USERR1
 40
0.0
  9
$USERR2
 40
0.0
  9
$USERR3
 40
0.0
  9
$USERR4
 40
0.0
  9
$USERR5
 40
0.0
  9
$WORLDVIEW
 70
     1
  9
$SHADEDGE
 70
     3
  9
$SHADEDIF
 70
    70
  9
$TILEMODE
 70
     1
  9
$MAXACTVP
 70
    64
  9
$PINSBASE
 10
0.0
 20
0.0
 30
0.0
  9
$PLIMCHECK
 70
     0
  9
$PEXTMIN
 10
1.000000000000000E+20
 20
1.000000000000000E+20
 30
1.000000000000000E+20
  9
$PEXTMAX
 10
-1.000000000000000E+20
 20
-1.000000000000000E+20
 30
-1.000000000000000E+20
  9
$PLIMMIN
 10
0.0
 20
0.0
  9
$PLIMMAX
 10
12.0
 20
9.0
  9
$UNITMODE
 70
     0
  9
$VISRETAIN
 70
     1
  9
$PLINEGEN
 70
     0
  9
$PSLTSCALE
 70
     1
  9
$TREEDEPTH
 70
  3020
  9
$CMLSTYLE
  2
Standard
  9
$CMLJUST
 70
     0
  9
$CMLSCALE
 40
1.0
  9
$PROXYGRAPHICS
 70
     1
  9
$MEASUREMENT
 70
     0
  9
$CELWEIGHT
370
    -1
  9
$ENDCAPS
280
     0
  9
$JOINSTYLE
280
     0
  9
$LWDISPLAY
290
     1
  9
$INSUNITS
 70
     1
  9
$HYPERLINKBASE
  1

  9
$STYLESHEET
  1

  9
$XEDIT
290
     1
  9
$CEPSNTYPE
380
     0
  9
$PSTYLEMODE
290
     1
  9
$FINGERPRINTGUID
  2
{6277B19D-5E6E-47D0-BFF6-BACFACB73204}
  9
$VERSIONGUID
  2
{9EC8806F-5BB7-8244-B238-07E3636E6BF0}
  9
$EXTNAMES
290
     1
  9
$PSVPSCALE
 40
0.0
  9
$OLESTARTUP
290
     0
  9
$SORTENTS
280
   127
  9
$INDEXCTL
280
     0
  9
$HIDETEXT
280
     1
  9
$XCLIPFRAME
280
     0
  9
$HALOGAP
280
     0
  9
$OBSCOLOR
 70
   257
  9
$OBSLTYPE
280
     0
  9
$INTERSECTIONDISPLAY
280
     0
  9
$INTERSECTIONCOLOR
 70
   257
  9
$DIMASSOC
280
     2
  9
$PROJECTNAME
  1

  9
$CAMERADISPLAY
290
     0
  9
$LENSLENGTH
 40
50.0
  9
$CAMERAHEIGHT
 40
0.0
  9
$STEPSPERSEC
 40
2.0
  9
$STEPSIZE
 40
6.0
  9
$3DDWFPREC
 40
2.0
  9
$PSOLWIDTH
 40
0.25
  9
$PSOLHEIGHT
 40
4.0
  9
$LOFTANG1
 40
1.570796326794896
  9
$LOFTANG2
 40
1.570796326794896
  9
$LOFTMAG1
 40
0.0
  9
$LOFTMAG2
 40
0.0
  9
$LOFTPARAM
 70
     7
  9
$LOFTNORMALS
280
     1
  9
$LATITUDE
 40
37.795
  9
$LONGITUDE
 40
-122.394
  9
$NORTHDIRECTION
 40
0.0
  9
$TIMEZONE
 70
 -8000
  9
$LIGHTGLYPHDISPLAY
280
     1
  9
$TILEMODELIGHTSYNCH
280
     1
  9
$CMATERIAL
347
AE
  9
$SOLIDHIST
280
     1
  9
$SHOWHIST
280
     1
  9
$DWFFRAME
280
     2
  9
$DGNFRAME
280
     0
  9
$REALWORLDSCALE
290
     1
  9
$INTERFERECOLOR
 62
     1
  9
$INTERFEREOBJVS
345
33
  9
$INTERFEREVPVS
346
152
  9
$CSHADOW
280
     0
  9
$SHADOWPLANELOCATION
 40
0.0
  0
ENDSEC
  0
SECTION
  2
CLASSES
  0
CLASS
  1
ACDBDICTIONARYWDFLT
  2
AcDbDictionaryWithDefault
  3
ObjectDBX Classes
 90
        0
 91
        1
280
     0
281
     0
  0
CLASS
  1
VISUALSTYLE
  2
AcDbVisualStyle
  3
ObjectDBX Classes
 90
     4095
 91
       26
280
     0
281
     0
  0
CLASS
  1
MATERIAL
  2
AcDbMaterial
  3
ObjectDBX Classes
 90
     1153
 91
        3
280
     0
281
     0
  0
CLASS
  1
TABLESTYLE
  2
AcDbTableStyle
  3
ObjectDBX Classes
 90
     4095
 91
        1
280
     0
281
     0
  0
CLASS
  1
SCALE
  2
AcDbScale
  3
ObjectDBX Classes
 90
     1153
 91
       33
280
     0
281
     0
  0
CLASS
  1
MLEADERSTYLE
  2
AcDbMLeaderStyle
  3
ACDB_MLEADERSTYLE_CLASS
 90
     4095
 91
        1
280
     0
281
     0
  0
CLASS
  1
DICTIONARYVAR
  2
AcDbDictionaryVar
  3
ObjectDBX Classes
 90
        0
 91
        9
280
     0
281
     0
  0
CLASS
  1
EXACXREFPANELOBJECT
  2
ExAcXREFPanelObject
  3
EXAC_ESW
 90
     1025
 91
        1
280
     0
281
     0
  0
CLASS
  1
NPOCOLLECTION
  2
AcDbImpNonPersistentObjectsCollection
  3
ObjectDBX Classes
 90
     1153
 91
        1
280
     0
281
     0
  0
CLASS
  1
SORTENTSTABLE
  2
AcDbSortentsTable
  3
ObjectDBX Classes
 90
        0
 91
        1
280
     0
281
     0
  0
CLASS
  1
ACDBSECTIONVIEWSTYLE
  2
AcDbSectionViewStyle
  3
ObjectDBX Classes
 90
     1025
 91
        1
280
     0
281
     0
  0
CLASS
  1
ACDBDETAILVIEWSTYLE
  2
AcDbDetailViewStyle
  3
ObjectDBX Classes
 90
     1025
 91
        1
280
     0
281
     0
  0
CLASS
  1
CELLSTYLEMAP
  2
AcDbCellStyleMap
  3
ObjectDBX Classes
 90
     1152
 91
        1
280
     0
281
     0
  0
ENDSEC
  0
SECTION
  2
TABLES
  0
TABLE
  2
VPORT
  5
8
330
0
100
AcDbSymbolTable
 70
     1
  0
VPORT
  5
29
330
8
100
AcDbSymbolTableRecord
100
AcDbViewportTableRecord
  2
*Active
 70
     0
 10
0.0
 20
0.0
 11
1.0
 21
1.0
 12
6007.028571814092
 22
-3824.514499944845
 13
0.0
 23
0.0
 14
0.5
 24
0.5
 15
0.5
 25
0.5
 16
0.0
 26
0.0
 36
1.0
 17
148.4999796178229
 27
-105.0008259828643
 37
0.0
 40
15392.90305630054
 41
2.292712066905615
 42
50.0
 43
0.0
 44
0.0
 50
0.0
 51
0.0
 71
     0
 72
   100
 73
     1
 74
     3
 75
     0
 76
     0
 77
     0
 78
     0
281
     0
 65
     1
110
0.0
120
0.0
130
0.0
111
1.0
121
0.0
131
0.0
112
0.0
122
1.0
132
0.0
 79
     0
146
0.0
348
2F
 60
     3
 61
     5
292
     1
282
     1
141
0.0
142
0.0
 63
   250
421
  3355443
1001
ACAD_NAV_VCDISPLAY
1070
     3
  0
ENDTAB
  0
TABLE
  2
LTYPE
  5
5
330
0
100
AcDbSymbolTable
 70
     1
  0
LTYPE
  5
14
330
5
100
AcDbSymbolTableRecord
100
AcDbLinetypeTableRecord
  2
ByBlock
 70
     0
  3

 72
    65
 73
     0
 40
0.0
  0
LTYPE
  5
15
330
5
100
AcDbSymbolTableRecord
100
AcDbLinetypeTableRecord
  2
ByLayer
 70
     0
  3

 72
    65
 73
     0
 40
0.0
  0
LTYPE
  5
16
330
5
100
AcDbSymbolTableRecord
100
AcDbLinetypeTableRecord
  2
Continuous
 70
     0
  3
Solid line
 72
    65
 73
     0
 40
0.0
  0
ENDTAB
  0
TABLE
  2
LAYER
  5
2
102
{ACAD_XDICTIONARY
360
F9
102
}
330
0
100
AcDbSymbolTable
 70
     5
  0
LAYER
  5
10
102
{ACAD_XDICTIONARY
360
F2
102
}
330
2
100
AcDbSymbolTableRecord
100
AcDbLayerTableRecord
  2
0
 70
     0
 62
     7
  6
Continuous
370
    -3
390
F
347
BE
348
0
  0
LAYER
  5
3B
102
{ACAD_XDICTIONARY
360
F4
102
}
330
2
100
AcDbSymbolTableRecord
100
AcDbLayerTableRecord
  2
Layer 1
 70
     0
 62
     7
  6
Continuous
370
    -3
390
F
347
BE
348
0
  0
LAYER
  5
163
330
2
100
AcDbSymbolTableRecord
100
AcDbLayerTableRecord
  2
Dimensions
 70
     0
 62
     7
  6
Continuous
370
    -3
390
F
347
BE
348
0
1001
AcAecLayerStandard
1000

1000

1001
AcCmTransparency
1071
        0
  0
LAYER
  5
166
330
2
100
AcDbSymbolTableRecord
100
AcDbLayerTableRecord
  2
Text
 70
     0
 62
     7
  6
Continuous
370
    -3
390
F
347
BE
348
0
1001
AcAecLayerStandard
1000

1000

1001
AcCmTransparency
1071
        0
  0
LAYER
  5
167
330
2
100
AcDbSymbolTableRecord
100
AcDbLayerTableRecord
  2
Furniture
 70
     0
 62
     7
  6
Continuous
370
    -3
390
F
347
BE
348
0
1001
AcAecLayerStandard
1000

1000

1001
AcCmTransparency
1071
        0
  0
ENDTAB
  0
TABLE
  2
STYLE
  5
3
330
0
100
AcDbSymbolTable
 70
     1
  0
STYLE
  5
11
330
3
100
AcDbSymbolTableRecord
100
AcDbTextStyleTableRecord
  2
Standard
 70
     0
 40
0.0
 41
1.0
 50
0.0
 71
     0
 42
0.2
  3
apercu_regular-webfont_0.ttf
  4

1001
ACAD
1000
Apercu
1071
        2
  0
ENDTAB
  0
TABLE
  2
VIEW
  5
6
330
0
100
AcDbSymbolTable
 70
     1
  0
ENDTAB
  0
TABLE
  2
UCS
  5
7
330
0
100
AcDbSymbolTable
 70
     0
  0
ENDTAB
  0
TABLE
  2
APPID
  5
9
330
0
100
AcDbSymbolTable
 70
     6
  0
APPID
  5
12
330
9
100
AcDbSymbolTableRecord
100
AcDbRegAppTableRecord
  2
ACAD
 70
     0
  0
APPID
  5
10D
330
9
100
AcDbSymbolTableRecord
100
AcDbRegAppTableRecord
  2
ACAD_EXEMPT_FROM_CAD_STANDARDS
 70
     0
  0
APPID
  5
164
330
9
100
AcDbSymbolTableRecord
100
AcDbRegAppTableRecord
  2
AcAecLayerStandard
 70
     0
  0
APPID
  5
165
330
9
100
AcDbSymbolTableRecord
100
AcDbRegAppTableRecord
  2
AcCmTransparency
 70
     0
  0
APPID
  5
16F
330
9
100
AcDbSymbolTableRecord
100
AcDbRegAppTableRecord
  2
ACAD_NAV_VCDISPLAY
 70
     0
  0
APPID
  5
1C9
330
9
100
AcDbSymbolTableRecord
100
AcDbRegAppTableRecord
  2
AcadAnnoPO
 70
     0
  0
ENDTAB
  0
TABLE
  2
DIMSTYLE
  5
A
330
0
100
AcDbSymbolTable
 70
     1
100
AcDbDimStyleTable
 71
     1
340
27
  0
DIMSTYLE
105
27
330
A
100
AcDbSymbolTableRecord
100
AcDbDimStyleTableRecord
  2
Standard
 70
     0
340
11
  0
ENDTAB
  0
TABLE
  2
BLOCK_RECORD
  5
1
330
0
100
AcDbSymbolTable
 70
    15
  0
BLOCK_RECORD
  5
1F
102
{ACAD_XDICTIONARY
360
125
102
}
330
1
100
AcDbSymbolTableRecord
100
AcDbBlockTableRecord
  2
*Model_Space
340
22
 70
     0
280
     1
281
     0
  0
BLOCK_RECORD
  5
1B
330
1
100
AcDbSymbolTableRecord
100
AcDbBlockTableRecord
  2
*Paper_Space
340
1E
 70
     0
280
     1
281
     0
  0
BLOCK_RECORD
  5
23
330
1
100
AcDbSymbolTableRecord
100
AcDbBlockTableRecord
  2
*Paper_Space0
340
26
 70
     0
280
     1
281
     0
  0
BLOCK_RECORD
  5
3C
330
1
100
AcDbSymbolTableRecord
100
AcDbBlockTableRecord
  2
block 2
340
0
102
{BLKREFS
331
3D
102
}
 70
     0
280
     1
281
     0
  0
BLOCK_RECORD
  5
40
330
1
100
AcDbSymbolTableRecord
100
AcDbBlockTableRecord
  2
block 3
340
0
102
{BLKREFS
331
41
102
}
 70
     0
280
     1
281
     0
  0
BLOCK_RECORD
  5
44
330
1
100
AcDbSymbolTableRecord
100
AcDbBlockTableRecord
  2
block 4
340
0
102
{BLKREFS
331
45
102
}
 70
     0
280
     1
281
     0
  0
BLOCK_RECORD
  5
48
330
1
100
AcDbSymbolTableRecord
100
AcDbBlockTableRecord
  2
block 5
340
0
102
{BLKREFS
331
49
102
}
 70
     0
280
     1
281
     0
  0
BLOCK_RECORD
  5
4C
330
1
100
AcDbSymbolTableRecord
100
AcDbBlockTableRecord
  2
block 6
340
0
102
{BLKREFS
331
4D
102
}
 70
     0
280
     1
281
     0
  0
BLOCK_RECORD
  5
54
330
1
100
AcDbSymbolTableRecord
100
AcDbBlockTableRecord
  2
block 7
340
0
 70
     0
280
     1
281
     0
  0
BLOCK_RECORD
  5
5D
330
1
100
AcDbSymbolTableRecord
100
AcDbBlockTableRecord
  2
block 8
340
0
 70
     0
280
     1
281
     0
  0
BLOCK_RECORD
  5
68
330
1
100
AcDbSymbolTableRecord
100
AcDbBlockTableRecord
  2
block 9
340
0
 70
     0
280
     1
281
     0
  0
BLOCK_RECORD
  5
71
330
1
100
AcDbSymbolTableRecord
100
AcDbBlockTableRecord
  2
block 10
340
0
 70
     0
280
     1
281
     0
  0
BLOCK_RECORD
  5
84
330
1
100
AcDbSymbolTableRecord
100
AcDbBlockTableRecord
  2
block 11
340
0
 70
     0
280
     1
281
     0
  0
BLOCK_RECORD
  5
8C
330
1
100
AcDbSymbolTableRecord
100
AcDbBlockTableRecord
  2
block 12
340
0
 70
     0
280
     1
281
     0
  0
BLOCK_RECORD
  5
9A
330
1
100
AcDbSymbolTableRecord
100
AcDbBlockTableRecord
  2
block 13
340
0
102
{BLKREFS
331
9B
102
}
 70
     0
280
     1
281
     0
  0
BLOCK_RECORD
  5
9E
330
1
100
AcDbSymbolTableRecord
100
AcDbBlockTableRecord
  2
block 14
340
0
102
{BLKREFS
331
9F
102
}
 70
     0
280
     1
281
     0
  0
BLOCK_RECORD
  5
A2
330
1
100
AcDbSymbolTableRecord
100
AcDbBlockTableRecord
  2
block 15
340
0
102
{BLKREFS
331
A3
102
}
 70
     0
280
     1
281
     0
  0
ENDTAB
  0
ENDSEC
  0
SECTION
  2
BLOCKS
  0
BLOCK
  5
20
330
1F
100
AcDbEntity
  8
0
100
AcDbBlockBegin
  2
*Model_Space
 70
     0
 10
0.0
 20
0.0
 30
0.0
  3
*Model_Space
  1

  0
ENDBLK
  5
21
330
1F
100
AcDbEntity
  8
0
100
AcDbBlockEnd
  0
BLOCK
  5
1C
330
1B
100
AcDbEntity
 67
     1
  8
0
100
AcDbBlockBegin
  2
*Paper_Space
 70
     0
 10
0.0
 20
0.0
 30
0.0
  3
*Paper_Space
  1

  0
ENDBLK
  5
1D
330
1B
100
AcDbEntity
 67
     1
  8
0
100
AcDbBlockEnd
  0
BLOCK
  5
24
330
23
100
AcDbEntity
 67
     1
  8
0
100
AcDbBlockBegin
  2
*Paper_Space0
 70
     0
 10
0.0
 20
0.0
 30
0.0
  3
*Paper_Space0
  1

  0
ENDBLK
  5
25
330
23
100
AcDbEntity
 67
     1
  8
0
100
AcDbBlockEnd
  0
BLOCK
  5
3E
330
3C
100
AcDbEntity
  8
0
100
AcDbBlockBegin
  2
block 2
 70
     0
 10
0.0
 20
0.0
 30
0.0
  3
block 2
  1

  0
ENDBLK
  5
3F
330
3C
100
AcDbEntity
  8
0
100
AcDbBlockEnd
  0
BLOCK
  5
42
330
40
100
AcDbEntity
  8
0
100
AcDbBlockBegin
  2
block 3
 70
     0
 10
0.0
 20
0.0
 30
0.0
  3
block 3
  1

  0
ENDBLK
  5
43
330
40
100
AcDbEntity
  8
0
100
AcDbBlockEnd
  0
BLOCK
  5
46
330
44
100
AcDbEntity
  8
0
100
AcDbBlockBegin
  2
block 4
 70
     0
 10
0.0
 20
0.0
 30
0.0
  3
block 4
  1

  0
INSERT
  5
49
330
44
100
AcDbEntity
  8
Layer 1
100
AcDbBlockReference
  2
block 5
 10
0.0
 20
0.0
 30
0.0
  0
INSERT
  5
4D
330
44
100
AcDbEntity
  8
Layer 1
100
AcDbBlockReference
  2
block 6
 10
0.0
 20
0.0
 30
0.0
  0
ENDBLK
  5
47
330
44
100
AcDbEntity
  8
0
100
AcDbBlockEnd
  0
BLOCK
  5
4A
330
48
100
AcDbEntity
  8
0
100
AcDbBlockBegin
  2
block 5
 70
     0
 10
0.0
 20
0.0
 30
0.0
  3
block 5
  1

  0
ENDBLK
  5
4B
330
48
100
AcDbEntity
  8
0
100
AcDbBlockEnd
  0
BLOCK
  5
4E
330
4C
100
AcDbEntity
  8
0
100
AcDbBlockBegin
  2
block 6
 70
     0
 10
0.0
 20
0.0
 30
0.0
  3
block 6
  1

  0
ENDBLK
  5
4F
330
4C
100
AcDbEntity
  8
0
100
AcDbBlockEnd
  0
BLOCK
  5
56
330
54
100
AcDbEntity
  8
0
100
AcDbBlockBegin
  2
block 7
 70
     0
 10
0.0
 20
0.0
 30
0.0
  3
block 7
  1

  0
SPLINE
  5
58
330
54
100
AcDbEntity
  8
Layer 1
 62
   250
370
     9
100
AcDbSpline
210
0.0
220
0.0
230
1.0
 70
    11
 71
     3
 72
    62
 73
    58
 74
     0
 42
0.000000001
 43
0.0000000001
 40
0.0
 40
0.0
 40
0.0
 40
0.0
 40
1.0
 40
1.0
 40
1.0
 40
2.0
 40
2.0
 40
2.0
 40
3.0
 40
3.0
 40
3.0
 40
4.0
 40
4.0
 40
4.0
 40
5.0
 40
5.0
 40
5.0
 40
6.0
 40
6.0
 40
6.0
 40
7.0
 40
7.0
 40
7.0
 40
8.0
 40
8.0
 40
8.0
 40
9.0
 40
9.0
 40
9.0
 40
10.0
 40
10.0
 40
10.0
 40
11.0
 40
11.0
 40
11.0
 40
12.0
 40
12.0
 40
12.0
 40
13.0
 40
13.0
 40
13.0
 40
14.0
 40
14.0
 40
14.0
 40
15.0
 40
15.0
 40
15.0
 40
16.0
 40
16.0
 40
16.0
 40
17.0
 40
17.0
 40
17.0
 40
18.0
 40
18.0
 40
18.0
 40
19.0
 40
19.0
 40
19.0
 40
19.0
 10
196.5874836748114
 20
-96.54621715251275
 30
0.0
 10
196.5874836748114
 20
-96.54621715251275
 30
0.0
 10
196.6894585011749
 20
-92.57522784143953
 30
0.0
 10
196.6894585011749
 20
-92.24432642008128
 30
0.0
 10
196.6894585011749
 20
-91.9135972534973
 30
0.0
 10
196.6894585011749
 20
-88.85280216962708
 30
0.0
 10
196.6894585011749
 20
-88.45954451998581
 30
0.0
 10
196.6894585011749
 20
-88.06680363466734
 30
0.0
 10
196.5874836748114
 20
-86.55681828348233
 30
0.0
 10
196.5874836748114
 20
-86.47413599183634
 30
0.0
 10
196.5874836748114
 20
-86.39145370019035
 30
0.0
 10
196.6302028588285
 20
-85.17120087931484
 30
0.0
 10
196.5874836748114
 20
-84.98499346833709
 30
0.0
 10
196.5454535098914
 20
-84.7989583121336
 30
0.0
 10
198.1370876240768
 20
-84.98499346833709
 30
0.0
 10
198.1370876240768
 20
-84.98499346833709
 30
0.0
 10
198.1370876240768
 20
-84.98499346833709
 30
0.0
 10
201.9432291161809
 20
-85.06784801475735
 30
0.0
 10
202.0052408349154
 20
-85.06784801475735
 30
0.0
 10
202.0672525536499
 20
-85.06784801475735
 30
0.0
 10
204.7971462161618
 20
-85.15070256117761
 30
0.0
 10
205.3559407038693
 20
-85.06784801475735
 30
0.0
 10
205.9140461724798
 20
-84.98499346833709
 30
0.0
 10
207.0722872746209
 20
-84.98499346833709
 30
0.0
 10
207.0722872746209
 20
-84.98499346833709
 30
0.0
 10
207.0722872746209
 20
-84.98499346833709
 30
0.0
 10
208.2918510763993
 20
-84.94382457728836
 30
0.0
 10
208.3958929600538
 20
-84.90248343146536
 30
0.0
 10
208.4992458246113
 20
-84.86097003086809
 30
0.0
 10
208.3958929600538
 20
-85.10918916058034
 30
0.0
 10
208.3958929600538
 20
-85.2953965715581
 30
0.0
 10
208.3958929600538
 20
-85.2953965715581
 30
0.0
 10
208.2298393576647
 20
-89.22470022725979
 30
0.0
 10
208.2505099305762
 20
-89.96935761639655
 30
0.0
 10
208.2711805034878
 20
-90.71418726030756
 30
0.0
 10
208.3958929600538
 20
-92.84411754406328
 30
0.0
 10
208.3958929600538
 20
-93.21653236601878
 30
0.0
 10
208.3958929600538
 20
-93.58894718797429
 30
0.0
 10
208.3125216493108
 20
-96.38085256922076
 30
0.0
 10
208.3958929600538
 20
-96.54621715251275
 30
0.0
 10
208.4778862326028
 20
-96.71192624535327
 30
0.0
 10
208.3958929600538
 20
-96.79340275357944
 30
0.0
 10
208.3958929600538
 20
-96.79340275357944
 30
0.0
 10
208.3958929600538
 20
-96.79340275357944
 30
0.0
 10
206.0993923095863
 20
-96.69125567244178
 30
0.0
 10
205.6453287246303
 20
-96.69125567244178
 30
0.0
 10
205.1898871014803
 20
-96.69125567244178
 30
0.0
 10
203.1007811992248
 20
-96.79340275357944
 30
0.0
 10
202.7700520326408
 20
-96.79340275357944
 30
0.0
 10
202.4393228660569
 20
-96.79340275357944
 30
0.0
 10
199.1713052887488
 20
-96.67041284475601
 30
0.0
 10
198.7172417037929
 20
-96.67041284475601
 30
0.0
 10
198.2618000806429
 20
-96.67041284475601
 30
0.0
 10
196.5874836748114
 20
-96.79340275357944
 30
0.0
 10
196.5874836748114
 20
-96.79340275357944
 30
0.0
 10
196.5874836748114
 20
-96.79340275357944
 30
0.0
 10
196.5874836748114
 20
-96.54621715251275
 30
0.0
 10
196.5874836748114
 20
-96.54621715251275
 30
0.0
  0
SPLINE
  5
59
330
54
100
AcDbEntity
  8
Layer 1
 62
   250
370
     9
100
AcDbSpline
210
0.0
220
0.0
230
1.0
 70
     9
 71
     3
 72
    86
 73
    82
 74
     0
 42
0.000000001
 43
0.0000000001
 40
0.0
 40
0.0
 40
0.0
 40
0.0
 40
1.0
 40
1.0
 40
1.0
 40
2.0
 40
2.0
 40
2.0
 40
3.0
 40
3.0
 40
3.0
 40
4.0
 40
4.0
 40
4.0
 40
5.0
 40
5.0
 40
5.0
 40
6.0
 40
6.0
 40
6.0
 40
7.0
 40
7.0
 40
7.0
 40
8.0
 40
8.0
 40
8.0
 40
9.0
 40
9.0
 40
9.0
 40
10.0
 40
10.0
 40
10.0
 40
11.0
 40
11.0
 40
11.0
 40
12.0
 40
12.0
 40
12.0
 40
13.0
 40
13.0
 40
13.0
 40
14.0
 40
14.0
 40
14.0
 40
15.0
 40
15.0
 40
15.0
 40
16.0
 40
16.0
 40
16.0
 40
17.0
 40
17.0
 40
17.0
 40
18.0
 40
18.0
 40
18.0
 40
19.0
 40
19.0
 40
19.0
 40
20.0
 40
20.0
 40
20.0
 40
21.0
 40
21.0
 40
21.0
 40
22.0
 40
22.0
 40
22.0
 40
23.0
 40
23.0
 40
23.0
 40
24.0
 40
24.0
 40
24.0
 40
25.0
 40
25.0
 40
25.0
 40
26.0
 40
26.0
 40
26.0
 40
27.0
 40
27.0
 40
27.0
 40
27.0
 10
202.7700520326408
 20
-96.44079723066411
 30
0.0
 10
202.6232909649692
 20
-96.44079723066411
 30
0.0
 10
201.8440103662057
 20
-96.41461450497622
 30
0.0
 10
201.0185654879398
 20
-96.3867092315457
 30
0.0
 10
200.0105305489557
 20
-96.35277504101598
 30
0.0
 10
198.9680446551191
 20
-96.31780732184068
 30
0.0
 10
198.7172417037929
 20
-96.31780732184068
 30
0.0
 10
198.387201556306
 20
-96.31780732184068
 30
0.0
 10
197.4694281190354
 20
-96.3779242380583
 30
0.0
 10
196.9437065479863
 20
-96.41461450497622
 30
0.0
 10
196.9616210445096
 20
-95.71388208327638
 30
0.0
 10
197.0422362788644
 20
-92.54542776549213
 30
0.0
 10
197.0422362788644
 20
-92.24432642008128
 30
0.0
 10
197.0422362788644
 20
-92.24432642008128
 30
0.0
 10
197.0422362788644
 20
-88.45954451998581
 30
0.0
 10
197.0422362788644
 20
-88.45954451998581
 30
0.0
 10
197.0422362788644
 20
-88.179458257035
 30
0.0
 10
196.995382980265
 20
-87.39466550549508
 30
0.0
 10
196.9636881018007
 20
-86.8751451063194
 30
0.0
 10
196.9505967389568
 20
-86.66344398875081
 30
0.0
 10
196.9409504715981
 20
-86.50651988939769
 30
0.0
 10
196.940261452501
 20
-86.47034638680256
 30
0.0
 10
196.940261452501
 20
-86.45932208124975
 30
0.0
 10
196.9409504715981
 20
-86.41264103742463
 30
0.0
 10
196.9437065479863
 20
-86.34494491113946
 30
0.0
 10
196.9574869299273
 20
-85.80440942950376
 30
0.0
 10
196.9609320254125
 20
-85.46954614833747
 30
0.0
 10
196.9574869299273
 20
-85.25508895438068
 30
0.0
 10
196.9616210445096
 20
-85.25508895438068
 30
0.0
 10
196.9657551590919
 20
-85.25491669960642
 30
0.0
 10
196.9698892736742
 20
-85.25491669960642
 30
0.0
 10
197.4039713048157
 20
-85.25491669960642
 30
0.0
 10
198.0895453063804
 20
-85.33449840531568
 30
0.0
 10
198.0957464782538
 20
-85.335359679187
 30
0.0
 10
198.0957464782538
 20
-85.335359679187
 30
0.0
 10
198.1129719556801
 20
-85.33725448170388
 30
0.0
 10
198.1129719556801
 20
-85.33725448170388
 30
0.0
 10
198.1129719556801
 20
-85.33725448170388
 30
0.0
 10
198.1288193949122
 20
-85.33759899125241
 30
0.0
 10
198.1288193949122
 20
-85.33759899125241
 30
0.0
 10
198.7654730405864
 20
-85.35137937319341
 30
0.0
 10
201.9418510779868
 20
-85.42045353767267
 30
0.0
 10
202.0052408349154
 20
-85.42045353767267
 30
0.0
 10
202.0135090640799
 20
-85.42062579244692
 30
0.0
 10
202.0514051144177
 20
-85.4216593210925
 30
0.0
 10
202.1134168331522
 20
-85.42338186883513
 30
0.0
 10
202.441389923348
 20
-85.43165009799974
 30
0.0
 10
203.4363334994881
 20
-85.45731605936484
 30
0.0
 10
204.2521321103953
 20
-85.45731605936484
 30
0.0
 10
204.8453775529553
 20
-85.45731605936484
 30
0.0
 10
205.2229600181387
 20
-85.44405244174663
 30
0.0
 10
205.4069281170511
 20
-85.41683618741314
 30
0.0
 10
205.9333387071972
 20
-85.33863251989798
 30
0.0
 10
207.060573949971
 20
-85.33777124602668
 30
0.0
 10
207.0722872746209
 20
-85.33777124602668
 30
0.0
 10
207.5256618404797
 20
-85.3224405711173
 30
0.0
 10
207.832964357764
 20
-85.30762666053073
 30
0.0
 10
208.0431151823642
 20
-85.29367402381547
 30
0.0
 10
208.0307128386173
 20
-85.58478459231908
 30
0.0
 10
207.8784396181693
 20
-89.24519854539703
 30
0.0
 10
207.8977321528867
 20
-89.97917613852951
 30
0.0
 10
207.9087564584395
 20
-90.34504527906305
 30
0.0
 10
207.9425183941949
 20
-91.02993026153072
 30
0.0
 10
207.9755913108533
 20
-91.69242212334426
 30
0.0
 10
208.0086642275117
 20
-92.35198565399533
 30
0.0
 10
208.0431151823642
 20
-93.03377005052629
 30
0.0
 10
208.0431151823642
 20
-93.21653236601878
 30
0.0
 10
208.0431151823642
 20
-93.30093720540741
 30
0.0
 10
208.0389810677819
 20
-93.51057126568486
 30
0.0
 10
208.0327798959085
 20
-93.78600664973058
 30
0.0
 10
207.999017960153
 20
-95.44326983291002
 30
0.0
 10
207.9997069792501
 20
-96.11747501937342
 30
0.0
 10
208.0224446094527
 20
-96.42426077233492
 30
0.0
 10
207.3437607988585
 20
-96.39497746071029
 30
0.0
 10
205.9912163113494
 20
-96.33847789475218
 30
0.0
 10
205.6453287246303
 20
-96.33847789475218
 30
0.0
 10
205.3917696969159
 20
-96.33847789475218
 30
0.0
 10
204.6841470842456
 20
-96.36776120637682
 30
0.0
 10
203.999951120875
 20
-96.39601098935585
 30
0.0
 10
203.4411566331675
 20
-96.41909312910705
 30
0.0
 10
202.9154350621184
 20
-96.44079723066411
 30
0.0
 10
202.7700520326408
 20
-96.44079723066411
 30
0.0
  0
SPLINE
  5
5A
330
54
100
AcDbEntity
  8
Layer 1
 62
   250
370
     9
100
AcDbSpline
210
0.0
220
0.0
230
1.0
 70
     8
 71
     3
 72
    11
 73
     7
 74
     0
 42
0.000000001
 43
0.0000000001
 40
0.0
 40
0.0
 40
0.0
 40
0.0
 40
1.0
 40
1.0
 40
1.0
 40
2.0
 40
2.0
 40
2.0
 40
2.0
 10
196.5874836748114
 20
-96.79340275357944
 30
0.0
 10
196.5874836748114
 20
-96.79340275357944
 30
0.0
 10
202.1306423105785
 20
-91.1884046538522
 30
0.0
 10
202.4916883174327
 20
-90.88902585618399
 30
0.0
 10
202.8534233433838
 20
-90.5899915680643
 30
0.0
 10
207.8991101910808
 20
-85.56411401940758
 30
0.0
 10
208.3958929600538
 20
-84.90248343146536
 30
0.0
  0
SPLINE
  5
5B
330
54
100
AcDbEntity
  8
Layer 1
 62
   250
370
     9
100
AcDbSpline
210
0.0
220
0.0
230
1.0
 70
     8
 71
     3
 72
    11
 73
     7
 74
     0
 42
0.000000001
 43
0.0000000001
 40
0.0
 40
0.0
 40
0.0
 40
0.0
 40
1.0
 40
1.0
 40
1.0
 40
2.0
 40
2.0
 40
2.0
 40
2.0
 10
196.5874836748114
 20
-84.98499346833709
 30
0.0
 10
196.5874836748114
 20
-84.98499346833709
 30
0.0
 10
201.4037271631908
 20
-89.57076006875315
 30
0.0
 10
202.5419867115173
 20
-90.84544539829558
 30
0.0
 10
203.6802462598438
 20
-92.12030298261229
 30
0.0
 10
207.7337456077888
 20
-96.33813338520367
 30
0.0
 10
208.3958929600538
 20
-96.79340275357944
 30
0.0
  0
ENDBLK
  5
57
330
54
100
AcDbEntity
  8
0
100
AcDbBlockEnd
  0
BLOCK
  5
5F
330
5D
100
AcDbEntity
  8
0
100
AcDbBlockBegin
  2
block 8
 70
     0
 10
0.0
 20
0.0
 30
0.0
  3
block 8
  1

  0
SPLINE
  5
61
330
5D
100
AcDbEntity
  8
Layer 1
 62
   250
370
     9
100
AcDbSpline
210
0.0
220
0.0
230
1.0
 70
     8
 71
     3
 72
    11
 73
     7
 74
     0
 42
0.000000001
 43
0.0000000001
 40
0.0
 40
0.0
 40
0.0
 40
0.0
 40
1.0
 40
1.0
 40
1.0
 40
2.0
 40
2.0
 40
2.0
 40
2.0
 10
84.27048066469629
 20
-93.93586830333894
 30
0.0
 10
84.27048066469629
 20
-93.93586830333894
 30
0.0
 10
86.9459418185413
 20
-94.08676348559289
 30
0.0
 10
88.26369084164936
 20
-94.08676348559289
 30
0.0
 10
89.58143986475743
 20
-94.08676348559289
 30
0.0
 10
92.46515704068579
 20
-93.95137123302259
 30
0.0
 10
92.57522784143953
 20
-93.93173418875665
 30
0.0
  0
SPLINE
  5
62
330
5D
100
AcDbEntity
  8
Layer 1
 62
   250
370
     9
100
AcDbSpline
210
0.0
220
0.0
230
1.0
 70
     8
 71
     3
 72
    20
 73
    16
 74
     0
 42
0.000000001
 43
0.0000000001
 40
0.0
 40
0.0
 40
0.0
 40
0.0
 40
1.0
 40
1.0
 40
1.0
 40
2.0
 40
2.0
 40
2.0
 40
3.0
 40
3.0
 40
3.0
 40
4.0
 40
4.0
 40
4.0
 40
5.0
 40
5.0
 40
5.0
 40
5.0
 10
84.27048066469629
 20
-93.93586830333894
 30
0.0
 10
84.27048066469629
 20
-93.93586830333894
 30
0.0
 10
83.84535588181645
 20
-95.74884980245169
 30
0.0
 10
84.03690319079634
 20
-96.54535587864145
 30
0.0
 10
84.03690319079634
 20
-96.54535587864145
 30
0.0
 10
84.07187090997162
 20
-96.79340275357944
 30
0.0
 10
84.46254473799895
 20
-96.79340275357944
 30
0.0
 10
84.46254473799895
 20
-96.79340275357944
 30
0.0
 10
92.48341604675763
 20
-96.79340275357944
 30
0.0
 10
92.48341604675763
 20
-96.79340275357944
 30
0.0
 10
92.48341604675763
 20
-96.79340275357944
 30
0.0
 10
92.72422822117659
 20
-96.79340275357944
 30
0.0
 10
92.82585853799146
 20
-96.51435001927419
 30
0.0
 10
92.8808078109812
 20
-96.36328258224599
 30
0.0
 10
93.03394230530054
 20
-96.2401204186483
 30
0.0
 10
92.57522784143953
 20
-93.93173418875665
 30
0.0
  0
SPLINE
  5
63
330
5D
100
AcDbEntity
  8
Layer 1
 62
   250
370
     9
100
AcDbSpline
210
0.0
220
0.0
230
1.0
 70
     8
 71
     3
 72
     8
 73
     4
 74
     0
 42
0.000000001
 43
0.0000000001
 40
0.0
 40
0.0
 40
0.0
 40
0.0
 40
1.0
 40
1.0
 40
1.0
 40
1.0
 10
84.27048066469629
 20
-93.93586830333894
 30
0.0
 10
84.27048066469629
 20
-93.93586830333894
 30
0.0
 10
85.71139185140202
 20
-93.6647392886498
 30
0.0
 10
92.57522784143953
 20
-93.93173418875665
 30
0.0
  0
ENDBLK
  5
60
330
5D
100
AcDbEntity
  8
0
100
AcDbBlockEnd
  0
BLOCK
  5
6A
330
68
100
AcDbEntity
  8
0
100
AcDbBlockBegin
  2
block 9
 70
     0
 10
0.0
 20
0.0
 30
0.0
  3
block 9
  1

  0
SPLINE
  5
6C
330
68
100
AcDbEntity
  8
Layer 1
 62
   250
370
     9
100
AcDbSpline
210
0.0
220
0.0
230
1.0
 70
    11
 71
     3
 72
    62
 73
    58
 74
     0
 42
0.000000001
 43
0.0000000001
 40
0.0
 40
0.0
 40
0.0
 40
0.0
 40
1.0
 40
1.0
 40
1.0
 40
2.0
 40
2.0
 40
2.0
 40
3.0
 40
3.0
 40
3.0
 40
4.0
 40
4.0
 40
4.0
 40
5.0
 40
5.0
 40
5.0
 40
6.0
 40
6.0
 40
6.0
 40
7.0
 40
7.0
 40
7.0
 40
8.0
 40
8.0
 40
8.0
 40
9.0
 40
9.0
 40
9.0
 40
10.0
 40
10.0
 40
10.0
 40
11.0
 40
11.0
 40
11.0
 40
12.0
 40
12.0
 40
12.0
 40
13.0
 40
13.0
 40
13.0
 40
14.0
 40
14.0
 40
14.0
 40
15.0
 40
15.0
 40
15.0
 40
16.0
 40
16.0
 40
16.0
 40
17.0
 40
17.0
 40
17.0
 40
18.0
 40
18.0
 40
18.0
 40
19.0
 40
19.0
 40
19.0
 40
19.0
 10
155.033430950825
 20
-96.5868692792387
 30
0.0
 10
155.033430950825
 20
-96.5868692792387
 30
0.0
 10
155.1622775219733
 20
-93.26545272190934
 30
0.0
 10
155.1622775219733
 20
-92.98898380921803
 30
0.0
 10
155.1622775219733
 20
-92.71234264175246
 30
0.0
 10
155.1622775219733
 20
-90.15211993188906
 30
0.0
 10
155.1622775219733
 20
-89.82363007737047
 30
0.0
 10
155.1622775219733
 20
-89.49514022285191
 30
0.0
 10
155.033430950825
 20
-88.23216821795933
 30
0.0
 10
155.033430950825
 20
-88.16309405348006
 30
0.0
 10
155.033430950825
 20
-88.09401988900081
 30
0.0
 10
155.0864854212978
 20
-87.07323809672129
 30
0.0
 10
155.033430950825
 20
-86.91751978078798
 30
0.0
 10
154.9796874612551
 20
-86.76197371962896
 30
0.0
 10
156.9868000909616
 20
-86.91751978078798
 30
0.0
 10
156.9868000909616
 20
-86.91751978078798
 30
0.0
 10
156.9868000909616
 20
-86.91751978078798
 30
0.0
 10
161.7830620255265
 20
-86.9867662000415
 30
0.0
 10
161.8616102025901
 20
-86.9867662000415
 30
0.0
 10
161.9394693605568
 20
-86.9867662000415
 30
0.0
 10
165.3811197503214
 20
-87.05618487406928
 30
0.0
 10
166.0846082484094
 20
-86.9867662000415
 30
0.0
 10
166.7880967464974
 20
-86.91751978078798
 30
0.0
 10
168.2488172322433
 20
-86.91751978078798
 30
0.0
 10
168.2488172322433
 20
-86.91751978078798
 30
0.0
 10
168.2488172322433
 20
-86.91751978078798
 30
0.0
 10
169.7860188377618
 20
-86.88324108070975
 30
0.0
 10
169.9162434471042
 20
-86.84844561630873
 30
0.0
 10
170.0464680564467
 20
-86.81399466145622
 30
0.0
 10
169.9162434471042
 20
-87.02138940966827
 30
0.0
 10
169.9162434471042
 20
-87.17727998037583
 30
0.0
 10
169.9162434471042
 20
-87.17727998037583
 30
0.0
 10
169.7081596797952
 20
-90.46321205420712
 30
0.0
 10
169.7343424054831
 20
-91.08608531794029
 30
0.0
 10
169.7598361120739
 20
-91.70895858167346
 30
0.0
 10
169.9162434471042
 20
-93.49041745709614
 30
0.0
 10
169.9162434471042
 20
-93.802026343737
 30
0.0
 10
169.9162434471042
 20
-94.11346297560358
 30
0.0
 10
169.8122015634497
 20
-96.4487209502802
 30
0.0
 10
169.9162434471042
 20
-96.5868692792387
 30
0.0
 10
170.0209743498558
 20
-96.72536211774575
 30
0.0
 10
169.9162434471042
 20
-96.79340275357944
 30
0.0
 10
169.9162434471042
 20
-96.79340275357944
 30
0.0
 10
169.9162434471042
 20
-96.79340275357944
 30
0.0
 10
167.0230522585914
 20
-96.70796438554525
 30
0.0
 10
166.4497883698459
 20
-96.70796438554525
 30
0.0
 10
165.8765244811003
 20
-96.70796438554525
 30
0.0
 10
163.2437825112724
 20
-96.79340275357944
 30
0.0
 10
162.825547919363
 20
-96.79340275357944
 30
0.0
 10
162.4086913656478
 20
-96.79340275357944
 30
0.0
 10
158.2904242225802
 20
-96.69039439857046
 30
0.0
 10
157.7171603338346
 20
-96.69039439857046
 30
0.0
 10
157.143207425992
 20
-96.69039439857046
 30
0.0
 10
155.033430950825
 20
-96.79340275357944
 30
0.0
 10
155.033430950825
 20
-96.79340275357944
 30
0.0
 10
155.033430950825
 20
-96.79340275357944
 30
0.0
 10
155.033430950825
 20
-96.5868692792387
 30
0.0
 10
155.033430950825
 20
-96.5868692792387
 30
0.0
  0
SPLINE
  5
6D
330
68
100
AcDbEntity
  8
Layer 1
 62
   250
370
     9
100
AcDbSpline
210
0.0
220
0.0
230
1.0
 70
    11
 71
     3
 72
    83
 73
    79
 74
     0
 42
0.000000001
 43
0.0000000001
 40
0.0
 40
0.0
 40
0.0
 40
0.0
 40
1.0
 40
1.0
 40
1.0
 40
2.0
 40
2.0
 40
2.0
 40
3.0
 40
3.0
 40
3.0
 40
4.0
 40
4.0
 40
4.0
 40
5.0
 40
5.0
 40
5.0
 40
6.0
 40
6.0
 40
6.0
 40
7.0
 40
7.0
 40
7.0
 40
8.0
 40
8.0
 40
8.0
 40
9.0
 40
9.0
 40
9.0
 40
10.0
 40
10.0
 40
10.0
 40
11.0
 40
11.0
 40
11.0
 40
12.0
 40
12.0
 40
12.0
 40
13.0
 40
13.0
 40
13.0
 40
14.0
 40
14.0
 40
14.0
 40
15.0
 40
15.0
 40
15.0
 40
16.0
 40
16.0
 40
16.0
 40
17.0
 40
17.0
 40
17.0
 40
18.0
 40
18.0
 40
18.0
 40
19.0
 40
19.0
 40
19.0
 40
20.0
 40
20.0
 40
20.0
 40
21.0
 40
21.0
 40
21.0
 40
22.0
 40
22.0
 40
22.0
 40
23.0
 40
23.0
 40
23.0
 40
24.0
 40
24.0
 40
24.0
 40
25.0
 40
25.0
 40
25.0
 40
26.0
 40
26.0
 40
26.0
 40
26.0
 10
162.825547919363
 20
-96.44062497588985
 30
0.0
 10
162.6381347249655
 20
-96.44062497588985
 30
0.0
 10
161.653526435281
 20
-96.41874861955852
 30
0.0
 10
160.6124185796385
 20
-96.39549422503307
 30
0.0
 10
159.3425563837755
 20
-96.36707218727977
 30
0.0
 10
158.0299750038953
 20
-96.33778887565513
 30
0.0
 10
157.7171603338346
 20
-96.33778887565513
 30
0.0
 10
157.2844563408872
 20
-96.33778887565513
 30
0.0
 10
156.0290635460622
 20
-96.39377167729044
 30
0.0
 10
155.392409900388
 20
-96.42322724368934
 30
0.0
 10
155.4192816451729
 20
-95.7243896245064
 30
0.0
 10
155.5143662805658
 20
-93.23461911731635
 30
0.0
 10
155.5143662805658
 20
-92.98898380921803
 30
0.0
 10
155.5143662805658
 20
-92.98898380921803
 30
0.0
 10
155.5143662805658
 20
-89.82363007737047
 30
0.0
 10
155.5143662805658
 20
-89.82363007737047
 30
0.0
 10
155.5143662805658
 20
-89.60090465424908
 30
0.0
 10
155.4654459246753
 20
-89.03969859970187
 30
0.0
 10
155.4144585114936
 20
-88.48383244315682
 30
0.0
 10
155.3993000913585
 20
-88.31467825483105
 30
0.0
 10
155.3868977476116
 20
-88.18789874097387
 30
0.0
 10
155.3855197094175
 20
-88.15293102179857
 30
0.0
 10
155.3862087285145
 20
-88.15086396450743
 30
0.0
 10
155.3875867667087
 20
-88.11400144281526
 30
0.0
 10
155.3896538239998
 20
-88.06129148189093
 30
0.0
 10
155.405501263232
 20
-87.65683727192259
 30
0.0
 10
155.4117024351054
 20
-87.38760305975032
 30
0.0
 10
155.4089463587172
 20
-87.20208466786962
 30
0.0
 10
155.4406412371815
 20
-87.20156790354684
 30
0.0
 10
155.475781211131
 20
-87.2012233939983
 30
0.0
 10
155.51574431876
 20
-87.2012233939983
 30
0.0
 10
156.0745388064674
 20
-87.2012233939983
 30
0.0
 10
156.950971097915
 20
-87.26874726550921
 30
0.0
 10
156.9592393270796
 20
-87.26926402983199
 30
0.0
 10
156.9592393270796
 20
-87.26926402983199
 30
0.0
 10
156.9819769572823
 20
-87.27029755847757
 30
0.0
 10
156.9819769572823
 20
-87.27029755847757
 30
0.0
 10
157.4732475734789
 20
-87.27718774944808
 30
0.0
 10
161.7830620255265
 20
-87.33937172295682
 30
0.0
 10
161.8616102025901
 20
-87.33937172295682
 30
0.0
 10
161.8719454890459
 20
-87.33937172295682
 30
0.0
 10
161.9222438831305
 20
-87.3404052516024
 30
0.0
 10
162.0035481365824
 20
-87.3417832897965
 30
0.0
 10
162.4155815566183
 20
-87.34884573554126
 30
0.0
 10
163.6675292559581
 20
-87.3702053275498
 30
0.0
 10
164.6941677105625
 20
-87.3702053275498
 30
0.0
 10
165.431418144406
 20
-87.3702053275498
 30
0.0
 10
165.8971950540118
 20
-87.3596977863198
 30
0.0
 10
166.1197482223589
 20
-87.33764917521419
 30
0.0
 10
166.7977430138561
 20
-87.27098657757462
 30
0.0
 10
168.2336588121082
 20
-87.27029755847757
 30
0.0
 10
168.2488172322433
 20
-87.27029755847757
 30
0.0
 10
168.8992512598585
 20
-87.25582815743953
 30
0.0
 10
169.3050835080209
 20
-87.24135875640147
 30
0.0
 10
169.5600205739294
 20
-87.22878415788031
 30
0.0
 10
169.5283256954651
 20
-87.73211260827531
 30
0.0
 10
169.3574489593967
 20
-90.51213241009767
 30
0.0
 10
169.3822536468905
 20
-91.10089922852685
 30
0.0
 10
169.3946559906374
 20
-91.4102688031023
 30
0.0
 10
169.4380641937516
 20
-91.98680553255886
 30
0.0
 10
169.4800943586716
 20
-92.54439423684654
 30
0.0
 10
169.5214355044946
 20
-93.0906141260329
 30
0.0
 10
169.5634656694147
 20
-93.65543753083962
 30
0.0
 10
169.5634656694147
 20
-93.802026343737
 30
0.0
 10
169.5634656694147
 20
-93.8717895273133
 30
0.0
 10
169.5586425357353
 20
-94.04542233976989
 30
0.0
 10
169.5510633256678
 20
-94.27331540611918
 30
0.0
 10
169.51316727533
 20
-95.52543536023323
 30
0.0
 10
169.5090331607477
 20
-96.12160913395571
 30
0.0
 10
169.5331488291445
 20
-96.42942841556278
 30
0.0
 10
168.7180392373344
 20
-96.40617402103735
 30
0.0
 10
166.8990288211224
 20
-96.35535886262992
 30
0.0
 10
166.4497883698459
 20
-96.35535886262992
 30
0.0
 10
166.134906642494
 20
-96.35535886262992
 30
0.0
 10
165.2446939691055
 20
-96.37981904057518
 30
0.0
 10
164.3841091168901
 20
-96.40324568987489
 30
0.0
 10
163.6792425806079
 20
-96.42253822459229
 30
0.0
 10
163.0129611137606
 20
-96.44062497588985
 30
0.0
 10
162.825547919363
 20
-96.44062497588985
 30
0.0
  0
SPLINE
  5
6E
330
68
100
AcDbEntity
  8
Layer 1
 62
   250
370
     9
100
AcDbSpline
210
0.0
220
0.0
230
1.0
 70
     8
 71
     3
 72
    11
 73
     7
 74
     0
 42
0.000000001
 43
0.0000000001
 40
0.0
 40
0.0
 40
0.0
 40
0.0
 40
1.0
 40
1.0
 40
1.0
 40
2.0
 40
2.0
 40
2.0
 40
2.0
 10
155.033430950825
 20
-96.79340275357944
 30
0.0
 10
155.033430950825
 20
-96.79340275357944
 30
0.0
 10
162.0193955758146
 20
-92.10566132679998
 30
0.0
 10
162.4748371989646
 20
-91.85537513979658
 30
0.0
 10
162.9302788221147
 20
-91.60526120756744
 30
0.0
 10
169.2906141069829
 20
-87.40190020601412
 30
0.0
 10
169.9162434471042
 20
-86.84844561630873
 30
0.0
  0
SPLINE
  5
6F
330
68
100
AcDbEntity
  8
Layer 1
 62
   250
370
     9
100
AcDbSpline
210
0.0
220
0.0
230
1.0
 70
     8
 71
     3
 72
    11
 73
     7
 74
     0
 42
0.000000001
 43
0.0000000001
 40
0.0
 40
0.0
 40
0.0
 40
0.0
 40
1.0
 40
1.0
 40
1.0
 40
2.0
 40
2.0
 40
2.0
 40
2.0
 10
155.033430950825
 20
-86.91751978078798
 30
0.0
 10
155.033430950825
 20
-86.91751978078798
 30
0.0
 10
161.1036891958352
 20
-90.7526000749681
 30
0.0
 10
162.5382269558932
 20
-91.81885712765293
 30
0.0
 10
163.9727647159512
 20
-92.88545868988627
 30
0.0
 10
169.0825303396738
 20
-96.41254744768506
 30
0.0
 10
169.9162434471042
 20
-96.79340275357944
 30
0.0
  0
ENDBLK
  5
6B
330
68
100
AcDbEntity
  8
0
100
AcDbBlockEnd
  0
BLOCK
  5
73
330
71
100
AcDbEntity
  8
0
100
AcDbBlockBegin
  2
block 10
 70
     0
 10
0.0
 20
0.0
 30
0.0
  3
block 10
  1

  0
SPLINE
  5
75
330
71
100
AcDbEntity
  8
Layer 1
 62
   250
370
     9
100
AcDbSpline
210
0.0
220
0.0
230
1.0
 70
     9
 71
     3
 72
    17
 73
    13
 74
     0
 42
0.000000001
 43
0.0000000001
 40
0.0
 40
0.0
 40
0.0
 40
0.0
 40
1.0
 40
1.0
 40
1.0
 40
2.0
 40
2.0
 40
2.0
 40
3.0
 40
3.0
 40
3.0
 40
4.0
 40
4.0
 40
4.0
 40
4.0
 10
167.4660915379946
 20
-114.934586559808
 30
0.0
 10
167.6273220067042
 20
-118.3665906822139
 30
0.0
 10
164.976665540353
 20
-121.2790744054441
 30
0.0
 10
161.5453504370442
 20
-121.4409938932508
 30
0.0
 10
158.1133463146383
 20
-121.6029133810576
 30
0.0
 10
155.2008625914081
 20
-118.9515678956093
 30
0.0
 10
155.0389431036014
 20
-115.5202527923005
 30
0.0
 10
154.8770236157946
 20
-112.0889376889916
 30
0.0
 10
157.5283691012429
 20
-109.1757649466644
 30
0.0
 10
160.9596842045517
 20
-109.0138454588576
 30
0.0
 10
164.3909993078606
 20
-108.8519259710509
 30
0.0
 10
167.3041720501878
 20
-111.5025824374021
 30
0.0
 10
167.4660915379946
 20
-114.934586559808
 30
0.0
  0
POLYLINE
  5
76
330
71
100
AcDbEntity
  8
Layer 1
 62
   250
370
     9
100
AcDb2dPolyline
 66
     1
 10
0.0
 20
0.0
 30
0.0
  0
VERTEX
  5
77
330
76
100
AcDbEntity
  8
Layer 1
 62
   250
370
     9
100
AcDbVertex
100
AcDb2dVertex
 10
165.7042697068378
 20
-110.880398192766
 30
0.0
  0
VERTEX
  5
78
330
76
100
AcDbEntity
  8
Layer 1
 62
   250
370
     9
100
AcDbVertex
100
AcDb2dVertex
 10
156.8214355076696
 20
-119.5916666367687
 30
0.0
  0
SEQEND
  5
79
330
76
100
AcDbEntity
  8
Layer 1
370
     9
  0
POLYLINE
  5
7A
330
71
100
AcDbEntity
  8
Layer 1
 62
   250
370
     9
100
AcDb2dPolyline
 66
     1
 10
0.0
 20
0.0
 30
0.0
  0
VERTEX
  5
7B
330
7A
100
AcDbEntity
  8
Layer 1
 62
   250
370
     9
100
AcDbVertex
100
AcDb2dVertex
 10
156.9240993531301
 20
-110.7611978889764
 30
0.0
  0
VERTEX
  5
7C
330
7A
100
AcDbEntity
  8
Layer 1
 62
   250
370
     9
100
AcDbVertex
100
AcDb2dVertex
 10
165.5802462693688
 20
-119.6936414631321
 30
0.0
  0
SEQEND
  5
7D
330
7A
100
AcDbEntity
  8
Layer 1
370
     9
  0
SPLINE
  5
7E
330
71
100
AcDbEntity
  8
Layer 1
 62
   250
370
     9
100
AcDbSpline
210
0.0
220
0.0
230
1.0
 70
     9
 71
     3
 72
    17
 73
    13
 74
     0
 42
0.000000001
 43
0.0000000001
 40
0.0
 40
0.0
 40
0.0
 40
0.0
 40
1.0
 40
1.0
 40
1.0
 40
2.0
 40
2.0
 40
2.0
 40
3.0
 40
3.0
 40
3.0
 40
4.0
 40
4.0
 40
4.0
 40
4.0
 10
166.7901638037885
 20
-114.9662814382723
 30
0.0
 10
166.9348578141691
 20
-118.0248372100771
 30
0.0
 10
164.5722113303847
 20
-120.6217501868584
 30
0.0
 10
161.5136555585799
 20
-120.7657551781419
 30
0.0
 10
158.4550997867751
 20
-120.9097601694253
 30
0.0
 10
155.8581868099938
 20
-118.547113685641
 30
0.0
 10
155.7141818187103
 20
-115.4885579138362
 30
0.0
 10
155.5701768274269
 20
-112.4300021420314
 30
0.0
 10
157.9328233112112
 20
-109.8337781843471
 30
0.0
 10
160.991379083016
 20
-109.6890841739666
 30
0.0
 10
164.0499348548208
 20
-109.5450791826832
 30
0.0
 10
166.6461588125051
 20
-111.9077256664675
 30
0.0
 10
166.7901638037885
 20
-114.9662814382723
 30
0.0
  0
ENDBLK
  5
74
330
71
100
AcDbEntity
  8
0
100
AcDbBlockEnd
  0
BLOCK
  5
86
330
84
100
AcDbEntity
  8
0
100
AcDbBlockBegin
  2
block 11
 70
     0
 10
0.0
 20
0.0
 30
0.0
  3
block 11
  1

  0
SPLINE
  5
88
330
84
100
AcDbEntity
  8
Layer 1
 62
   250
370
     9
100
AcDbSpline
210
0.0
220
0.0
230
1.0
 70
     9
 71
     3
 72
    74
 73
    70
 74
     0
 42
0.000000001
 43
0.0000000001
 40
0.0
 40
0.0
 40
0.0
 40
0.0
 40
1.0
 40
1.0
 40
1.0
 40
2.0
 40
2.0
 40
2.0
 40
3.0
 40
3.0
 40
3.0
 40
4.0
 40
4.0
 40
4.0
 40
5.0
 40
5.0
 40
5.0
 40
6.0
 40
6.0
 40
6.0
 40
7.0
 40
7.0
 40
7.0
 40
8.0
 40
8.0
 40
8.0
 40
9.0
 40
9.0
 40
9.0
 40
10.0
 40
10.0
 40
10.0
 40
11.0
 40
11.0
 40
11.0
 40
12.0
 40
12.0
 40
12.0
 40
13.0
 40
13.0
 40
13.0
 40
14.0
 40
14.0
 40
14.0
 40
15.0
 40
15.0
 40
15.0
 40
16.0
 40
16.0
 40
16.0
 40
17.0
 40
17.0
 40
17.0
 40
18.0
 40
18.0
 40
18.0
 40
19.0
 40
19.0
 40
19.0
 40
20.0
 40
20.0
 40
20.0
 40
21.0
 40
21.0
 40
21.0
 40
22.0
 40
22.0
 40
22.0
 40
23.0
 40
23.0
 40
23.0
 40
23.0
 10
119.7823526718773
 20
-96.58084036213951
 30
0.0
 10
119.7330878064382
 20
-96.4867892553922
 30
0.0
 10
119.7258531059192
 20
-96.35880395811517
 30
0.0
 10
119.7299872205015
 20
-96.20377466127893
 30
0.0
 10
119.7385999592146
 20
-95.85909285797967
 30
0.0
 10
119.7472126979278
 20
-95.51441105468041
 30
0.0
 10
119.7558254366409
 20
-95.16990150615544
 30
0.0
 10
119.7699503281304
 20
-94.59594859831282
 30
0.0
 10
119.7947550156242
 20
-94.02130667137315
 30
0.0
 10
119.7947550156242
 20
-93.44735376353053
 30
0.0
 10
119.7947550156242
 20
-93.20378551272336
 30
0.0
 10
119.7947550156242
 20
-90.9524156131126
 30
0.0
 10
119.7947550156242
 20
-90.66319984712587
 30
0.0
 10
119.7947550156242
 20
-90.37432859068767
 30
0.0
 10
119.7196519340458
 20
-89.26362980624313
 30
0.0
 10
119.7196519340458
 20
-89.2026516161542
 30
0.0
 10
119.7196519340458
 20
-88.90533987577715
 30
0.0
 10
119.570823809083
 20
-88.35998126046209
 30
0.0
 10
119.8188706840209
 20
-88.12244192675413
 30
0.0
 10
120.0228203367478
 20
-87.9272772675147
 30
0.0
 10
120.5891940345228
 20
-88.07576088292897
 30
0.0
 10
120.8596340301149
 20
-88.10745576139328
 30
0.0
 10
120.8596340301149
 20
-88.10745576139328
 30
0.0
 10
123.6587741118804
 20
-88.1684339514822
 30
0.0
 10
123.7045938818343
 20
-88.1684339514822
 30
0.0
 10
123.7504136517881
 20
-88.1684339514822
 30
0.0
 10
125.7582153005917
 20
-88.22923988679686
 30
0.0
 10
126.1688706824334
 20
-88.1684339514822
 30
0.0
 10
126.5795260642752
 20
-88.10745576139328
 30
0.0
 10
127.4314981777775
 20
-88.10745576139328
 30
0.0
 10
127.4314981777775
 20
-88.10745576139328
 30
0.0
 10
127.652328798382
 20
-88.09987655132573
 30
0.0
 10
127.872125890341
 20
-88.04372149491616
 30
0.0
 10
128.0939900395911
 20
-88.06439206782766
 30
0.0
 10
128.3975029518416
 20
-88.09264185080669
 30
0.0
 10
128.4288533207574
 20
-88.17119002787039
 30
0.0
 10
128.4006035377783
 20
-88.44128551391397
 30
0.0
 10
128.3668416020228
 20
-88.77304820914355
 30
0.0
 10
128.3737317929933
 20
-89.11462942650606
 30
0.0
 10
128.3613294492464
 20
-89.44759790515545
 30
0.0
 10
128.3320461376218
 20
-90.22016056772274
 30
0.0
 10
128.2772691194064
 20
-91.00047469513183
 30
0.0
 10
128.2986287114149
 20
-91.77372637679615
 30
0.0
 10
128.31378713155
 20
-92.32149655895089
 30
0.0
 10
128.4054266714577
 20
-93.88832598564251
 30
0.0
 10
128.4054266714577
 20
-94.16238333149413
 30
0.0
 10
128.4054266714577
 20
-94.71807723326493
 30
0.0
 10
128.3813110030609
 20
-95.27394338980998
 30
0.0
 10
128.3788994362212
 20
-95.82980954635505
 30
0.0
 10
128.3775213980271
 20
-96.10524493040077
 30
0.0
 10
128.4770846575509
 20
-96.43907468292148
 30
0.0
 10
128.2379950308745
 20
-96.64595266681075
 30
0.0
 10
128.045414193249
 20
-96.81252303352257
 30
0.0
 10
127.7467244146779
 20
-96.76498071582614
 30
0.0
 10
127.5134914503265
 20
-96.75550670324168
 30
0.0
 10
127.1369425137887
 20
-96.74052053788084
 30
0.0
 10
126.7593600486053
 20
-96.71812741722673
 30
0.0
 10
126.3817775834219
 20
-96.71812741722673
 30
0.0
 10
126.0472588118041
 20
-96.71812741722673
 30
0.0
 10
124.5110907349312
 20
-96.79340275357944
 30
0.0
 10
124.2671779745756
 20
-96.79340275357944
 30
0.0
 10
124.0239542333169
 20
-96.79340275357944
 30
0.0
 10
121.6203111132581
 20
-96.70279674231736
 30
0.0
 10
121.2857923416403
 20
-96.70279674231736
 30
0.0
 10
120.9051092905202
 20
-96.70279674231736
 30
0.0
 10
120.509267819265
 20
-96.78978540331993
 30
0.0
 10
120.1313408445331
 20
-96.76067434646956
 30
0.0
 10
119.9391045164562
 20
-96.74586043588298
 30
0.0
 10
119.8357516518987
 20
-96.68333195282571
 30
0.0
 10
119.7823526718773
 20
-96.58084036213951
 30
0.0
  0
SPLINE
  5
89
330
84
100
AcDbEntity
  8
Layer 1
 62
   250
370
     9
100
AcDbSpline
210
0.0
220
0.0
230
1.0
 70
     9
 71
     3
 72
    83
 73
    79
 74
     0
 42
0.000000001
 43
0.0000000001
 40
0.0
 40
0.0
 40
0.0
 40
0.0
 40
1.0
 40
1.0
 40
1.0
 40
2.0
 40
2.0
 40
2.0
 40
3.0
 40
3.0
 40
3.0
 40
4.0
 40
4.0
 40
4.0
 40
5.0
 40
5.0
 40
5.0
 40
6.0
 40
6.0
 40
6.0
 40
7.0
 40
7.0
 40
7.0
 40
8.0
 40
8.0
 40
8.0
 40
9.0
 40
9.0
 40
9.0
 40
10.0
 40
10.0
 40
10.0
 40
11.0
 40
11.0
 40
11.0
 40
12.0
 40
12.0
 40
12.0
 40
13.0
 40
13.0
 40
13.0
 40
14.0
 40
14.0
 40
14.0
 40
15.0
 40
15.0
 40
15.0
 40
16.0
 40
16.0
 40
16.0
 40
17.0
 40
17.0
 40
17.0
 40
18.0
 40
18.0
 40
18.0
 40
19.0
 40
19.0
 40
19.0
 40
20.0
 40
20.0
 40
20.0
 40
21.0
 40
21.0
 40
21.0
 40
22.0
 40
22.0
 40
22.0
 40
23.0
 40
23.0
 40
23.0
 40
24.0
 40
24.0
 40
24.0
 40
25.0
 40
25.0
 40
25.0
 40
26.0
 40
26.0
 40
26.0
 40
26.0
 10
124.2671779745756
 20
-96.44079723066411
 30
0.0
 10
124.1614135431784
 20
-96.44079723066411
 30
0.0
 10
123.5619669287449
 20
-96.42047116730113
 30
0.0
 10
122.9825018681259
 20
-96.40100637780948
 30
0.0
 10
122.2400837910545
 20
-96.37602943554142
 30
0.0
 10
121.4721720073923
 20
-96.35036347417631
 30
0.0
 10
121.2857923416403
 20
-96.35036347417631
 30
0.0
 10
121.061172116002
 20
-96.35036347417631
 30
0.0
 10
120.4727498071214
 20
-96.38774276019127
 30
0.0
 10
120.0772528454147
 20
-96.41461450497622
 30
0.0
 10
120.0944783228409
 20
-95.75143362406562
 30
0.0
 10
120.1475327933138
 20
-93.65733233335651
 30
0.0
 10
120.1475327933138
 20
-93.44735376353053
 30
0.0
 10
120.1475327933138
 20
-93.44735376353053
 30
0.0
 10
120.1475327933138
 20
-90.66319984712587
 30
0.0
 10
120.1475327933138
 20
-90.66319984712587
 30
0.0
 10
120.1475327933138
 20
-90.45442706071973
 30
0.0
 10
120.1123928193642
 20
-89.87547876442349
 30
0.0
 10
120.0889661700645
 20
-89.49221189168945
 30
0.0
 10
120.0800089218029
 20
-89.33976641646713
 30
0.0
 10
120.0727742212839
 20
-89.22625052022816
 30
0.0
 10
120.0720852021868
 20
-89.19748397292632
 30
0.0
 10
120.0724297117353
 20
-89.19179956537567
 30
0.0
 10
120.0731187308324
 20
-89.15820988439447
 30
0.0
 10
120.0744967690265
 20
-89.1103230571495
 30
0.0
 10
120.0831095077396
 20
-88.78407251469635
 30
0.0
 10
120.0865546032249
 20
-88.55910777950953
 30
0.0
 10
120.0862100936763
 20
-88.40046113241378
 30
0.0
 10
120.3969577064459
 20
-88.40890161635263
 30
0.0
 10
120.8141587697096
 20
-88.45713295314615
 30
0.0
 10
120.8186373938405
 20
-88.45764971746893
 30
0.0
 10
120.8186373938405
 20
-88.45764971746893
 30
0.0
 10
120.8351738521697
 20
-88.45954451998581
 30
0.0
 10
120.8351738521697
 20
-88.45954451998581
 30
0.0
 10
120.8351738521697
 20
-88.45954451998581
 30
0.0
 10
120.8520548200474
 20
-88.46006128430859
 30
0.0
 10
120.8520548200474
 20
-88.46006128430859
 30
0.0
 10
121.5097235481816
 20
-88.47418617579812
 30
0.0
 10
123.6584296023319
 20
-88.52103947439752
 30
0.0
 10
123.7045938818343
 20
-88.52103947439752
 30
0.0
 10
123.7045938818343
 20
-88.52103947439752
 30
0.0
 10
123.7821085302524
 20
-88.52310653168867
 30
0.0
 10
123.7821085302524
 20
-88.52310653168867
 30
0.0
 10
124.0229207046713
 20
-88.52930770356213
 30
0.0
 10
124.7560370239325
 20
-88.548255728731
 30
0.0
 10
125.3575506956571
 20
-88.548255728731
 30
0.0
 10
125.9445949663437
 20
-88.548255728731
 30
0.0
 10
126.1316636511928
 20
-88.53051348698196
 30
0.0
 10
126.2205471147122
 20
-88.51724986936375
 30
0.0
 10
126.6008856562838
 20
-88.46075030340564
 30
0.0
 10
127.4232299486129
 20
-88.46006128430859
 30
0.0
 10
127.4314981777775
 20
-88.46006128430859
 30
0.0
 10
127.6991820969814
 20
-88.45110403604696
 30
0.0
 10
127.8983086160289
 20
-88.44231904255956
 30
0.0
 10
128.0481702696372
 20
-88.4338785586207
 30
0.0
 10
128.0257771489831
 20
-88.98113197645264
 30
0.0
 10
127.9324150613329
 20
-91.28590085608477
 30
0.0
 10
127.9461954432739
 20
-91.78337264415485
 30
0.0
 10
127.9537746533414
 20
-92.05346813019843
 30
0.0
 10
127.9789238503837
 20
-92.55783010923902
 30
0.0
 10
128.003384028329
 20
-93.04582788472465
 30
0.0
 10
128.0278442062743
 20
-93.52986380040226
 30
0.0
 10
128.0526488937681
 20
-94.03043617440905
 30
0.0
 10
128.0526488937681
 20
-94.16238333149413
 30
0.0
 10
128.0526488937681
 20
-94.22387828590585
 30
0.0
 10
128.0492037982828
 20
-94.37752954454799
 30
0.0
 10
128.0450696837005
 20
-94.5790676304351
 30
0.0
 10
128.0237100916919
 20
-95.63309459414728
 30
0.0
 10
128.0212985248523
 20
-96.1524427385487
 30
0.0
 10
128.0319783208565
 20
-96.42426077233492
 30
0.0
 10
127.5097018452927
 20
-96.40186765168079
 30
0.0
 10
126.6215562291953
 20
-96.36569414908567
 30
0.0
 10
126.3817775834219
 20
-96.36569414908567
 30
0.0
 10
126.1940198794758
 20
-96.36569414908567
 30
0.0
 10
125.6720879134604
 20
-96.3870537410942
 30
0.0
 10
125.1677259344198
 20
-96.40789656877998
 30
0.0
 10
124.7763630872955
 20
-96.42408851756066
 30
0.0
 10
124.3722533868757
 20
-96.44079723066411
 30
0.0
 10
124.2671779745756
 20
-96.44079723066411
 30
0.0
  0
SPLINE
  5
8A
330
84
100
AcDbEntity
  8
Layer 1
 62
     7
370
     5
100
AcDbSpline
210
0.0
220
0.0
230
1.0
 70
     8
 71
     3
 72
    11
 73
     7
 74
     0
 42
0.000000001
 43
0.0000000001
 40
0.0
 40
0.0
 40
0.0
 40
0.0
 40
1.0
 40
1.0
 40
1.0
 40
2.0
 40
2.0
 40
2.0
 40
2.0
 10
119.8478094860971
 20
-96.6635226537855
 30
0.0
 10
119.8478094860971
 20
-96.6635226537855
 30
0.0
 10
123.7965779312904
 20
-92.67014022205817
 30
0.0
 10
124.0625393027517
 20
-92.45034313009922
 30
0.0
 10
124.328500674213
 20
-92.23020152859175
 30
0.0
 10
127.9727226785103
 20
-88.61629636456468
 30
0.0
 10
128.3379027999468
 20
-88.12950437249886
 30
0.0
  0
SPLINE
  5
8B
330
84
100
AcDbEntity
  8
Layer 1
 62
     7
370
     5
100
AcDbSpline
210
0.0
220
0.0
230
1.0
 70
     8
 71
     3
 72
    11
 73
     7
 74
     0
 42
0.000000001
 43
0.0000000001
 40
0.0
 40
0.0
 40
0.0
 40
0.0
 40
1.0
 40
1.0
 40
1.0
 40
2.0
 40
2.0
 40
2.0
 40
2.0
 10
119.8488430147426
 20
-88.23096243453949
 30
0.0
 10
119.8488430147426
 20
-88.23096243453949
 30
0.0
 10
123.2625881310767
 20
-91.4805487510014
 30
0.0
 10
124.0994018244439
 20
-92.41830374208639
 30
0.0
 10
124.9369045369081
 20
-93.35588647839713
 30
0.0
 10
127.7512030388087
 20
-96.3109171308702
 30
0.0
 10
128.2379950308745
 20
-96.64595266681075
 30
0.0
  0
ENDBLK
  5
87
330
84
100
AcDbEntity
  8
0
100
AcDbBlockEnd
  0
BLOCK
  5
8E
330
8C
100
AcDbEntity
  8
0
100
AcDbBlockBegin
  2
block 12
 70
     0
 10
0.0
 20
0.0
 30
0.0
  3
block 12
  1

  0
SPLINE
  5
90
330
8C
100
AcDbEntity
  8
Layer 1
 62
   250
370
     9
100
AcDbSpline
210
0.0
220
0.0
230
1.0
 70
     9
 71
     3
 72
    17
 73
    13
 74
     0
 42
0.000000001
 43
0.0000000001
 40
0.0
 40
0.0
 40
0.0
 40
0.0
 40
1.0
 40
1.0
 40
1.0
 40
2.0
 40
2.0
 40
2.0
 40
3.0
 40
3.0
 40
3.0
 40
4.0
 40
4.0
 40
4.0
 40
4.0
 10
128.9039319881733
 20
-115.8068847366733
 30
0.0
 10
129.4420559029693
 20
-118.326627574585
 30
0.0
 10
127.8356078781973
 20
-120.8057182857708
 30
0.0
 10
125.3158650402856
 20
-121.3438422005668
 30
0.0
 10
122.7961222023739
 20
-121.8823106249113
 30
0.0
 10
120.3173760007366
 20
-120.2758626001394
 30
0.0
 10
119.7789075763921
 20
-117.7561197622276
 30
0.0
 10
119.240783661596
 20
-115.2363769243159
 30
0.0
 10
120.8468871768195
 20
-112.7572862131301
 30
0.0
 10
123.3666300147312
 20
-112.2191622983341
 30
0.0
 10
125.8867173621915
 20
-111.6810383835381
 30
0.0
 10
128.3654635638287
 20
-113.2871418987615
 30
0.0
 10
128.9039319881733
 20
-115.8068847366733
 30
0.0
  0
POLYLINE
  5
91
330
8C
100
AcDbEntity
  8
Layer 1
 62
     7
370
     9
100
AcDb2dPolyline
 66
     1
 10
0.0
 20
0.0
 30
0.0
  0
VERTEX
  5
92
330
91
100
AcDbEntity
  8
Layer 1
 62
     7
370
     9
100
AcDbVertex
100
AcDb2dVertex
 10
121.1528116559097
 20
-120.1873236461684
 30
0.0
  0
VERTEX
  5
93
330
91
100
AcDbEntity
  8
Layer 1
 62
     7
370
     9
100
AcDbVertex
100
AcDb2dVertex
 10
127.5296833991071
 20
-113.3756808527325
 30
0.0
  0
SEQEND
  5
94
330
91
100
AcDbEntity
  8
Layer 1
370
     9
  0
POLYLINE
  5
95
330
8C
100
AcDbEntity
  8
Layer 1
 62
     7
370
     9
100
AcDb2dPolyline
 66
     1
 10
0.0
 20
0.0
 30
0.0
  0
VERTEX
  5
96
330
95
100
AcDbEntity
  8
Layer 1
 62
     7
370
     9
100
AcDbVertex
100
AcDb2dVertex
 10
120.935770640339
 20
-113.5930663778517
 30
0.0
  0
VERTEX
  5
97
330
95
100
AcDbEntity
  8
Layer 1
 62
     7
370
     9
100
AcDbVertex
100
AcDb2dVertex
 10
127.7474134337749
 20
-119.9699381210492
 30
0.0
  0
SEQEND
  5
98
330
95
100
AcDbEntity
  8
Layer 1
370
     9
  0
SPLINE
  5
99
330
8C
100
AcDbEntity
  8
Layer 1
 62
   250
370
     9
100
AcDbSpline
210
0.0
220
0.0
230
1.0
 70
     9
 71
     3
 72
    17
 73
    13
 74
     0
 42
0.000000001
 43
0.0000000001
 40
0.0
 40
0.0
 40
0.0
 40
0.0
 40
1.0
 40
1.0
 40
1.0
 40
2.0
 40
2.0
 40
2.0
 40
3.0
 40
3.0
 40
3.0
 40
4.0
 40
4.0
 40
4.0
 40
4.0
 10
128.4119723528796
 20
-115.9116156394249
 30
0.0
 10
128.8922186635234
 20
-118.1598849530989
 30
0.0
 10
127.4590589416595
 20
-120.3716362546293
 30
0.0
 10
125.211134137534
 20
-120.8518825652731
 30
0.0
 10
122.96286482386
 20
-121.332128875917
 30
0.0
 10
120.7511135223296
 20
-119.898969154053
 30
0.0
 10
120.2708672116857
 20
-117.6510443499275
 30
0.0
 10
119.7906209010419
 20
-115.403119545802
 30
0.0
 10
121.2237806229058
 20
-113.1913682442716
 30
0.0
 10
123.4720499365799
 20
-112.7111219336278
 30
0.0
 10
125.7199747407054
 20
-112.2308756229839
 30
0.0
 10
127.9317260422358
 20
-113.6640353448479
 30
0.0
 10
128.4119723528796
 20
-115.9116156394249
 30
0.0
  0
ENDBLK
  5
8F
330
8C
100
AcDbEntity
  8
0
100
AcDbBlockEnd
  0
BLOCK
  5
9C
330
9A
100
AcDbEntity
  8
0
100
AcDbBlockBegin
  2
block 13
 70
     0
 10
0.0
 20
0.0
 30
0.0
  3
block 13
  1

  0
INSERT
  5
9F
330
9A
100
AcDbEntity
  8
Layer 1
100
AcDbBlockReference
  2
block 14
 10
0.0
 20
0.0
 30
0.0
  0
INSERT
  5
A3
330
9A
100
AcDbEntity
  8
Layer 1
100
AcDbBlockReference
  2
block 15
 10
0.0
 20
0.0
 30
0.0
  0
ENDBLK
  5
9D
330
9A
100
AcDbEntity
  8
0
100
AcDbBlockEnd
  0
BLOCK
  5
A0
330
9E
100
AcDbEntity
  8
0
100
AcDbBlockBegin
  2
block 14
 70
     0
 10
0.0
 20
0.0
 30
0.0
  3
block 14
  1

  0
ENDBLK
  5
A1
330
9E
100
AcDbEntity
  8
0
100
AcDbBlockEnd
  0
BLOCK
  5
A4
330
A2
100
AcDbEntity
  8
0
100
AcDbBlockBegin
  2
block 15
 70
     0
 10
0.0
 20
0.0
 30
0.0
  3
block 15
  1

  0
ENDBLK
  5
A5
330
A2
100
AcDbEntity
  8
0
100
AcDbBlockEnd
  0
ENDSEC
  0
SECTION
  2
ENTITIES
  0
INSERT
  5
3D
330
1F
100
AcDbEntity
  8
Layer 1
100
AcDbBlockReference
  2
block 2
 10
0.0
 20
0.0
 30
0.0
  0
INSERT
  5
41
330
1F
100
AcDbEntity
  8
Layer 1
100
AcDbBlockReference
  2
block 3
 10
0.0
 20
0.0
 30
0.0
  0
INSERT
  5
45
330
1F
100
AcDbEntity
  8
Layer 1
100
AcDbBlockReference
  2
block 4
 10
0.0
 20
0.0
 30
0.0
  0
MTEXT
  5
50
330
1F
100
AcDbEntity
  8
Text
100
AcDbMText
 10
0.0
 20
-582.2120225074995
 30
0.0
 40
164.2531967804566
 41
0.0
 46
0.0
 71
     7
 72
     1
  1
\fApercu|b0|i0|c0|p34;\W1.0004;Ottomans
 73
     1
 44
1.0
  0
MTEXT
  5
51
330
1F
100
AcDbEntity
  8
Dimensions
100
AcDbMText
 10
9293.190967314245
 20
-1235.53719393063
 30
0.0
 40
125.6053857732904
 41
0.0
 46
0.0
 71
     7
 72
     1
  1
\fApercu|b0|i0|c0|p34;\W1.0004;95
 73
     1
 44
1.0
  0
MTEXT
  5
52
330
1F
100
AcDbEntity
  8
Dimensions
100
AcDbMText
 10
8591.300718582878
 20
-581.0325849157273
 30
0.0
 40
125.6053857732904
 41
0.0
 46
0.0
 71
     7
 72
     1
  1
\fApercu|b0|i0|c0|p34;\W1.0004;95
 73
     1
 44
1.0
  0
MTEXT
  5
53
330
1F
100
AcDbEntity
  8
Text
100
AcDbMText
 10
8452.1548342266
 20
-1985.784383924625
 30
0.0
 40
125.6053857732904
 41
0.0
 46
0.0
 71
     7
 72
     1
  1
\fApercu|b1|i0|c0|p34;\W1.0004;AB95 
 73
     1
 44
1.0
  0
MTEXT
  5
5C
330
1F
100
AcDbEntity
  8
Dimensions
100
AcDbMText
 10
3335.144243329387
 20
-1586.648827132799
 30
0.0
 40
107.9010139416207
 41
0.0
 46
0.0
 71
     7
 72
     1
  1
\fApercu|b0|i0|c0|p34;\W1.0004;25
 73
     1
 44
1.0
  0
MTEXT
  5
64
330
1F
100
AcDbEntity
  8
Text
100
AcDbMText
 10
8450.323451632963
 20
-3975.856370388748
 30
0.0
 40
125.6053857732904
 41
0.0
 46
0.0
 71
     7
 72
     1
  1
\fApercu|b1|i0|c0|p34;\W1.0004;AB100
 73
     1
 44
1.0
  0
MTEXT
  5
70
330
1F
100
AcDbEntity
  8
Dimensions
100
AcDbMText
 10
8571.153363975854
 20
-2519.3203232329
 30
0.0
 40
125.6053857732904
 41
0.0
 46
0.0
 71
     7
 72
     1
  1
\fApercu|b0|i0|c0|p34;\W1.0004;100
 73
     1
 44
1.0
  0
MTEXT
  5
7F
330
1F
100
AcDbEntity
  8
Dimensions
100
AcDbMText
 10
6195.54404236621
 20
-1361.445625786325
 30
0.0
 40
125.6053857732904
 41
0.0
 46
0.0
 71
     7
 72
     1
  1
\fApercu|b0|i0|c0|p34;\W1.0004;70
 73
     1
 44
1.0
  0
MTEXT
  5
80
330
1F
100
AcDbEntity
  8
Dimensions
100
AcDbMText
 10
5621.615834473858
 20
-833.2379692455825
 30
0.0
 40
125.6053857732904
 41
0.0
 46
0.0
 71
     7
 72
     1
  1
\fApercu|b0|i0|c0|p34;\W1.0004;70
 73
     1
 44
1.0
  0
MTEXT
  5
81
330
1F
100
AcDbEntity
  8
Dimensions
100
AcDbMText
 10
5649.88070946725
 20
-2771.525707562754
 30
0.0
 40
125.6053857732904
 41
0.0
 46
0.0
 71
     7
 72
     1
  1
\fApercu|b0|i0|c0|p34;\W1.0004;75
 73
     1
 44
1.0
  0
MTEXT
  5
82
330
1F
100
AcDbEntity
  8
Text
100
AcDbMText
 10
5504.365862115403
 20
-1985.784383924625
 30
0.0
 40
125.6053857732904
 41
0.0
 46
0.0
 71
     7
 72
     1
  1
\fApercu|b1|i0|c0|p34;\W1.0004;AB70
 73
     1
 44
1.0
  0
MTEXT
  5
83
330
1F
100
AcDbEntity
  8
Text
100
AcDbMText
 10
5533.740796018699
 20
-3975.856370388748
 30
0.0
 40
125.6053857732904
 41
0.0
 46
0.0
 71
     7
 72
     1
  1
\fApercu|b1|i0|c0|p34;\W1.0004;AB75
 73
     1
 44
1.0
  0
INSERT
  5
9B
330
1F
100
AcDbEntity
  8
Layer 1
100
AcDbBlockReference
  2
block 13
 10
0.0
 20
0.0
 30
0.0
  0
SPLINE
  5
122
330
1F
100
AcDbEntity
  8
Furniture
370
     9
100
AcDbSpline
210
0.0
220
0.0
230
1.0
 70
     8
 71
     3
 72
    11
 73
     7
 74
     0
 42
0.000000001
 43
0.0000000001
 40
0.0
 40
0.0
 40
0.0
 40
0.0
 40
1.0
 40
1.0
 40
1.0
 40
2.0
 40
2.0
 40
2.0
 40
2.0
 10
2520.055737260711
 20
-1427.674515498383
 30
0.0
 10
2520.055737260711
 20
-1427.674515498383
 30
0.0
 10
2735.573674618285
 20
-1439.829660561816
 30
0.0
 10
2841.723057877715
 20
-1439.829660561816
 30
0.0
 10
2947.872441137144
 20
-1439.829660561816
 30
0.0
 10
3180.166143770621
 20
-1428.923331772024
 30
0.0
 10
3189.032739313467
 20
-1427.341497825412
 30
0.0
  0
SPLINE
  5
123
330
1F
100
AcDbEntity
  8
Furniture
370
     9
100
AcDbSpline
210
0.0
220
0.0
230
1.0
 70
     8
 71
     3
 72
    20
 73
    16
 74
     0
 42
0.000000001
 43
0.0000000001
 40
0.0
 40
0.0
 40
0.0
 40
0.0
 40
1.0
 40
1.0
 40
1.0
 40
2.0
 40
2.0
 40
2.0
 40
3.0
 40
3.0
 40
3.0
 40
4.0
 40
4.0
 40
4.0
 40
5.0
 40
5.0
 40
5.0
 40
5.0
 10
2520.055737260711
 20
-1427.674515498383
 30
0.0
 10
2520.055737260711
 20
-1427.674515498383
 30
0.0
 10
2485.810419890218
 20
-1573.716640832435
 30
0.0
 10
2501.240238737864
 20
-1637.8780458248
 30
0.0
 10
2501.240238737864
 20
-1637.8780458248
 30
0.0
 10
2504.05701322174
 20
-1657.859106203045
 30
0.0
 10
2535.527183317478
 20
-1657.859106203045
 30
0.0
 10
2535.527183317478
 20
-1657.859106203045
 30
0.0
 10
3181.636971826242
 20
-1657.859106203045
 30
0.0
 10
3181.636971826242
 20
-1657.859106203045
 30
0.0
 10
3181.636971826242
 20
-1657.859106203045
 30
0.0
 10
3201.035251276788
 20
-1657.859106203045
 30
0.0
 10
3209.221935737318
 20
-1635.380413277519
 30
0.0
 10
3213.648295640555
 20
-1623.211392477713
 30
0.0
 10
3225.983825276847
 20
-1613.290240970459
 30
0.0
 10
3189.032739313467
 20
-1427.341497825412
 30
0.0
  0
SPLINE
  5
124
330
1F
100
AcDbEntity
  8
Furniture
370
     9
100
AcDbSpline
210
0.0
220
0.0
230
1.0
 70
     8
 71
     3
 72
     8
 73
     4
 74
     0
 42
0.000000001
 43
0.0000000001
 40
0.0
 40
0.0
 40
0.0
 40
0.0
 40
1.0
 40
1.0
 40
1.0
 40
1.0
 10
2520.055737260711
 20
-1427.674515498383
 30
0.0
 10
2520.055737260711
 20
-1427.674515498383
 30
0.0
 10
2636.126272027392
 20
-1405.834106446052
 30
0.0
 10
3189.032739313467
 20
-1427.341497825412
 30
0.0
  0
SPLINE
  5
127
330
1F
100
AcDbEntity
  8
Furniture
370
     9
100
AcDbSpline
210
0.0
220
0.0
230
1.0
 70
     9
 71
     3
 72
    74
 73
    70
 74
     0
 42
0.000000001
 43
0.0000000001
 40
0.0
 40
0.0
 40
0.0
 40
0.0
 40
1.0
 40
1.0
 40
1.0
 40
2.0
 40
2.0
 40
2.0
 40
3.0
 40
3.0
 40
3.0
 40
4.0
 40
4.0
 40
4.0
 40
5.0
 40
5.0
 40
5.0
 40
6.0
 40
6.0
 40
6.0
 40
7.0
 40
7.0
 40
7.0
 40
8.0
 40
8.0
 40
8.0
 40
9.0
 40
9.0
 40
9.0
 40
10.0
 40
10.0
 40
10.0
 40
11.0
 40
11.0
 40
11.0
 40
12.0
 40
12.0
 40
12.0
 40
13.0
 40
13.0
 40
13.0
 40
14.0
 40
14.0
 40
14.0
 40
15.0
 40
15.0
 40
15.0
 40
16.0
 40
16.0
 40
16.0
 40
17.0
 40
17.0
 40
17.0
 40
18.0
 40
18.0
 40
18.0
 40
19.0
 40
19.0
 40
19.0
 40
20.0
 40
20.0
 40
20.0
 40
21.0
 40
21.0
 40
21.0
 40
22.0
 40
22.0
 40
22.0
 40
23.0
 40
23.0
 40
23.0
 40
23.0
 10
5380.66367234314
 20
-1640.736447517799
 30
0.0
 10
5376.69521174024
 20
-1633.160295457714
 30
0.0
 10
5376.112430812542
 20
-1622.850623331995
 30
0.0
 10
5376.445448485512
 20
-1610.362460595592
 30
0.0
 10
5377.139235304201
 20
-1582.597112111654
 30
0.0
 10
5377.833022122889
 20
-1554.831763627717
 30
0.0
 10
5378.526808941579
 20
-1527.080290880154
 30
0.0
 10
5379.664619324229
 20
-1480.846337282713
 30
0.0
 10
5381.662725362054
 20
-1434.556880739779
 30
0.0
 10
5381.662725362054
 20
-1388.32292714234
 30
0.0
 10
5381.662725362054
 20
-1368.702635909812
 30
0.0
 10
5381.662725362054
 20
-1187.346761504487
 30
0.0
 10
5381.662725362054
 20
-1164.049400132908
 30
0.0
 10
5381.662725362054
 20
-1140.779790234076
 30
0.0
 10
5375.612904303086
 20
-1051.309042095933
 30
0.0
 10
5375.612904303086
 20
-1046.397031419614
 30
0.0
 10
5375.612904303086
 20
-1022.447510438467
 30
0.0
 10
5363.624268076137
 20
-978.5169290790745
 30
0.0
 10
5383.605328454382
 20
-959.3822886196303
 30
0.0
 10
5400.034200320939
 20
-943.6610793081355
 30
0.0
 10
5445.657621517934
 20
-955.6219640623348
 30
0.0
 10
5467.442527624771
 20
-958.1750995551111
 30
0.0
 10
5467.442527624771
 20
-958.1750995551111
 30
0.0
 10
5692.923243698721
 20
-963.0871102314294
 30
0.0
 10
5696.614189574146
 20
-963.0871102314294
 30
0.0
 10
5700.305135449573
 20
-963.0871102314294
 30
0.0
 10
5862.04071862237
 20
-967.9852451713751
 30
0.0
 10
5895.120474137466
 20
-963.0871102314294
 30
0.0
 10
5928.20022965256
 20
-958.1750995551111
 30
0.0
 10
5996.829621757284
 20
-958.1750995551111
 30
0.0
 10
5996.829621757284
 20
-958.1750995551111
 30
0.0
 10
6014.618315788471
 20
-957.5645671546654
 30
0.0
 10
6032.323755401417
 20
-953.0410770968119
 30
0.0
 10
6050.195703850848
 20
-954.7061654616655
 30
0.0
 10
6074.644751341452
 20
-956.9817862269657
 30
0.0
 10
6077.17013536148
 20
-963.3091220134101
 30
0.0
 10
6074.894514596179
 20
-985.0662766474988
 30
0.0
 10
6072.174870266917
 20
-1011.790944903403
 30
0.0
 10
6072.729899721867
 20
-1039.306530132612
 30
0.0
 10
6071.730846702958
 20
-1066.128328543131
 30
0.0
 10
6069.371971519415
 20
-1128.361006179541
 30
0.0
 10
6064.959487352552
 20
-1191.218091952772
 30
0.0
 10
6066.680078662899
 20
-1253.506272534678
 30
0.0
 10
6067.901143463794
 20
-1297.631114203303
 30
0.0
 10
6075.283035214646
 20
-1423.84481225922
 30
0.0
 10
6075.283035214646
 20
-1445.921108829906
 30
0.0
 10
6075.283035214646
 20
-1490.684234371726
 30
0.0
 10
6073.340432122315
 20
-1535.461235649918
 30
0.0
 10
6073.146171813082
 20
-1580.238236928111
 30
0.0
 10
6073.035165922092
 20
-1602.425539389788
 30
0.0
 10
6081.055341546139
 20
-1629.316716482177
 30
0.0
 10
6061.79581945933
 20
-1645.981475867089
 30
0.0
 10
6046.28274619344
 20
-1659.399312940535
 30
0.0
 10
6022.222219321306
 20
-1655.569609701372
 30
0.0
 10
6003.434472271205
 20
-1654.806444200813
 30
0.0
 10
5973.102112558117
 20
-1653.599255136294
 30
0.0
 10
5942.686498426788
 20
-1651.795409407703
 30
0.0
 10
5912.27088429546
 20
-1651.795409407703
 30
0.0
 10
5885.324204257576
 20
-1651.795409407703
 30
0.0
 10
5761.580387276191
 20
-1657.859106203045
 30
0.0
 10
5741.932344570918
 20
-1657.859106203045
 30
0.0
 10
5722.339804811138
 20
-1657.859106203045
 30
0.0
 10
5528.71777945139
 20
-1650.560468870437
 30
0.0
 10
5501.771099413505
 20
-1650.560468870437
 30
0.0
 10
5471.105722027449
 20
-1650.560468870437
 30
0.0
 10
5439.2192798405
 20
-1657.567715739196
 30
0.0
 10
5408.775914236423
 20
-1655.222716292027
 30
0.0
 10
5393.290592443282
 20
-1654.029402963882
 30
0.0
 10
5384.965150619013
 20
-1648.992510660199
 30
0.0
 10
5380.66367234314
 20
-1640.736447517799
 30
0.0
  0
SPLINE
  5
128
330
1F
100
AcDbEntity
  8
Furniture
370
     9
100
AcDbSpline
210
0.0
220
0.0
230
1.0
 70
     9
 71
     3
 72
    83
 73
    79
 74
     0
 42
0.000000001
 43
0.0000000001
 40
0.0
 40
0.0
 40
0.0
 40
0.0
 40
1.0
 40
1.0
 40
1.0
 40
2.0
 40
2.0
 40
2.0
 40
3.0
 40
3.0
 40
3.0
 40
4.0
 40
4.0
 40
4.0
 40
5.0
 40
5.0
 40
5.0
 40
6.0
 40
6.0
 40
6.0
 40
7.0
 40
7.0
 40
7.0
 40
8.0
 40
8.0
 40
8.0
 40
9.0
 40
9.0
 40
9.0
 40
10.0
 40
10.0
 40
10.0
 40
11.0
 40
11.0
 40
11.0
 40
12.0
 40
12.0
 40
12.0
 40
13.0
 40
13.0
 40
13.0
 40
14.0
 40
14.0
 40
14.0
 40
15.0
 40
15.0
 40
15.0
 40
16.0
 40
16.0
 40
16.0
 40
17.0
 40
17.0
 40
17.0
 40
18.0
 40
18.0
 40
18.0
 40
19.0
 40
19.0
 40
19.0
 40
20.0
 40
20.0
 40
20.0
 40
21.0
 40
21.0
 40
21.0
 40
22.0
 40
22.0
 40
22.0
 40
23.0
 40
23.0
 40
23.0
 40
24.0
 40
24.0
 40
24.0
 40
25.0
 40
25.0
 40
25.0
 40
26.0
 40
26.0
 40
26.0
 40
26.0
 10
5741.932344570918
 20
-1629.455473845915
 30
0.0
 10
5733.412642437415
 20
-1629.455473845915
 30
0.0
 10
5685.125079856656
 20
-1627.818136953808
 30
0.0
 10
5638.447102695255
 20
-1626.250178743572
 30
0.0
 10
5578.642678924256
 20
-1624.238196969372
 30
0.0
 10
5516.784646169938
 20
-1622.17071224968
 30
0.0
 10
5501.771099413505
 20
-1622.17071224968
 30
0.0
 10
5483.677139182095
 20
-1622.17071224968
 30
0.0
 10
5436.277623729258
 20
-1625.181747042789
 30
0.0
 10
5404.418933015055
 20
-1627.3463619171
 30
0.0
 10
5405.806506652432
 20
-1573.92477687804
 30
0.0
 10
5410.080233455557
 20
-1405.237449781979
 30
0.0
 10
5410.080233455557
 20
-1388.32292714234
 30
0.0
 10
5410.080233455557
 20
-1388.32292714234
 30
0.0
 10
5410.080233455557
 20
-1164.049400132908
 30
0.0
 10
5410.080233455557
 20
-1164.049400132908
 30
0.0
 10
5410.080233455557
 20
-1147.232007647885
 30
0.0
 10
5407.249583235307
 20
-1100.595657695604
 30
0.0
 10
5405.36248308847
 20
-1069.722144263941
 30
0.0
 10
5404.640944797034
 20
-1057.442117573144
 30
0.0
 10
5404.058163869336
 20
-1048.298007302822
 30
0.0
 10
5404.002660923841
 20
-1045.9807593284
 30
0.0
 10
5404.030412396589
 20
-1045.522860028065
 30
0.0
 10
5404.085915342085
 20
-1042.817091435178
 30
0.0
 10
5404.196921233075
 20
-1038.959636723267
 30
0.0
 10
5404.890708051763
 20
-1012.678992031325
 30
0.0
 10
5405.168222779239
 20
-994.5572803271661
 30
0.0
 10
5405.140471306491
 20
-981.7777271269141
 30
0.0
 10
5430.172299724793
 20
-982.4576382092281
 30
0.0
 10
5463.779333222092
 20
-986.3428443938882
 30
0.0
 10
5464.140102367812
 20
-986.3844716030088
 30
0.0
 10
5464.140102367812
 20
-986.3844716030088
 30
0.0
 10
5465.472173059694
 20
-986.5371047031203
 30
0.0
 10
5465.472173059694
 20
-986.5371047031203
 30
0.0
 10
5465.472173059694
 20
-986.5371047031203
 30
0.0
 10
5466.831995224326
 20
-986.5787319122418
 30
0.0
 10
5466.831995224326
 20
-986.5787319122418
 30
0.0
 10
5519.809556699422
 20
-987.716542294892
 30
0.0
 10
5692.895492225972
 20
-991.4907425885612
 30
0.0
 10
5696.614189574146
 20
-991.4907425885612
 30
0.0
 10
5696.614189574146
 20
-991.4907425885612
 30
0.0
 10
5702.858270942348
 20
-991.6572514250455
 30
0.0
 10
5702.858270942348
 20
-991.6572514250455
 30
0.0
 10
5722.256550392895
 20
-992.1567779345023
 30
0.0
 10
5781.311684399708
 20
-993.6831089356182
 30
0.0
 10
5829.765755816953
 20
-993.6831089356182
 30
0.0
 10
5877.054265378802
 20
-993.6831089356182
 30
0.0
 10
5892.12331508073
 20
-992.2539080891183
 30
0.0
 10
5899.2831950496
 20
-991.1854763883376
 30
0.0
 10
5929.920820962909
 20
-986.6342348577363
 30
0.0
 10
5996.163586411341
 20
-986.5787319122418
 30
0.0
 10
5996.829621757284
 20
-986.5787319122418
 30
0.0
 10
6018.39251608214
 20
-985.8571936208054
 30
0.0
 10
6034.432867330231
 20
-985.1495310657419
 30
0.0
 10
6046.504757975423
 20
-984.469619983427
 30
0.0
 10
6044.70091224683
 20
-1028.552834442931
 30
0.0
 10
6037.180263132241
 20
-1214.210187124128
 30
0.0
 10
6038.290322042143
 20
-1254.283313771609
 30
0.0
 10
6038.900854442591
 20
-1276.040468405698
 30
0.0
 10
6040.926711953161
 20
-1316.668624508131
 30
0.0
 10
6042.897066518239
 20
-1355.978585655054
 30
0.0
 10
6044.867421083316
 20
-1394.96940486538
 30
0.0
 10
6046.865527121141
 20
-1435.29229476759
 30
0.0
 10
6046.865527121141
 20
-1445.921108829906
 30
0.0
 10
6046.865527121141
 20
-1450.874746715346
 30
0.0
 10
6046.588012393664
 20
-1463.251903560759
 30
0.0
 10
6046.254994720694
 20
-1479.486515118084
 30
0.0
 10
6044.534403410343
 20
-1564.392145989252
 30
0.0
 10
6044.340143101112
 20
-1606.227491156204
 30
0.0
 10
6045.200438756285
 20
-1628.123403154032
 30
0.0
 10
6003.129206070982
 20
-1626.31955742544
 30
0.0
 10
5931.585909327763
 20
-1623.405652786946
 30
0.0
 10
5912.27088429546
 20
-1623.405652786946
 30
0.0
 10
5897.146331648037
 20
-1623.405652786946
 30
0.0
 10
5855.10285043548
 20
-1625.126244097294
 30
0.0
 10
5814.474694333046
 20
-1626.805208198522
 30
0.0
 10
5782.949021291815
 20
-1628.109527417658
 30
0.0
 10
5750.396543758925
 20
-1629.455473845915
 30
0.0
 10
5741.932344570918
 20
-1629.455473845915
 30
0.0
  0
SPLINE
  5
129
330
1F
100
AcDbEntity
  8
Furniture
370
     5
100
AcDbSpline
210
0.0
220
0.0
230
1.0
 70
     8
 71
     3
 72
    11
 73
     7
 74
     0
 42
0.000000001
 43
0.0000000001
 40
0.0
 40
0.0
 40
0.0
 40
0.0
 40
1.0
 40
1.0
 40
1.0
 40
2.0
 40
2.0
 40
2.0
 40
2.0
 10
5385.936452165177
 20
-1647.396800977214
 30
0.0
 10
5385.936452165177
 20
-1647.396800977214
 30
0.0
 10
5704.023832797746
 20
-1325.715604623837
 30
0.0
 10
5725.447969758865
 20
-1308.010165010892
 30
0.0
 10
5746.872106719984
 20
-1290.276973925199
 30
0.0
 10
6040.427185443705
 20
-999.1640248032618
 30
0.0
 10
6069.843746556124
 20
-959.9511938109545
 30
0.0
  0
SPLINE
  5
12A
330
1F
100
AcDbEntity
  8
Furniture
370
     5
100
AcDbSpline
210
0.0
220
0.0
230
1.0
 70
     8
 71
     3
 72
    11
 73
     7
 74
     0
 42
0.000000001
 43
0.0000000001
 40
0.0
 40
0.0
 40
0.0
 40
0.0
 40
1.0
 40
1.0
 40
1.0
 40
2.0
 40
2.0
 40
2.0
 40
2.0
 10
5386.01970658342
 20
-968.1240025351126
 30
0.0
 10
5386.01970658342
 20
-968.1240025351126
 30
0.0
 10
5661.009050039023
 20
-1229.889769226501
 30
0.0
 10
5728.417377342854
 20
-1305.429278045368
 30
0.0
 10
5795.88120759218
 20
-1380.954911127861
 30
0.0
 10
6022.582988467024
 20
-1618.993168620083
 30
0.0
 10
6061.79581945933
 20
-1645.981475867089
 30
0.0
  0
SPLINE
  5
12B
330
1F
100
AcDbEntity
  8
Furniture
370
     9
100
AcDbSpline
210
0.0
220
0.0
230
1.0
 70
     9
 71
     3
 72
    17
 73
    13
 74
     0
 42
0.000000001
 43
0.0000000001
 40
0.0
 40
0.0
 40
0.0
 40
0.0
 40
1.0
 40
1.0
 40
1.0
 40
2.0
 40
2.0
 40
2.0
 40
3.0
 40
3.0
 40
3.0
 40
4.0
 40
4.0
 40
4.0
 40
4.0
 10
6115.439416280369
 20
-3189.462887141053
 30
0.0
 10
6158.787216712062
 20
-3392.437158816731
 30
0.0
 10
6029.382099290175
 20
-3592.136756708192
 30
0.0
 10
5826.407827614499
 20
-3635.484557139888
 30
0.0
 10
5623.433555938824
 20
-3678.860109044328
 30
0.0
 10
5423.761709520106
 20
-3549.454991622442
 30
0.0
 10
5380.386157615665
 20
-3346.480719946765
 30
0.0
 10
5337.038357183972
 20
-3143.506448271088
 30
0.0
 10
5466.41572313311
 20
-2943.806850379624
 30
0.0
 10
5669.389994808788
 20
-2900.459049947931
 30
0.0
 10
5872.39201795721
 20
-2857.111249516238
 30
0.0
 10
6072.063864375927
 20
-2986.488615465376
 30
0.0
 10
6115.439416280369
 20
-3189.462887141053
 30
0.0
  0
POLYLINE
  5
12C
330
1F
100
AcDbEntity
  8
Furniture
370
     9
100
AcDb2dPolyline
 66
     1
 10
0.0
 20
0.0
 30
0.0
  0
VERTEX
  5
12D
330
12C
100
AcDbEntity
  8
Furniture
370
     9
100
AcDbVertex
100
AcDb2dVertex
 10
5491.059030932947
 20
-3542.322863126317
 30
0.0
  0
VERTEX
  5
12E
330
12C
100
AcDbEntity
  8
Furniture
370
     9
100
AcDbVertex
100
AcDb2dVertex
 10
6004.738791490339
 20
-2993.620743961501
 30
0.0
  0
SEQEND
  5
12F
330
12C
100
AcDbEntity
  8
Furniture
370
     9
  0
POLYLINE
  5
130
330
1F
100
AcDbEntity
  8
Furniture
370
     9
100
AcDb2dPolyline
 66
     1
 10
0.0
 20
0.0
 30
0.0
  0
VERTEX
  5
131
330
130
100
AcDbEntity
  8
Furniture
370
     9
100
AcDbVertex
100
AcDb2dVertex
 10
5473.575603101981
 20
-3011.131923265213
 30
0.0
  0
VERTEX
  5
132
330
130
100
AcDbEntity
  8
Furniture
370
     9
100
AcDbVertex
100
AcDb2dVertex
 10
6022.2777222668
 20
-3524.811683822605
 30
0.0
  0
SEQEND
  5
133
330
130
100
AcDbEntity
  8
Furniture
370
     9
  0
SPLINE
  5
134
330
1F
100
AcDbEntity
  8
Furniture
370
     9
100
AcDbSpline
210
0.0
220
0.0
230
1.0
 70
     9
 71
     3
 72
    17
 73
    13
 74
     0
 42
0.000000001
 43
0.0000000001
 40
0.0
 40
0.0
 40
0.0
 40
0.0
 40
1.0
 40
1.0
 40
1.0
 40
2.0
 40
2.0
 40
2.0
 40
3.0
 40
3.0
 40
3.0
 40
4.0
 40
4.0
 40
4.0
 40
4.0
 10
6075.810313196847
 20
-3197.899334856313
 30
0.0
 10
6114.495866206951
 20
-3379.005446006909
 30
0.0
 10
5999.049739577088
 20
-3557.169901046264
 30
0.0
 10
5817.97137989924
 20
-3595.855454056368
 30
0.0
 10
5636.865268748643
 20
-3634.541007066471
 30
0.0
 10
5458.700813709288
 20
-3519.094880436608
 30
0.0
 10
5420.015260699185
 20
-3338.016520758758
 30
0.0
 10
5381.329707689083
 20
-3156.938161080909
 30
0.0
 10
5496.775834318945
 20
-2978.773706041553
 30
0.0
 10
5677.881945469542
 20
-2940.088153031451
 30
0.0
 10
5858.960305147389
 20
-2901.402600021349
 30
0.0
 10
6037.124760186745
 20
-3016.848726651212
 30
0.0
 10
6075.810313196847
 20
-3197.899334856313
 30
0.0
  0
SPLINE
  5
135
330
1F
100
AcDbEntity
  8
Furniture
370
     9
100
AcDbSpline
210
0.0
220
0.0
230
1.0
 70
     9
 71
     3
 72
    17
 73
    13
 74
     0
 42
0.000000001
 43
0.0000000001
 40
0.0
 40
0.0
 40
0.0
 40
0.0
 40
1.0
 40
1.0
 40
1.0
 40
2.0
 40
2.0
 40
2.0
 40
3.0
 40
3.0
 40
3.0
 40
4.0
 40
4.0
 40
4.0
 40
4.0
 10
9221.758891069724
 20
-3119.196158144223
 30
0.0
 10
9234.746580315581
 20
-3395.656329655447
 30
0.0
 10
9021.226748995831
 20
-3630.267280263345
 30
0.0
 10
8744.822080430104
 20
-3643.310472454699
 30
0.0
 10
8468.361908918879
 20
-3656.353664646054
 30
0.0
 10
8233.750958310981
 20
-3442.778330380809
 30
0.0
 10
8220.707766119629
 20
-3166.37366181508
 30
0.0
 10
8207.664573928271
 20
-2889.968993249353
 30
0.0
 10
8421.239908193516
 20
-2655.302539695958
 30
0.0
 10
8697.644576759246
 20
-2642.259347504606
 30
0.0
 10
8974.049245324975
 20
-2629.21615531325
 30
0.0
 10
9208.71569887837
 20
-2842.735986633001
 30
0.0
 10
9221.758891069724
 20
-3119.196158144223
 30
0.0
  0
POLYLINE
  5
136
330
1F
100
AcDbEntity
  8
Furniture
370
     9
100
AcDb2dPolyline
 66
     1
 10
0.0
 20
0.0
 30
0.0
  0
VERTEX
  5
137
330
136
100
AcDbEntity
  8
Furniture
370
     9
100
AcDbVertex
100
AcDb2dVertex
 10
9079.837859438685
 20
-2792.616826850901
 30
0.0
  0
VERTEX
  5
138
330
136
100
AcDbEntity
  8
Furniture
370
     9
100
AcDbVertex
100
AcDb2dVertex
 10
8364.29388611552
 20
-3494.340566745781
 30
0.0
  0
SEQEND
  5
139
330
136
100
AcDbEntity
  8
Furniture
370
     9
  0
POLYLINE
  5
13A
330
1F
100
AcDbEntity
  8
Furniture
370
     9
100
AcDb2dPolyline
 66
     1
 10
0.0
 20
0.0
 30
0.0
  0
VERTEX
  5
13B
330
13A
100
AcDbEntity
  8
Furniture
370
     9
100
AcDbVertex
100
AcDb2dVertex
 10
8372.563824994292
 20
-2783.014817280244
 30
0.0
  0
VERTEX
  5
13C
330
13A
100
AcDbEntity
  8
Furniture
370
     9
100
AcDbVertex
100
AcDb2dVertex
 10
9069.847329249563
 20
-3502.555002679061
 30
0.0
  0
SEQEND
  5
13D
330
13A
100
AcDbEntity
  8
Furniture
370
     9
  0
SPLINE
  5
13E
330
1F
100
AcDbEntity
  8
Furniture
370
     9
100
AcDbSpline
210
0.0
220
0.0
230
1.0
 70
     9
 71
     3
 72
    17
 73
    13
 74
     0
 42
0.000000001
 43
0.0000000001
 40
0.0
 40
0.0
 40
0.0
 40
0.0
 40
1.0
 40
1.0
 40
1.0
 40
2.0
 40
2.0
 40
2.0
 40
3.0
 40
3.0
 40
3.0
 40
4.0
 40
4.0
 40
4.0
 40
4.0
 10
9167.310501539004
 20
-3121.749293636999
 30
0.0
 10
9178.966120092979
 20
-3368.126868689864
 30
0.0
 10
8988.646519990192
 20
-3577.317470260996
 30
0.0
 10
8742.268944937327
 20
-3588.917585869476
 30
0.0
 10
8495.891369884462
 20
-3600.517701477957
 30
0.0
 10
8286.70076831333
 20
-3410.198101375171
 30
0.0
 10
8275.10065270485
 20
-3163.820526322305
 30
0.0
 10
8263.500537096367
 20
-2917.442951269441
 30
0.0
 10
8453.820137199157
 20
-2708.307852643804
 30
0.0
 10
8700.197712252021
 20
-2696.652234089829
 30
0.0
 10
8946.575287304888
 20
-2685.052118481346
 30
0.0
 10
9155.710385930522
 20
-2875.371718584134
 30
0.0
 10
9167.310501539004
 20
-3121.749293636999
 30
0.0
  0
SPLINE
  5
143
330
1F
100
AcDbEntity
  8
Furniture
370
     9
100
AcDbSpline
210
0.0
220
0.0
230
1.0
 70
    11
 71
     3
 72
    62
 73
    58
 74
     0
 42
0.000000001
 43
0.0000000001
 40
0.0
 40
0.0
 40
0.0
 40
0.0
 40
1.0
 40
1.0
 40
1.0
 40
2.0
 40
2.0
 40
2.0
 40
3.0
 40
3.0
 40
3.0
 40
4.0
 40
4.0
 40
4.0
 40
5.0
 40
5.0
 40
5.0
 40
6.0
 40
6.0
 40
6.0
 40
7.0
 40
7.0
 40
7.0
 40
8.0
 40
8.0
 40
8.0
 40
9.0
 40
9.0
 40
9.0
 40
10.0
 40
10.0
 40
10.0
 40
11.0
 40
11.0
 40
11.0
 40
12.0
 40
12.0
 40
12.0
 40
13.0
 40
13.0
 40
13.0
 40
14.0
 40
14.0
 40
14.0
 40
15.0
 40
15.0
 40
15.0
 40
16.0
 40
16.0
 40
16.0
 40
17.0
 40
17.0
 40
17.0
 40
18.0
 40
18.0
 40
18.0
 40
19.0
 40
19.0
 40
19.0
 40
19.0
 10
8220.707551511921
 20
-1637.947424506668
 30
0.0
 10
8220.707551511921
 20
-1637.947424506668
 30
0.0
 10
8228.921987445202
 20
-1318.070073881882
 30
0.0
 10
8228.921987445202
 20
-1291.414784307847
 30
0.0
 10
8228.921987445202
 20
-1264.773370470188
 30
0.0
 10
8228.921987445202
 20
-1018.215410844463
 30
0.0
 10
8228.921987445202
 20
-986.5371047031196
 30
0.0
 10
8228.921987445202
 20
-954.9004257708986
 30
0.0
 10
8220.707551511921
 20
-833.2657207183295
 30
0.0
 10
8220.707551511921
 20
-826.6053672589144
 30
0.0
 10
8220.707551511921
 20
-819.9450137994993
 30
0.0
 10
8224.148734132619
 20
-721.6492973276301
 30
0.0
 10
8220.707551511921
 20
-706.6496263075726
 30
0.0
 10
8217.32187183672
 20
-691.6638310238879
 30
0.0
 10
8345.533675930461
 20
-706.6496263075726
 30
0.0
 10
8345.533675930461
 20
-706.6496263075726
 30
0.0
 10
8345.533675930461
 20
-706.6496263075726
 30
0.0
 10
8652.131946845539
 20
-713.3238555033606
 30
0.0
 10
8657.127211940098
 20
-713.3238555033606
 30
0.0
 10
8662.12247703466
 20
-713.3238555033606
 30
0.0
 10
8882.02514708635
 20
-719.9980846991504
 30
0.0
 10
8927.038035882898
 20
-713.3238555033606
 30
0.0
 10
8971.995421733948
 20
-706.6496263075726
 30
0.0
 10
9065.295873111258
 20
-706.6496263075726
 30
0.0
 10
9065.295873111258
 20
-706.6496263075726
 30
0.0
 10
9065.295873111258
 20
-706.6496263075726
 30
0.0
 10
9163.53608663763
 20
-703.3333253142384
 30
0.0
 10
9171.917031407394
 20
-700.0031485845313
 30
0.0
 10
9180.242473231663
 20
-696.6590961184494
 30
0.0
 10
9171.917031407394
 20
-716.6540322330686
 30
0.0
 10
9171.917031407394
 20
-731.6537032531271
 30
0.0
 10
9171.917031407394
 20
-731.6537032531271
 30
0.0
 10
9158.540821543068
 20
-1048.173125675457
 30
0.0
 10
9160.20590990792
 20
-1108.157934019315
 30
0.0
 10
9161.870998272776
 20
-1168.156618099546
 30
0.0
 10
9171.917031407394
 20
-1339.730098361355
 30
0.0
 10
9171.917031407394
 20
-1369.72944040147
 30
0.0
 10
9171.917031407394
 20
-1399.728782441587
 30
0.0
 10
9165.201175002485
 20
-1624.626717587839
 30
0.0
 10
9171.917031407394
 20
-1637.947424506668
 30
0.0
 10
9178.521881921318
 20
-1651.295882898246
 30
0.0
 10
9171.917031407394
 20
-1657.859106203044
 30
0.0
 10
9171.917031407394
 20
-1657.859106203044
 30
0.0
 10
9171.917031407394
 20
-1657.859106203044
 30
0.0
 10
8986.925714072141
 20
-1649.630794533392
 30
0.0
 10
8950.349272990848
 20
-1649.630794533392
 30
0.0
 10
8913.661826018573
 20
-1649.630794533392
 30
0.0
 10
8745.376895277351
 20
-1657.859106203044
 30
0.0
 10
8718.735481439688
 20
-1657.859106203044
 30
0.0
 10
8692.094067602027
 20
-1657.859106203044
 30
0.0
 10
8428.843597118644
 20
-1647.951830432164
 30
0.0
 10
8392.267156037357
 20
-1647.951830432164
 30
0.0
 10
8355.57970906508
 20
-1647.951830432164
 30
0.0
 10
8220.707551511921
 20
-1657.859106203044
 30
0.0
 10
8220.707551511921
 20
-1657.859106203044
 30
0.0
 10
8220.707551511921
 20
-1657.859106203044
 30
0.0
 10
8220.707551511921
 20
-1637.947424506668
 30
0.0
 10
8220.707551511921
 20
-1637.947424506668
 30
0.0
  0
SPLINE
  5
144
330
1F
100
AcDbEntity
  8
Furniture
370
     9
100
AcDbSpline
210
0.0
220
0.0
230
1.0
 70
     9
 71
     3
 72
    86
 73
    82
 74
     0
 42
0.000000001
 43
0.0000000001
 40
0.0
 40
0.0
 40
0.0
 40
0.0
 40
1.0
 40
1.0
 40
1.0
 40
2.0
 40
2.0
 40
2.0
 40
3.0
 40
3.0
 40
3.0
 40
4.0
 40
4.0
 40
4.0
 40
5.0
 40
5.0
 40
5.0
 40
6.0
 40
6.0
 40
6.0
 40
7.0
 40
7.0
 40
7.0
 40
8.0
 40
8.0
 40
8.0
 40
9.0
 40
9.0
 40
9.0
 40
10.0
 40
10.0
 40
10.0
 40
11.0
 40
11.0
 40
11.0
 40
12.0
 40
12.0
 40
12.0
 40
13.0
 40
13.0
 40
13.0
 40
14.0
 40
14.0
 40
14.0
 40
15.0
 40
15.0
 40
15.0
 40
16.0
 40
16.0
 40
16.0
 40
17.0
 40
17.0
 40
17.0
 40
18.0
 40
18.0
 40
18.0
 40
19.0
 40
19.0
 40
19.0
 40
20.0
 40
20.0
 40
20.0
 40
21.0
 40
21.0
 40
21.0
 40
22.0
 40
22.0
 40
22.0
 40
23.0
 40
23.0
 40
23.0
 40
24.0
 40
24.0
 40
24.0
 40
25.0
 40
25.0
 40
25.0
 40
26.0
 40
26.0
 40
26.0
 40
27.0
 40
27.0
 40
27.0
 40
27.0
 10
8718.735481439688
 20
-1629.455473845915
 30
0.0
 10
8706.913354049227
 20
-1629.455473845915
 30
0.0
 10
8644.13952269424
 20
-1627.346361917099
 30
0.0
 10
8577.646993991079
 20
-1625.098492624547
 30
0.0
 10
8496.446184731707
 20
-1622.364972558911
 30
0.0
 10
8412.470228197582
 20
-1619.548198075034
 30
0.0
 10
8392.267156037357
 20
-1619.548198075034
 30
0.0
 10
8365.681245145191
 20
-1619.548198075034
 30
0.0
 10
8291.751321745683
 20
-1624.390830069484
 30
0.0
 10
8249.402574332901
 20
-1627.346361917099
 30
0.0
 10
8250.845650915776
 20
-1570.899866348556
 30
0.0
 10
8257.339495538703
 20
-1315.669571489219
 30
0.0
 10
8257.339495538703
 20
-1291.414784307847
 30
0.0
 10
8257.339495538703
 20
-1291.414784307847
 30
0.0
 10
8257.339495538703
 20
-986.5371047031196
 30
0.0
 10
8257.339495538703
 20
-986.5371047031196
 30
0.0
 10
8257.339495538703
 20
-963.9751573593505
 30
0.0
 10
8253.565295245037
 20
-900.757302440402
 30
0.0
 10
8251.012159752262
 20
-858.9080815370774
 30
0.0
 10
8249.957603787853
 20
-841.8548015337004
 30
0.0
 10
8249.180562550924
 20
-829.2140056971851
 30
0.0
 10
8249.125059605427
 20
-826.3001010586906
 30
0.0
 10
8249.125059605427
 20
-825.4120539307679
 30
0.0
 10
8249.180562550924
 20
-821.6517293734735
 30
0.0
 10
8249.402574332901
 20
-816.1985649785776
 30
0.0
 10
8250.512633242804
 20
-772.6565042376507
 30
0.0
 10
8250.790147970279
 20
-745.682072727019
 30
0.0
 10
8250.512633242804
 20
-728.4067809416622
 30
0.0
 10
8250.845650915776
 20
-728.4067809416622
 30
0.0
 10
8251.178668588748
 20
-728.3929052052874
 30
0.0
 10
8251.511686261716
 20
-728.3929052052874
 30
0.0
 10
8286.478541923647
 20
-728.3929052052874
 30
0.0
 10
8341.703972691297
 20
-734.8034954099751
 30
0.0
 10
8342.203499200754
 20
-734.8728740918434
 30
0.0
 10
8342.203499200754
 20
-734.8728740918434
 30
0.0
 10
8343.591072838131
 20
-735.0255071919548
 30
0.0
 10
8343.591072838131
 20
-735.0255071919548
 30
0.0
 10
8343.591072838131
 20
-735.0255071919548
 30
0.0
 10
8344.867640584521
 20
-735.0532586647025
 30
0.0
 10
8344.867640584521
 20
-735.0532586647025
 30
0.0
 10
8396.152362222016
 20
-736.1633175746058
 30
0.0
 10
8652.020940954548
 20
-741.7274878604923
 30
0.0
 10
8657.127211940098
 20
-741.7274878604923
 30
0.0
 10
8657.79324728604
 20
-741.7413635968653
 30
0.0
 10
8660.845909288275
 20
-741.8246180151084
 30
0.0
 10
8665.841174382832
 20
-741.9633753788469
 30
0.0
 10
8692.260576438513
 20
-742.6294107247879
 30
0.0
 10
8772.406829733476
 20
-744.6968954444812
 30
0.0
 10
8838.122317199706
 20
-744.6968954444812
 30
0.0
 10
8885.910353271009
 20
-744.6968954444812
 30
0.0
 10
8916.325967402338
 20
-743.6284637437004
 30
0.0
 10
8931.145253849537
 20
-741.4360973966425
 30
0.0
 10
8973.549504207813
 20
-735.1365130829456
 30
0.0
 10
9064.352323037839
 20
-735.0671344010772
 30
0.0
 10
9065.295873111258
 20
-735.0671344010772
 30
0.0
 10
9101.816811247051
 20
-733.8321938638102
 30
0.0
 10
9126.571124937875
 20
-732.6388805356648
 30
0.0
 10
9143.49952331389
 20
-731.5149458893886
 30
0.0
 10
9142.500470294974
 20
-754.9649403610795
 30
0.0
 10
9130.234319340557
 20
-1049.824338303937
 30
0.0
 10
9131.788401814416
 20
-1108.948850992621
 30
0.0
 10
9132.676448942339
 20
-1138.420915050532
 30
0.0
 10
9135.396093271602
 20
-1193.590842872689
 30
0.0
 10
9138.060234655366
 20
-1246.956924966252
 30
0.0
 10
9140.724376039134
 20
-1300.087119541461
 30
0.0
 10
9143.49952331389
 20
-1355.007284108889
 30
0.0
 10
9143.49952331389
 20
-1369.72944040147
 30
0.0
 10
9143.49952331389
 20
-1376.528551224624
 30
0.0
 10
9143.166505640918
 20
-1393.415322391516
 30
0.0
 10
9142.666979131462
 20
-1415.602624853193
 30
0.0
 10
9139.947334802203
 20
-1549.101084505345
 30
0.0
 10
9140.002837747697
 20
-1603.410716672326
 30
0.0
 10
9141.834434949034
 20
-1628.123403154032
 30
0.0
 10
9087.164033636337
 20
-1625.764527970488
 30
0.0
 10
8978.211751629403
 20
-1621.213286439887
 30
0.0
 10
8950.349272990848
 20
-1621.213286439887
 30
0.0
 10
8929.924189048643
 20
-1621.213286439887
 30
0.0
 10
8872.92266402515
 20
-1623.572161623431
 30
0.0
 10
8817.808239148488
 20
-1625.847782388731
 30
0.0
 10
8772.795350351945
 20
-1627.707131062818
 30
0.0
 10
8730.44660293916
 20
-1629.455473845915
 30
0.0
 10
8718.735481439688
 20
-1629.455473845915
 30
0.0
  0
SPLINE
  5
145
330
1F
100
AcDbEntity
  8
Furniture
370
     9
100
AcDbSpline
210
0.0
220
0.0
230
1.0
 70
     8
 71
     3
 72
    11
 73
     7
 74
     0
 42
0.000000001
 43
0.0000000001
 40
0.0
 40
0.0
 40
0.0
 40
0.0
 40
1.0
 40
1.0
 40
1.0
 40
2.0
 40
2.0
 40
2.0
 40
2.0
 10
8220.707551511921
 20
-1657.859106203044
 30
0.0
 10
8220.707551511921
 20
-1657.859106203044
 30
0.0
 10
8667.22874802021
 20
-1206.356520336566
 30
0.0
 10
8696.31229145966
 20
-1182.240490518934
 30
0.0
 10
8725.451337844599
 20
-1158.152212174049
 30
0.0
 10
9131.899407705407
 20
-753.2998519962259
 30
0.0
 10
9171.917031407394
 20
-700.0031485845313
 30
0.0
  0
SPLINE
  5
146
330
1F
100
AcDbEntity
  8
Furniture
370
     9
100
AcDbSpline
210
0.0
220
0.0
230
1.0
 70
     8
 71
     3
 72
    11
 73
     7
 74
     0
 42
0.000000001
 43
0.0000000001
 40
0.0
 40
0.0
 40
0.0
 40
0.0
 40
1.0
 40
1.0
 40
1.0
 40
2.0
 40
2.0
 40
2.0
 40
2.0
 10
8220.707551511921
 20
-706.6496263075726
 30
0.0
 10
8220.707551511921
 20
-706.6496263075726
 30
0.0
 10
8608.673140522855
 20
-1076.049480050384
 30
0.0
 10
8700.364006480802
 20
-1178.729929216367
 30
0.0
 10
8792.05487243875
 20
-1281.424254118725
 30
0.0
 10
9118.578700786578
 20
-1621.18553496714
 30
0.0
 10
9171.917031407394
 20
-1657.859106203044
 30
0.0
  0
TEXT
  5
1D4
330
1F
100
AcDbEntity
  8
Text
100
AcDbText
 10
37.97365555480008
 20
1636.289425227517
 30
0.0
 40
192.6907499518273
  1
ALBY
 41
1.000399999999999
100
AcDbText
  0
TEXT
  5
1D5
330
1F
100
AcDbEntity
  8
Text
100
AcDbText
 10
37.97365555480008
 20
1033.666456872313
 30
0.0
 40
192.6907499518273
  1
—
 41
1.000399999999999
100
AcDbText
  0
TEXT
  5
1D6
330
1F
100
AcDbEntity
  8
Text
100
AcDbText
 10
37.97365555480015
 20
358.6959409938499
 30
0.0
 40
233.9816249415046
  1
DIMENSIONS
 41
1.000399999999999
100
AcDbText
  0
POLYLINE
  5
31C
330
1F
100
AcDbEntity
  8
Text
370
     9
100
AcDb2dPolyline
 66
     1
 10
0.0
 20
0.0
 30
0.0
  0
VERTEX
  5
31E
330
31C
100
AcDbEntity
  8
Text
370
     9
100
AcDbVertex
100
AcDb2dVertex
 10
0.0
 20
0.0
 30
0.0
  0
VERTEX
  5
31F
330
31C
100
AcDbEntity
  8
Text
370
     9
100
AcDbVertex
100
AcDb2dVertex
 10
9560.993789489591
 20
0.0
 30
0.0
  0
SEQEND
  5
31D
330
31C
100
AcDbEntity
  8
Text
370
     9
  0
ENDSEC
  0
SECTION
  2
OBJECTS
  0
DICTIONARY
  5
C
330
0
100
AcDbDictionary
281
     1
  3
ACAD_CIP_PREVIOUS_PRODUCT_INFO
350
160
  3
ACAD_COLOR
350
C9
  3
ACAD_DETAILVIEWSTYLE
350
15B
  3
ACAD_GROUP
350
D
  3
ACAD_LAYOUT
350
1A
  3
ACAD_MATERIAL
350
AD
  3
ACAD_MLEADERSTYLE
350
ED
  3
ACAD_MLINESTYLE
350
17
  3
ACAD_PLOTSETTINGS
350
19
  3
ACAD_PLOTSTYLENAME
350
E
  3
ACAD_SCALELIST
350
CB
  3
ACAD_SECTIONVIEWSTYLE
350
159
  3
ACAD_TABLESTYLE
350
AB
  3
ACAD_VISUALSTYLE
350
2A
  3
ACDB_RECOMPOSE_DATA
350
339
  3
AcDbVariableDictionary
350
101
  0
DICTIONARY
  5
F9
330
2
100
AcDbDictionary
280
     1
281
     1
  3
ACAD_LAYERSTATES
360
FA
  0
DICTIONARY
  5
F2
330
10
100
AcDbDictionary
280
     1
281
     1
  3
ADSK_XREC_LAYER_RECONCILED
360
F3
  0
DICTIONARY
  5
F4
330
3B
100
AcDbDictionary
280
     1
281
     1
  3
ADSK_XREC_LAYER_RECONCILED
360
F5
  0
DICTIONARY
  5
125
330
1F
100
AcDbDictionary
280
     1
281
     1
  3
ACAD_SORTENTS
360
126
  0
XRECORD
  5
160
102
{ACAD_REACTORS
330
C
102
}
330
C
100
AcDbXrecord
280
     1
300
AMECH_PP
300
2018
300
PDSP_F_S
  0
DICTIONARY
  5
C9
102
{ACAD_REACTORS
330
C
102
}
330
C
100
AcDbDictionary
281
     1
  0
DICTIONARY
  5
15B
102
{ACAD_REACTORS
330
C
102
}
330
C
100
AcDbDictionary
281
     1
  3
Imperial24
350
15C
  0
DICTIONARY
  5
D
102
{ACAD_REACTORS
330
C
102
}
330
C
100
AcDbDictionary
281
     1
  0
DICTIONARY
  5
1A
102
{ACAD_REACTORS
330
C
102
}
330
C
100
AcDbDictionary
281
     1
  3
Layout1
350
1E
  3
Layout2
350
26
  3
Model
350
22
  0
DICTIONARY
  5
AD
102
{ACAD_REACTORS
330
C
102
}
330
C
100
AcDbDictionary
281
     1
  3
ByBlock
350
B6
  3
ByLayer
350
AE
  3
Global
350
BE
  0
DICTIONARY
  5
ED
102
{ACAD_REACTORS
330
C
102
}
330
C
100
AcDbDictionary
281
     1
  3
Standard
350
EE
  0
DICTIONARY
  5
17
102
{ACAD_REACTORS
330
C
102
}
330
C
100
AcDbDictionary
281
     1
  3
Standard
350
18
  0
DICTIONARY
  5
19
102
{ACAD_REACTORS
330
C
102
}
330
C
100
AcDbDictionary
281
     1
  0
ACDBDICTIONARYWDFLT
  5
E
102
{ACAD_REACTORS
330
C
102
}
330
C
100
AcDbDictionary
281
     1
  3
Normal
350
F
100
AcDbDictionaryWithDefault
340
F
  0
DICTIONARY
  5
CB
102
{ACAD_REACTORS
330
C
102
}
330
C
100
AcDbDictionary
281
     1
  3
A0
350
CC
  3
A1
350
CD
  3
A2
350
CE
  3
A3
350
CF
  3
A4
350
D0
  3
A5
350
D1
  3
A6
350
D2
  3
A7
350
D3
  3
A8
350
D4
  3
A9
350
D5
  3
B0
350
D6
  3
B1
350
D7
  3
B2
350
D8
  3
B3
350
D9
  3
B4
350
DA
  3
B5
350
DB
  3
B6
350
DC
  3
B7
350
DD
  3
B8
350
DE
  3
B9
350
DF
  3
C0
350
E0
  3
C1
350
E1
  3
C2
350
E2
  3
C3
350
E3
  3
C4
350
E4
  3
C5
350
E5
  3
C6
350
E6
  3
C7
350
E7
  3
C8
350
E8
  3
C9
350
E9
  3
D0
350
EA
  3
D1
350
EB
  3
D2
350
EC
  0
DICTIONARY
  5
159
102
{ACAD_REACTORS
330
C
102
}
330
C
100
AcDbDictionary
281
     1
  3
Imperial24
350
15A
  0
DICTIONARY
  5
AB
102
{ACAD_REACTORS
330
C
102
}
330
C
100
AcDbDictionary
281
     1
  3
Standard
350
CA
  0
DICTIONARY
  5
2A
102
{ACAD_REACTORS
330
C
102
}
330
C
100
AcDbDictionary
281
     1
  3
2dWireframe
350
2F
  3
3D Hidden
350
31
  3
3dWireframe
350
30
  3
Basic
350
32
  3
Brighten
350
36
  3
ColorChange
350
3A
  3
Conceptual
350
34
  3
Dim
350
35
  3
EdgeColorOff
350
C8
  3
Facepattern
350
39
  3
Flat
350
2B
  3
FlatWithEdges
350
2C
  3
Gouraud
350
2D
  3
GouraudWithEdges
350
2E
  3
Hidden
350
153
  3
JitterOff
350
C6
  3
Linepattern
350
38
  3
OverhangOff
350
C7
  3
Realistic
350
33
  3
Shaded
350
158
  3
Shaded with edges
350
157
  3
Shades of Gray
350
154
  3
Sketchy
350
155
  3
Thicken
350
37
  3
Wireframe
350
152
  3
X-Ray
350
156
  0
XRECORD
  5
339
102
{ACAD_REACTORS
330
C
102
}
330
C
100
AcDbXrecord
280
     1
 90
        1
330
CA
  0
DICTIONARY
  5
101
102
{ACAD_REACTORS
330
C
102
}
330
C
100
AcDbDictionary
281
     1
  3
CANNOSCALE
350
105
  3
CMLEADERSTYLE
350
103
  3
CTABLESTYLE
350
102
  3
CVIEWDETAILSTYLE
350
1B0
  3
CVIEWSECTIONSTYLE
350
1B1
  3
LAYEREVAL
350
107
  3
LAYERNOTIFY
350
108
  3
LIGHTINGUNITS
350
106
  3
MSLTSCALE
350
104
  0
DICTIONARY
  5
FA
102
{ACAD_REACTORS
330
F9
102
}
330
F9
100
AcDbDictionary
281
     1
  0
XRECORD
  5
F3
102
{ACAD_REACTORS
330
F2
102
}
330
F2
100
AcDbXrecord
280
     1
290
     1
  0
XRECORD
  5
F5
102
{ACAD_REACTORS
330
F4
102
}
330
F4
100
AcDbXrecord
280
     1
290
     1
  0
SORTENTSTABLE
  5
126
102
{ACAD_REACTORS
330
125
102
}
330
125
100
AcDbSortentsTable
330
1F
331
9B
  5
144
331
64
  5
80
331
83
  5
135
331
52
  5
52
331
7F
  5
12B
331
13E
  5
12A
331
144
  5
64
331
13A
  5
129
331
136
  5
128
331
12C
  5
141
331
128
  5
13A
331
124
  5
72
331
31C
  5
1D4
331
1D4
  5
1D5
331
53
  5
53
331
80
  5
12C
331
145
  5
65
331
45
  5
45
331
41
  5
41
331
129
  5
13E
331
70
  5
123
331
5C
  5
67
331
1D5
  5
1D6
331
146
  5
66
331
81
  5
130
331
50
  5
50
331
134
  5
143
331
12A
  5
13F
331
130
  5
142
331
122
  5
69
331
1D6
  5
31B
331
82
  5
134
331
51
  5
51
331
143
  5
5C
331
3D
  5
3D
331
135
  5
124
331
12B
  5
140
331
127
  5
136
331
123
  5
70
  0
ACDBDETAILVIEWSTYLE
  5
15C
102
{ACAD_REACTORS
330
15B
102
}
330
15B
100
AcDbModelDocViewStyle
 70
     0
  3
Imperial24
290
     0
300
Imperial24
 90
        0
100
AcDbDetailViewStyle
 70
     0
 71
     0
 90
        3
 71
     1
340
11
 62
   256
 40
0.24
340
0
 62
   256
 40
0.24
300

 40
0.36
280
     3
 71
     2
340
16
 90
       25
 62
   256
 71
     3
340
11
 62
   256
 40
0.24
 90
        1
 40
0.75
 90
        1
300
%<\AcVar ViewType \f "%tc1">% %<\AcVar ViewDetailId>%\PSCALE %<\AcVar ViewScale \f "%sn">%
 71
     4
340
16
 90
       25
 62
   256
340
16
 90
       25
 62
   256
280
     0
  0
LAYOUT
  5
1E
102
{ACAD_REACTORS
330
1A
102
}
330
1A
100
AcDbPlotSettings
  1

  2
none_device
  4

  6

 40
0.0
 41
0.0
 42
0.0
 43
0.0
 44
0.0
 45
0.0
 46
0.0
 47
0.0
 48
0.0
 49
0.0
140
0.0
141
0.0
142
1.0
143
1.0
 70
   688
 72
     0
 73
     0
 74
     5
  7

 75
    16
147
1.0
 76
     0
 77
     2
 78
   300
148
0.0
149
0.0
100
AcDbLayout
  1
Layout1
 70
     1
 71
     1
 10
0.0
 20
0.0
 11
12.0
 21
9.0
 12
0.0
 22
0.0
 32
0.0
 14
1.000000000000000E+20
 24
1.000000000000000E+20
 34
1.000000000000000E+20
 15
-1.000000000000000E+20
 25
-1.000000000000000E+20
 35
-1.000000000000000E+20
146
0.0
 13
0.0
 23
0.0
 33
0.0
 16
1.0
 26
0.0
 36
0.0
 17
0.0
 27
1.0
 37
0.0
 76
     0
330
1B
  0
LAYOUT
  5
26
102
{ACAD_REACTORS
330
1A
102
}
330
1A
100
AcDbPlotSettings
  1

  2
none_device
  4

  6

 40
0.0
 41
0.0
 42
0.0
 43
0.0
 44
0.0
 45
0.0
 46
0.0
 47
0.0
 48
0.0
 49
0.0
140
0.0
141
0.0
142
1.0
143
1.0
 70
   688
 72
     0
 73
     0
 74
     5
  7

 75
    16
147
1.0
 76
     0
 77
     2
 78
   300
148
0.0
149
0.0
100
AcDbLayout
  1
Layout2
 70
     1
 71
     2
 10
0.0
 20
0.0
 11
0.0
 21
0.0
 12
0.0
 22
0.0
 32
0.0
 14
0.0
 24
0.0
 34
0.0
 15
0.0
 25
0.0
 35
0.0
146
0.0
 13
0.0
 23
0.0
 33
0.0
 16
1.0
 26
0.0
 36
0.0
 17
0.0
 27
1.0
 37
0.0
 76
     0
330
23
  0
LAYOUT
  5
22
102
{ACAD_XDICTIONARY
360
FF
102
}
102
{ACAD_REACTORS
330
1A
102
}
330
1A
100
AcDbPlotSettings
  1

  2
none_device
  4

  6

 40
0.0
 41
0.0
 42
0.0
 43
0.0
 44
0.0
 45
0.0
 46
0.0
 47
0.0
 48
0.0
 49
0.0
140
0.0
141
0.0
142
1.0
143
1.0
 70
  1712
 72
     0
 73
     0
 74
     0
  7

 75
     0
147
1.0
 76
     0
 77
     2
 78
   300
148
0.0
149
0.0
100
AcDbLayout
  1
Model
 70
     1
 71
     0
 10
0.0
 20
0.0
 11
12.0
 21
9.0
 12
0.0
 22
0.0
 32
0.0
 14
1.000000000000000E+20
 24
1.000000000000000E+20
 34
1.000000000000000E+20
 15
-1.000000000000000E+20
 25
-1.000000000000000E+20
 35
-1.000000000000000E+20
146
0.0
 13
0.0
 23
0.0
 33
0.0
 16
1.0
 26
0.0
 36
0.0
 17
0.0
 27
1.0
 37
0.0
 76
     0
330
1F
331
29
  0
MATERIAL
  5
B6
102
{ACAD_XDICTIONARY
360
B7
102
}
102
{ACAD_REACTORS
330
AD
102
}
330
AD
100
AcDbMaterial
  1
ByBlock
 72
     0
 43
0.0208333333333333
 43
0.0
 43
0.0
 43
0.0
 43
0.0
 43
0.0208333333333333
 43
0.0
 43
0.0
 43
0.0
 43
0.0
 43
1.0
 43
0.0
 43
0.0
 43
0.0
 43
0.0
 43
1.0
 77
     0
 47
0.0208333333333333
 47
0.0
 47
0.0
 47
0.0
 47
0.0
 47
0.0208333333333333
 47
0.0
 47
0.0
 47
0.0
 47
0.0
 47
1.0
 47
0.0
 47
0.0
 47
0.0
 47
0.0
 47
1.0
171
     0
 49
0.0208333333333333
 49
0.0
 49
0.0
 49
0.0
 49
0.0
 49
0.0208333333333333
 49
0.0
 49
0.0
 49
0.0
 49
0.0
 49
1.0
 49
0.0
 49
0.0
 49
0.0
 49
0.0
 49
1.0
175
     0
142
0.0208333333333333
142
0.0
142
0.0
142
0.0
142
0.0
142
0.0208333333333333
142
0.0
142
0.0
142
0.0
142
0.0
142
1.0
142
0.0
142
0.0
142
0.0
142
0.0
142
1.0
179
     0
144
0.0208333333333333
144
0.0
144
0.0
144
0.0
144
0.0
144
0.0208333333333333
144
0.0
144
0.0
144
0.0
144
0.0
144
1.0
144
0.0
144
0.0
144
0.0
144
0.0
144
1.0
147
0.0208333333333333
147
0.0
147
0.0
147
0.0
147
0.0
147
0.0208333333333333
147
0.0
147
0.0
147
0.0
147
0.0
147
1.0
147
0.0
147
0.0
147
0.0
147
0.0
147
1.0
  0
MATERIAL
  5
AE
102
{ACAD_XDICTIONARY
360
AF
102
}
102
{ACAD_REACTORS
330
AD
102
}
330
AD
100
AcDbMaterial
  1
ByLayer
 72
     0
 43
0.0208333333333333
 43
0.0
 43
0.0
 43
0.0
 43
0.0
 43
0.0208333333333333
 43
0.0
 43
0.0
 43
0.0
 43
0.0
 43
1.0
 43
0.0
 43
0.0
 43
0.0
 43
0.0
 43
1.0
 77
     0
 47
0.0208333333333333
 47
0.0
 47
0.0
 47
0.0
 47
0.0
 47
0.0208333333333333
 47
0.0
 47
0.0
 47
0.0
 47
0.0
 47
1.0
 47
0.0
 47
0.0
 47
0.0
 47
0.0
 47
1.0
171
     0
 49
0.0208333333333333
 49
0.0
 49
0.0
 49
0.0
 49
0.0
 49
0.0208333333333333
 49
0.0
 49
0.0
 49
0.0
 49
0.0
 49
1.0
 49
0.0
 49
0.0
 49
0.0
 49
0.0
 49
1.0
175
     0
142
0.0208333333333333
142
0.0
142
0.0
142
0.0
142
0.0
142
0.0208333333333333
142
0.0
142
0.0
142
0.0
142
0.0
142
1.0
142
0.0
142
0.0
142
0.0
142
0.0
142
1.0
179
     0
144
0.0208333333333333
144
0.0
144
0.0
144
0.0
144
0.0
144
0.0208333333333333
144
0.0
144
0.0
144
0.0
144
0.0
144
1.0
144
0.0
144
0.0
144
0.0
144
0.0
144
1.0
147
0.0208333333333333
147
0.0
147
0.0
147
0.0
147
0.0
147
0.0208333333333333
147
0.0
147
0.0
147
0.0
147
0.0
147
1.0
147
0.0
147
0.0
147
0.0
147
0.0
147
1.0
  0
MATERIAL
  5
BE
102
{ACAD_XDICTIONARY
360
BF
102
}
102
{ACAD_REACTORS
330
AD
102
}
330
AD
100
AcDbMaterial
  1
Global
 72
     0
 43
0.0208333333333333
 43
0.0
 43
0.0
 43
0.0
 43
0.0
 43
0.0208333333333333
 43
0.0
 43
0.0
 43
0.0
 43
0.0
 43
1.0
 43
0.0
 43
0.0
 43
0.0
 43
0.0
 43
1.0
 77
     0
 47
0.0208333333333333
 47
0.0
 47
0.0
 47
0.0
 47
0.0
 47
0.0208333333333333
 47
0.0
 47
0.0
 47
0.0
 47
0.0
 47
1.0
 47
0.0
 47
0.0
 47
0.0
 47
0.0
 47
1.0
171
     0
 49
0.0208333333333333
 49
0.0
 49
0.0
 49
0.0
 49
0.0
 49
0.0208333333333333
 49
0.0
 49
0.0
 49
0.0
 49
0.0
 49
1.0
 49
0.0
 49
0.0
 49
0.0
 49
0.0
 49
1.0
175
     0
142
0.0208333333333333
142
0.0
142
0.0
142
0.0
142
0.0
142
0.0208333333333333
142
0.0
142
0.0
142
0.0
142
0.0
142
1.0
142
0.0
142
0.0
142
0.0
142
0.0
142
1.0
179
     0
144
0.0208333333333333
144
0.0
144
0.0
144
0.0
144
0.0
144
0.0208333333333333
144
0.0
144
0.0
144
0.0
144
0.0
144
1.0
144
0.0
144
0.0
144
0.0
144
0.0
144
1.0
147
0.0208333333333333
147
0.0
147
0.0
147
0.0
147
0.0
147
0.0208333333333333
147
0.0
147
0.0
147
0.0
147
0.0
147
1.0
147
0.0
147
0.0
147
0.0
147
0.0
147
1.0
  0
MLEADERSTYLE
  5
EE
102
{ACAD_REACTORS
330
ED
102
}
330
ED
100
AcDbMLeaderStyle
179
     2
170
     2
171
     1
172
     0
 90
        2
 40
0.0
 41
0.0
173
     1
 91
-1056964608
340
14
 92
       -2
290
     1
 42
0.09
291
     1
 43
0.36
  3
Standard
 44
0.18
300

342
11
174
     1
178
     6
175
     1
176
     0
 93
-1056964608
 45
0.18
292
     0
297
     0
 46
0.18
 94
-1056964608
 47
1.0
 49
1.0
140
1.0
293
     1
141
0.0
294
     1
177
     0
142
1.0
295
     0
296
     0
143
0.125
271
     0
272
     9
273
     9
298
     0
  0
MLINESTYLE
  5
18
102
{ACAD_REACTORS
330
17
102
}
330
17
100
AcDbMlineStyle
  2
STANDARD
 70
     0
  3

 62
   256
 51
90.0
 52
90.0
 71
     2
 49
0.5
 62
   256
  6
BYLAYER
 49
-0.5
 62
   256
  6
BYLAYER
  0
ACDBPLACEHOLDER
  5
F
102
{ACAD_REACTORS
330
E
102
}
330
E
  0
SCALE
  5
CC
102
{ACAD_REACTORS
330
CB
102
}
330
CB
100
AcDbScale
 70
     0
300
1:1
140
1.0
141
1.0
290
     1
  0
SCALE
  5
CD
102
{ACAD_REACTORS
330
CB
102
}
330
CB
100
AcDbScale
 70
     0
300
1:2
140
1.0
141
2.0
290
     0
  0
SCALE
  5
CE
102
{ACAD_REACTORS
330
CB
102
}
330
CB
100
AcDbScale
 70
     0
300
1:4
140
1.0
141
4.0
290
     0
  0
SCALE
  5
CF
102
{ACAD_REACTORS
330
CB
102
}
330
CB
100
AcDbScale
 70
     0
300
1:5
140
1.0
141
5.0
290
     0
  0
SCALE
  5
D0
102
{ACAD_REACTORS
330
CB
102
}
330
CB
100
AcDbScale
 70
     0
300
1:8
140
1.0
141
8.0
290
     0
  0
SCALE
  5
D1
102
{ACAD_REACTORS
330
CB
102
}
330
CB
100
AcDbScale
 70
     0
300
1:10
140
1.0
141
10.0
290
     0
  0
SCALE
  5
D2
102
{ACAD_REACTORS
330
CB
102
}
330
CB
100
AcDbScale
 70
     0
300
1:16
140
1.0
141
16.0
290
     0
  0
SCALE
  5
D3
102
{ACAD_REACTORS
330
CB
102
}
330
CB
100
AcDbScale
 70
     0
300
1:20
140
1.0
141
20.0
290
     0
  0
SCALE
  5
D4
102
{ACAD_REACTORS
330
CB
102
}
330
CB
100
AcDbScale
 70
     0
300
1:30
140
1.0
141
30.0
290
     0
  0
SCALE
  5
D5
102
{ACAD_REACTORS
330
CB
102
}
330
CB
100
AcDbScale
 70
     0
300
1:40
140
1.0
141
40.0
290
     0
  0
SCALE
  5
D6
102
{ACAD_REACTORS
330
CB
102
}
330
CB
100
AcDbScale
 70
     0
300
1:50
140
1.0
141
50.0
290
     0
  0
SCALE
  5
D7
102
{ACAD_REACTORS
330
CB
102
}
330
CB
100
AcDbScale
 70
     0
300
1:100
140
1.0
141
100.0
290
     0
  0
SCALE
  5
D8
102
{ACAD_REACTORS
330
CB
102
}
330
CB
100
AcDbScale
 70
     0
300
2:1
140
2.0
141
1.0
290
     0
  0
SCALE
  5
D9
102
{ACAD_REACTORS
330
CB
102
}
330
CB
100
AcDbScale
 70
     0
300
4:1
140
4.0
141
1.0
290
     0
  0
SCALE
  5
DA
102
{ACAD_REACTORS
330
CB
102
}
330
CB
100
AcDbScale
 70
     0
300
8:1
140
8.0
141
1.0
290
     0
  0
SCALE
  5
DB
102
{ACAD_REACTORS
330
CB
102
}
330
CB
100
AcDbScale
 70
     0
300
10:1
140
10.0
141
1.0
290
     0
  0
SCALE
  5
DC
102
{ACAD_REACTORS
330
CB
102
}
330
CB
100
AcDbScale
 70
     0
300
100:1
140
100.0
141
1.0
290
     0
  0
SCALE
  5
DD
102
{ACAD_REACTORS
330
CB
102
}
330
CB
100
AcDbScale
 70
     0
300
1/128" = 1'-0"
140
0.0078125
141
12.0
290
     0
  0
SCALE
  5
DE
102
{ACAD_REACTORS
330
CB
102
}
330
CB
100
AcDbScale
 70
     0
300
1/64" = 1'-0"
140
0.015625
141
12.0
290
     0
  0
SCALE
  5
DF
102
{ACAD_REACTORS
330
CB
102
}
330
CB
100
AcDbScale
 70
     0
300
1/32" = 1'-0"
140
0.03125
141
12.0
290
     0
  0
SCALE
  5
E0
102
{ACAD_REACTORS
330
CB
102
}
330
CB
100
AcDbScale
 70
     0
300
1/16" = 1'-0"
140
0.0625
141
12.0
290
     0
  0
SCALE
  5
E1
102
{ACAD_REACTORS
330
CB
102
}
330
CB
100
AcDbScale
 70
     0
300
3/32" = 1'-0"
140
0.09375
141
12.0
290
     0
  0
SCALE
  5
E2
102
{ACAD_REACTORS
330
CB
102
}
330
CB
100
AcDbScale
 70
     0
300
1/8" = 1'-0"
140
0.125
141
12.0
290
     0
  0
SCALE
  5
E3
102
{ACAD_REACTORS
330
CB
102
}
330
CB
100
AcDbScale
 70
     0
300
3/16" = 1'-0"
140
0.1875
141
12.0
290
     0
  0
SCALE
  5
E4
102
{ACAD_REACTORS
330
CB
102
}
330
CB
100
AcDbScale
 70
     0
300
1/4" = 1'-0"
140
0.25
141
12.0
290
     0
  0
SCALE
  5
E5
102
{ACAD_REACTORS
330
CB
102
}
330
CB
100
AcDbScale
 70
     0
300
3/8" = 1'-0"
140
0.375
141
12.0
290
     0
  0
SCALE
  5
E6
102
{ACAD_REACTORS
330
CB
102
}
330
CB
100
AcDbScale
 70
     0
300
1/2" = 1'-0"
140
0.5
141
12.0
290
     0
  0
SCALE
  5
E7
102
{ACAD_REACTORS
330
CB
102
}
330
CB
100
AcDbScale
 70
     0
300
3/4" = 1'-0"
140
0.75
141
12.0
290
     0
  0
SCALE
  5
E8
102
{ACAD_REACTORS
330
CB
102
}
330
CB
100
AcDbScale
 70
     0
300
1" = 1'-0"
140
1.0
141
12.0
290
     0
  0
SCALE
  5
E9
102
{ACAD_REACTORS
330
CB
102
}
330
CB
100
AcDbScale
 70
     0
300
1-1/2" = 1'-0"
140
1.5
141
12.0
290
     0
  0
SCALE
  5
EA
102
{ACAD_REACTORS
330
CB
102
}
330
CB
100
AcDbScale
 70
     0
300
3" = 1'-0"
140
3.0
141
12.0
290
     0
  0
SCALE
  5
EB
102
{ACAD_REACTORS
330
CB
102
}
330
CB
100
AcDbScale
 70
     0
300
6" = 1'-0"
140
6.0
141
12.0
290
     0
  0
SCALE
  5
EC
102
{ACAD_REACTORS
330
CB
102
}
330
CB
100
AcDbScale
 70
     0
300
1'-0" = 1'-0"
140
12.0
141
12.0
290
     0
  0
ACDBSECTIONVIEWSTYLE
  5
15A
102
{ACAD_REACTORS
330
159
102
}
330
159
100
AcDbModelDocViewStyle
 70
     0
  3
Imperial24
290
     0
300
Imperial24
 90
        0
100
AcDbSectionViewStyle
 70
     0
 71
     0
 90
       78
 71
     1
340
11
 62
   256
 40
0.24
340
0
340
0
 62
   256
 40
0.24
300
I, O, Q, S, X, Z
 40
0.48
 90
        3
 40
0.18
 90
        1
 71
     2
340
16
 90
       25
 62
   256
340
16
 90
       50
 62
   256
 40
0.24
 40
0.0
 40
0.24
 71
     3
340
11
 62
   256
 40
0.24
 90
        1
 40
0.75
 90
        1
300
%<\AcVar ViewType \f "%tc1">% %<\AcVar ViewSectionStartId>%-%<\AcVar ViewSectionEndId>%\PSCALE %<\AcVar ViewScale \f "%sn">%
 71
     4
 62
   256
 62
   257
300
ANSI31
 40
1.0
 90
        0
290
     0
290
     0
 90
        6
 40
0.0
 40
1.570796326794896
 40
0.2617993877991494
 40
1.308996938995747
 40
-0.2617993877991494
 40
1.832595714594046
  0
TABLESTYLE
  5
CA
102
{ACAD_XDICTIONARY
360
337
102
}
102
{ACAD_REACTORS
330
AB
102
}
330
AB
100
AcDbTableStyle
280
     0
  3
Standard
 70
     0
 71
     0
 40
0.06
 41
0.06
280
     0
281
     0
  7
Standard
140
0.18
170
     2
 62
     0
 63
     7
283
     0
 90
      512
 91
        0
  1

274
    -2
284
     1
 64
     0
275
    -2
285
     1
 65
     0
276
    -2
286
     1
 66
     0
277
    -2
287
     1
 67
     0
278
    -2
288
     1
 68
     0
279
    -2
289
     1
 69
     0
  7
Standard
140
0.25
170
     5
 62
     0
 63
     7
283
     0
 90
      512
 91
        0
  1

274
    -2
284
     1
 64
     0
275
    -2
285
     1
 65
     0
276
    -2
286
     1
 66
     0
277
    -2
287
     1
 67
     0
278
    -2
288
     1
 68
     0
279
    -2
289
     1
 69
     0
  7
Standard
140
0.18
170
     5
 62
     0
 63
     7
283
     0
 90
      512
 91
        0
  1

274
    -2
284
     1
 64
     0
275
    -2
285
     1
 65
     0
276
    -2
286
     1
 66
     0
277
    -2
287
     1
 67
     0
278
    -2
288
     1
 68
     0
279
    -2
289
     1
 69
     0
  0
VISUALSTYLE
  5
2F
102
{ACAD_REACTORS
330
2A
102
}
330
2A
100
AcDbVisualStyle
  2
2dWireframe
 70
     4
177
     3
291
     0
 70
    58
 90
        0
176
     1
 90
        2
176
     1
 90
        0
176
     1
 90
        0
176
     1
 40
0.6
176
     1
 40
30.0
176
     1
 62
     7
420
 16777215
176
     1
 90
        1
176
     1
 90
        4
176
     1
 62
     7
176
     1
 62
   257
176
     1
 90
        1
176
     1
 90
        1
176
     1
 40
1.0
176
     1
 90
        0
176
     1
 62
   257
176
     1
 40
1.0
176
     1
 90
        1
176
     1
 90
        6
176
     1
 90
        2
176
     1
 62
     7
176
     1
 90
        5
176
     1
 90
        0
176
     1
 90
        0
176
     1
290
     0
176
     1
 90
        1
176
     1
 40
0.0
176
     1
 90
        0
176
     1
290
     1
176
     1
290
     1
176
     1
290
     0
176
     1
290
     0
176
     1
290
     0
176
     1
290
     0
176
     1
290
     0
176
     1
290
     0
176
     1
290
     0
176
     1
 90
       50
176
     1
 40
0.0
176
     1
 40
1.0
176
     1
 90
        0
176
     1
 62
    18
420
        0
176
     1
 90
       50
176
     1
 90
        3
176
     1
 62
     5
420
      255
176
     1
290
     0
176
     1
 90
       50
176
     1
 90
       50
176
     1
 90
       50
176
     1
290
     0
176
     1
 90
       50
176
     1
 62
   256
176
     0
 40
1.0
176
     0
 90
        2
176
     1
  1
strokes_ogs.tif
176
     1
290
     0
176
     1
 40
1.0
176
     1
 40
1.0
176
     1
  0
VISUALSTYLE
  5
31
102
{ACAD_REACTORS
330
2A
102
}
330
2A
100
AcDbVisualStyle
  2
3D Hidden
 70
     6
177
     3
291
     0
 70
    58
 90
        1
176
     1
 90
        2
176
     1
 90
        2
176
     1
 90
        0
176
     1
 40
0.6
176
     1
 40
30.0
176
     1
 62
     7
420
 16777215
176
     1
 90
        2
176
     1
 90
        2
176
     1
 62
     7
176
     1
 62
   257
176
     1
 90
        2
176
     1
 90
        1
176
     1
 40
40.0
176
     1
 90
        0
176
     1
 62
   257
176
     1
 40
1.0
176
     1
 90
        1
176
     1
 90
        6
176
     1
 90
        2
176
     1
 62
     7
176
     1
 90
        3
176
     1
 90
        0
176
     1
 90
        0
176
     1
290
     0
176
     1
 90
        1
176
     1
 40
0.0
176
     1
 90
        0
176
     1
290
     0
176
     1
290
     1
176
     1
290
     1
176
     1
290
     0
176
     1
290
     0
176
     1
290
     0
176
     1
290
     0
176
     1
290
     0
176
     1
290
     0
176
     1
 90
       50
176
     1
 40
0.0
176
     1
 40
1.0
176
     1
 90
        0
176
     1
 62
    18
420
        0
176
     1
 90
       50
176
     1
 90
        3
176
     1
 62
     5
420
      255
176
     1
290
     0
176
     1
 90
       50
176
     1
 90
       50
176
     1
 90
       50
176
     1
290
     0
176
     1
 90
       50
176
     1
 62
   256
176
     0
 40
1.0
176
     0
 90
        2
176
     1
  1
strokes_ogs.tif
176
     1
290
     0
176
     1
 40
1.0
176
     1
 40
1.0
176
     1
  0
VISUALSTYLE
  5
30
102
{ACAD_REACTORS
330
2A
102
}
330
2A
100
AcDbVisualStyle
  2
3dWireframe
 70
     5
177
     3
291
     0
 70
    58
 90
        0
176
     1
 90
        2
176
     1
 90
        0
176
     1
 90
        0
176
     1
 40
0.6
176
     1
 40
30.0
176
     1
 62
     7
420
 16777215
176
     1
 90
        1
176
     1
 90
        4
176
     1
 62
     7
176
     1
 62
   257
176
     1
 90
        1
176
     1
 90
        1
176
     1
 40
1.0
176
     1
 90
        0
176
     1
 62
   257
176
     1
 40
1.0
176
     1
 90
        1
176
     1
 90
        6
176
     1
 90
        2
176
     1
 62
     7
176
     1
 90
        5
176
     1
 90
        0
176
     1
 90
        0
176
     1
290
     0
176
     1
 90
        1
176
     1
 40
0.0
176
     1
 90
        0
176
     1
290
     0
176
     1
290
     1
176
     1
290
     1
176
     1
290
     0
176
     1
290
     0
176
     1
290
     0
176
     1
290
     0
176
     1
290
     0
176
     1
290
     0
176
     1
 90
       50
176
     1
 40
0.0
176
     1
 40
1.0
176
     1
 90
        0
176
     1
 62
    18
420
        0
176
     1
 90
       50
176
     1
 90
        3
176
     1
 62
     5
420
      255
176
     1
290
     0
176
     1
 90
       50
176
     1
 90
       50
176
     1
 90
       50
176
     1
290
     0
176
     1
 90
       50
176
     1
 62
   256
176
     0
 40
1.0
176
     0
 90
        2
176
     1
  1
strokes_ogs.tif
176
     1
290
     0
176
     1
 40
1.0
176
     1
 40
1.0
176
     1
  0
VISUALSTYLE
  5
32
102
{ACAD_REACTORS
330
2A
102
}
330
2A
100
AcDbVisualStyle
  2
Basic
 70
     7
177
     3
291
     1
 70
    58
 90
        1
176
     1
 90
        0
176
     1
 90
        1
176
     1
 90
        0
176
     1
 40
0.6
176
     1
 40
30.0
176
     1
 62
     7
420
 16777215
176
     1
 90
        0
176
     1
 90
        4
176
     1
 62
     7
176
     1
 62
   257
176
     1
 90
        1
176
     1
 90
        1
176
     1
 40
1.0
176
     1
 90
        8
176
     1
 62
     7
176
     1
 40
1.0
176
     1
 90
        1
176
     1
 90
        6
176
     1
 90
        2
176
     1
 62
     7
176
     1
 90
        5
176
     1
 90
        0
176
     1
 90
        0
176
     1
290
     0
176
     1
 90
        1
176
     1
 40
0.0
176
     1
 90
        0
176
     1
290
     0
176
     1
290
     1
176
     1
290
     1
176
     1
290
     0
176
     1
290
     0
176
     1
290
     0
176
     1
290
     0
176
     1
290
     0
176
     1
290
     0
176
     1
 90
       50
176
     1
 40
0.0
176
     1
 40
1.0
176
     1
 90
        0
176
     1
 62
    18
420
        0
176
     1
 90
       50
176
     1
 90
        3
176
     1
 62
     5
420
      255
176
     1
290
     0
176
     1
 90
       50
176
     1
 90
       50
176
     1
 90
       50
176
     1
290
     0
176
     1
 90
       50
176
     1
 62
   256
176
     0
 40
1.0
176
     0
 90
        2
176
     1
  1
strokes_ogs.tif
176
     1
290
     0
176
     1
 40
1.0
176
     1
 40
1.0
176
     1
  0
VISUALSTYLE
  5
36
102
{ACAD_REACTORS
330
2A
102
}
330
2A
100
AcDbVisualStyle
  2
Brighten
 70
    12
177
     3
291
     1
 70
    58
 90
        2
176
     1
 90
        2
176
     1
 90
        0
176
     1
 90
        0
176
     1
 40
0.6
176
     1
 40
30.0
176
     1
 62
     7
420
 16777215
176
     1
 90
        1
176
     1
 90
        4
176
     1
 62
     7
176
     1
 62
   257
176
     1
 90
        1
176
     1
 90
        1
176
     1
 40
1.0
176
     1
 90
        8
176
     1
 62
     7
176
     1
 40
1.0
176
     1
 90
        1
176
     1
 90
        6
176
     1
 90
        2
176
     1
 62
     7
176
     1
 90
        5
176
     1
 90
        0
176
     1
 90
        0
176
     1
290
     0
176
     1
 90
        1
176
     1
 40
50.0
176
     1
 90
        0
176
     1
290
     0
176
     1
290
     1
176
     1
290
     1
176
     1
290
     0
176
     1
290
     0
176
     1
290
     0
176
     1
290
     0
176
     1
290
     0
176
     1
290
     0
176
     1
 90
       50
176
     1
 40
0.0
176
     1
 40
1.0
176
     1
 90
        0
176
     1
 62
    18
420
        0
176
     1
 90
       50
176
     1
 90
        3
176
     1
 62
     5
420
      255
176
     1
290
     0
176
     1
 90
       50
176
     1
 90
       50
176
     1
 90
       50
176
     1
290
     0
176
     1
 90
       50
176
     1
 62
   256
176
     0
 40
1.0
176
     0
 90
        2
176
     1
  1
strokes_ogs.tif
176
     1
290
     0
176
     1
 40
1.0
176
     1
 40
1.0
176
     1
  0
VISUALSTYLE
  5
3A
102
{ACAD_REACTORS
330
2A
102
}
330
2A
100
AcDbVisualStyle
  2
ColorChange
 70
    16
177
     3
291
     1
 70
    58
 90
        2
176
     1
 90
        2
176
     1
 90
        3
176
     1
 90
        0
176
     1
 40
0.6
176
     1
 40
30.0
176
     1
 62
     8
420
  8421504
176
     1
 90
        1
176
     1
 90
        4
176
     1
 62
     7
176
     1
 62
   257
176
     1
 90
        1
176
     1
 90
        1
176
     1
 40
1.0
176
     1
 90
        8
176
     1
 62
     8
420
  8421504
176
     1
 40
1.0
176
     1
 90
        1
176
     1
 90
        6
176
     1
 90
        2
176
     1
 62
     7
176
     1
 90
        5
176
     1
 90
        0
176
     1
 90
        0
176
     1
290
     0
176
     1
 90
        1
176
     1
 40
0.0
176
     1
 90
        0
176
     1
290
     0
176
     1
290
     1
176
     1
290
     1
176
     1
290
     0
176
     1
290
     0
176
     1
290
     0
176
     1
290
     0
176
     1
290
     0
176
     1
290
     0
176
     1
 90
       50
176
     1
 40
0.0
176
     1
 40
1.0
176
     1
 90
        0
176
     1
 62
    18
420
        0
176
     1
 90
       50
176
     1
 90
        3
176
     1
 62
     5
420
      255
176
     1
290
     0
176
     1
 90
       50
176
     1
 90
       50
176
     1
 90
       50
176
     1
290
     0
176
     1
 90
       50
176
     1
 62
   256
176
     0
 40
1.0
176
     0
 90
        2
176
     1
  1
strokes_ogs.tif
176
     1
290
     0
176
     1
 40
1.0
176
     1
 40
1.0
176
     1
  0
VISUALSTYLE
  5
34
102
{ACAD_REACTORS
330
2A
102
}
330
2A
100
AcDbVisualStyle
  2
Conceptual
 70
     9
177
     3
291
     0
 70
    58
 90
        3
176
     1
 90
        2
176
     1
 90
        0
176
     1
 90
        0
176
     1
 40
0.6
176
     1
 40
30.0
176
     1
 62
     7
420
 16777215
176
     1
 90
        2
176
     1
 90
        2
176
     1
 62
     7
176
     1
 62
   257
176
     1
 90
        1
176
     1
 90
        1
176
     1
 40
40.0
176
     1
 90
        8
176
     1
 62
     7
176
     1
 40
1.0
176
     1
 90
        1
176
     1
 90
        6
176
     1
 90
        2
176
     1
 62
     7
176
     1
 90
        3
176
     1
 90
        0
176
     1
 90
        0
176
     1
290
     0
176
     1
 90
        1
176
     1
 40
0.0
176
     1
 90
        0
176
     1
290
     0
176
     1
290
     1
176
     1
290
     1
176
     1
290
     0
176
     1
290
     0
176
     1
290
     0
176
     1
290
     0
176
     1
290
     0
176
     1
290
     0
176
     1
 90
       50
176
     1
 40
0.0
176
     1
 40
1.0
176
     1
 90
        0
176
     1
 62
    18
420
        0
176
     1
 90
       50
176
     1
 90
        3
176
     1
 62
     5
420
      255
176
     1
290
     0
176
     1
 90
       50
176
     1
 90
       50
176
     1
 90
       50
176
     1
290
     0
176
     1
 90
       50
176
     1
 62
   256
176
     0
 40
1.0
176
     0
 90
        2
176
     1
  1
strokes_ogs.tif
176
     1
290
     0
176
     1
 40
1.0
176
     1
 40
1.0
176
     1
  0
VISUALSTYLE
  5
35
102
{ACAD_REACTORS
330
2A
102
}
330
2A
100
AcDbVisualStyle
  2
Dim
 70
    11
177
     3
291
     1
 70
    58
 90
        2
176
     1
 90
        2
176
     1
 90
        0
176
     1
 90
        0
176
     1
 40
0.6
176
     1
 40
30.0
176
     1
 62
     7
420
 16777215
176
     1
 90
        1
176
     1
 90
        4
176
     1
 62
     7
176
     1
 62
   257
176
     1
 90
        1
176
     1
 90
        1
176
     1
 40
1.0
176
     1
 90
        8
176
     1
 62
     7
176
     1
 40
1.0
176
     1
 90
        1
176
     1
 90
        6
176
     1
 90
        2
176
     1
 62
     7
176
     1
 90
        5
176
     1
 90
        0
176
     1
 90
        0
176
     1
290
     0
176
     1
 90
        1
176
     1
 40
-50.0
176
     1
 90
        0
176
     1
290
     0
176
     1
290
     1
176
     1
290
     1
176
     1
290
     0
176
     1
290
     0
176
     1
290
     0
176
     1
290
     0
176
     1
290
     0
176
     1
290
     0
176
     1
 90
       50
176
     1
 40
0.0
176
     1
 40
1.0
176
     1
 90
        0
176
     1
 62
    18
420
        0
176
     1
 90
       50
176
     1
 90
        3
176
     1
 62
     5
420
      255
176
     1
290
     0
176
     1
 90
       50
176
     1
 90
       50
176
     1
 90
       50
176
     1
290
     0
176
     1
 90
       50
176
     1
 62
   256
176
     0
 40
1.0
176
     0
 90
        2
176
     1
  1
strokes_ogs.tif
176
     1
290
     0
176
     1
 40
1.0
176
     1
 40
1.0
176
     1
  0
VISUALSTYLE
  5
C8
102
{ACAD_REACTORS
330
2A
102
}
330
2A
100
AcDbVisualStyle
  2
EdgeColorOff
 70
    22
177
     3
291
     1
 70
    58
 90
        2
176
     0
 90
        2
176
     0
 90
        0
176
     0
 90
        0
176
     0
 40
0.6
176
     0
 40
30.0
176
     0
 62
     7
420
 16777215
176
     0
 90
        1
176
     0
 90
        4
176
     0
 62
     7
176
     0
 62
   257
176
     0
 90
        1
176
     0
 90
        1
176
     0
 40
1.0
176
     0
 90
        8
176
     2
 62
     7
176
     0
 40
1.0
176
     0
 90
        1
176
     0
 90
        6
176
     0
 90
        2
176
     0
 62
     7
176
     0
 90
        5
176
     0
 90
        0
176
     0
 90
        0
176
     0
290
     0
176
     0
 90
        1
176
     0
 40
0.0
176
     0
 90
        0
176
     0
290
     0
176
     1
290
     1
176
     1
290
     1
176
     1
290
     0
176
     1
290
     0
176
     1
290
     0
176
     1
290
     0
176
     1
290
     0
176
     1
290
     0
176
     1
 90
       50
176
     1
 40
0.0
176
     1
 40
1.0
176
     1
 90
        0
176
     1
 62
    18
420
        0
176
     1
 90
       50
176
     1
 90
        3
176
     1
 62
     5
420
      255
176
     1
290
     0
176
     1
 90
       50
176
     1
 90
       50
176
     1
 90
       50
176
     1
290
     0
176
     1
 90
       50
176
     1
 62
   256
176
     0
 40
1.0
176
     0
 90
        2
176
     1
  1
strokes_ogs.tif
176
     1
290
     0
176
     1
 40
1.0
176
     1
 40
1.0
176
     1
  0
VISUALSTYLE
  5
39
102
{ACAD_REACTORS
330
2A
102
}
330
2A
100
AcDbVisualStyle
  2
Facepattern
 70
    15
177
     3
291
     1
 70
    58
 90
        2
176
     1
 90
        2
176
     1
 90
        0
176
     1
 90
        0
176
     1
 40
0.6
176
     1
 40
30.0
176
     1
 62
     7
420
 16777215
176
     1
 90
        1
176
     1
 90
        4
176
     1
 62
     7
176
     1
 62
   257
176
     1
 90
        1
176
     1
 90
        1
176
     1
 40
1.0
176
     1
 90
        8
176
     1
 62
     7
176
     1
 40
1.0
176
     1
 90
        1
176
     1
 90
        6
176
     1
 90
        2
176
     1
 62
     7
176
     1
 90
        5
176
     1
 90
        0
176
     1
 90
        0
176
     1
290
     0
176
     1
 90
        1
176
     1
 40
0.0
176
     1
 90
        0
176
     1
290
     0
176
     1
290
     1
176
     1
290
     1
176
     1
290
     0
176
     1
290
     0
176
     1
290
     0
176
     1
290
     0
176
     1
290
     0
176
     1
290
     0
176
     1
 90
       50
176
     1
 40
0.0
176
     1
 40
1.0
176
     1
 90
        0
176
     1
 62
    18
420
        0
176
     1
 90
       50
176
     1
 90
        3
176
     1
 62
     5
420
      255
176
     1
290
     0
176
     1
 90
       50
176
     1
 90
       50
176
     1
 90
       50
176
     1
290
     0
176
     1
 90
       50
176
     1
 62
   256
176
     0
 40
1.0
176
     0
 90
        2
176
     1
  1
strokes_ogs.tif
176
     1
290
     0
176
     1
 40
1.0
176
     1
 40
1.0
176
     1
  0
VISUALSTYLE
  5
2B
102
{ACAD_REACTORS
330
2A
102
}
330
2A
100
AcDbVisualStyle
  2
Flat
 70
     0
177
     3
291
     1
 70
    58
 90
        2
176
     1
 90
        1
176
     1
 90
        1
176
     1
 90
        2
176
     1
 40
0.6
176
     1
 40
30.0
176
     1
 62
     7
420
 16777215
176
     1
 90
        0
176
     1
 90
        4
176
     1
 62
     7
176
     1
 62
   257
176
     1
 90
        1
176
     1
 90
        1
176
     1
 40
1.0
176
     1
 90
        8
176
     1
 62
     7
176
     1
 40
1.0
176
     1
 90
        1
176
     1
 90
        6
176
     1
 90
        2
176
     1
 62
     7
176
     1
 90
        5
176
     1
 90
        0
176
     1
 90
        0
176
     1
290
     0
176
     1
 90
       13
176
     1
 40
0.0
176
     1
 90
        0
176
     1
290
     0
176
     1
290
     1
176
     1
290
     1
176
     1
290
     0
176
     1
290
     0
176
     1
290
     0
176
     1
290
     0
176
     1
290
     0
176
     1
290
     0
176
     1
 90
       50
176
     1
 40
0.0
176
     1
 40
1.0
176
     1
 90
        0
176
     1
 62
    18
420
        0
176
     1
 90
       50
176
     1
 90
        3
176
     1
 62
     5
420
      255
176
     1
290
     0
176
     1
 90
       50
176
     1
 90
       50
176
     1
 90
       50
176
     1
290
     0
176
     1
 90
       50
176
     1
 62
   256
176
     0
 40
1.0
176
     0
 90
        2
176
     1
  1
strokes_ogs.tif
176
     1
290
     0
176
     1
 40
1.0
176
     1
 40
1.0
176
     1
  0
VISUALSTYLE
  5
2C
102
{ACAD_REACTORS
330
2A
102
}
330
2A
100
AcDbVisualStyle
  2
FlatWithEdges
 70
     1
177
     3
291
     1
 70
    58
 90
        2
176
     1
 90
        1
176
     1
 90
        1
176
     1
 90
        2
176
     1
 40
0.6
176
     1
 40
30.0
176
     1
 62
     7
420
 16777215
176
     1
 90
        1
176
     1
 90
        4
176
     1
 62
     7
176
     1
 62
   257
176
     1
 90
        1
176
     1
 90
        1
176
     1
 40
1.0
176
     1
 90
        0
176
     1
 62
   257
176
     1
 40
1.0
176
     1
 90
        1
176
     1
 90
        6
176
     1
 90
        2
176
     1
 62
     7
176
     1
 90
        5
176
     1
 90
        0
176
     1
 90
        0
176
     1
290
     0
176
     1
 90
       13
176
     1
 40
0.0
176
     1
 90
        0
176
     1
290
     0
176
     1
290
     1
176
     1
290
     1
176
     1
290
     0
176
     1
290
     0
176
     1
290
     0
176
     1
290
     0
176
     1
290
     0
176
     1
290
     0
176
     1
 90
       50
176
     1
 40
0.0
176
     1
 40
1.0
176
     1
 90
        0
176
     1
 62
    18
420
        0
176
     1
 90
       50
176
     1
 90
        3
176
     1
 62
     5
420
      255
176
     1
290
     0
176
     1
 90
       50
176
     1
 90
       50
176
     1
 90
       50
176
     1
290
     0
176
     1
 90
       50
176
     1
 62
   256
176
     0
 40
1.0
176
     0
 90
        2
176
     1
  1
strokes_ogs.tif
176
     1
290
     0
176
     1
 40
1.0
176
     1
 40
1.0
176
     1
  0
VISUALSTYLE
  5
2D
102
{ACAD_REACTORS
330
2A
102
}
330
2A
100
AcDbVisualStyle
  2
Gouraud
 70
     2
177
     3
291
     1
 70
    58
 90
        2
176
     1
 90
        2
176
     1
 90
        1
176
     1
 90
        2
176
     1
 40
0.6
176
     1
 40
30.0
176
     1
 62
     7
420
 16777215
176
     1
 90
        0
176
     1
 90
        4
176
     1
 62
     7
176
     1
 62
   257
176
     1
 90
        1
176
     1
 90
        1
176
     1
 40
1.0
176
     1
 90
        0
176
     1
 62
     7
176
     1
 40
1.0
176
     1
 90
        1
176
     1
 90
        6
176
     1
 90
        2
176
     1
 62
     7
176
     1
 90
        5
176
     1
 90
        0
176
     1
 90
        0
176
     1
290
     0
176
     1
 90
       13
176
     1
 40
0.0
176
     1
 90
        0
176
     1
290
     0
176
     1
290
     1
176
     1
290
     1
176
     1
290
     0
176
     1
290
     0
176
     1
290
     0
176
     1
290
     0
176
     1
290
     0
176
     1
290
     0
176
     1
 90
       50
176
     1
 40
0.0
176
     1
 40
1.0
176
     1
 90
        0
176
     1
 62
    18
420
        0
176
     1
 90
       50
176
     1
 90
        3
176
     1
 62
     5
420
      255
176
     1
290
     0
176
     1
 90
       50
176
     1
 90
       50
176
     1
 90
       50
176
     1
290
     0
176
     1
 90
       50
176
     1
 62
   256
176
     0
 40
1.0
176
     0
 90
        2
176
     1
  1
strokes_ogs.tif
176
     1
290
     0
176
     1
 40
1.0
176
     1
 40
1.0
176
     1
  0
VISUALSTYLE
  5
2E
102
{ACAD_REACTORS
330
2A
102
}
330
2A
100
AcDbVisualStyle
  2
GouraudWithEdges
 70
     3
177
     3
291
     1
 70
    58
 90
        2
176
     1
 90
        2
176
     1
 90
        1
176
     1
 90
        2
176
     1
 40
0.6
176
     1
 40
30.0
176
     1
 62
     7
420
 16777215
176
     1
 90
        1
176
     1
 90
        4
176
     1
 62
     7
176
     1
 62
   257
176
     1
 90
        1
176
     1
 90
        1
176
     1
 40
1.0
176
     1
 90
        0
176
     1
 62
   257
176
     1
 40
1.0
176
     1
 90
        1
176
     1
 90
        6
176
     1
 90
        2
176
     1
 62
     7
176
     1
 90
        5
176
     1
 90
        0
176
     1
 90
        0
176
     1
290
     0
176
     1
 90
       13
176
     1
 40
0.0
176
     1
 90
        0
176
     1
290
     0
176
     1
290
     1
176
     1
290
     1
176
     1
290
     0
176
     1
290
     0
176
     1
290
     0
176
     1
290
     0
176
     1
290
     0
176
     1
290
     0
176
     1
 90
       50
176
     1
 40
0.0
176
     1
 40
1.0
176
     1
 90
        0
176
     1
 62
    18
420
        0
176
     1
 90
       50
176
     1
 90
        3
176
     1
 62
     5
420
      255
176
     1
290
     0
176
     1
 90
       50
176
     1
 90
       50
176
     1
 90
       50
176
     1
290
     0
176
     1
 90
       50
176
     1
 62
   256
176
     0
 40
1.0
176
     0
 90
        2
176
     1
  1
strokes_ogs.tif
176
     1
290
     0
176
     1
 40
1.0
176
     1
 40
1.0
176
     1
  0
VISUALSTYLE
  5
153
102
{ACAD_REACTORS
330
2A
102
}
330
2A
100
AcDbVisualStyle
  2
Hidden
 70
     6
177
     3
291
     0
 70
    58
 90
        1
176
     1
 90
        2
176
     1
 90
        2
176
     1
 90
        0
176
     1
 40
0.6
176
     1
 40
30.0
176
     1
 62
     7
420
 16777215
176
     1
 90
        2
176
     1
 90
        2
176
     1
 62
     7
176
     1
 62
   257
176
     1
 90
        2
176
     1
 90
        1
176
     1
 40
40.0
176
     1
 90
        0
176
     1
 62
   257
176
     1
 40
1.0
176
     1
 90
        1
176
     1
 90
        6
176
     1
 90
        2
176
     1
 62
     7
176
     1
 90
        3
176
     1
 90
        0
176
     1
 90
        0
176
     1
290
     0
176
     1
 90
        1
176
     1
 40
0.0
176
     1
 90
        0
176
     1
290
     0
176
     1
290
     1
176
     1
290
     1
176
     1
290
     0
176
     1
290
     0
176
     1
290
     0
176
     1
290
     0
176
     1
290
     0
176
     1
290
     0
176
     1
 90
       50
176
     1
 40
0.0
176
     1
 40
1.0
176
     1
 90
        0
176
     1
 62
    18
420
        0
176
     1
 90
       50
176
     1
 90
        3
176
     1
 62
     5
420
      255
176
     1
290
     0
176
     1
 90
       50
176
     1
 90
       50
176
     1
 90
       50
176
     1
290
     0
176
     1
 90
       50
176
     1
 62
   256
176
     0
 40
1.0
176
     0
 90
        2
176
     1
  1
strokes_ogs.tif
176
     1
290
     0
176
     1
 40
1.0
176
     1
 40
1.0
176
     1
  0
VISUALSTYLE
  5
C6
102
{ACAD_REACTORS
330
2A
102
}
330
2A
100
AcDbVisualStyle
  2
JitterOff
 70
    20
177
     3
291
     1
 70
    58
 90
        2
176
     0
 90
        2
176
     0
 90
        0
176
     0
 90
        0
176
     0
 40
0.6
176
     0
 40
30.0
176
     0
 62
     7
420
 16777215
176
     0
 90
        1
176
     0
 90
        4
176
     0
 62
     7
176
     0
 62
   257
176
     0
 90
        1
176
     0
 90
        1
176
     0
 40
1.0
176
     0
 90
       10
176
     2
 62
     7
176
     0
 40
1.0
176
     0
 90
        1
176
     0
 90
        6
176
     0
 90
        2
176
     0
 62
     7
176
     0
 90
        5
176
     0
 90
        0
176
     0
 90
        0
176
     0
290
     0
176
     0
 90
        1
176
     0
 40
0.0
176
     0
 90
        0
176
     0
290
     0
176
     1
290
     1
176
     1
290
     1
176
     1
290
     0
176
     1
290
     0
176
     1
290
     0
176
     1
290
     0
176
     1
290
     0
176
     1
290
     0
176
     1
 90
       50
176
     1
 40
0.0
176
     1
 40
1.0
176
     1
 90
        0
176
     1
 62
    18
420
        0
176
     1
 90
       50
176
     1
 90
        3
176
     1
 62
     5
420
      255
176
     1
290
     0
176
     1
 90
       50
176
     1
 90
       50
176
     1
 90
       50
176
     1
290
     0
176
     1
 90
       50
176
     1
 62
   256
176
     0
 40
1.0
176
     0
 90
        2
176
     1
  1
strokes_ogs.tif
176
     1
290
     0
176
     1
 40
1.0
176
     1
 40
1.0
176
     1
  0
VISUALSTYLE
  5
38
102
{ACAD_REACTORS
330
2A
102
}
330
2A
100
AcDbVisualStyle
  2
Linepattern
 70
    14
177
     3
291
     1
 70
    58
 90
        2
176
     1
 90
        2
176
     1
 90
        0
176
     1
 90
        0
176
     1
 40
0.6
176
     1
 40
30.0
176
     1
 62
     7
420
 16777215
176
     1
 90
        1
176
     1
 90
        4
176
     1
 62
     7
176
     1
 62
   257
176
     1
 90
        7
176
     1
 90
        7
176
     1
 40
1.0
176
     1
 90
        8
176
     1
 62
     7
176
     1
 40
1.0
176
     1
 90
        1
176
     1
 90
        6
176
     1
 90
        2
176
     1
 62
     7
176
     1
 90
        5
176
     1
 90
        0
176
     1
 90
        0
176
     1
290
     0
176
     1
 90
        1
176
     1
 40
0.0
176
     1
 90
        0
176
     1
290
     0
176
     1
290
     1
176
     1
290
     1
176
     1
290
     0
176
     1
290
     0
176
     1
290
     0
176
     1
290
     0
176
     1
290
     0
176
     1
290
     0
176
     1
 90
       50
176
     1
 40
0.0
176
     1
 40
1.0
176
     1
 90
        0
176
     1
 62
    18
420
        0
176
     1
 90
       50
176
     1
 90
        3
176
     1
 62
     5
420
      255
176
     1
290
     0
176
     1
 90
       50
176
     1
 90
       50
176
     1
 90
       50
176
     1
290
     0
176
     1
 90
       50
176
     1
 62
   256
176
     0
 40
1.0
176
     0
 90
        2
176
     1
  1
strokes_ogs.tif
176
     1
290
     0
176
     1
 40
1.0
176
     1
 40
1.0
176
     1
  0
VISUALSTYLE
  5
C7
102
{ACAD_REACTORS
330
2A
102
}
330
2A
100
AcDbVisualStyle
  2
OverhangOff
 70
    21
177
     3
291
     1
 70
    58
 90
        2
176
     0
 90
        2
176
     0
 90
        0
176
     0
 90
        0
176
     0
 40
0.6
176
     0
 40
30.0
176
     0
 62
     7
420
 16777215
176
     0
 90
        1
176
     0
 90
        4
176
     0
 62
     7
176
     0
 62
   257
176
     0
 90
        1
176
     0
 90
        1
176
     0
 40
1.0
176
     0
 90
        9
176
     2
 62
     7
176
     0
 40
1.0
176
     0
 90
        1
176
     0
 90
        6
176
     0
 90
        2
176
     0
 62
     7
176
     0
 90
        5
176
     0
 90
        0
176
     0
 90
        0
176
     0
290
     0
176
     0
 90
        1
176
     0
 40
0.0
176
     0
 90
        0
176
     0
290
     0
176
     1
290
     1
176
     1
290
     1
176
     1
290
     0
176
     1
290
     0
176
     1
290
     0
176
     1
290
     0
176
     1
290
     0
176
     1
290
     0
176
     1
 90
       50
176
     1
 40
0.0
176
     1
 40
1.0
176
     1
 90
        0
176
     1
 62
    18
420
        0
176
     1
 90
       50
176
     1
 90
        3
176
     1
 62
     5
420
      255
176
     1
290
     0
176
     1
 90
       50
176
     1
 90
       50
176
     1
 90
       50
176
     1
290
     0
176
     1
 90
       50
176
     1
 62
   256
176
     0
 40
1.0
176
     0
 90
        2
176
     1
  1
strokes_ogs.tif
176
     1
290
     0
176
     1
 40
1.0
176
     1
 40
1.0
176
     1
  0
VISUALSTYLE
  5
33
102
{ACAD_REACTORS
330
2A
102
}
330
2A
100
AcDbVisualStyle
  2
Realistic
 70
     8
177
     3
291
     0
 70
    58
 90
        2
176
     1
 90
        2
176
     1
 90
        0
176
     1
 90
        0
176
     1
 40
0.6
176
     1
 40
30.0
176
     1
 62
     7
420
 16777215
176
     1
 90
        1
176
     1
 90
        0
176
     1
 62
     7
176
     1
 62
   257
176
     1
 90
        1
176
     1
 90
        1
176
     1
 40
1.0
176
     1
 90
        8
176
     1
 62
     8
420
  7895160
176
     1
 40
1.0
176
     1
 90
        1
176
     1
 90
        6
176
     1
 90
        2
176
     1
 62
     7
176
     1
 90
        5
176
     1
 90
        0
176
     1
 90
        0
176
     1
290
     0
176
     1
 90
       13
176
     1
 40
0.0
176
     1
 90
        0
176
     1
290
     0
176
     1
290
     1
176
     1
290
     1
176
     1
290
     0
176
     1
290
     0
176
     1
290
     0
176
     1
290
     0
176
     1
290
     0
176
     1
290
     0
176
     1
 90
       50
176
     1
 40
0.0
176
     1
 40
1.0
176
     1
 90
        0
176
     1
 62
    18
420
        0
176
     1
 90
       50
176
     1
 90
        3
176
     1
 62
     5
420
      255
176
     1
290
     0
176
     1
 90
       50
176
     1
 90
       50
176
     1
 90
       50
176
     1
290
     0
176
     1
 90
       50
176
     1
 62
   256
176
     0
 40
1.0
176
     0
 90
        2
176
     1
  1
strokes_ogs.tif
176
     1
290
     0
176
     1
 40
1.0
176
     1
 40
1.0
176
     1
  0
VISUALSTYLE
  5
158
102
{ACAD_REACTORS
330
2A
102
}
330
2A
100
AcDbVisualStyle
  2
Shaded
 70
    27
177
     3
291
     0
 70
    58
 90
        2
176
     1
 90
        2
176
     1
 90
        1
176
     1
 90
        2
176
     1
 40
0.6
176
     1
 40
30.0
176
     1
 62
     7
420
 16777215
176
     1
 90
        0
176
     1
 90
        4
176
     1
 62
     7
176
     1
 62
   257
176
     1
 90
        1
176
     1
 90
        1
176
     1
 40
1.0
176
     1
 90
        8
176
     1
 62
   257
176
     1
 40
1.0
176
     1
 90
        1
176
     1
 90
        6
176
     1
 90
        2
176
     1
 62
     8
420
  7895160
176
     1
 90
        3
176
     1
 90
        0
176
     1
 90
        0
176
     1
290
     0
176
     1
 90
        5
176
     1
 40
0.0
176
     1
 90
        0
176
     1
290
     0
176
     1
290
     1
176
     1
290
     1
176
     1
290
     0
176
     1
290
     0
176
     1
290
     0
176
     1
290
     0
176
     1
290
     0
176
     1
290
     0
176
     1
 90
       50
176
     1
 40
0.0
176
     1
 40
1.0
176
     1
 90
        0
176
     1
 62
    18
420
        0
176
     1
 90
       50
176
     1
 90
        3
176
     1
 62
     5
420
      255
176
     1
290
     0
176
     1
 90
       50
176
     1
 90
       50
176
     1
 90
       50
176
     1
290
     0
176
     1
 90
       50
176
     1
 62
   256
176
     0
 40
1.0
176
     0
 90
        2
176
     1
  1
strokes_ogs.tif
176
     1
290
     0
176
     1
 40
1.0
176
     1
 40
1.0
176
     1
  0
VISUALSTYLE
  5
157
102
{ACAD_REACTORS
330
2A
102
}
330
2A
100
AcDbVisualStyle
  2
Shaded with edges
 70
    26
177
     3
291
     0
 70
    58
 90
        2
176
     1
 90
        2
176
     1
 90
        1
176
     1
 90
        2
176
     1
 40
0.6
176
     1
 40
30.0
176
     1
 62
     7
420
 16777215
176
     1
 90
        1
176
     1
 90
        2
176
     1
 62
     7
176
     1
 62
   257
176
     1
 90
        2
176
     1
 90
        1
176
     1
 40
1.0
176
     1
 90
        8
176
     1
 62
   257
176
     1
 40
1.0
176
     1
 90
        1
176
     1
 90
        6
176
     1
 90
        2
176
     1
 62
     7
176
     1
 90
        3
176
     1
 90
        0
176
     1
 90
        0
176
     1
290
     0
176
     1
 90
        5
176
     1
 40
0.0
176
     1
 90
        0
176
     1
290
     0
176
     1
290
     1
176
     1
290
     1
176
     1
290
     0
176
     1
290
     0
176
     1
290
     0
176
     1
290
     0
176
     1
290
     0
176
     1
290
     0
176
     1
 90
       50
176
     1
 40
0.0
176
     1
 40
1.0
176
     1
 90
        0
176
     1
 62
    18
420
        0
176
     1
 90
       50
176
     1
 90
        3
176
     1
 62
     5
420
      255
176
     1
290
     0
176
     1
 90
       50
176
     1
 90
       50
176
     1
 90
       50
176
     1
290
     0
176
     1
 90
       50
176
     1
 62
   256
176
     0
 40
1.0
176
     0
 90
        2
176
     1
  1
strokes_ogs.tif
176
     1
290
     0
176
     1
 40
1.0
176
     1
 40
1.0
176
     1
  0
VISUALSTYLE
  5
154
102
{ACAD_REACTORS
330
2A
102
}
330
2A
100
AcDbVisualStyle
  2
Shades of Gray
 70
    23
177
     3
291
     0
 70
    58
 90
        2
176
     1
 90
        2
176
     1
 90
        3
176
     1
 90
        0
176
     1
 40
0.6
176
     1
 40
30.0
176
     1
 62
     7
420
 16777215
176
     1
 90
        2
176
     1
 90
        2
176
     1
 62
     7
176
     1
 62
     7
176
     1
 90
        1
176
     1
 90
        1
176
     1
 40
40.0
176
     1
 90
        8
176
     1
 62
     7
176
     1
 40
1.0
176
     1
 90
        1
176
     1
 90
        6
176
     1
 90
        2
176
     1
 62
     7
176
     1
 90
        3
176
     1
 90
        0
176
     1
 90
        0
176
     1
290
     0
176
     1
 90
        1
176
     1
 40
0.0
176
     1
 90
        0
176
     1
290
     0
176
     1
290
     1
176
     1
290
     1
176
     1
290
     0
176
     1
290
     0
176
     1
290
     0
176
     1
290
     0
176
     1
290
     0
176
     1
290
     0
176
     1
 90
       50
176
     1
 40
0.0
176
     1
 40
1.0
176
     1
 90
        0
176
     1
 62
    18
420
        0
176
     1
 90
       50
176
     1
 90
        3
176
     1
 62
     5
420
      255
176
     1
290
     0
176
     1
 90
       50
176
     1
 90
       50
176
     1
 90
       50
176
     1
290
     0
176
     1
 90
       50
176
     1
 62
   256
176
     0
 40
1.0
176
     0
 90
        2
176
     1
  1
strokes_ogs.tif
176
     1
290
     0
176
     1
 40
1.0
176
     1
 40
1.0
176
     1
  0
VISUALSTYLE
  5
155
102
{ACAD_REACTORS
330
2A
102
}
330
2A
100
AcDbVisualStyle
  2
Sketchy
 70
    24
177
     3
291
     0
 70
    58
 90
        1
176
     1
 90
        2
176
     1
 90
        2
176
     1
 90
        0
176
     1
 40
0.6
176
     1
 40
30.0
176
     1
 62
     7
420
 16777215
176
     1
 90
        2
176
     1
 90
        2
176
     1
 62
     7
176
     1
 62
     7
176
     1
 90
        1
176
     1
 90
        1
176
     1
 40
40.0
176
     1
 90
       11
176
     1
 62
     7
176
     1
 40
1.0
176
     1
 90
        1
176
     1
 90
        6
176
     1
 90
        2
176
     1
 62
     7
176
     1
 90
        6
176
     1
 90
        0
176
     1
 90
        0
176
     1
290
     0
176
     1
 90
        1
176
     1
 40
0.0
176
     1
 90
        0
176
     1
290
     0
176
     1
290
     1
176
     1
290
     1
176
     1
290
     0
176
     1
290
     0
176
     1
290
     0
176
     1
290
     0
176
     1
290
     0
176
     1
290
     0
176
     1
 90
       50
176
     1
 40
0.0
176
     1
 40
1.0
176
     1
 90
        0
176
     1
 62
    18
420
        0
176
     1
 90
       50
176
     1
 90
        3
176
     1
 62
     5
420
      255
176
     1
290
     0
176
     1
 90
       50
176
     1
 90
       50
176
     1
 90
       50
176
     1
290
     0
176
     1
 90
       50
176
     1
 62
   256
176
     0
 40
1.0
176
     0
 90
        2
176
     1
  1
strokes_ogs.tif
176
     1
290
     0
176
     1
 40
1.0
176
     1
 40
1.0
176
     1
  0
VISUALSTYLE
  5
37
102
{ACAD_REACTORS
330
2A
102
}
330
2A
100
AcDbVisualStyle
  2
Thicken
 70
    13
177
     3
291
     1
 70
    58
 90
        2
176
     1
 90
        2
176
     1
 90
        0
176
     1
 90
        0
176
     1
 40
0.6
176
     1
 40
30.0
176
     1
 62
     7
420
 16777215
176
     1
 90
        1
176
     1
 90
        4
176
     1
 62
     7
176
     1
 62
   257
176
     1
 90
        1
176
     1
 90
        1
176
     1
 40
1.0
176
     1
 90
       12
176
     1
 62
     7
176
     1
 40
1.0
176
     1
 90
        1
176
     1
 90
        6
176
     1
 90
        2
176
     1
 62
     7
176
     1
 90
        5
176
     1
 90
        0
176
     1
 90
        0
176
     1
290
     0
176
     1
 90
        1
176
     1
 40
0.0
176
     1
 90
        0
176
     1
290
     0
176
     1
290
     1
176
     1
290
     1
176
     1
290
     0
176
     1
290
     0
176
     1
290
     0
176
     1
290
     0
176
     1
290
     0
176
     1
290
     0
176
     1
 90
       50
176
     1
 40
0.0
176
     1
 40
1.0
176
     1
 90
        0
176
     1
 62
    18
420
        0
176
     1
 90
       50
176
     1
 90
        3
176
     1
 62
     5
420
      255
176
     1
290
     0
176
     1
 90
       50
176
     1
 90
       50
176
     1
 90
       50
176
     1
290
     0
176
     1
 90
       50
176
     1
 62
   256
176
     0
 40
1.0
176
     0
 90
        2
176
     1
  1
strokes_ogs.tif
176
     1
290
     0
176
     1
 40
1.0
176
     1
 40
1.0
176
     1
  0
VISUALSTYLE
  5
152
102
{ACAD_REACTORS
330
2A
102
}
330
2A
100
AcDbVisualStyle
  2
Wireframe
 70
     5
177
     3
291
     0
 70
    58
 90
        0
176
     1
 90
        2
176
     1
 90
        0
176
     1
 90
        0
176
     1
 40
0.6
176
     1
 40
30.0
176
     1
 62
     7
420
 16777215
176
     1
 90
        1
176
     1
 90
        4
176
     1
 62
     7
176
     1
 62
   257
176
     1
 90
        1
176
     1
 90
        1
176
     1
 40
1.0
176
     1
 90
        0
176
     1
 62
   257
176
     1
 40
1.0
176
     1
 90
        1
176
     1
 90
        6
176
     1
 90
        2
176
     1
 62
     7
176
     1
 90
        3
176
     1
 90
        0
176
     1
 90
        0
176
     1
290
     0
176
     1
 90
        1
176
     1
 40
0.0
176
     1
 90
        0
176
     1
290
     0
176
     1
290
     1
176
     1
290
     1
176
     1
290
     0
176
     1
290
     0
176
     1
290
     0
176
     1
290
     0
176
     1
290
     0
176
     1
290
     0
176
     1
 90
       50
176
     1
 40
0.0
176
     1
 40
1.0
176
     1
 90
        0
176
     1
 62
    18
420
        0
176
     1
 90
       50
176
     1
 90
        3
176
     1
 62
     5
420
      255
176
     1
290
     0
176
     1
 90
       50
176
     1
 90
       50
176
     1
 90
       50
176
     1
290
     0
176
     1
 90
       50
176
     1
 62
   256
176
     0
 40
1.0
176
     0
 90
        2
176
     1
  1
strokes_ogs.tif
176
     1
290
     0
176
     1
 40
1.0
176
     1
 40
1.0
176
     1
  0
VISUALSTYLE
  5
156
102
{ACAD_REACTORS
330
2A
102
}
330
2A
100
AcDbVisualStyle
  2
X-Ray
 70
    25
177
     3
291
     0
 70
    58
 90
        2
176
     1
 90
        2
176
     1
 90
        1
176
     1
 90
        1
176
     1
 40
0.5
176
     1
 40
30.0
176
     1
 62
     7
420
 16777215
176
     1
 90
        1
176
     1
 90
        0
176
     1
 62
     7
176
     1
 62
   257
176
     1
 90
        1
176
     1
 90
        1
176
     1
 40
1.0
176
     1
 90
        8
176
     1
 62
     7
176
     1
 40
1.0
176
     1
 90
        1
176
     1
 90
        6
176
     1
 90
        2
176
     1
 62
     7
176
     1
 90
        3
176
     1
 90
        0
176
     1
 90
        0
176
     1
290
     0
176
     1
 90
       13
176
     1
 40
0.0
176
     1
 90
        0
176
     1
290
     0
176
     1
290
     1
176
     1
290
     1
176
     1
290
     0
176
     1
290
     0
176
     1
290
     0
176
     1
290
     0
176
     1
290
     0
176
     1
290
     0
176
     1
 90
       50
176
     1
 40
0.0
176
     1
 40
1.0
176
     1
 90
        0
176
     1
 62
    18
420
        0
176
     1
 90
       50
176
     1
 90
        3
176
     1
 62
     5
420
      255
176
     1
290
     0
176
     1
 90
       50
176
     1
 90
       50
176
     1
 90
       50
176
     1
290
     0
176
     1
 90
       50
176
     1
 62
   256
176
     0
 40
1.0
176
     0
 90
        2
176
     1
  1
strokes_ogs.tif
176
     1
290
     0
176
     1
 40
1.0
176
     1
 40
1.0
176
     1
  0
DICTIONARYVAR
  5
105
102
{ACAD_REACTORS
330
101
102
}
330
101
100
DictionaryVariables
280
     0
  1
1:1
  0
DICTIONARYVAR
  5
103
102
{ACAD_REACTORS
330
101
102
}
330
101
100
DictionaryVariables
280
     0
  1
STANDARD
  0
DICTIONARYVAR
  5
102
102
{ACAD_REACTORS
330
101
102
}
330
101
100
DictionaryVariables
280
     0
  1
STANDARD
  0
DICTIONARYVAR
  5
1B0
102
{ACAD_REACTORS
330
101
102
}
330
101
100
DictionaryVariables
280
     0
  1
Imperial24
  0
DICTIONARYVAR
  5
1B1
102
{ACAD_REACTORS
330
101
102
}
330
101
100
DictionaryVariables
280
     0
  1
Imperial24
  0
DICTIONARYVAR
  5
107
102
{ACAD_REACTORS
330
101
102
}
330
101
100
DictionaryVariables
280
     0
  1
1
  0
DICTIONARYVAR
  5
108
102
{ACAD_REACTORS
330
101
102
}
330
101
100
DictionaryVariables
280
     0
  1
15
  0
DICTIONARYVAR
  5
106
102
{ACAD_REACTORS
330
101
102
}
330
101
100
DictionaryVariables
280
     0
  1
0
  0
DICTIONARYVAR
  5
104
102
{ACAD_REACTORS
330
101
102
}
330
101
100
DictionaryVariables
280
     0
  1
0
  0
DICTIONARY
  5
FF
330
22
100
AcDbDictionary
280
     1
281
     1
  0
DICTIONARY
  5
B7
330
B6
100
AcDbDictionary
280
     1
281
     1
  3
BUMPTILE
360
B9
  3
DIFFUSETILE
360
B8
  3
OPACITYTILE
360
BC
  3
REFLECTIONTILE
360
BB
  3
REFRACTIONTILE
360
BD
  3
SPECULARTILE
360
BA
  0
DICTIONARY
  5
AF
330
AE
100
AcDbDictionary
280
     1
281
     1
  3
BUMPTILE
360
B1
  3
DIFFUSETILE
360
B0
  3
OPACITYTILE
360
B4
  3
REFLECTIONTILE
360
B3
  3
REFRACTIONTILE
360
B5
  3
SPECULARTILE
360
B2
  0
DICTIONARY
  5
BF
330
BE
100
AcDbDictionary
280
     1
281
     1
  3
BUMPTILE
360
C1
  3
DIFFUSETILE
360
C0
  3
OPACITYTILE
360
C4
  3
REFLECTIONTILE
360
C3
  3
REFRACTIONTILE
360
C5
  3
SPECULARTILE
360
C2
  0
DICTIONARY
  5
337
330
CA
100
AcDbDictionary
280
     1
281
     1
  3
ACAD_ROUNDTRIP_2008_TABLESTYLE_CELLSTYLEMAP
360
338
  0
XRECORD
  5
B9
102
{ACAD_REACTORS
330
B7
102
}
330
B7
100
AcDbXrecord
280
     1
270
     1
271
     1
  0
XRECORD
  5
B8
102
{ACAD_REACTORS
330
B7
102
}
330
B7
100
AcDbXrecord
280
     1
270
     1
271
     1
  0
XRECORD
  5
BC
102
{ACAD_REACTORS
330
B7
102
}
330
B7
100
AcDbXrecord
280
     1
270
     1
271
     1
  0
XRECORD
  5
BB
102
{ACAD_REACTORS
330
B7
102
}
330
B7
100
AcDbXrecord
280
     1
270
     1
271
     1
  0
XRECORD
  5
BD
102
{ACAD_REACTORS
330
B7
102
}
330
B7
100
AcDbXrecord
280
     1
270
     1
271
     1
  0
XRECORD
  5
BA
102
{ACAD_REACTORS
330
B7
102
}
330
B7
100
AcDbXrecord
280
     1
270
     1
271
     1
  0
XRECORD
  5
B1
102
{ACAD_REACTORS
330
AF
102
}
330
AF
100
AcDbXrecord
280
     1
270
     1
271
     1
  0
XRECORD
  5
B0
102
{ACAD_REACTORS
330
AF
102
}
330
AF
100
AcDbXrecord
280
     1
270
     1
271
     1
  0
XRECORD
  5
B4
102
{ACAD_REACTORS
330
AF
102
}
330
AF
100
AcDbXrecord
280
     1
270
     1
271
     1
  0
XRECORD
  5
B3
102
{ACAD_REACTORS
330
AF
102
}
330
AF
100
AcDbXrecord
280
     1
270
     1
271
     1
  0
XRECORD
  5
B5
102
{ACAD_REACTORS
330
AF
102
}
330
AF
100
AcDbXrecord
280
     1
270
     1
271
     1
  0
XRECORD
  5
B2
102
{ACAD_REACTORS
330
AF
102
}
330
AF
100
AcDbXrecord
280
     1
270
     1
271
     1
  0
XRECORD
  5
C1
102
{ACAD_REACTORS
330
BF
102
}
330
BF
100
AcDbXrecord
280
     1
270
     1
271
     1
  0
XRECORD
  5
C0
102
{ACAD_REACTORS
330
BF
102
}
330
BF
100
AcDbXrecord
280
     1
270
     1
271
     1
  0
XRECORD
  5
C4
102
{ACAD_REACTORS
330
BF
102
}
330
BF
100
AcDbXrecord
280
     1
270
     1
271
     1
  0
XRECORD
  5
C3
102
{ACAD_REACTORS
330
BF
102
}
330
BF
100
AcDbXrecord
280
     1
270
     1
271
     1
  0
XRECORD
  5
C5
102
{ACAD_REACTORS
330
BF
102
}
330
BF
100
AcDbXrecord
280
     1
270
     1
271
     1
  0
XRECORD
  5
C2
102
{ACAD_REACTORS
330
BF
102
}
330
BF
100
AcDbXrecord
280
     1
270
     1
271
     1
  0
CELLSTYLEMAP
  5
338
102
{ACAD_REACTORS
330
337
102
}
330
337
100
AcDbCellStyleMap
 90
        3
300
CELLSTYLE
  1
TABLEFORMAT_BEGIN
 90
        5
170
     1
 91
        0
 92
    32768
 62
   257
 93
        1
300
CONTENTFORMAT
  1
CONTENTFORMAT_BEGIN
 90
        0
 91
        0
 92
      512
 93
        0
300

 40
0.0
140
1.0
 94
        5
 62
     0
340
11
144
0.25
309
CONTENTFORMAT_END
171
     0
 94
        0
309
TABLEFORMAT_END
  1
CELLSTYLE_BEGIN
 90
        1
 91
        1
300
_TITLE
309
CELLSTYLE_END
300
CELLSTYLE
  1
TABLEFORMAT_BEGIN
 90
        5
170
     1
 91
        0
 92
        0
 62
   257
 93
        1
300
CONTENTFORMAT
  1
CONTENTFORMAT_BEGIN
 90
        0
 91
        0
 92
      512
 93
        0
300

 40
0.0
140
1.0
 94
        5
 62
     0
340
11
144
0.18
309
CONTENTFORMAT_END
171
     0
 94
        0
309
TABLEFORMAT_END
  1
CELLSTYLE_BEGIN
 90
        2
 91
        1
300
_HEADER
309
CELLSTYLE_END
300
CELLSTYLE
  1
TABLEFORMAT_BEGIN
 90
        5
170
     1
 91
        0
 92
        0
 62
   257
 93
        1
300
CONTENTFORMAT
  1
CONTENTFORMAT_BEGIN
 90
        0
 91
        0
 92
      512
 93
        0
300

 40
0.0
140
1.0
 94
        2
 62
     0
340
11
144
0.18
309
CONTENTFORMAT_END
171
     0
 94
        0
309
TABLEFORMAT_END
  1
CELLSTYLE_BEGIN
 90
        3
 91
        2
300
_DATA
309
CELLSTYLE_END
  0
ENDSEC
  0
SECTION
  2
ACDSDATA
 70
     2
 71
     8
  0
ACDSSCHEMA
 90
        0
  1
AcDb_Thumbnail_Schema
  2
AcDbDs::ID
280
    10
 91
        8
  2
Thumbnail_Data
280
    15
 91
        0
101
ACDSRECORD
 95
        0
 90
        1
  2
AcDbDs::TreatedAsObjectData
280
     1
291
     1
101
ACDSRECORD
 95
        0
 90
        2
  2
AcDbDs::Legacy
280
     1
291
     1
101
ACDSRECORD
  1
AcDbDs::ID
 90
        3
  2
AcDs:Indexable
280
     1
291
     1
101
ACDSRECORD
  1
AcDbDs::ID
 90
        4
  2
AcDbDs::HandleAttribute
280
     7
282
     1
  0
ACDSSCHEMA
 90
        1
  1
AcDbDs::TreatedAsObjectDataSchema
  2
AcDbDs::TreatedAsObjectData
280
     1
 91
        0
  0
ACDSSCHEMA
 90
        2
  1
AcDbDs::LegacySchema
  2
AcDbDs::Legacy
280
     1
 91
        0
  0
ACDSSCHEMA
 90
        3
  1
AcDbDs::IndexedPropertySchema
  2
AcDs:Indexable
280
     1
 91
        0
  0
ACDSSCHEMA
 90
        4
  1
AcDbDs::HandleAttributeSchema
  2
AcDbDs::HandleAttribute
280
     7
 91
        1
284
     1
  0
ACDSRECORD
 90
        0
  2
AcDbDs::ID
280
    10
320
22
  2
Thumbnail_Data
280
    15
 94
     1082
310
89504E470D0A1A0A0000000D49484452000001000000006F08030000003479EE6F00000300504C5445212830FFFFFF2128300000000000000000000000000000000000000000000000000000330000660000990000CC0000FF0033000033330033660033990033CC0033FF0066000066330066660066990066CC0066FF0099
310
000099330099660099990099CC0099FF00CC0000CC3300CC6600CC9900CCCC00CCFF00FF0000FF3300FF6600FF9900FFCC00FFFF3300003300333300663300993300CC3300FF3333003333333333663333993333CC3333FF3366003366333366663366993366CC3366FF3399003399333399663399993399CC3399FF33CC00
310
33CC3333CC6633CC9933CCCC33CCFF33FF0033FF3333FF6633FF9933FFCC33FFFF6600006600336600666600996600CC6600FF6633006633336633666633996633CC6633FF6666006666336666666666996666CC6666FF6699006699336699666699996699CC6699FF66CC0066CC3366CC6666CC9966CCCC66CCFF66FF0066
310
FF3366FF6666FF9966FFCC66FFFF9900009900339900669900999900CC9900FF9933009933339933669933999933CC9933FF9966009966339966669966999966CC9966FF9999009999339999669999999999CC9999FF99CC0099CC3399CC6699CC9999CCCC99CCFF99FF0099FF3399FF6699FF9999FFCC99FFFFCC0000CC00
310
33CC0066CC0099CC00CCCC00FFCC3300CC3333CC3366CC3399CC33CCCC33FFCC6600CC6633CC6666CC6699CC66CCCC66FFCC9900CC9933CC9966CC9999CC99CCCC99FFCCCC00CCCC33CCCC66CCCC99CCCCCCCCCCFFCCFF00CCFF33CCFF66CCFF99CCFFCCCCFFFFFF0000FF0033FF0066FF0099FF00CCFF00FFFF3300FF3333
310
FF3366FF3399FF33CCFF33FFFF6600FF6633FF6666FF6699FF66CCFF66FFFF9900FF9933FF9966FF9999FF99CCFF99FFFFCC00FFCC33FFCC66FFCC99FFCCCCFFCCFFFFFF00FFFF33FFFF66FFFF99FFFFCCFFFFFF0000000D0D0D1A1A1A2828283535354343435050505D5D5D6B6B6B787878868686939393A1A1A1AEAEAEBB
310
BBBBC9C9C9D6D6D6E4E4E4F1F1F1FFFFFF0000000000000000000000000000000000000000000000000000000000002E4550F1000000CC4944415478DAEDD8310EC2300C05D0DCFFBEDEA108185A47828885FCF7C6480CFE75DD9831000000E017EA20000140F02B20000190FE197C138000C8EE805572E4DF5F01012CFE5A
310
F3E4744FCDD6880A7ADAE7B37BF1291D7094D90550311DF02AF71CC0863DD04EB63E801AD7BED864DA35EDDE9CED3904AB1F78B3338B40CEADE7C34320693204D53AFB620607B0E94D707E3D6A1684984FE1A3FEFE7A1C12C0F379B7DB60C83A7CAD34690674DBE09EFF067CB50B0CCBA06DB0040000000000000000000000
310
0000004B6EC3E53FB6EDEA53490000000049454E44AE42608282F07DDC7977791810000000000000000000C7390128E12FFC42D2CC750000000049454E44AE426082
  0
ENDSEC
  0
EOF
